999
DXF file: E:\BT Custom\CADOUTPUT\_FRONT.dxf
999
Pro/ENGINEER 2018400 by Parametric Technology Corporation
  0
SECTION
  2
HEADER
  9
$ACADVER
  1
AC1018
  9
$DWGCODEPAGE
  3
ANSI_1252
  9
$EXTMAX
 10
22.0
 20
17.0
 30
0.0
  9
$EXTMIN
 10
0.0
 20
0.0
 30
0.0
  9
$LIMMIN
 10
0.0
 20
0.0
  9
$LIMMAX
 10
22.0
 20
17.0
  9
$VIEWCTR
 10
11.0
 20
8.5
  9
$VIEWSIZE
 40
17.0
  9
$CLAYER
  8
0
  9
$LTSCALE
 40
1.21
  9
$CELTYPE
  6
BYLAYER
  9
$DIMSCALE
 40
1.0
  9
$DIMASZ
 40
0.1
  9
$DIMEXO
 40
0.0625
  9
$DIMDLI
 40
0.836
  9
$DIMEXE
 40
0.125
  9
$DIMCEN
 40
0.198
  9
$DIMLFAC
 40
1.0
  9
$DIMBLK
  1
_FILLED
  9
$DIMALT
 70
1
  9
$DIMALTD
 70
2
  9
$DIMALTTD
 70
2
  9
$DIMALTF
 40
25.4
  9
$DIMTXT
 40
0.08
  9
$DIMTOL
 70
1
  9
$DIMLIM
 70
0
  9
$DIMTFAC
 40
1.0
  9
$DIMTP
 40
0.001
  9
$DIMTM
 40
0.001
  9
$DIMGAP
 40
0.09
  9
$DIMDSEP
 70
46
  9
$AUNITS
 70
0
  9
$PDMODE
 70
3
  9
$PDSIZE
 40
0.06
  9
$HANDSEED
  5
466
  9
$TILEMODE
 70
1
  9
$MEASUREMENT
 70
0
  9
$INSUNITS
 70
1
  0
ENDSEC
  0
SECTION
  2
CLASSES
  0
CLASS
  1
ACDBDICTIONARYWDFLT
  2
AcDbDictionaryWithDefault
  3
AutoCAD 2000
 90
0
 91
1
280
0
281
0
  0
CLASS
  1
ACDBPLACEHOLDER
  2
AcDbPlaceHolder
  3
AutoCAD 2000
 90
0
 91
1
280
0
281
0
  0
CLASS
  1
LAYOUT
  2
AcDbLayout
  3
AutoCAD 2000
 90
0
 91
0
280
0
281
0
  0
ENDSEC
  0
SECTION
  2
TABLES
  0
TABLE
  2
VPORT
  5
8
100
AcDbSymbolTable
 70
2
  0
VPORT
  5
1F4
100
AcDbSymbolTableRecord
100
AcDbViewportTableRecord
  2
*ACTIVE
 70
0
 10
0.0
 20
0.0
 11
1.0
 21
1.0
 12
11.0
 22
8.5
 13
0.0
 23
0.0
 14
1.0
 24
1.0
 15
0.0
 25
0.0
 16
0.0
 26
0.0
 36
1.0
 17
0.0
 27
0.0
 37
0.0
 40
17.0
 41
1.2941176471
 42
50.0
 43
0.0
 44
0.0
 50
0.0
 51
0.0
 71
0
 72
100
 73
1
 74
1
 75
0
 76
0
 77
0
 78
0
  0
ENDTAB
  0
TABLE
  2
LTYPE
  5
5
100
AcDbSymbolTable
 70
6
  0
LTYPE
  5
14
100
AcDbSymbolTableRecord
100
AcDbLinetypeTableRecord
  2
BYBLOCK
 70
0
  3

 72
65
 73
0
 40
0.0
  0
LTYPE
  5
15
100
AcDbSymbolTableRecord
100
AcDbLinetypeTableRecord
  2
BYLAYER
 70
0
  3

 72
65
 73
0
 40
0.0
  0
LTYPE
  5
16
100
AcDbSymbolTableRecord
100
AcDbLinetypeTableRecord
  2
CONTINUOUS
 70
64
  3
Solid line
 72
65
 73
0
 40
0.0
  0
LTYPE
  5
1F5
100
AcDbSymbolTableRecord
100
AcDbLinetypeTableRecord
  2
CENTER
 70
64
  3
____ _ ____ _ ____ _ ____ _ ____ _ ____ _ ____
 72
65
 73
4
 40
0.6
 49
0.375
 74
0
 49
-0.075
 74
0
 49
0.075
 74
0
 49
-0.075
 74
0
  0
LTYPE
  5
1F6
100
AcDbSymbolTableRecord
100
AcDbLinetypeTableRecord
  2
HIDDEN
 70
64
  3
- - - - - - - - - - - - - - - - - - - -
 72
65
 73
2
 40
0.2
 49
0.1
 74
0
 49
-0.1
 74
0
  0
LTYPE
  5
1F7
100
AcDbSymbolTableRecord
100
AcDbLinetypeTableRecord
  2
PHANTOM
 70
64
  3
_____ _ _ _____ _ _ _____ _ _ _____
 72
65
 73
6
 40
0.8
 49
0.45
 74
0
 49
-0.05
 74
0
 49
0.1
 74
0
 49
-0.05
 74
0
 49
0.1
 74
0
 49
-0.05
 74
0
  0
LTYPE
  5
1F8
100
AcDbSymbolTableRecord
100
AcDbLinetypeTableRecord
  2
DOT
 70
64
  3
. . . . . . . . . . . . . . . . . . . .
 72
65
 73
2
 40
0.2
 49
0.1
 74
0
 49
-0.1
 74
0
  0
LTYPE
  5
1F9
100
AcDbSymbolTableRecord
100
AcDbLinetypeTableRecord
  2
DASHED
 70
64
  3
- - - - - - - - - - - - - - - - - - - -
 72
65
 73
2
 40
0.2
 49
0.1
 74
0
 49
-0.1
 74
0
  0
ENDTAB
  0
TABLE
  2
LAYER
  5
2
100
AcDbSymbolTable
 70
36
  0
LAYER
  5
10
100
AcDbSymbolTableRecord
100
AcDbLayerTableRecord
  2
0
 70
0
 62
7
  6
CONTINUOUS
370
-3
390
F
  0
LAYER
  5
1FA
100
AcDbSymbolTableRecord
100
AcDbLayerTableRecord
  2
DEFAULT_1
 70
0
 62
7
  6
CENTER
370
-3
390
F
  0
LAYER
  5
1FB
100
AcDbSymbolTableRecord
100
AcDbLayerTableRecord
  2
DEFAULT_2
 70
0
 62
8
  6
HIDDEN
370
-3
390
F
  0
LAYER
  5
1FC
100
AcDbSymbolTableRecord
100
AcDbLayerTableRecord
  2
DEFAULT_3
 70
0
 62
7
  6
PHANTOM
370
-3
390
F
  0
LAYER
  5
1FD
100
AcDbSymbolTableRecord
100
AcDbLayerTableRecord
  2
ALL_FEATURES
 70
0
 62
7
  6
CONTINUOUS
370
-3
390
F
  0
LAYER
  5
1FE
100
AcDbSymbolTableRecord
100
AcDbLayerTableRecord
  2
AXES_FEATURES
 70
0
 62
7
  6
CONTINUOUS
370
-3
390
F
  0
LAYER
  5
1FF
100
AcDbSymbolTableRecord
100
AcDbLayerTableRecord
  2
DIMENSIONS
 70
0
 62
7
  6
CONTINUOUS
370
-3
390
F
  0
ENDTAB
  0
TABLE
  2
STYLE
  5
3
100
AcDbSymbolTable
 70
1
  0
STYLE
  5
11
100
AcDbSymbolTableRecord
100
AcDbTextStyleTableRecord
  2
STANDARD
 70
0
 40
0.0
 41
0.8
 50
0.0
 71
0
 42
0.2
  3
txt
  4

  0
STYLE
  5
200
100
AcDbSymbolTableRecord
100
AcDbTextStyleTableRecord
  2
TEXTSTYLE_1
 70
0
 40
0.0
 41
0.8
 50
0.0
 71
0
 42
0.2
  3
gdt
  4

  0
ENDTAB
  0
TABLE
  2
VIEW
  5
6
100
AcDbSymbolTable
 70
0
  0
ENDTAB
  0
TABLE
  2
UCS
  5
7
100
AcDbSymbolTable
 70
0
  0
ENDTAB
  0
TABLE
  2
APPID
  5
9
100
AcDbSymbolTable
 70
1
  0
APPID
  5
201
100
AcDbSymbolTableRecord
100
AcDbRegAppTableRecord
  2
ACAD
 70
0
  0
ENDTAB
  0
TABLE
  2
BLOCK_RECORD
  5
1
100
AcDbSymbolTable
 70
0
  0
BLOCK_RECORD
  5
202
100
AcDbSymbolTableRecord
100
AcDbBlockTableRecord
  2
*Model_Space
  0
BLOCK_RECORD
  5
203
100
AcDbSymbolTableRecord
100
AcDbBlockTableRecord
  2
*Paper_Space
  0
BLOCK_RECORD
  5
204
100
AcDbSymbolTableRecord
100
AcDbBlockTableRecord
  2
_FILLED
  0
ENDTAB
  0
TABLE
  2
DIMSTYLE
  5
A
100
AcDbSymbolTable
 70
1
100
AcDbDimStyleTable
 71
0
  0
DIMSTYLE
105
205
100
AcDbSymbolTableRecord
100
AcDbDimStyleTableRecord
  2
STANDARD
 70
0
  3

  4

 40
1.0
 41
0.1
 42
0.0625
 43
0.38
 44
0.125
 45
0.0
 46
0.0
 47
0.001
 48
0.001
140
0.08
141
0.09
142
0.0
143
25.4
144
1.0
145
0.0
146
1.0
147
0.09
 71
1.0
 72
0.0
 73
1
 74
1
 75
0
 76
0
 77
0
 78
4
 79
1
170
1
171
2
172
0
173
0
174
0
175
0
176
0
177
0
178
0
270
2
179
3
271
3
272
3
273
2
274
2
275
0
280
0
281
0
282
0
283
1
284
4
285
0
286
0
287
3
288
0
340
11
278
46
341
204
342
204
343
204
344
204
  0
ENDTAB
  0
ENDSEC
  0
SECTION
  2
BLOCKS
  0
BLOCK
  5
20
100
AcDbEntity
  8
0
100
AcDbBlockBegin
  2
*Model_Space
 70
0
 10
0.0
 20
0.0
 30
0.0
  3
*Model_Space
  1

  0
ENDBLK
  5
21
100
AcDbEntity
  8
0
100
AcDbBlockEnd
  0
BLOCK
  5
1C
100
AcDbEntity
  8
0
100
AcDbBlockBegin
  2
*Paper_Space
 70
0
 10
0.0
 20
0.0
 30
0.0
  3
*Paper_Space
  1

  0
ENDBLK
  5
1D
100
AcDbEntity
  8
0
100
AcDbBlockEnd
  0
BLOCK
  5
206
100
AcDbEntity
  8
0
100
AcDbBlockBegin
  2
_FILLED
 70
64
 10
0.0
 20
0.0
  3
_FILLED
  1

  0
SOLID
  5
207
100
AcDbEntity
  8
0
  6
BYBLOCK
 62
0
100
AcDbTrace
 10
0.0
 20
0.0
 11
-1.0
 21
0.2
 12
-1.0
 22
-0.2
 13
-1.0
 23
-0.2
  0
ENDBLK
  5
208
100
AcDbEntity
  8
0
  6
BYBLOCK
 62
0
100
AcDbBlockEnd
  0
ENDSEC
  0
SECTION
  2
ENTITIES
  0
LINE
  5
209
100
AcDbEntity
  8
0
100
AcDbLine
 62
7
  6
CONTINUOUS
 10
8.9351770363
 20
0.9786231078
 11
10.9151770363
 21
0.9786231078
  0
LINE
  5
20A
100
AcDbEntity
  8
0
100
AcDbLine
 62
9
  6
CONTINUOUS
 10
10.9151770363
 20
1.3736231078
 11
8.9351770363
 21
1.3736231078
  0
LINE
  5
20B
100
AcDbEntity
  8
0
100
AcDbLine
 62
7
  6
CONTINUOUS
 10
10.8851770363
 20
1.4036231078
 11
8.9651872753
 21
1.4036231078
  0
LINE
  5
20C
100
AcDbEntity
  8
0
100
AcDbLine
 62
7
  6
CONTINUOUS
 10
12.1617586438
 20
5.380722992
 11
12.2391158677
 21
5.4002369246
  0
LWPOLYLINE
  5
20D
100
AcDbEntity
  8
0
100
AcDbPolyline
 62
7
  6
CONTINUOUS
 90
4
 70
0
 10
12.922539157
 20
5.2286231766
 10
12.9307957689
 20
5.2304070213
 10
12.9395906267
 20
5.2381710333
 10
12.9425391591
 20
5.2486231876
  0
LINE
  5
20E
100
AcDbEntity
  8
0
100
AcDbLine
 62
7
  6
CONTINUOUS
 10
12.0441770363
 20
5.3386231078
 11
12.0521180385
 21
5.3402671692
  0
LINE
  5
20F
100
AcDbEntity
  8
0
100
AcDbLine
 62
7
  6
CONTINUOUS
 10
12.2382446094
 20
5.400017698
 11
12.3247940874
 21
5.4121210158
  0
LINE
  5
210
100
AcDbEntity
  8
0
100
AcDbLine
 62
7
  6
CONTINUOUS
 10
12.3239185501
 20
5.4119995734
 11
12.3766793091
 21
5.4141133903
  0
LINE
  5
211
100
AcDbEntity
  8
0
100
AcDbLine
 62
7
  6
CONTINUOUS
 10
11.6334388323
 20
5.3450308827
 11
10.8243043827
 21
5.3379696733
  0
LINE
  5
212
100
AcDbEntity
  8
0
100
AcDbLine
 62
7
  6
CONTINUOUS
 10
12.4025393324
 20
5.2286231078
 11
12.922539157
 21
5.2286231078
  0
LINE
  5
213
100
AcDbEntity
  8
0
100
AcDbLine
 62
7
  6
CONTINUOUS
 10
11.7101770363
 20
5.3386231078
 11
12.0441770363
 21
5.3386231078
  0
LINE
  5
214
100
AcDbEntity
  8
0
100
AcDbLine
 62
7
  6
CONTINUOUS
 10
12.6441770363
 20
5.4141133887
 11
12.3766789989
 21
5.4141133887
  0
LINE
  5
215
100
AcDbEntity
  8
0
100
AcDbLine
 62
9
  6
CONTINUOUS
 10
12.3766770354
 20
5.4160741752
 11
12.6441770363
 21
5.4160741752
  0
LINE
  5
216
100
AcDbEntity
  8
0
100
AcDbLine
 62
7
  6
CONTINUOUS
 10
11.6801770363
 20
5.4516231078
 11
11.6631770363
 21
5.4516231078
  0
LINE
  5
217
100
AcDbEntity
  8
0
100
AcDbLine
 62
7
  6
CONTINUOUS
 10
9.7275356761
 20
11.2414028449
 11
9.7729625004
 21
11.2657763886
  0
LINE
  5
218
100
AcDbEntity
  8
0
100
AcDbLine
 62
7
  6
CONTINUOUS
 10
10.055116409
 20
11.4171647089
 11
10.1005432333
 21
11.4415382526
  0
LINE
  5
219
100
AcDbEntity
  8
0
100
AcDbLine
 62
7
  6
CONTINUOUS
 10
10.1228183964
 20
11.4384354157
 11
10.0773915721
 21
11.414061872
  0
LINE
  5
21A
100
AcDbEntity
  8
0
100
AcDbLine
 62
7
  6
CONTINUOUS
 10
9.7952376635
 20
11.2626735517
 11
9.7498108392
 21
11.2383000079
  0
LINE
  5
21B
100
AcDbEntity
  8
0
100
AcDbLine
 62
7
  6
CONTINUOUS
 10
11.6801770363
 20
6.8056231078
 11
11.6631770363
 21
6.8056231078
  0
LINE
  5
21C
100
AcDbEntity
  8
0
100
AcDbLine
 62
7
  6
CONTINUOUS
 10
11.7101770363
 20
6.9186231078
 11
12.3316770363
 21
6.9186231078
  0
LINE
  5
21D
100
AcDbEntity
  8
0
100
AcDbLine
 62
7
  6
CONTINUOUS
 10
11.6334388323
 20
6.912215333
 11
10.8243043827
 21
6.9192765424
  0
LWPOLYLINE
  5
21E
100
AcDbEntity
  8
0
100
AcDbPolyline
 62
7
  6
CONTINUOUS
 90
5
 70
0
 10
12.6447535188
 20
6.8434125716
 10
12.5953763559
 20
6.8466320921
 10
12.5138070202
 20
6.8596795759
 10
12.4417015727
 20
6.8788276181
 10
12.385824983
 20
6.8982043052
  0
LINE
  5
21F
100
AcDbEntity
  8
0
100
AcDbLine
 62
7
  6
CONTINUOUS
 10
8.9351770363
 20
0.9786231078
 11
8.9351770363
 21
1.3736231078
  0
LINE
  5
220
100
AcDbEntity
  8
0
100
AcDbLine
 62
7
  6
CONTINUOUS
 10
9.1251770363
 20
1.4036231078
 11
9.1251770363
 21
7.6836231078
  0
LINE
  5
221
100
AcDbEntity
  8
0
100
AcDbLine
 62
7
  6
CONTINUOUS
 10
9.59594861
 20
11.4221189119
 11
9.5987114833
 21
11.4322988418
  0
LINE
  5
222
100
AcDbEntity
  8
0
100
AcDbLine
 62
7
  6
CONTINUOUS
 10
9.8050757847
 20
11.2642646829
 11
9.7987106228
 21
11.2532779359
  0
LINE
  5
223
100
AcDbEntity
  8
0
100
AcDbLine
 62
7
  6
CONTINUOUS
 10
9.8485661096
 20
11.2295278084
 11
9.8642191265
 21
11.2565460898
  0
LINE
  5
224
100
AcDbEntity
  8
0
100
AcDbLine
 62
7
  6
CONTINUOUS
 10
9.9614427375
 20
11.4243613356
 11
9.9770957544
 21
11.4513796169
  0
LINE
  5
225
100
AcDbEntity
  8
0
100
AcDbLine
 62
7
  6
CONTINUOUS
 10
9.8732583181
 20
11.2284586437
 11
9.888911335
 21
11.255476925
  0
LINE
  5
226
100
AcDbEntity
  8
0
100
AcDbLine
 62
7
  6
CONTINUOUS
 10
9.986134946
 20
11.4232921708
 11
10.0017879629
 21
11.4503104522
  0
LINE
  5
227
100
AcDbEntity
  8
0
100
AcDbLine
 62
7
  6
CONTINUOUS
 10
9.9149010126
 20
11.2482469291
 11
9.9212661746
 21
11.2592336762
  0
LINE
  5
228
100
AcDbEntity
  8
0
100
AcDbLine
 62
7
  6
CONTINUOUS
 10
10.0163247306
 20
11.4511274947
 11
10.0175910132
 21
11.4532660996
  0
LINE
  5
229
100
AcDbEntity
  8
0
100
AcDbLine
 62
7
  6
CONTINUOUS
 10
9.8340293419
 20
11.2556061974
 11
9.8327630593
 21
11.2535197712
  0
LINE
  5
22A
100
AcDbEntity
  8
0
100
AcDbLine
 62
7
  6
CONTINUOUS
 10
10.0336420013
 20
11.4576008853
 11
10.0212813215
 21
11.4433023887
  0
LINE
  5
22B
100
AcDbEntity
  8
0
100
AcDbLine
 62
7
  6
CONTINUOUS
 10
12.3396139248
 20
6.9169808256
 11
12.3316770363
 21
6.9186231078
  0
LINE
  5
22C
100
AcDbEntity
  8
0
100
AcDbLine
 62
7
  6
CONTINUOUS
 10
12.385824983
 20
6.8982043052
 11
12.3510435056
 21
6.912116005
  0
LINE
  5
22D
100
AcDbEntity
  8
0
100
AcDbLine
 62
7
  6
CONTINUOUS
 10
9.3551770363
 20
16.9797538189
 11
9.3551770363
 21
13.5782723965
  0
LINE
  5
22E
100
AcDbEntity
  8
0
100
AcDbLine
 62
7
  6
CONTINUOUS
 10
9.3551770363
 20
7.7336231078
 11
9.3551770363
 21
13.5540304236
  0
LINE
  5
22F
100
AcDbEntity
  8
0
100
AcDbLine
 62
7
  6
CONTINUOUS
 10
9.3631770363
 20
13.5652420887
 11
9.3631770363
 21
13.5782723965
  0
LINE
  5
230
100
AcDbEntity
  8
0
100
AcDbLine
 62
7
  6
CONTINUOUS
 10
9.3651770363
 20
7.7336231078
 11
9.3651770363
 21
7.7136231078
  0
LINE
  5
231
100
AcDbEntity
  8
0
100
AcDbLine
 62
7
  6
CONTINUOUS
 10
9.6621770363
 20
11.3951844825
 11
9.6621770363
 21
11.3754424011
  0
LINE
  5
232
100
AcDbEntity
  8
0
100
AcDbLine
 62
7
  6
CONTINUOUS
 10
10.0664814754
 20
11.4526054429
 11
10.0651438391
 21
11.4490420934
  0
LINE
  5
233
100
AcDbEntity
  8
0
100
AcDbLine
 62
9
  6
CONTINUOUS
 10
10.7251770363
 20
7.6836231078
 11
9.1252454565
 21
7.6836231078
  0
LINE
  5
234
100
AcDbEntity
  8
0
100
AcDbLine
 62
7
  6
CONTINUOUS
 10
10.6951770363
 20
7.7136231078
 11
9.1552428908
 21
7.7136231078
  0
LINE
  5
235
100
AcDbEntity
  8
0
100
AcDbLine
 62
7
  6
CONTINUOUS
 10
9.3552207464
 20
7.7336231078
 11
10.4951333261
 21
7.7336231078
  0
LINE
  5
236
100
AcDbEntity
  8
0
100
AcDbLine
 62
7
  6
CONTINUOUS
 10
12.3510435056
 20
6.912116005
 11
12.3396243694
 21
6.9169763064
  0
LINE
  5
237
100
AcDbEntity
  8
0
100
AcDbLine
 62
7
  6
CONTINUOUS
 10
12.3396243694
 20
6.9169763064
 11
12.3396139248
 21
6.9169808256
  0
LINE
  5
238
100
AcDbEntity
  8
0
100
AcDbLine
 62
7
  6
CONTINUOUS
 10
9.9251770363
 20
11.4622973837
 11
9.9251770363
 21
11.4474636736
  0
LINE
  5
239
100
AcDbEntity
  8
0
100
AcDbLine
 62
7
  6
CONTINUOUS
 10
9.9251770363
 20
11.2703822192
 11
9.9251770363
 21
11.2774191831
  0
LINE
  5
23A
100
AcDbEntity
  8
0
100
AcDbLine
 62
7
  6
CONTINUOUS
 10
10.1881770363
 20
11.3951844825
 11
10.1881770363
 21
11.3754424011
  0
LINE
  5
23B
100
AcDbEntity
  8
0
100
AcDbLine
 62
7
  6
CONTINUOUS
 10
10.4851770363
 20
7.7336231078
 11
10.4851770363
 21
7.7136231078
  0
LINE
  5
23C
100
AcDbEntity
  8
0
100
AcDbLine
 62
7
  6
CONTINUOUS
 10
10.4951770363
 20
16.9797538189
 11
10.4951770363
 21
13.5782723965
  0
LINE
  5
23D
100
AcDbEntity
  8
0
100
AcDbLine
 62
7
  6
CONTINUOUS
 10
10.4951770363
 20
7.7336231078
 11
10.4951770363
 21
13.5540304236
  0
LINE
  5
23E
100
AcDbEntity
  8
0
100
AcDbLine
 62
7
  6
CONTINUOUS
 10
10.7251770363
 20
1.4036231078
 11
10.7251770363
 21
5.237973481
  0
LINE
  5
23F
100
AcDbEntity
  8
0
100
AcDbLine
 62
7
  6
CONTINUOUS
 10
10.7251770363
 20
7.0192727347
 11
10.7251770363
 21
7.6836231078
  0
LINE
  5
240
100
AcDbEntity
  8
0
100
AcDbLine
 62
7
  6
CONTINUOUS
 10
10.9151770363
 20
0.9786231078
 11
10.9151770363
 21
1.3736231078
  0
LINE
  5
241
100
AcDbEntity
  8
0
100
AcDbLine
 62
9
  6
CONTINUOUS
 10
12.942539241
 20
9.2086231078
 11
12.382539241
 21
9.2086231078
  0
LINE
  5
242
100
AcDbEntity
  8
0
100
AcDbLine
 62
7
  6
CONTINUOUS
 10
12.9225339364
 20
9.2286231078
 11
12.4025445456
 21
9.2286231078
  0
LINE
  5
243
100
AcDbEntity
  8
0
100
AcDbLine
 62
7
  6
CONTINUOUS
 10
9.7852102335
 20
11.4490420934
 11
9.783869591
 21
11.4526040617
  0
LINE
  5
244
100
AcDbEntity
  8
0
100
AcDbLine
 62
7
  6
CONTINUOUS
 10
10.2516425892
 20
11.4322988418
 11
10.2544052897
 21
11.4221189482
  0
LINE
  5
245
100
AcDbEntity
  8
0
100
AcDbLine
 62
7
  6
CONTINUOUS
 10
9.8167120712
 20
11.4576008853
 11
9.829072751
 21
11.4433023887
  0
LINE
  5
246
100
AcDbEntity
  8
0
100
AcDbLine
 62
7
  6
CONTINUOUS
 10
10.0175910132
 20
11.2535197712
 11
10.016322462
 21
11.2556048613
  0
LINE
  5
247
100
AcDbEntity
  8
0
100
AcDbLine
 62
7
  6
CONTINUOUS
 10
9.8327630593
 20
11.4532660996
 11
9.8340316105
 21
11.4511260704
  0
LINE
  5
248
100
AcDbEntity
  8
0
100
AcDbLine
 62
7
  6
CONTINUOUS
 10
9.9290878979
 20
11.2592336762
 11
9.9354530599
 21
11.2482469291
  0
LINE
  5
249
100
AcDbEntity
  8
0
100
AcDbLine
 62
7
  6
CONTINUOUS
 10
9.9770957544
 20
11.2284586437
 11
9.9614427375
 21
11.255476925
  0
LINE
  5
24A
100
AcDbEntity
  8
0
100
AcDbLine
 62
7
  6
CONTINUOUS
 10
9.8642191265
 20
11.4232921708
 11
9.8485661096
 21
11.4503104522
  0
LINE
  5
24B
100
AcDbEntity
  8
0
100
AcDbLine
 62
7
  6
CONTINUOUS
 10
9.8732583181
 20
11.4513796169
 11
9.888911335
 21
11.4243613356
  0
LINE
  5
24C
100
AcDbEntity
  8
0
100
AcDbLine
 62
7
  6
CONTINUOUS
 10
9.986134946
 20
11.2565460898
 11
10.0017879629
 21
11.2295278084
  0
LINE
  5
24D
100
AcDbEntity
  8
0
100
AcDbLine
 62
7
  6
CONTINUOUS
 10
10.0516434498
 20
11.2532779359
 11
10.0452782878
 21
11.2642646829
  0
LWPOLYLINE
  5
24E
100
AcDbEntity
  8
0
100
AcDbPolyline
 62
7
  6
CONTINUOUS
 90
4
 70
0
 10
12.3825393301
 20
5.2486231941
 10
12.38548842
 20
5.2381701301
 10
12.3942831611
 20
5.2304068273
 10
12.4025393324
 20
5.2286231822
  0
LINE
  5
24F
100
AcDbEntity
  8
0
100
AcDbLine
 62
9
  6
CONTINUOUS
 10
11.6334388323
 20
5.3450308827
 11
11.6334388323
 21
6.9121327438
  0
LINE
  5
250
100
AcDbEntity
  8
0
100
AcDbLine
 62
7
  6
CONTINUOUS
 10
11.6631770363
 20
5.3750297404
 11
11.6631770363
 21
6.8821370479
  0
LINE
  5
251
100
AcDbEntity
  8
0
100
AcDbLine
 62
7
  6
CONTINUOUS
 10
11.6801770363
 20
6.8886231078
 11
11.6801770363
 21
5.3686231078
  0
LINE
  5
252
100
AcDbEntity
  8
0
100
AcDbLine
 62
9
  6
CONTINUOUS
 10
11.7101770363
 20
6.9186231078
 11
11.7101770363
 21
5.3386231078
  0
LINE
  5
253
100
AcDbEntity
  8
0
100
AcDbLine
 62
9
  6
CONTINUOUS
 10
12.3766770354
 20
5.4160741752
 11
12.3766770354
 21
5.4141133887
  0
LINE
  5
254
100
AcDbEntity
  8
0
100
AcDbLine
 62
7
  6
CONTINUOUS
 10
12.382539241
 20
9.2086231078
 11
12.382539241
 21
6.8995185178
  0
LINE
  5
255
100
AcDbEntity
  8
0
100
AcDbLine
 62
7
  6
CONTINUOUS
 10
12.382539241
 20
5.4141133887
 11
12.382539241
 21
5.2486231941
  0
LINE
  5
256
100
AcDbEntity
  8
0
100
AcDbLine
 62
9
  6
CONTINUOUS
 10
12.6441770363
 20
5.4141133887
 11
12.6441770363
 21
6.8414675144
  0
LINE
  5
257
100
AcDbEntity
  8
0
100
AcDbLine
 62
9
  6
CONTINUOUS
 10
12.6625392392
 20
5.2688019896
 11
12.662539239
 21
5.2879091256
  0
LINE
  5
258
100
AcDbEntity
  8
0
100
AcDbLine
 62
7
  6
CONTINUOUS
 10
12.6641770363
 20
5.4341133887
 11
12.6641770363
 21
6.8234207821
  0
LINE
  5
259
100
AcDbEntity
  8
0
100
AcDbLine
 62
7
  6
CONTINUOUS
 10
10.206824647
 20
11.2580885599
 11
10.1360707093
 21
11.2774315138
  0
LINE
  5
25A
100
AcDbEntity
  8
0
100
AcDbLine
 62
7
  6
CONTINUOUS
 10
9.6966056937
 20
11.397573965
 11
9.625851756
 21
11.4169169188
  0
LINE
  5
25B
100
AcDbEntity
  8
0
100
AcDbLine
 62
7
  6
CONTINUOUS
 10
9.6435294256
 20
11.4217497006
 11
9.7142833632
 21
11.4024067468
  0
LINE
  5
25C
100
AcDbEntity
  8
0
100
AcDbLine
 62
7
  6
CONTINUOUS
 10
10.1537483789
 20
11.2822642956
 11
10.2245023165
 21
11.2629213418
  0
LINE
  5
25D
100
AcDbEntity
  8
0
100
AcDbLine
 62
7
  6
CONTINUOUS
 10
10.1005432333
 20
11.2383000079
 11
10.055116409
 21
11.2626735517
  0
LINE
  5
25E
100
AcDbEntity
  8
0
100
AcDbLine
 62
7
  6
CONTINUOUS
 10
9.7729625004
 20
11.414061872
 11
9.7275356761
 21
11.4384354157
  0
LINE
  5
25F
100
AcDbEntity
  8
0
100
AcDbLine
 62
7
  6
CONTINUOUS
 10
9.7498108392
 20
11.4415382526
 11
9.7952376635
 21
11.4171647089
  0
LINE
  5
260
100
AcDbEntity
  8
0
100
AcDbLine
 62
7
  6
CONTINUOUS
 10
10.0773915721
 20
11.2657763886
 11
10.1228183964
 21
11.2414028449
  0
LINE
  5
261
100
AcDbEntity
  8
0
100
AcDbLine
 62
7
  6
CONTINUOUS
 10
12.942539241
 20
9.2086231078
 11
12.942539241
 21
5.2486231876
  0
LINE
  5
262
100
AcDbEntity
  8
0
100
AcDbLine
 62
7
  6
CONTINUOUS
 10
10.2245023165
 20
11.4169169188
 11
10.1537483789
 21
11.397573965
  0
LINE
  5
263
100
AcDbEntity
  8
0
100
AcDbLine
 62
7
  6
CONTINUOUS
 10
9.7142833632
 20
11.2774315138
 11
9.6435294256
 21
11.2580885599
  0
LINE
  5
264
100
AcDbEntity
  8
0
100
AcDbLine
 62
7
  6
CONTINUOUS
 10
9.625851756
 20
11.2629213418
 11
9.6966056937
 21
11.2822642956
  0
LINE
  5
265
100
AcDbEntity
  8
0
100
AcDbLine
 62
7
  6
CONTINUOUS
 10
10.1360707093
 20
11.4024067468
 11
10.206824647
 21
11.4217497006
  0
LINE
  5
266
100
AcDbEntity
  8
0
100
AcDbLine
 62
7
  6
CONTINUOUS
 10
10.2968861926
 20
11.3878613419
 11
10.2077310301
 21
11.3754424011
  0
LINE
  5
267
100
AcDbEntity
  8
0
100
AcDbLine
 62
7
  6
CONTINUOUS
 10
9.6539728049
 20
11.2983061991
 11
9.5648176424
 21
11.2858872583
  0
LINE
  5
268
100
AcDbEntity
  8
0
100
AcDbLine
 62
7
  6
CONTINUOUS
 10
9.5534678799
 20
11.2919769187
 11
9.6426230425
 21
11.3043958595
  0
LINE
  5
269
100
AcDbEntity
  8
0
100
AcDbLine
 62
7
  6
CONTINUOUS
 10
10.1963812676
 20
11.3815320615
 11
10.2855364302
 21
11.3939510023
  0
LINE
  5
26A
100
AcDbEntity
  8
0
100
AcDbLine
 62
7
  6
CONTINUOUS
 10
10.3328845867
 20
11.3541128473
 11
10.2340553277
 21
11.3498335719
  0
LINE
  5
26B
100
AcDbEntity
  8
0
100
AcDbLine
 62
7
  6
CONTINUOUS
 10
9.6202096065
 20
11.3232542481
 11
9.5213803474
 21
11.3189749728
  0
LINE
  5
26C
100
AcDbEntity
  8
0
100
AcDbLine
 62
7
  6
CONTINUOUS
 10
9.5174694858
 20
11.3257254133
 11
9.6162987448
 21
11.3300046887
  0
LINE
  5
26D
100
AcDbEntity
  8
0
100
AcDbLine
 62
7
  6
CONTINUOUS
 10
10.2301444661
 20
11.3565840125
 11
10.3289737251
 21
11.3608632878
  0
LINE
  5
26E
100
AcDbEntity
  8
0
100
AcDbLine
 62
7
  6
CONTINUOUS
 10
9.4937763449
 20
11.3663774523
 11
9.4842967766
 21
11.36596699
  0
LINE
  5
26F
100
AcDbEntity
  8
0
100
AcDbLine
 62
7
  6
CONTINUOUS
 10
9.5174694858
 20
11.3541128473
 11
9.6162987448
 21
11.3498335719
  0
LINE
  5
270
100
AcDbEntity
  8
0
100
AcDbLine
 62
7
  6
CONTINUOUS
 10
10.2301444661
 20
11.3232542481
 11
10.3289737251
 21
11.3189749728
  0
LINE
  5
271
100
AcDbEntity
  8
0
100
AcDbLine
 62
7
  6
CONTINUOUS
 10
9.5213803474
 20
11.3608632878
 11
9.6202096065
 21
11.3565840125
  0
LINE
  5
272
100
AcDbEntity
  8
0
100
AcDbLine
 62
7
  6
CONTINUOUS
 10
10.2340553277
 20
11.3300046887
 11
10.3328845867
 21
11.3257254133
  0
LINE
  5
273
100
AcDbEntity
  8
0
100
AcDbLine
 62
7
  6
CONTINUOUS
 10
10.3660572959
 20
11.36596699
 11
10.3565777276
 21
11.3663774523
  0
LINE
  5
274
100
AcDbEntity
  8
0
100
AcDbLine
 62
7
  6
CONTINUOUS
 10
10.2855364302
 20
11.2858872583
 11
10.1963812676
 21
11.2983061991
  0
LINE
  5
275
100
AcDbEntity
  8
0
100
AcDbLine
 62
7
  6
CONTINUOUS
 10
9.6426230425
 20
11.3754424011
 11
9.5534678799
 21
11.3878613419
  0
LINE
  5
276
100
AcDbEntity
  8
0
100
AcDbLine
 62
7
  6
CONTINUOUS
 10
9.5648176424
 20
11.3939510023
 11
9.6539728049
 21
11.3815320615
  0
LINE
  5
277
100
AcDbEntity
  8
0
100
AcDbLine
 62
7
  6
CONTINUOUS
 10
10.2077310301
 20
11.3043958595
 11
10.2968861926
 21
11.2919769187
  0
LINE
  5
278
100
AcDbEntity
  8
0
100
AcDbLine
 62
7
  6
CONTINUOUS
 10
12.0521181282
 20
5.340267208
 11
12.0644597013
 21
5.3455139609
  0
LINE
  5
279
100
AcDbEntity
  8
0
100
AcDbLine
 62
7
  6
CONTINUOUS
 10
12.0645717082
 20
5.3455608556
 11
12.1022566663
 21
5.3605275774
  0
LINE
  5
27A
100
AcDbEntity
  8
0
100
AcDbLine
 62
7
  6
CONTINUOUS
 10
12.1022566663
 20
5.3605275774
 11
12.1623197429
 21
5.3809134332
  0
ARC
  5
27B
100
AcDbEntity
  8
0
100
AcDbCircle
 62
7
  6
CONTINUOUS
 10
10.8252213793
 20
5.2379298484
 40
0.1000463147
100
AcDbArc
 50
90.5251762299
 51
179.9750118477
  0
ARC
  5
27C
100
AcDbEntity
  8
0
100
AcDbCircle
 62
7
  6
CONTINUOUS
 10
10.8252213432
 20
7.0193162782
 40
0.100046295
100
AcDbArc
 50
180.0249371776
 51
269.4748439716
  0
ARC
  5
27D
100
AcDbEntity
  8
0
100
AcDbCircle
 62
7
  6
CONTINUOUS
 10
10.6951770363
 20
7.6836231078
 40
0.03
100
AcDbArc
 50
0.0
 51
90.0
  0
ARC
  5
27E
100
AcDbEntity
  8
0
100
AcDbCircle
 62
7
  6
CONTINUOUS
 10
9.1551770363
 20
7.6836231078
 40
0.03
100
AcDbArc
 50
90.0
 51
180.0
  0
ARC
  5
27F
100
AcDbEntity
  8
0
100
AcDbCircle
 62
7
  6
CONTINUOUS
 10
8.9651770363
 20
1.3736231078
 40
0.03
100
AcDbArc
 50
90.0
 51
180.0
  0
ARC
  5
280
100
AcDbEntity
  8
0
100
AcDbCircle
 62
7
  6
CONTINUOUS
 10
10.8851770363
 20
1.3736231078
 40
0.03
100
AcDbArc
 50
0.0
 51
90.0
  0
ARC
  5
281
100
AcDbEntity
  8
0
100
AcDbCircle
 62
7
  6
CONTINUOUS
 10
9.6610150716
 20
11.160977406
 40
0.2833590569
100
AcDbArc
 50
114.7429700819
 51
115.0967783925
  0
ARC
  5
282
100
AcDbEntity
  8
0
100
AcDbCircle
 62
7
  6
CONTINUOUS
 10
9.6557886195
 20
11.1721128626
 40
0.2710580775
100
AcDbArc
 50
115.0946753206
 51
116.068763764
  0
ARC
  5
283
100
AcDbEntity
  8
0
100
AcDbCircle
 62
7
  6
CONTINUOUS
 10
9.6488585838
 20
11.1863555391
 40
0.2552189486
100
AcDbArc
 50
116.0763771117
 51
116.5505450299
  0
ARC
  5
284
100
AcDbEntity
  8
0
100
AcDbCircle
 62
7
  6
CONTINUOUS
 10
9.5602513101
 20
11.3239754408
 40
0.0910040636
100
AcDbArc
 50
131.8044658482
 51
135.3319090782
  0
ARC
  5
285
100
AcDbEntity
  8
0
100
AcDbCircle
 62
7
  6
CONTINUOUS
 10
9.5625387532
 20
11.3997683503
 40
0.0887672158
100
AcDbArc
 50
224.4505732716
 51
227.6146117396
  0
ARC
  5
286
100
AcDbEntity
  8
0
100
AcDbCircle
 62
7
  6
CONTINUOUS
 10
9.4096607039
 20
11.3662716692
 40
0.0545167431
100
AcDbArc
 50
191.8651703289
 51
193.4285731007
  0
ARC
  5
287
100
AcDbEntity
  8
0
100
AcDbCircle
 62
7
  6
CONTINUOUS
 10
9.4076001778
 20
11.3658965376
 40
0.0524231418
100
AcDbArc
 50
180.0065232689
 51
191.9269731289
  0
ARC
  5
288
100
AcDbEntity
  8
0
100
AcDbCircle
 62
7
  6
CONTINUOUS
 10
9.3978123466
 20
11.3658901923
 40
0.0426353103
100
AcDbArc
 50
177.7548350447
 51
179.999493618
  0
ARC
  5
289
100
AcDbEntity
  8
0
100
AcDbCircle
 62
9
  6
CONTINUOUS
 10
9.4069997932
 20
11.3562704066
 40
0.0418228357
100
AcDbArc
 50
172.4253907085
 51
179.9994936186
  0
ARC
  5
28A
100
AcDbEntity
  8
0
100
AcDbCircle
 62
7
  6
CONTINUOUS
 10
9.5236752207
 20
11.3704196192
 40
0.0397243777
100
AcDbArc
 50
198.5325111586
 51
202.4604141789
  0
ARC
  5
28B
100
AcDbEntity
  8
0
100
AcDbCircle
 62
7
  6
CONTINUOUS
 10
9.5173034142
 20
11.3687822602
 40
0.0331264829
100
AcDbArc
 50
181.6303446104
 51
186.2381341247
  0
ARC
  5
28C
100
AcDbEntity
  8
0
100
AcDbCircle
 62
7
  6
CONTINUOUS
 10
9.787059039
 20
10.79608809
 40
0.6698886263
100
AcDbArc
 50
104.495277993
 51
105.0891124368
  0
ARC
  5
28D
100
AcDbEntity
  8
0
100
AcDbCircle
 62
7
  6
CONTINUOUS
 10
9.7765280479
 20
10.8352142305
 40
0.6293700341
100
AcDbArc
 50
105.0907012869
 51
105.948067707
  0
ARC
  5
28E
100
AcDbEntity
  8
0
100
AcDbCircle
 62
7
  6
CONTINUOUS
 10
9.7668953687
 20
10.8691874454
 40
0.5940576817
100
AcDbArc
 50
105.9550847776
 51
106.3068167373
  0
ARC
  5
28F
100
AcDbEntity
  8
0
100
AcDbCircle
 62
7
  6
CONTINUOUS
 10
9.7887446879
 20
10.8558240298
 40
0.5842596489
100
AcDbArc
 50
104.3914748213
 51
106.1887350256
  0
ARC
  5
290
100
AcDbEntity
  8
0
100
AcDbCircle
 62
7
  6
CONTINUOUS
 10
9.7613422409
 20
10.8881646821
 40
0.5742846511
100
AcDbArc
 50
106.3066880024
 51
106.8395501095
  0
ARC
  5
291
100
AcDbEntity
  8
0
100
AcDbCircle
 62
7
  6
CONTINUOUS
 10
9.753132337
 20
10.9153373568
 40
0.5458987995
100
AcDbArc
 50
106.8410048221
 51
107.5141869369
  0
ARC
  5
292
100
AcDbEntity
  8
0
100
AcDbCircle
 62
7
  6
CONTINUOUS
 10
9.7460042048
 20
10.9380613935
 40
0.5220830408
100
AcDbArc
 50
107.5186783498
 51
107.765074086
  0
ARC
  5
293
100
AcDbEntity
  8
0
100
AcDbCircle
 62
7
  6
CONTINUOUS
 10
9.7366951888
 20
10.9669363352
 40
0.4917446685
100
AcDbArc
 50
107.7586719053
 51
109.147230085
  0
ARC
  5
294
100
AcDbEntity
  8
0
100
AcDbCircle
 62
7
  6
CONTINUOUS
 10
9.7169460654
 20
11.0240732241
 40
0.431291018
100
AcDbArc
 50
109.1584069595
 51
110.856972947
  0
ARC
  5
295
100
AcDbEntity
  8
0
100
AcDbCircle
 62
7
  6
CONTINUOUS
 10
9.700874869
 20
11.0668246324
 40
0.3856191426
100
AcDbArc
 50
110.8871305445
 51
111.5994444987
  0
ARC
  5
296
100
AcDbEntity
  8
0
100
AcDbCircle
 62
7
  6
CONTINUOUS
 10
9.6909620775
 20
11.0918878511
 40
0.3586668094
100
AcDbArc
 50
111.6009532019
 51
112.6656856491
  0
ARC
  5
297
100
AcDbEntity
  8
0
100
AcDbCircle
 62
7
  6
CONTINUOUS
 10
9.6791103392
 20
11.1203877875
 40
0.3278008451
100
AcDbArc
 50
112.6737489987
 51
113.7622664355
  0
ARC
  5
298
100
AcDbEntity
  8
0
100
AcDbCircle
 62
7
  6
CONTINUOUS
 10
9.6699802804
 20
11.1412704961
 40
0.3050095789
100
AcDbArc
 50
113.7732506399
 51
114.24100338
  0
ARC
  5
299
100
AcDbEntity
  8
0
100
AcDbCircle
 62
7
  6
CONTINUOUS
 10
9.6651614276
 20
11.1519698953
 40
0.2932750791
100
AcDbArc
 50
114.2407992888
 51
114.7421142791
  0
ARC
  5
29A
100
AcDbEntity
  8
0
100
AcDbCircle
 62
7
  6
CONTINUOUS
 10
9.7234234871
 20
11.5061638435
 40
0.1593361444
100
AcDbArc
 50
240.7826161864
 51
243.1048393179
  0
ARC
  5
29B
100
AcDbEntity
  8
0
100
AcDbCircle
 62
7
  6
CONTINUOUS
 10
9.7140931636
 20
11.2550972931
 40
0.1399675792
100
AcDbArc
 50
119.0134462549
 51
120.7050773468
  0
ARC
  5
29C
100
AcDbEntity
  8
0
100
AcDbCircle
 62
7
  6
CONTINUOUS
 10
9.7131246576
 20
11.4875226398
 40
0.1380395196
100
AcDbArc
 50
239.3369308506
 51
240.7366776708
  0
ARC
  5
29D
100
AcDbEntity
  8
0
100
AcDbCircle
 62
7
  6
CONTINUOUS
 10
9.7046746387
 20
11.4732722047
 40
0.1214721505
100
AcDbArc
 50
236.711845957
 51
239.3373968453
  0
ARC
  5
29E
100
AcDbEntity
  8
0
100
AcDbCircle
 62
7
  6
CONTINUOUS
 10
9.6963506155
 20
11.4604198251
 40
0.1061599814
100
AcDbArc
 50
235.2494836749
 51
236.6601394174
  0
ARC
  5
29F
100
AcDbEntity
  8
0
100
AcDbCircle
 62
7
  6
CONTINUOUS
 10
9.6917296336
 20
11.4537277772
 40
0.0980275379
100
AcDbArc
 50
234.2307002401
 51
235.2391363471
  0
ARC
  5
2A0
100
AcDbEntity
  8
0
100
AcDbCircle
 62
7
  6
CONTINUOUS
 10
9.687124601
 20
11.4473554122
 40
0.0901653998
100
AcDbArc
 50
231.9414619614
 51
234.2380868514
  0
ARC
  5
2A1
100
AcDbEntity
  8
0
100
AcDbCircle
 62
7
  6
CONTINUOUS
 10
9.7275349963
 20
11.346405701
 40
0.0563999103
100
AcDbArc
 50
129.7409047141
 51
132.5698261783
  0
ARC
  5
2A2
100
AcDbEntity
  8
0
100
AcDbCircle
 62
7
  6
CONTINUOUS
 10
9.6978626896
 20
11.3687539056
 40
0.0186827843
100
AcDbArc
 50
168.7987259015
 51
179.9313681991
  0
ARC
  5
2A3
100
AcDbEntity
  8
0
100
AcDbCircle
 62
7
  6
CONTINUOUS
 10
9.9250569678
 20
9.8634395111
 40
1.614485761
100
AcDbArc
 50
90.914230393
 51
91.8848371638
  0
ARC
  5
2A4
100
AcDbEntity
  8
0
100
AcDbCircle
 62
7
  6
CONTINUOUS
 10
9.9241330282
 20
9.8922334045
 40
1.5856770576
100
AcDbArc
 50
91.8856903113
 51
92.7830012167
  0
ARC
  5
2A5
100
AcDbEntity
  8
0
100
AcDbCircle
 62
7
  6
CONTINUOUS
 10
9.9223597938
 20
9.9300160811
 40
1.547852847
100
AcDbArc
 50
92.7853456735
 51
93.3624654794
  0
ARC
  5
2A6
100
AcDbEntity
  8
0
100
AcDbCircle
 62
7
  6
CONTINUOUS
 10
9.9209224559
 20
9.9551704718
 40
1.5226574577
100
AcDbArc
 50
93.3639895299
 51
93.5136347259
  0
ARC
  5
2A7
100
AcDbEntity
  8
0
100
AcDbCircle
 62
7
  6
CONTINUOUS
 10
9.919843861
 20
9.972612523
 40
1.5051820906
100
AcDbArc
 50
93.5133449433
 51
93.955096905
  0
ARC
  5
2A8
100
AcDbEntity
  8
0
100
AcDbCircle
 62
7
  6
CONTINUOUS
 10
9.918241474
 20
9.9961895242
 40
1.4815507162
100
AcDbArc
 50
93.9561660059
 51
94.0967402699
  0
ARC
  5
2A9
100
AcDbEntity
  8
0
100
AcDbCircle
 62
7
  6
CONTINUOUS
 10
9.9172871077
 20
10.0094458202
 40
1.4682601114
100
AcDbArc
 50
94.0965494983
 51
94.3925777857
  0
ARC
  5
2AA
100
AcDbEntity
  8
0
100
AcDbCircle
 62
7
  6
CONTINUOUS
 10
9.9161907872
 20
10.0237603465
 40
1.4539036644
100
AcDbArc
 50
94.3927057599
 51
94.6004481363
  0
ARC
  5
2AB
100
AcDbEntity
  8
0
100
AcDbCircle
 62
7
  6
CONTINUOUS
 10
9.9235920925
 20
10.0032621079
 40
1.4489919975
100
AcDbArc
 50
91.9906894904
 51
92.967991037
  0
ARC
  5
2AC
100
AcDbEntity
  8
0
100
AcDbCircle
 62
7
  6
CONTINUOUS
 10
9.9137460154
 20
10.053500409
 40
1.4240632677
100
AcDbArc
 50
94.696082677
 51
95.3537518952
  0
ARC
  5
2AD
100
AcDbEntity
  8
0
100
AcDbCircle
 62
7
  6
CONTINUOUS
 10
9.9067899847
 20
10.1270466753
 40
1.3501888107
100
AcDbArc
 50
95.3510583245
 51
96.8580866628
  0
ARC
  5
2AE
100
AcDbEntity
  8
0
100
AcDbCircle
 62
7
  6
CONTINUOUS
 10
9.8954381272
 20
10.2243823865
 40
1.2521940581
100
AcDbArc
 50
96.8742056537
 51
97.5714102253
  0
ARC
  5
2AF
100
AcDbEntity
  8
0
100
AcDbCircle
 62
7
  6
CONTINUOUS
 10
9.889164985
 20
10.2722172223
 40
1.2039497172
100
AcDbArc
 50
97.5754245949
 51
97.9016829295
  0
ARC
  5
2B0
100
AcDbEntity
  8
0
100
AcDbCircle
 62
7
  6
CONTINUOUS
 10
9.8848749442
 20
10.30320898
 40
1.1726624456
100
AcDbArc
 50
97.9022321615
 51
98.2783247189
  0
ARC
  5
2B1
100
AcDbEntity
  8
0
100
AcDbCircle
 62
7
  6
CONTINUOUS
 10
9.8789828818
 20
10.3437537885
 40
1.1316917506
100
AcDbArc
 50
98.2786815206
 51
98.8341478809
  0
ARC
  5
2B2
100
AcDbEntity
  8
0
100
AcDbCircle
 62
7
  6
CONTINUOUS
 10
9.9242293263
 20
10.3230312133
 40
1.1018962741
100
AcDbArc
 50
91.8367595268
 51
93.1219210005
  0
ARC
  5
2B3
100
AcDbEntity
  8
0
100
AcDbCircle
 62
7
  6
CONTINUOUS
 10
9.8885660569
 20
10.3639114203
 40
1.0865231706
100
AcDbArc
 50
97.3370343605
 51
98.5230360535
  0
ARC
  5
2B4
100
AcDbEntity
  8
0
100
AcDbCircle
 62
7
  6
CONTINUOUS
 10
9.8708310301
 20
10.3963969693
 40
1.078421156
100
AcDbArc
 50
98.8357161876
 51
99.5669952299
  0
ARC
  5
2B5
100
AcDbEntity
  8
0
100
AcDbCircle
 62
7
  6
CONTINUOUS
 10
9.8645556033
 20
10.4341579871
 40
1.0401423438
100
AcDbArc
 50
99.5718295313
 51
99.6935926148
  0
ARC
  5
2B6
100
AcDbEntity
  8
0
100
AcDbCircle
 62
7
  6
CONTINUOUS
 10
9.862055011
 20
10.4487621273
 40
1.0253256694
100
AcDbArc
 50
99.6932653263
 51
99.9503758859
  0
ARC
  5
2B7
100
AcDbEntity
  8
0
100
AcDbCircle
 62
7
  6
CONTINUOUS
 10
9.8578155809
 20
10.472905563
 40
1.0008128516
100
AcDbArc
 50
99.9501588766
 51
100.3941154683
  0
ARC
  5
2B8
100
AcDbEntity
  8
0
100
AcDbCircle
 62
7
  6
CONTINUOUS
 10
9.8532218152
 20
10.498121821
 40
0.9751815941
100
AcDbArc
 50
100.3959420124
 51
100.5320056267
  0
ARC
  5
2B9
100
AcDbEntity
  8
0
100
AcDbCircle
 62
7
  6
CONTINUOUS
 10
9.845934029
 20
10.5369891679
 40
0.9356369529
100
AcDbArc
 50
100.5282915614
 51
101.5929006081
  0
ARC
  5
2BA
100
AcDbEntity
  8
0
100
AcDbCircle
 62
7
  6
CONTINUOUS
 10
9.9251615417
 20
10.5450324324
 40
0.8909961749
100
AcDbArc
 50
88.7279230612
 51
89.9990036188
  0
ARC
  5
2BB
100
AcDbEntity
  8
0
100
AcDbCircle
 62
7
  6
CONTINUOUS
 10
9.8331768007
 20
10.6000151042
 40
0.8713331036
100
AcDbArc
 50
101.6039800106
 51
102.1215469271
  0
ARC
  5
2BC
100
AcDbEntity
  8
0
100
AcDbCircle
 62
7
  6
CONTINUOUS
 10
9.8265672394
 20
10.6309624729
 40
0.8396878107
100
AcDbArc
 50
102.1240255758
 51
102.3695709379
  0
ARC
  5
2BD
100
AcDbEntity
  8
0
100
AcDbCircle
 62
7
  6
CONTINUOUS
 10
9.8993592059
 20
10.5881718783
 40
0.8355060795
100
AcDbArc
 50
97.1588653419
 51
98.7012050721
  0
ARC
  5
2BE
100
AcDbEntity
  8
0
100
AcDbCircle
 62
7
  6
CONTINUOUS
 10
9.8196685563
 20
10.6623050669
 40
0.8075949859
100
AcDbArc
 50
102.3678374073
 51
103.1376592532
  0
ARC
  5
2BF
100
AcDbEntity
  8
0
100
AcDbCircle
 62
7
  6
CONTINUOUS
 10
9.91399657
 20
10.6443745758
 40
0.7958734527
100
AcDbArc
 50
95.7118779823
 51
96.0925904116
  0
ARC
  5
2C0
100
AcDbEntity
  8
0
100
AcDbCircle
 62
7
  6
CONTINUOUS
 10
9.9161415838
 20
10.6772714498
 40
0.7584290206
100
AcDbArc
 50
95.117087606
 51
96.1237170938
  0
ARC
  5
2C1
100
AcDbEntity
  8
0
100
AcDbCircle
 62
7
  6
CONTINUOUS
 10
9.9098528978
 20
10.6820631129
 40
0.7579580115
100
AcDbArc
 50
96.083506
 51
97.238108283
  0
ARC
  5
2C2
100
AcDbEntity
  8
0
100
AcDbCircle
 62
7
  6
CONTINUOUS
 10
9.8112758937
 20
10.6986506053
 40
0.7702931519
100
AcDbArc
 50
103.1442070692
 51
103.29209906
  0
ARC
  5
2C3
100
AcDbEntity
  8
0
100
AcDbCircle
 62
7
  6
CONTINUOUS
 10
9.8023192588
 20
10.7362751983
 40
0.7316172331
100
AcDbArc
 50
103.2869136296
 51
104.4798721732
  0
ARC
  5
2C4
100
AcDbEntity
  8
0
100
AcDbCircle
 62
7
  6
CONTINUOUS
 10
9.9128636244
 20
10.708498665
 40
0.727030317
100
AcDbArc
 50
96.1293856551
 51
96.5433632039
  0
ARC
  5
2C5
100
AcDbEntity
  8
0
100
AcDbCircle
 62
7
  6
CONTINUOUS
 10
9.9074967584
 20
10.7542258065
 40
0.6809894756
100
AcDbArc
 50
96.5331774773
 51
98.5634583043
  0
ARC
  5
2C6
100
AcDbEntity
  8
0
100
AcDbCircle
 62
7
  6
CONTINUOUS
 10
9.825567544
 20
10.9605964333
 40
0.4556100548
100
AcDbArc
 50
104.1377001923
 51
106.4425096547
  0
ARC
  5
2C7
100
AcDbEntity
  8
0
100
AcDbCircle
 62
7
  6
CONTINUOUS
 10
9.8137121144
 20
11.1747230358
 40
0.2494534885
100
AcDbArc
 50
108.6709114364
 51
110.0744931232
  0
ARC
  5
2C8
100
AcDbEntity
  8
0
100
AcDbCircle
 62
7
  6
CONTINUOUS
 10
9.8058482829
 20
11.196481611
 40
0.2263176296
100
AcDbArc
 50
110.0953455449
 51
110.6010652722
  0
ARC
  5
2C9
100
AcDbEntity
  8
0
100
AcDbCircle
 62
7
  6
CONTINUOUS
 10
9.8087585969
 20
11.3497403115
 40
0.0855549308
100
AcDbArc
 50
265.8157546788
 51
267.5328737456
  0
ARC
  5
2CA
100
AcDbEntity
  8
0
100
AcDbCircle
 62
7
  6
CONTINUOUS
 10
9.7816097166
 20
11.8960765703
 40
0.6487944475
100
AcDbArc
 50
254.7291885671
 51
255.1468257514
  0
ARC
  5
2CB
100
AcDbEntity
  8
0
100
AcDbCircle
 62
7
  6
CONTINUOUS
 10
9.7928342846
 20
11.8389734287
 40
0.5997659307
100
AcDbArc
 50
253.8344998892
 51
255.5852902638
  0
ARC
  5
2CC
100
AcDbEntity
  8
0
100
AcDbCircle
 62
7
  6
CONTINUOUS
 10
9.7590483653
 20
11.8158834438
 40
0.5654909228
100
AcDbArc
 50
252.2380600597
 51
254.7943732789
  0
ARC
  5
2CD
100
AcDbEntity
  8
0
100
AcDbCircle
 62
7
  6
CONTINUOUS
 10
9.7256127165
 20
11.7125675383
 40
0.4568999978
100
AcDbArc
 50
249.763899028
 51
252.2786914011
  0
ARC
  5
2CE
100
AcDbEntity
  8
0
100
AcDbCircle
 62
7
  6
CONTINUOUS
 10
9.7073936033
 20
11.6627706415
 40
0.4038750227
100
AcDbArc
 50
249.0859783653
 51
249.7455022118
  0
ARC
  5
2CF
100
AcDbEntity
  8
0
100
AcDbCircle
 62
7
  6
CONTINUOUS
 10
9.6985528053
 20
11.6397351299
 40
0.3792012882
100
AcDbArc
 50
248.275566556
 51
249.0913320745
  0
ARC
  5
2D0
100
AcDbEntity
  8
0
100
AcDbCircle
 62
7
  6
CONTINUOUS
 10
9.6924609433
 20
11.624422601
 40
0.362721475
100
AcDbArc
 50
247.8987641964
 51
248.2742020507
  0
ARC
  5
2D1
100
AcDbEntity
  8
0
100
AcDbCircle
 62
7
  6
CONTINUOUS
 10
9.68472765
 20
11.6054897961
 40
0.3422702382
100
AcDbArc
 50
247.0222555773
 51
247.9057440827
  0
ARC
  5
2D2
100
AcDbEntity
  8
0
100
AcDbCircle
 62
7
  6
CONTINUOUS
 10
9.6673277826
 20
11.5651184323
 40
0.2983097423
100
AcDbArc
 50
244.7450255228
 51
247.072076039
  0
ARC
  5
2D3
100
AcDbEntity
  8
0
100
AcDbCircle
 62
9
  6
CONTINUOUS
 10
9.7065455442
 20
12.9738574556
 40
0.7054489673
100
AcDbArc
 50
106.7932964478
 51
107.1141591749
  0
ARC
  5
2D4
100
AcDbEntity
  8
0
100
AcDbCircle
 62
7
  6
CONTINUOUS
 10
9.6991734762
 20
13.0200929786
 40
0.6651562147
100
AcDbArc
 50
107.3112722068
 51
107.7781474973
  0
ARC
  5
2D5
100
AcDbEntity
  8
0
100
AcDbCircle
 62
7
  6
CONTINUOUS
 10
9.8749104974
 20
12.3422183553
 40
1.104810727
100
AcDbArc
 50
261.0019182088
 51
261.4332005809
  0
ARC
  5
2D6
100
AcDbEntity
  8
0
100
AcDbCircle
 62
7
  6
CONTINUOUS
 10
9.8906902788
 20
12.331176559
 40
1.101919313
100
AcDbArc
 50
261.4852497116
 51
262.6546798743
  0
ARC
  5
2D7
100
AcDbEntity
  8
0
100
AcDbCircle
 62
9
  6
CONTINUOUS
 10
9.8100700602
 20
12.3087455068
 40
1.0974082696
100
AcDbArc
 50
256.7605866698
 51
259.292388555
  0
ARC
  5
2D8
100
AcDbEntity
  8
0
100
AcDbCircle
 62
7
  6
CONTINUOUS
 10
9.923949719
 20
12.3503495584
 40
1.0954331434
100
AcDbArc
 50
266.8742875687
 51
268.1670319039
  0
ARC
  5
2D9
100
AcDbEntity
  8
0
100
AcDbCircle
 62
7
  6
CONTINUOUS
 10
9.8633164645
 20
12.2705905828
 40
1.0322511431
100
AcDbArc
 50
259.7540700916
 51
261.0157206922
  0
ARC
  5
2DA
100
AcDbEntity
  8
0
100
AcDbCircle
 62
7
  6
CONTINUOUS
 10
9.8531298884
 20
12.2138767257
 40
0.9746297616
100
AcDbArc
 50
259.3811674509
 51
259.7503214581
  0
ARC
  5
2DB
100
AcDbEntity
  8
0
100
AcDbCircle
 62
7
  6
CONTINUOUS
 10
9.8493453753
 20
12.1936804551
 40
0.9540819665
100
AcDbArc
 50
259.157564259
 51
259.3810501426
  0
ARC
  5
2DC
100
AcDbEntity
  8
0
100
AcDbCircle
 62
7
  6
CONTINUOUS
 10
9.8384218527
 20
12.1376579039
 40
0.8970047283
100
AcDbArc
 50
258.0638077547
 51
259.1697121652
  0
ARC
  5
2DD
100
AcDbEntity
  8
0
100
AcDbCircle
 62
7
  6
CONTINUOUS
 10
9.8972347976
 20
12.0764153265
 40
0.8201091948
100
AcDbArc
 50
261.2843159403
 51
262.8556136456
  0
ARC
  5
2DE
100
AcDbEntity
  8
0
100
AcDbCircle
 62
7
  6
CONTINUOUS
 10
9.9157764942
 20
12.1108631275
 40
0.8136478595
100
AcDbArc
 50
264.0436029461
 51
264.8822800108
  0
ARC
  5
2DF
100
AcDbEntity
  8
0
100
AcDbCircle
 62
7
  6
CONTINUOUS
 10
9.8214775887
 20
11.7042813179
 40
0.4401038029
100
AcDbArc
 50
253.5168817048
 51
255.9029084482
  0
ARC
  5
2E0
100
AcDbEntity
  8
0
100
AcDbCircle
 62
9
  6
CONTINUOUS
 10
9.922311295
 20
13.1600953131
 40
1.9568683809
100
AcDbArc
 50
266.261124369
 51
267.7870034829
  0
ARC
  5
2E1
100
AcDbEntity
  8
0
100
AcDbCircle
 62
9
  6
CONTINUOUS
 10
9.9132816572
 20
13.0225304225
 40
1.8190074663
100
AcDbArc
 50
264.009471709
 51
266.2623810593
  0
ARC
  5
2E2
100
AcDbEntity
  8
0
100
AcDbCircle
 62
7
  6
CONTINUOUS
 10
9.9251615141
 20
12.8569526359
 40
1.622336037
100
AcDbArc
 50
270.3808765891
 51
270.9074818891
  0
ARC
  5
2E3
100
AcDbEntity
  8
0
100
AcDbCircle
 62
7
  6
CONTINUOUS
 10
9.9251648215
 20
12.856092888
 40
1.6214762862
100
AcDbArc
 50
270.0441585645
 51
270.3809616702
  0
ARC
  5
2E4
100
AcDbEntity
  8
0
100
AcDbCircle
 62
7
  6
CONTINUOUS
 10
9.925120149
 20
12.852459017
 40
1.6178419756
100
AcDbArc
 50
268.7148566005
 51
269.0917960281
  0
ARC
  5
2E5
100
AcDbEntity
  8
0
100
AcDbCircle
 62
7
  6
CONTINUOUS
 10
9.8916190567
 20
12.8182685074
 40
1.6140346494
100
AcDbArc
 50
261.9439707842
 51
264.0177316399
  0
ARC
  5
2E6
100
AcDbEntity
  8
0
100
AcDbCircle
 62
9
  6
CONTINUOUS
 10
9.891161175
 20
12.8049060731
 40
1.6002631036
100
AcDbArc
 50
261.895154422
 51
263.9839623189
  0
ARC
  5
2E7
100
AcDbEntity
  8
0
100
AcDbCircle
 62
7
  6
CONTINUOUS
 10
9.9196573709
 20
12.7371271821
 40
1.5023725585
100
AcDbArc
 50
266.0119454881
 51
266.5716750389
  0
ARC
  5
2E8
100
AcDbEntity
  8
0
100
AcDbCircle
 62
7
  6
CONTINUOUS
 10
9.9178820323
 20
12.7115262327
 40
1.4767101278
100
AcDbArc
 50
265.7686361474
 51
266.0115781449
  0
ARC
  5
2E9
100
AcDbEntity
  8
0
100
AcDbCircle
 62
7
  6
CONTINUOUS
 10
9.9238716752
 20
12.6830330755
 40
1.4554547364
100
AcDbArc
 50
267.0341787992
 51
268.0071406734
  0
ARC
  5
2EA
100
AcDbEntity
  8
0
100
AcDbCircle
 62
7
  6
CONTINUOUS
 10
9.9160126092
 20
12.6865620072
 40
1.4516760154
100
AcDbArc
 50
265.2893044331
 51
265.7695188335
  0
ARC
  5
2EB
100
AcDbEntity
  8
0
100
AcDbCircle
 62
7
  6
CONTINUOUS
 10
9.9145592402
 20
12.6688431313
 40
1.4338976353
100
AcDbArc
 50
265.1029791482
 51
265.2890369075
  0
ARC
  5
2EC
100
AcDbEntity
  8
0
100
AcDbCircle
 62
7
  6
CONTINUOUS
 10
9.914261872
 20
12.6654427048
 40
1.416884408
100
AcDbArc
 50
264.7919079564
 51
265.322159144
  0
ARC
  5
2ED
100
AcDbEntity
  8
0
100
AcDbCircle
 62
7
  6
CONTINUOUS
 10
9.9125603779
 20
12.6458141116
 40
1.4107820446
100
AcDbArc
 50
264.658460552
 51
265.1040225304
  0
ARC
  5
2EE
100
AcDbEntity
  8
0
100
AcDbCircle
 62
7
  6
CONTINUOUS
 10
9.9107539535
 20
12.626427888
 40
1.3913118419
100
AcDbArc
 50
264.4703828917
 51
264.6582080548
  0
ARC
  5
2EF
100
AcDbEntity
  8
0
100
AcDbCircle
 62
7
  6
CONTINUOUS
 10
9.9113305182
 20
12.6328872238
 40
1.3841972415
100
AcDbArc
 50
264.5209319851
 51
264.7904213644
  0
ARC
  5
2F0
100
AcDbEntity
  8
0
100
AcDbCircle
 62
9
  6
CONTINUOUS
 10
9.8574352505
 20
12.565433475
 40
1.3584276237
100
AcDbArc
 50
259.340953133
 51
261.8794231466
  0
ARC
  5
2F1
100
AcDbEntity
  8
0
100
AcDbCircle
 62
7
  6
CONTINUOUS
 10
9.9069590731
 20
12.5880901921
 40
1.3527868765
100
AcDbArc
 50
263.7465370867
 51
264.4738978431
  0
ARC
  5
2F2
100
AcDbEntity
  8
0
100
AcDbCircle
 62
7
  6
CONTINUOUS
 10
9.3977937267
 20
13.5446055996
 40
0.0426166904
100
AcDbArc
 50
178.4800399841
 51
179.9998428673
  0
ARC
  5
2F3
100
AcDbEntity
  8
0
100
AcDbCircle
 62
7
  6
CONTINUOUS
 10
9.9251908034
 20
9.8561517819
 40
1.621774655
100
AcDbArc
 50
90.1381507493
 51
90.9145997091
  0
ARC
  5
2F4
100
AcDbEntity
  8
0
100
AcDbCircle
 62
7
  6
CONTINUOUS
 10
9.9251789832
 20
9.8567427937
 40
1.6211836513
100
AcDbArc
 50
89.0841543831
 51
89.6513417854
  0
ARC
  5
2F5
100
AcDbEntity
  8
0
100
AcDbCircle
 62
7
  6
CONTINUOUS
 10
9.9251829181
 20
9.8576057793
 40
1.6203206578
100
AcDbArc
 50
89.651295229
 51
89.8624474982
  0
ARC
  5
2F6
100
AcDbEntity
  8
0
100
AcDbCircle
 62
7
  6
CONTINUOUS
 10
9.9251869241
 20
9.8576963684
 40
1.6202300637
100
AcDbArc
 50
90.0023079799
 51
90.138145266
  0
ARC
  5
2F7
100
AcDbEntity
  8
0
100
AcDbCircle
 62
7
  6
CONTINUOUS
 10
9.925186562
 20
9.858919692
 40
1.6190067401
100
AcDbArc
 50
89.8624648228
 51
90.0022969127
  0
ARC
  5
2F8
100
AcDbEntity
  8
0
100
AcDbCircle
 62
7
  6
CONTINUOUS
 10
9.92538819
 20
9.8674083722
 40
1.6105160919
100
AcDbArc
 50
88.1119099141
 51
89.0855312861
  0
ARC
  5
2F9
100
AcDbEntity
  8
0
100
AcDbCircle
 62
7
  6
CONTINUOUS
 10
9.9264691035
 20
9.8985146177
 40
1.579391122
100
AcDbArc
 50
87.2119131661
 51
88.1139216981
  0
ARC
  5
2FA
100
AcDbEntity
  8
0
100
AcDbCircle
 62
7
  6
CONTINUOUS
 10
9.9282608566
 20
9.9350041539
 40
1.5428576249
100
AcDbArc
 50
86.6326416162
 51
87.2124592446
  0
ARC
  5
2FB
100
AcDbEntity
  8
0
100
AcDbCircle
 62
7
  6
CONTINUOUS
 10
9.9293892599
 20
9.9543926482
 40
1.5234363261
100
AcDbArc
 50
86.4814612302
 51
86.6321760188
  0
ARC
  5
2FC
100
AcDbEntity
  8
0
100
AcDbCircle
 62
7
  6
CONTINUOUS
 10
9.9307960127
 20
9.976827912
 40
1.5009570186
100
AcDbArc
 50
86.0396071248
 51
86.4825001156
  0
ARC
  5
2FD
100
AcDbEntity
  8
0
100
AcDbCircle
 62
7
  6
CONTINUOUS
 10
9.9323969205
 20
9.9999805723
 40
1.4777490765
100
AcDbArc
 50
85.7686959495
 51
86.0395297035
  0
ARC
  5
2FE
100
AcDbEntity
  8
0
100
AcDbCircle
 62
7
  6
CONTINUOUS
 10
9.9334642906
 20
10.0144881461
 40
1.4632022919
100
AcDbArc
 50
85.6119018716
 51
85.7684628592
  0
ARC
  5
2FF
100
AcDbEntity
  8
0
100
AcDbCircle
 62
7
  6
CONTINUOUS
 10
9.9264823973
 20
9.996805185
 40
1.4554547364
100
AcDbArc
 50
87.0341787992
 51
88.0071406734
  0
ARC
  5
300
100
AcDbEntity
  8
0
100
AcDbCircle
 62
7
  6
CONTINUOUS
 10
9.9342574718
 20
10.0248027299
 40
1.4528572558
100
AcDbArc
 50
85.405016033
 51
85.6119676362
  0
ARC
  5
301
100
AcDbEntity
  8
0
100
AcDbCircle
 62
7
  6
CONTINUOUS
 10
9.9373207974
 20
10.0615901583
 40
1.4159425135
100
AcDbArc
 50
84.6453014623
 51
85.3097045611
  0
ARC
  5
302
100
AcDbEntity
  8
0
100
AcDbCircle
 62
7
  6
CONTINUOUS
 10
9.9457266291
 20
10.1473474253
 40
1.3297750947
100
AcDbArc
 50
83.1258738602
 51
84.661079157
  0
ARC
  5
303
100
AcDbEntity
  8
0
100
AcDbCircle
 62
7
  6
CONTINUOUS
 10
9.956164136
 20
10.2342740957
 40
1.2422240483
100
AcDbArc
 50
82.4240210454
 51
83.1239529499
  0
ARC
  5
304
100
AcDbEntity
  8
0
100
AcDbCircle
 62
7
  6
CONTINUOUS
 10
9.9618149529
 20
10.2768284725
 40
1.1992961245
100
AcDbArc
 50
82.0891693881
 51
82.4235952125
  0
ARC
  5
305
100
AcDbEntity
  8
0
100
AcDbCircle
 62
7
  6
CONTINUOUS
 10
9.9662728737
 20
10.3087597733
 40
1.1670551477
100
AcDbArc
 50
81.7114971157
 51
82.0901873647
  0
ARC
  5
306
100
AcDbEntity
  8
0
100
AcDbCircle
 62
7
  6
CONTINUOUS
 10
9.9737967056
 20
10.3597874311
 40
1.115475873
100
AcDbArc
 50
81.0030193569
 51
81.7160796874
  0
ARC
  5
307
100
AcDbEntity
  8
0
100
AcDbCircle
 62
7
  6
CONTINUOUS
 10
9.9596637937
 20
10.3486617016
 40
1.1019193129
100
AcDbArc
 50
81.4852497116
 51
82.6546798743
  0
ARC
  5
308
100
AcDbEntity
  8
0
100
AcDbCircle
 62
7
  6
CONTINUOUS
 10
9.9264043535
 20
10.329488702
 40
1.0954331436
100
AcDbArc
 50
86.8742875688
 51
88.1670319038
  0
ARC
  5
309
100
AcDbEntity
  8
0
100
AcDbCircle
 62
7
  6
CONTINUOUS
 10
9.981994548
 20
10.4114314254
 40
1.0631852781
100
AcDbArc
 50
80.4390985565
 51
81.0041385791
  0
ARC
  5
30A
100
AcDbEntity
  8
0
100
AcDbCircle
 62
7
  6
CONTINUOUS
 10
9.9858551936
 20
10.4344474595
 40
1.0398477086
100
AcDbArc
 50
80.3084522062
 51
80.4382253058
  0
ARC
  5
30B
100
AcDbEntity
  8
0
100
AcDbCircle
 62
7
  6
CONTINUOUS
 10
9.9883510175
 20
10.4490306033
 40
1.0250525339
100
AcDbArc
 50
80.0583119907
 51
80.3087439827
  0
ARC
  5
30C
100
AcDbEntity
  8
0
100
AcDbCircle
 62
7
  6
CONTINUOUS
 10
9.993586691
 20
10.4787428462
 40
0.9948825343
100
AcDbArc
 50
79.6074938978
 51
80.0598876751
  0
ARC
  5
30D
100
AcDbEntity
  8
0
100
AcDbCircle
 62
7
  6
CONTINUOUS
 10
9.997130733
 20
10.4981197387
 40
0.9751842067
100
AcDbArc
 50
79.4768951593
 51
79.6069354361
  0
ARC
  5
30E
100
AcDbEntity
  8
0
100
AcDbCircle
 62
7
  6
CONTINUOUS
 10
9.9251856784
 20
10.4899425402
 40
0.9507335853
100
AcDbArc
 50
89.288456645
 51
90.7118636411
  0
ARC
  5
30F
100
AcDbEntity
  8
0
100
AcDbCircle
 62
7
  6
CONTINUOUS
 10
10.0069997994
 20
10.5502175169
 40
0.9221602552
100
AcDbArc
 50
78.4037129405
 51
79.4885983564
  0
ARC
  5
310
100
AcDbEntity
  8
0
100
AcDbCircle
 62
7
  6
CONTINUOUS
 10
9.9251924854
 20
10.5449788135
 40
0.8910497938
100
AcDbArc
 50
90.0009934035
 51
91.2714873277
  0
ARC
  5
311
100
AcDbEntity
  8
0
100
AcDbCircle
 62
7
  6
CONTINUOUS
 10
10.0185560697
 20
10.6066148277
 40
0.8645911336
100
AcDbArc
 50
77.8669205938
 51
78.402633612
  0
ARC
  5
312
100
AcDbEntity
  8
0
100
AcDbCircle
 62
7
  6
CONTINUOUS
 10
10.0238294263
 20
10.6311878844
 40
0.8394586184
100
AcDbArc
 50
77.6314088184
 51
77.8662872526
  0
ARC
  5
313
100
AcDbEntity
  8
0
100
AcDbCircle
 62
7
  6
CONTINUOUS
 10
9.9531192749
 20
10.6034229341
 40
0.8201091948
100
AcDbArc
 50
81.2843159403
 51
82.8556136457
  0
ARC
  5
314
100
AcDbEntity
  8
0
100
AcDbCircle
 62
7
  6
CONTINUOUS
 10
9.9360295372
 20
10.6412027987
 40
0.7990621698
100
AcDbArc
 50
83.9071516955
 51
84.3571359423
  0
ARC
  5
315
100
AcDbEntity
  8
0
100
AcDbCircle
 62
7
  6
CONTINUOUS
 10
10.0327580041
 20
10.6714876057
 40
0.7981817643
100
AcDbArc
 50
76.846909982
 51
77.6378081256
  0
ARC
  5
316
100
AcDbEntity
  8
0
100
AcDbCircle
 62
7
  6
CONTINUOUS
 10
9.9394756738
 20
10.6732629781
 40
0.7668173194
100
AcDbArc
 50
82.7710906155
 51
83.9089303117
  0
ARC
  5
317
100
AcDbEntity
  8
0
100
AcDbCircle
 62
7
  6
CONTINUOUS
 10
9.9347214816
 20
10.6823924058
 40
0.7532829919
100
AcDbArc
 50
83.9513508466
 51
84.8611301647
  0
ARC
  5
318
100
AcDbEntity
  8
0
100
AcDbCircle
 62
7
  6
CONTINUOUS
 10
10.0391850337
 20
10.6991187668
 40
0.7698129982
100
AcDbArc
 50
76.6963038727
 51
76.84474019
  0
ARC
  5
319
100
AcDbEntity
  8
0
100
AcDbCircle
 62
7
  6
CONTINUOUS
 10
9.9374981198
 20
10.7086045681
 40
0.726924176
100
AcDbArc
 50
83.4572963073
 51
83.9512822368
  0
ARC
  5
31A
100
AcDbEntity
  8
0
100
AcDbCircle
 62
7
  6
CONTINUOUS
 10
10.0513806939
 20
10.7498019593
 40
0.7176835937
100
AcDbArc
 50
75.4895888945
 51
76.7127130852
  0
ARC
  5
31B
100
AcDbEntity
  8
0
100
AcDbCircle
 62
7
  6
CONTINUOUS
 10
9.9449309022
 20
10.7698942109
 40
0.665186902
100
AcDbArc
 50
81.4051938189
 51
83.4918195805
  0
ARC
  5
31C
100
AcDbEntity
  8
0
100
AcDbCircle
 62
7
  6
CONTINUOUS
 10
10.0288764838
 20
10.9755569427
 40
0.4401038028
100
AcDbArc
 50
73.5168817048
 51
75.9029084483
  0
ARC
  5
31D
100
AcDbEntity
  8
0
100
AcDbCircle
 62
7
  6
CONTINUOUS
 10
10.0383949048
 20
11.1796929427
 40
0.2441835348
100
AcDbArc
 50
69.8959265686
 51
71.3341157444
  0
ARC
  5
31E
100
AcDbEntity
  8
0
100
AcDbCircle
 62
7
  6
CONTINUOUS
 10
10.0459276594
 20
11.2002840165
 40
0.2222578719
100
AcDbArc
 50
69.1060093585
 51
69.8949174716
  0
ARC
  5
31F
100
AcDbEntity
  8
0
100
AcDbCircle
 62
7
  6
CONTINUOUS
 10
9.9252028845
 20
11.3491177741
 40
0.0899680187
100
AcDbArc
 50
267.5283669078
 51
272.4749251148
  0
ARC
  5
320
100
AcDbEntity
  8
0
100
AcDbCircle
 62
7
  6
CONTINUOUS
 10
10.0416760842
 20
11.3480827899
 40
0.0838954761
100
AcDbArc
 50
272.4608541117
 51
275.9183400852
  0
ARC
  5
321
100
AcDbEntity
  8
0
100
AcDbCircle
 62
7
  6
CONTINUOUS
 10
10.0664695927
 20
10.8080663478
 40
0.6574971023
100
AcDbArc
 50
74.7307563776
 51
75.4903825547
  0
ARC
  5
322
100
AcDbEntity
  8
0
100
AcDbCircle
 62
7
  6
CONTINUOUS
 10
10.0768139976
 20
10.8458670668
 40
0.6183065366
100
AcDbArc
 50
74.0753318529
 51
74.7330006424
  0
ARC
  5
323
100
AcDbEntity
  8
0
100
AcDbCircle
 62
7
  6
CONTINUOUS
 10
10.0575197879
 20
10.8408648319
 40
0.5997659307
100
AcDbArc
 50
73.8344998893
 51
75.5852902638
  0
ARC
  5
324
100
AcDbEntity
  8
0
100
AcDbCircle
 62
7
  6
CONTINUOUS
 10
10.083232368
 20
10.8683845483
 40
0.5948921732
100
AcDbArc
 50
73.7107185155
 51
74.074740446
  0
ARC
  5
325
100
AcDbEntity
  8
0
100
AcDbCircle
 62
7
  6
CONTINUOUS
 10
10.0901150281
 20
10.8918625378
 40
0.5704261449
100
AcDbArc
 50
73.1739106114
 51
73.7128379256
  0
ARC
  5
326
100
AcDbEntity
  8
0
100
AcDbCircle
 62
7
  6
CONTINUOUS
 10
10.0986735981
 20
10.9200356023
 40
0.5409818035
100
AcDbArc
 50
72.492307819
 51
73.1778258305
  0
ARC
  5
327
100
AcDbEntity
  8
0
100
AcDbCircle
 62
7
  6
CONTINUOUS
 10
10.1043064511
 20
10.937929739
 40
0.5222220319
100
AcDbArc
 50
72.2399445025
 51
72.4910744029
  0
ARC
  5
328
100
AcDbEntity
  8
0
100
AcDbCircle
 62
7
  6
CONTINUOUS
 10
10.1166642014
 20
10.9759542447
 40
0.4822402151
100
AcDbArc
 50
70.8510900284
 51
72.2601589385
  0
ARC
  5
329
100
AcDbEntity
  8
0
100
AcDbCircle
 62
7
  6
CONTINUOUS
 10
10.1368721655
 20
11.0336064447
 40
0.421149287
100
AcDbArc
 50
69.1265138152
 51
70.8753759562
  0
ARC
  5
32A
100
AcDbEntity
  8
0
100
AcDbCircle
 62
7
  6
CONTINUOUS
 10
10.1508468257
 20
11.0703561955
 40
0.3818321936
100
AcDbArc
 50
68.3948491132
 51
69.1210145418
  0
ARC
  5
32B
100
AcDbEntity
  8
0
100
AcDbCircle
 62
7
  6
CONTINUOUS
 10
10.1615276306
 20
11.0971486012
 40
0.3529893784
100
AcDbArc
 50
67.3012394254
 51
68.4054363123
  0
ARC
  5
32C
100
AcDbEntity
  8
0
100
AcDbCircle
 62
7
  6
CONTINUOUS
 10
10.1732955069
 20
11.1251703142
 40
0.32259699
100
AcDbArc
 50
66.2195923947
 51
67.3089162144
  0
ARC
  5
32D
100
AcDbEntity
  8
0
100
AcDbCircle
 62
7
  6
CONTINUOUS
 10
10.1805788347
 20
11.141730606
 40
0.3045058332
100
AcDbArc
 50
65.7162663516
 51
66.217204571
  0
ARC
  5
32E
100
AcDbEntity
  8
0
100
AcDbCircle
 62
7
  6
CONTINUOUS
 10
10.1855414077
 20
11.1527301493
 40
0.2924386428
100
AcDbArc
 50
65.2168310745
 51
65.7162391651
  0
ARC
  5
32F
100
AcDbEntity
  8
0
100
AcDbCircle
 62
7
  6
CONTINUOUS
 10
10.1172739065
 20
11.525119517
 40
0.1806093006
100
AcDbArc
 50
295.0274499975
 51
297.0440435564
  0
ARC
  5
330
100
AcDbEntity
  8
0
100
AcDbCircle
 62
7
  6
CONTINUOUS
 10
10.128329598
 20
11.5035752941
 40
0.1563940404
100
AcDbArc
 50
297.0252838383
 51
298.9141143716
  0
ARC
  5
331
100
AcDbEntity
  8
0
100
AcDbCircle
 62
7
  6
CONTINUOUS
 10
10.1338535545
 20
11.4935249942
 40
0.144925736
100
AcDbArc
 50
298.923575009
 51
299.4304383378
  0
ARC
  5
332
100
AcDbEntity
  8
0
100
AcDbCircle
 62
7
  6
CONTINUOUS
 10
10.1376132779
 20
11.2574530092
 40
0.1372515784
100
AcDbArc
 50
59.2781839926
 51
61.0032924056
  0
ARC
  5
333
100
AcDbEntity
  8
0
100
AcDbCircle
 62
7
  6
CONTINUOUS
 10
10.1401124053
 20
11.4825562447
 40
0.1322970964
100
AcDbArc
 50
299.4038088344
 51
301.2254053224
  0
ARC
  5
334
100
AcDbEntity
  8
0
100
AcDbCircle
 62
7
  6
CONTINUOUS
 10
10.1504026053
 20
11.4658078066
 40
0.1126404865
100
AcDbArc
 50
301.1658868962
 51
304.2127651902
  0
ARC
  5
335
100
AcDbEntity
  8
0
100
AcDbCircle
 62
7
  6
CONTINUOUS
 10
10.1568245632
 20
11.4563015784
 40
0.1011684072
100
AcDbArc
 50
304.232231519
 51
305.2019338689
  0
ARC
  5
336
100
AcDbEntity
  8
0
100
AcDbCircle
 62
7
  6
CONTINUOUS
 10
10.163732668
 20
11.446659158
 40
0.0893071366
100
AcDbArc
 50
305.1465548239
 51
308.115210105
  0
ARC
  5
337
100
AcDbEntity
  8
0
100
AcDbCircle
 62
7
  6
CONTINUOUS
 10
10.1234534168
 20
11.3471041336
 40
0.0554567767
100
AcDbArc
 50
48.050817024
 51
49.4735703071
  0
ARC
  5
338
100
AcDbEntity
  8
0
100
AcDbCircle
 62
7
  6
CONTINUOUS
 10
9.9738450704
 20
12.352544855
 40
1.1152601411
100
AcDbArc
 50
278.5453816694
 51
278.8367267149
  0
ARC
  5
339
100
AcDbEntity
  8
0
100
AcDbCircle
 62
7
  6
CONTINUOUS
 10
9.9261247463
 20
12.3568070473
 40
1.1018962741
100
AcDbArc
 50
271.8367595269
 51
273.1219210005
  0
ARC
  5
33A
100
AcDbEntity
  8
0
100
AcDbCircle
 62
7
  6
CONTINUOUS
 10
9.9617880156
 20
12.3159268402
 40
1.0865231705
100
AcDbArc
 50
277.3370343605
 51
278.5230360536
  0
ARC
  5
33B
100
AcDbEntity
  8
0
100
AcDbCircle
 62
9
  6
CONTINUOUS
 10
10.0459263922
 20
12.2815590731
 40
1.0696525539
100
AcDbArc
 50
280.4114200078
 51
283.2653029163
  0
ARC
  5
33C
100
AcDbEntity
  8
0
100
AcDbCircle
 62
7
  6
CONTINUOUS
 10
9.982949925
 20
12.2946233213
 40
1.0566274529
100
AcDbArc
 50
278.831362879
 51
280.2352599324
  0
ARC
  5
33D
100
AcDbEntity
  8
0
100
AcDbCircle
 62
7
  6
CONTINUOUS
 10
9.9963205793
 20
12.2187882928
 40
0.9796234441
100
AcDbArc
 50
280.2538166061
 51
280.6208599451
  0
ARC
  5
33E
100
AcDbEntity
  8
0
100
AcDbCircle
 62
7
  6
CONTINUOUS
 10
10.0009884613
 20
12.1938040393
 40
0.9542068796
100
AcDbArc
 50
280.6218755842
 51
280.8456308611
  0
ARC
  5
33F
100
AcDbEntity
  8
0
100
AcDbCircle
 62
7
  6
CONTINUOUS
 10
10.0091843525
 20
12.1513383114
 40
0.9109575209
100
AcDbArc
 50
280.8419205293
 51
281.9260968124
  0
ARC
  5
340
100
AcDbEntity
  8
0
100
AcDbCircle
 62
7
  6
CONTINUOUS
 10
9.9509948667
 20
12.0916663822
 40
0.8355060794
100
AcDbArc
 50
277.1588653418
 51
278.7012050722
  0
ARC
  5
341
100
AcDbEntity
  8
0
100
AcDbCircle
 62
7
  6
CONTINUOUS
 10
9.9351732965
 20
12.1047470941
 40
0.8075029838
100
AcDbArc
 50
275.1398632497
 51
275.9572983091
  0
ARC
  5
342
100
AcDbEntity
  8
0
100
AcDbCircle
 62
7
  6
CONTINUOUS
 10
9.9900526885
 20
11.7664509022
 40
0.4645836501
100
AcDbArc
 50
281.3432273032
 51
284.1481258179
  0
ARC
  5
343
100
AcDbEntity
  8
0
100
AcDbCircle
 62
7
  6
CONTINUOUS
 10
10.0247865285
 20
11.7192418274
 40
0.4556100549
100
AcDbArc
 50
284.1377001923
 51
286.4425096547
  0
ARC
  5
344
100
AcDbEntity
  8
0
100
AcDbCircle
 62
9
  6
CONTINUOUS
 10
9.9251754789
 20
13.2439016758
 40
2.0407228726
100
AcDbArc
 50
267.7975065379
 51
272.2024967858
  0
ARC
  5
345
100
AcDbEntity
  8
0
100
AcDbCircle
 62
9
  6
CONTINUOUS
 10
9.928736363
 20
13.1468325445
 40
1.9435886099
100
AcDbArc
 50
272.207574452
 51
273.7400382161
  0
ARC
  5
346
100
AcDbEntity
  8
0
100
AcDbCircle
 62
9
  6
CONTINUOUS
 10
9.9402968405
 20
12.9845959309
 40
1.7809436843
100
AcDbArc
 50
273.7093715564
 51
276.0185355085
  0
ARC
  5
347
100
AcDbEntity
  8
0
100
AcDbCircle
 62
7
  6
CONTINUOUS
 10
9.9251752336
 20
12.8558188047
 40
1.6212022143
100
AcDbArc
 50
269.0917315877
 51
269.6186189104
  0
ARC
  5
348
100
AcDbEntity
  8
0
100
AcDbCircle
 62
7
  6
CONTINUOUS
 10
9.9251698932
 20
12.8547086433
 40
1.620092042
100
AcDbArc
 50
269.6185464357
 51
269.9383374728
  0
ARC
  5
349
100
AcDbEntity
  8
0
100
AcDbCircle
 62
7
  6
CONTINUOUS
 10
9.9252217914
 20
12.853250369
 40
1.6186332798
100
AcDbArc
 50
270.9074240594
 51
271.2822435298
  0
ARC
  5
34A
100
AcDbEntity
  8
0
100
AcDbCircle
 62
7
  6
CONTINUOUS
 10
9.9251785618
 20
12.8607489141
 40
1.6125347181
100
AcDbArc
 50
269.9999992315
 51
270.3650708116
  0
ARC
  5
34B
100
AcDbEntity
  8
0
100
AcDbCircle
 62
7
  6
CONTINUOUS
 10
9.9629624518
 20
12.783934124
 40
1.5794467664
100
AcDbArc
 50
275.960174222
 51
278.0780302665
  0
ARC
  5
34C
100
AcDbEntity
  8
0
100
AcDbCircle
 62
9
  6
CONTINUOUS
 10
9.9634003096
 20
12.7709757157
 40
1.5660786412
100
AcDbArc
 50
275.9973889754
 51
278.1208180222
  0
ARC
  5
34D
100
AcDbEntity
  8
0
100
AcDbCircle
 62
7
  6
CONTINUOUS
 10
9.9303133164
 20
12.7428943212
 40
1.508152402
100
AcDbArc
 50
273.4200593166
 51
273.9805690663
  0
ARC
  5
34E
100
AcDbEntity
  8
0
100
AcDbCircle
 62
7
  6
CONTINUOUS
 10
9.9321813541
 20
12.7153834987
 40
1.4805782702
100
AcDbArc
 50
273.982357679
 51
274.0967680745
  0
ARC
  5
34F
100
AcDbEntity
  8
0
100
AcDbCircle
 62
7
  6
CONTINUOUS
 10
9.9335144205
 20
12.6969662689
 40
1.4621128641
100
AcDbArc
 50
274.0962229241
 51
274.7118395585
  0
ARC
  5
350
100
AcDbEntity
  8
0
100
AcDbCircle
 62
7
  6
CONTINUOUS
 10
9.92676198
 20
12.6765761527
 40
1.4489919975
100
AcDbArc
 50
271.9906894904
 51
272.967991037
  0
ARC
  5
351
100
AcDbEntity
  8
0
100
AcDbCircle
 62
7
  6
CONTINUOUS
 10
9.9355675593
 20
12.6717646222
 40
1.4232280532
100
AcDbArc
 50
274.6781356214
 51
274.942675094
  0
ARC
  5
352
100
AcDbEntity
  8
0
100
AcDbCircle
 62
7
  6
CONTINUOUS
 10
9.9369656885
 20
12.6550459375
 40
1.4200506556
100
AcDbArc
 50
274.8099244127
 51
275.3413173494
  0
ARC
  5
353
100
AcDbEntity
  8
0
100
AcDbCircle
 62
7
  6
CONTINUOUS
 10
9.9395487904
 20
12.6270113436
 40
1.3918973358
100
AcDbArc
 50
275.3428739837
 51
275.5303775594
  0
ARC
  5
354
100
AcDbEntity
  8
0
100
AcDbCircle
 62
7
  6
CONTINUOUS
 10
9.9383951318
 20
12.6395211331
 40
1.3908608446
100
AcDbArc
 50
274.9410688729
 51
275.4787438855
  0
ARC
  5
355
100
AcDbEntity
  8
0
100
AcDbCircle
 62
7
  6
CONTINUOUS
 10
9.9424150456
 20
12.5976668475
 40
1.3624132005
100
AcDbArc
 50
275.5293311499
 51
276.2504181299
  0
ARC
  5
356
100
AcDbEntity
  8
0
100
AcDbCircle
 62
9
  6
CONTINUOUS
 10
9.9983204544
 20
12.5331069804
 40
1.3256626605
100
AcDbArc
 50
278.0789625213
 51
280.4703555577
  0
ARC
  5
357
100
AcDbEntity
  8
0
100
AcDbCircle
 62
7
  6
CONTINUOUS
 10
10.0616093847
 20
11.8240142308
 40
0.5842596489
100
AcDbArc
 50
284.3914748213
 51
286.1887350257
  0
ARC
  5
358
100
AcDbEntity
  8
0
100
AcDbCircle
 62
7
  6
CONTINUOUS
 10
10.1206192599
 20
11.7246110753
 40
0.4696258631
100
AcDbArc
 50
287.9217340532
 51
290.1982429392
  0
ARC
  5
359
100
AcDbEntity
  8
0
100
AcDbCircle
 62
7
  6
CONTINUOUS
 10
10.1416268879
 20
11.666336071
 40
0.4076814706
100
AcDbArc
 50
290.2551396893
 51
290.9101871725
  0
ARC
  5
35A
100
AcDbEntity
  8
0
100
AcDbCircle
 62
7
  6
CONTINUOUS
 10
10.1501385052
 20
11.6440120762
 40
0.3837898804
100
AcDbArc
 50
290.9126465984
 51
291.6985587317
  0
ARC
  5
35B
100
AcDbEntity
  8
0
100
AcDbCircle
 62
7
  6
CONTINUOUS
 10
10.1577325327
 20
11.6248318028
 40
0.3631609974
100
AcDbArc
 50
291.7041542849
 51
292.0883452044
  0
ARC
  5
35C
100
AcDbEntity
  8
0
100
AcDbCircle
 62
7
  6
CONTINUOUS
 10
10.163922264
 20
11.6096051364
 40
0.3467243297
100
AcDbArc
 50
292.0867480211
 51
292.9594078508
  0
ARC
  5
35D
100
AcDbEntity
  8
0
100
AcDbCircle
 62
7
  6
CONTINUOUS
 10
10.1784839452
 20
11.5753255716
 40
0.3094801404
100
AcDbArc
 50
292.9526704886
 51
295.0509600536
  0
ARC
  5
35E
100
AcDbEntity
  8
0
100
AcDbCircle
 62
7
  6
CONTINUOUS
 10
10.1024963523
 20
11.5566455805
 40
0.2154269175
100
AcDbArc
 50
292.3940853032
 51
295.0415038926
  0
ARC
  5
35F
100
AcDbEntity
  8
0
100
AcDbCircle
 62
7
  6
CONTINUOUS
 10
10.1902995378
 20
11.1630366675
 40
0.2810868095
100
AcDbArc
 50
64.7281504036
 51
65.2167429048
  0
ARC
  5
360
100
AcDbEntity
  8
0
100
AcDbCircle
 62
7
  6
CONTINUOUS
 10
10.196549078
 20
11.1762300432
 40
0.2664881268
100
AcDbArc
 50
63.946101778
 51
64.7322311573
  0
ARC
  5
361
100
AcDbEntity
  8
0
100
AcDbCircle
 62
7
  6
CONTINUOUS
 10
10.2013960119
 20
11.1861487068
 40
0.2554485321
100
AcDbArc
 50
63.4571607414
 51
63.9456429717
  0
ARC
  5
362
100
AcDbEntity
  8
0
100
AcDbCircle
 62
7
  6
CONTINUOUS
 10
10.2736905673
 20
11.3048737681
 40
0.1161936246
100
AcDbArc
 50
51.1393447338
 51
51.7667771093
  0
ARC
  5
363
100
AcDbEntity
  8
0
100
AcDbCircle
 62
7
  6
CONTINUOUS
 10
10.2813360194
 20
11.3141947538
 40
0.1041386921
100
AcDbArc
 50
48.1295406744
 51
51.1971496839
  0
ARC
  5
364
100
AcDbEntity
  8
0
100
AcDbCircle
 62
7
  6
CONTINUOUS
 10
10.2921197752
 20
11.3260935169
 40
0.0880806499
100
AcDbArc
 50
44.50744739
 51
48.1870259158
  0
ARC
  5
365
100
AcDbEntity
  8
0
100
AcDbCircle
 62
7
  6
CONTINUOUS
 10
10.2893073592
 20
11.3982215379
 40
0.0866189132
100
AcDbArc
 50
312.3461410308
 51
315.5886739579
  0
ARC
  5
366
100
AcDbEntity
  8
0
100
AcDbCircle
 62
7
  6
CONTINUOUS
 10
10.4397832288
 20
11.3664912273
 40
0.0554530411
100
AcDbArc
 50
344.7896684133
 51
346.3368387428
  0
ARC
  5
367
100
AcDbEntity
  8
0
100
AcDbCircle
 62
7
  6
CONTINUOUS
 10
10.2881592633
 20
11.3473381086
 40
0.0497019896
100
AcDbArc
 50
325.2034589845
 51
328.2954131089
  0
ARC
  5
368
100
AcDbEntity
  8
0
100
AcDbCircle
 62
7
  6
CONTINUOUS
 10
10.4525417259
 20
11.3658909459
 40
0.0426353103
100
AcDbArc
 50
357.7548350447
 51
359.9994936182
  0
ARC
  5
369
100
AcDbEntity
  8
0
100
AcDbCircle
 62
9
  6
CONTINUOUS
 10
10.4435404001
 20
11.3562683935
 40
0.0416366363
100
AcDbArc
 50
357.7548350443
 51
5.9337642009
  0
ARC
  5
36A
100
AcDbEntity
  8
0
100
AcDbCircle
 62
7
  6
CONTINUOUS
 10
10.3330506583
 20
11.3687822602
 40
0.0331264829
100
AcDbArc
 50
353.799498015
 51
358.3696553896
  0
ARC
  5
36B
100
AcDbEntity
  8
0
100
AcDbCircle
 62
7
  6
CONTINUOUS
 10
9.9251770363
 20
16.9965231078
 40
0.57
100
AcDbArc
 50
0.0
 51
180.0
  0
ARC
  5
36C
100
AcDbEntity
  8
0
100
AcDbCircle
 62
9
  6
CONTINUOUS
 10
12.7871824218
 20
7.9446477585
 40
1.1225869966
100
AcDbArc
 50
246.6417753969
 51
248.1920552559
  0
ARC
  5
36D
100
AcDbEntity
  8
0
100
AcDbCircle
 62
9
  6
CONTINUOUS
 10
12.4971080503
 20
4.3187868177
 40
1.115885081
100
AcDbArc
 50
111.7305425179
 51
113.3857945217
  0
ARC
  5
36E
100
AcDbEntity
  8
0
100
AcDbCircle
 62
7
  6
CONTINUOUS
 10
11.6331770363
 20
6.8822164753
 40
0.03
100
AcDbArc
 50
0.0
 51
89.4999999999
  0
ARC
  5
36F
100
AcDbEntity
  8
0
100
AcDbCircle
 62
7
  6
CONTINUOUS
 10
11.6331770363
 20
5.3750297404
 40
0.03
100
AcDbArc
 50
270.5000000001
 51
360.0
  0
ARC
  5
370
100
AcDbEntity
  8
0
100
AcDbCircle
 62
7
  6
CONTINUOUS
 10
11.7101770363
 20
5.3686231078
 40
0.03
100
AcDbArc
 50
180.0
 51
270.0
  0
ARC
  5
371
100
AcDbEntity
  8
0
100
AcDbCircle
 62
7
  6
CONTINUOUS
 10
11.7101770363
 20
6.8886231078
 40
0.03
100
AcDbArc
 50
90.0
 51
180.0
  0
ARC
  5
372
100
AcDbEntity
  8
0
100
AcDbCircle
 62
7
  6
CONTINUOUS
 10
12.6441770363
 20
5.4341133887
 40
0.02
100
AcDbArc
 50
270.0
 51
360.0
  0
ARC
  5
373
100
AcDbEntity
  8
0
100
AcDbCircle
 62
7
  6
CONTINUOUS
 10
12.6441770363
 20
6.8234208856
 40
0.02
100
AcDbArc
 50
359.999983072
 51
88.3507705543
  0
ARC
  5
374
100
AcDbEntity
  8
0
100
AcDbCircle
 62
7
  6
CONTINUOUS
 10
12.402539241
 20
9.2086231078
 40
0.02
100
AcDbArc
 50
90.0
 51
180.0
  0
ARC
  5
375
100
AcDbEntity
  8
0
100
AcDbCircle
 62
7
  6
CONTINUOUS
 10
12.922539241
 20
9.2086231078
 40
0.02
100
AcDbArc
 50
0.0
 51
90.0
  0
LINE
  5
376
100
AcDbEntity
  8
0
100
AcDbLine
 62
7
  6
CONTINUOUS
 10
9.9149010126
 20
11.2482469291
 11
9.9217514195
 21
11.2482232874
  0
LINE
  5
377
100
AcDbEntity
  8
0
100
AcDbLine
 62
7
  6
CONTINUOUS
 10
9.9217514195
 20
11.2482232874
 11
9.9251770363
 21
11.2482141941
  0
SPLINE
  5
378
100
AcDbEntity
  8
0
100
AcDbSpline
 62
7
  6
CONTINUOUS
 70
0
 71
3
 72
9
 73
5
 74
0
 42
0.0000001
 43
0.0000001
 44
0.0000000001
 40
0.0
 40
0.0
 40
0.0
 40
0.0
 40
0.2471296158
 40
1.0
 40
1.0
 40
1.0
 40
1.0
 10
10.3701770363
 20
11.3562715177
 30
0.0
 10
10.3701770363
 20
11.3570674437
 30
0.0
 10
10.3700606813
 20
11.3602875609
 30
0.0
 10
10.3694701691
 20
11.3634866073
 30
0.0
 10
10.3687971075
 20
11.3658160774
 30
0.0
  0
LINE
  5
379
100
AcDbEntity
  8
0
100
AcDbLine
 62
7
  6
CONTINUOUS
 10
10.3687971075
 20
11.3658160774
 11
10.3672040972
 21
11.3702822443
  0
SPLINE
  5
37A
100
AcDbEntity
  8
0
100
AcDbSpline
 62
7
  6
CONTINUOUS
 70
0
 71
3
 72
9
 73
5
 74
0
 42
0.0000001
 43
0.0000001
 44
0.0000000001
 40
0.0
 40
0.0
 40
0.0
 40
0.0
 40
0.2298113752
 40
1.0
 40
1.0
 40
1.0
 40
1.0
 10
10.3672040972
 20
11.3702822443
 30
0.0
 10
10.3665606237
 20
11.3717976776
 30
0.0
 10
10.3633713198
 20
11.3782278374
 30
0.0
 10
10.3588013853
 20
11.3839014141
 30
0.0
 10
10.3549353132
 20
11.3878382258
 30
0.0
  0
SPLINE
  5
37B
100
AcDbEntity
  8
0
100
AcDbSpline
 62
7
  6
CONTINUOUS
 70
0
 71
3
 72
9
 73
5
 74
0
 42
0.0000001
 43
0.0000001
 44
0.0000000001
 40
0.0
 40
0.0
 40
0.0
 40
0.0
 40
0.2396328317
 40
1.0
 40
1.0
 40
1.0
 40
1.0
 10
10.345598615
 20
11.3961436484
 30
0.0
 10
10.3447340917
 20
11.3968248174
 30
0.0
 10
10.3410867003
 20
11.3996168956
 30
0.0
 10
10.3372919988
 20
11.4022142845
 30
0.0
 10
10.3343497034
 20
11.4040956388
 30
0.0
  0
SPLINE
  5
37C
100
AcDbEntity
  8
0
100
AcDbSpline
 62
7
  6
CONTINUOUS
 70
0
 71
3
 72
9
 73
5
 74
0
 42
0.0000001
 43
0.0000001
 44
0.0000000001
 40
0.0
 40
0.0
 40
0.0
 40
0.0
 40
0.2369716986
 40
1.0
 40
1.0
 40
1.0
 40
1.0
 10
10.3343497034
 20
11.4040956388
 30
0.0
 10
10.3329136364
 20
11.4050138847
 30
0.0
 10
10.3267936939
 20
11.4087950357
 30
0.0
 10
10.320457417
 20
11.4122203463
 30
0.0
 10
10.3155474847
 20
11.4146730902
 30
0.0
  0
LINE
  5
37D
100
AcDbEntity
  8
0
100
AcDbLine
 62
7
  6
CONTINUOUS
 10
10.0531019926
 20
11.4727910357
 11
10.0506482779
 21
11.472990351
  0
LINE
  5
37E
100
AcDbEntity
  8
0
100
AcDbLine
 62
7
  6
CONTINUOUS
 10
9.7995779422
 20
11.4729798984
 11
9.7971574314
 21
11.4727830773
  0
SPLINE
  5
37F
100
AcDbEntity
  8
0
100
AcDbSpline
 62
7
  6
CONTINUOUS
 70
0
 71
3
 72
9
 73
5
 74
0
 42
0.0000001
 43
0.0000001
 44
0.0000000001
 40
0.0
 40
0.0
 40
0.0
 40
0.0
 40
0.2631573745
 40
1.0
 40
1.0
 40
1.0
 40
1.0
 10
9.5347789985
 20
11.4146591963
 30
0.0
 10
9.5330859034
 20
11.4138131336
 30
0.0
 10
9.52668923
 20
11.4105253146
 30
0.0
 10
9.5204441929
 20
11.4069354278
 30
0.0
 10
9.5159797798
 20
11.4040797098
 30
0.0
  0
SPLINE
  5
380
100
AcDbEntity
  8
0
100
AcDbSpline
 62
7
  6
CONTINUOUS
 70
0
 71
3
 72
9
 73
5
 74
0
 42
0.0000001
 43
0.0000001
 44
0.0000000001
 40
0.0
 40
0.0
 40
0.0
 40
0.0
 40
0.2664765886
 40
1.0
 40
1.0
 40
1.0
 40
1.0
 10
9.5159797798
 20
11.4040797098
 30
0.0
 10
9.5144469481
 20
11.4030992147
 30
0.0
 10
9.5087570652
 20
11.3993253834
 30
0.0
 10
9.5033210588
 20
11.3951524818
 30
0.0
 10
9.4995888592
 20
11.391812058
 30
0.0
  0
LINE
  5
381
100
AcDbEntity
  8
0
100
AcDbLine
 62
7
  6
CONTINUOUS
 10
9.4955300303
 20
11.3879511825
 11
9.4910921936
 21
11.3830441584
  0
SPLINE
  5
382
100
AcDbEntity
  8
0
100
AcDbSpline
 62
7
  6
CONTINUOUS
 70
0
 71
3
 72
9
 73
5
 74
0
 42
0.0000001
 43
0.0000001
 44
0.0000000001
 40
0.0
 40
0.0
 40
0.0
 40
0.0
 40
0.2659407514
 40
1.0
 40
1.0
 40
1.0
 40
1.0
 10
9.4910921936
 20
11.3830441584
 30
0.0
 10
9.490242646
 20
11.3820131338
 30
0.0
 10
9.4871652321
 20
11.3780442318
 30
0.0
 10
9.4845861216
 20
11.3736666972
 30
0.0
 10
9.4831457554
 20
11.3702721238
 30
0.0
  0
LINE
  5
383
100
AcDbEntity
  8
0
100
AcDbLine
 62
7
  6
CONTINUOUS
 10
9.4831457554
 20
11.3702721238
 11
9.4815549695
 21
11.3658090411
  0
SPLINE
  5
384
100
AcDbEntity
  8
0
100
AcDbSpline
 62
7
  6
CONTINUOUS
 70
0
 71
3
 72
9
 73
5
 74
0
 42
0.0000001
 43
0.0000001
 44
0.0000000001
 40
0.0
 40
0.0
 40
0.0
 40
0.0
 40
0.254613748
 40
1.0
 40
1.0
 40
1.0
 40
1.0
 10
9.4815549695
 20
11.3658090411
 30
0.0
 10
9.4813276768
 20
11.3650218197
 30
0.0
 10
9.4805365337
 20
11.3619018506
 30
0.0
 10
9.4801770363
 20
11.35867026
 30
0.0
 10
9.4801770363
 20
11.3562715177
 30
0.0
  0
SPLINE
  5
385
100
AcDbEntity
  8
0
100
AcDbSpline
 62
7
  6
CONTINUOUS
 70
0
 71
3
 72
9
 73
5
 74
0
 42
0.0000001
 43
0.0000001
 44
0.0000000001
 40
0.0
 40
0.0
 40
0.0
 40
0.0
 40
0.5112334316
 40
1.0
 40
1.0
 40
1.0
 40
1.0
 10
9.3595779906
 20
13.5589508705
 30
0.0
 10
9.3581660616
 20
13.5620399684
 30
0.0
 10
9.3559575618
 20
13.5683613913
 30
0.0
 10
9.3551846443
 20
13.575025181
 30
0.0
 10
9.3551845384
 20
13.578272397
 30
0.0
  0
SPLINE
  5
386
100
AcDbEntity
  8
0
100
AcDbSpline
 62
7
  6
CONTINUOUS
 70
0
 71
3
 72
11
 73
7
 74
0
 42
0.0000001
 43
0.0000001
 44
0.0000000001
 40
0.0
 40
0.0
 40
0.0
 40
0.0
 40
0.2184711242
 40
0.4509608625
 40
0.7087971254
 40
1.0
 40
1.0
 40
1.0
 40
1.0
 10
10.1711741539
 20
11.3687762844
 30
0.0
 10
10.1711739562
 20
11.3704449478
 30
0.0
 10
10.1706869765
 20
11.3739043879
 30
0.0
 10
10.1685711151
 20
11.3789391961
 30
0.0
 10
10.1651321118
 20
11.3838608926
 30
0.0
 10
10.1621786706
 20
11.3868624052
 30
0.0
 10
10.1605246766
 20
11.3883494459
 30
0.0
  0
SPLINE
  5
387
100
AcDbEntity
  8
0
100
AcDbSpline
 62
7
  6
CONTINUOUS
 70
0
 71
3
 72
9
 73
5
 74
0
 42
0.0000001
 43
0.0000001
 44
0.0000000001
 40
0.0
 40
0.0
 40
0.0
 40
0.0
 40
0.2391250616
 40
1.0
 40
1.0
 40
1.0
 40
1.0
 10
10.1594891606
 20
11.3892571792
 30
0.0
 10
10.1590357295
 20
11.3896449204
 30
0.0
 10
10.1571142462
 20
11.3912368085
 30
0.0
 10
10.1550994595
 20
11.3927145513
 30
0.0
 10
10.1535311385
 20
11.393784195
 30
0.0
  0
SPLINE
  5
388
100
AcDbEntity
  8
0
100
AcDbSpline
 62
7
  6
CONTINUOUS
 70
0
 71
3
 72
9
 73
5
 74
0
 42
0.0000001
 43
0.0000001
 44
0.0000000001
 40
0.0
 40
0.0
 40
0.0
 40
0.0
 40
0.2357427209
 40
1.0
 40
1.0
 40
1.0
 40
1.0
 10
10.116545585
 20
11.4110326709
 30
0.0
 10
10.1143146679
 20
11.4117872857
 30
0.0
 10
10.1048082545
 20
11.4148607579
 30
0.0
 10
10.0951530495
 20
11.4174635613
 30
0.0
 10
10.0877302991
 20
11.4192512372
 30
0.0
  0
SPLINE
  5
389
100
AcDbEntity
  8
0
100
AcDbSpline
 62
7
  6
CONTINUOUS
 70
0
 71
3
 72
9
 73
5
 74
0
 42
0.0000001
 43
0.0000001
 44
0.0000000001
 40
0.0
 40
0.0
 40
0.0
 40
0.0
 40
0.4807320172
 40
1.0
 40
1.0
 40
1.0
 40
1.0
 10
10.1881739547
 20
11.3687762848
 30
0.0
 10
10.1881737162
 20
11.3667633292
 30
0.0
 10
10.187501683
 20
11.3625563167
 30
0.0
 10
10.185678052
 20
11.3587314772
 30
0.0
 10
10.1845409053
 20
11.3568782239
 30
0.0
  0
SPLINE
  5
38A
100
AcDbEntity
  8
0
100
AcDbSpline
 62
7
  6
CONTINUOUS
 70
0
 71
3
 72
11
 73
7
 74
0
 42
0.0000001
 43
0.0000001
 44
0.0000000001
 40
0.0
 40
0.0
 40
0.0
 40
0.0
 40
0.1873632739
 40
0.4142237919
 40
0.6848650747
 40
1.0
 40
1.0
 40
1.0
 40
1.0
 10
10.1845409053
 20
11.3568782239
 30
0.0
 10
10.182735011
 20
11.3539350861
 30
0.0
 10
10.1776578525
 20
11.348096165
 30
0.0
 10
10.1675370774
 20
11.3404734991
 30
0.0
 10
10.1543935049
 20
11.3332166845
 30
0.0
 10
10.1444417938
 20
11.3289919345
 30
0.0
 10
10.1390160007
 20
11.3269204278
 30
0.0
  0
LINE
  5
38B
100
AcDbEntity
  8
0
100
AcDbLine
 62
7
  6
CONTINUOUS
 10
10.1390160007
 20
11.3269204278
 11
10.125451796
 21
11.3221768266
  0
SPLINE
  5
38C
100
AcDbEntity
  8
0
100
AcDbSpline
 62
7
  6
CONTINUOUS
 70
0
 71
3
 72
9
 73
5
 74
0
 42
0.0000001
 43
0.0000001
 44
0.0000000001
 40
0.0
 40
0.0
 40
0.0
 40
0.0
 40
0.2399561518
 40
1.0
 40
1.0
 40
1.0
 40
1.0
 10
10.125451796
 20
11.3221768266
 30
0.0
 10
10.1237221829
 20
11.3216215947
 30
0.0
 10
10.116493443
 20
11.3193723511
 30
0.0
 10
10.1091892317
 20
11.3173685907
 30
0.0
 10
10.103610672
 20
11.3159594457
 30
0.0
  0
SPLINE
  5
38D
100
AcDbEntity
  8
0
100
AcDbSpline
 62
7
  6
CONTINUOUS
 70
0
 71
3
 72
9
 73
5
 74
0
 42
0.0000001
 43
0.0000001
 44
0.0000000001
 40
0.0
 40
0.0
 40
0.0
 40
0.0
 40
0.4830857955
 40
1.0
 40
1.0
 40
1.0
 40
1.0
 10
10.081429752
 20
11.3109421753
 30
0.0
 10
10.0714605797
 20
11.3089284338
 30
0.0
 10
10.050703374
 20
11.3053480285
 30
0.0
 10
10.0298057178
 20
11.3027347661
 30
0.0
 10
10.018981796
 20
11.3016050119
 30
0.0
  0
SPLINE
  5
38E
100
AcDbEntity
  8
0
100
AcDbSpline
 62
7
  6
CONTINUOUS
 70
0
 71
3
 72
9
 73
5
 74
0
 42
0.0000001
 43
0.0000001
 44
0.0000000001
 40
0.0
 40
0.0
 40
0.0
 40
0.0
 40
0.494769718
 40
1.0
 40
1.0
 40
1.0
 40
1.0
 10
10.007515281
 20
11.3004910987
 30
0.0
 10
9.9939741105
 20
11.2992721295
 30
0.0
 10
9.9665426885
 20
11.2974761831
 30
0.0
 10
9.9390604106
 20
11.2968764437
 30
0.0
 10
9.9251770363
 20
11.2968764437
 30
0.0
  0
SPLINE
  5
38F
100
AcDbEntity
  8
0
100
AcDbSpline
 62
7
  6
CONTINUOUS
 70
0
 71
3
 72
11
 73
7
 74
0
 42
0.0000001
 43
0.0000001
 44
0.0000000001
 40
0.0
 40
0.0
 40
0.0
 40
0.0
 40
0.2559589551
 40
0.509618457
 40
0.7577740423
 40
1.0
 40
1.0
 40
1.0
 40
1.0
 10
12.0520767908
 20
5.3403621552
 30
0.0
 10
12.0530498401
 20
5.3407857944
 30
0.0
 10
12.0549298711
 20
5.341768429
 30
0.0
 10
12.0574844447
 20
5.3436179884
 30
0.0
 10
12.0596661221
 20
5.3458203281
 30
0.0
 10
12.0608316573
 20
5.347499415
 30
0.0
 10
12.0613401632
 20
5.3483654985
 30
0.0
  0
SPLINE
  5
390
100
AcDbEntity
  8
0
100
AcDbSpline
 62
7
  6
CONTINUOUS
 70
0
 71
3
 72
9
 73
5
 74
0
 42
0.0000001
 43
0.0000001
 44
0.0000000001
 40
0.0
 40
0.0
 40
0.0
 40
0.0
 40
0.25953739
 40
1.0
 40
1.0
 40
1.0
 40
1.0
 10
9.4991718475
 20
11.3376052273
 30
0.0
 10
9.4986104095
 20
11.3381787233
 30
0.0
 10
9.4964800987
 20
11.3404201157
 30
0.0
 10
9.4944861009
 20
11.3427931872
 30
0.0
 10
9.4931147328
 20
11.3446268147
 30
0.0
  0
SPLINE
  5
391
100
AcDbEntity
  8
0
100
AcDbSpline
 62
7
  6
CONTINUOUS
 70
0
 71
3
 72
9
 73
5
 74
0
 42
0.0000001
 43
0.0000001
 44
0.0000000001
 40
0.0
 40
0.0
 40
0.0
 40
0.0
 40
0.2628975073
 40
1.0
 40
1.0
 40
1.0
 40
1.0
 10
9.4931147328
 20
11.3446268147
 30
0.0
 10
9.4924698627
 20
11.345489057
 30
0.0
 10
9.4901054583
 20
11.3488326533
 30
0.0
 10
9.4881169583
 20
11.3524530227
 30
0.0
 10
9.486964187
 20
11.3552431182
 30
0.0
  0
SPLINE
  5
392
100
AcDbEntity
  8
0
100
AcDbSpline
 62
7
  6
CONTINUOUS
 70
0
 71
3
 72
9
 73
5
 74
0
 42
0.0000001
 43
0.0000001
 44
0.0000000001
 40
0.0
 40
0.0
 40
0.0
 40
0.0
 40
0.2546357305
 40
1.0
 40
1.0
 40
1.0
 40
1.0
 10
9.486010812
 20
11.3577935154
 30
0.0
 10
9.4858069411
 20
11.3584028801
 30
0.0
 10
9.4850666274
 20
11.3608155645
 30
0.0
 10
9.4845780273
 20
11.36330674
 30
0.0
 10
9.4843736718
 20
11.3651765058
 30
0.0
  0
SPLINE
  5
393
100
AcDbEntity
  8
0
100
AcDbSpline
 62
7
  6
CONTINUOUS
 70
0
 71
3
 72
9
 73
5
 74
0
 42
0.0000001
 43
0.0000001
 44
0.0000000001
 40
0.0
 40
0.0
 40
0.0
 40
0.0
 40
0.4900793274
 40
1.0
 40
1.0
 40
1.0
 40
1.0
 10
10.4951695341
 20
13.578272396
 30
0.0
 10
10.4951696333
 20
13.5752339015
 30
0.0
 10
10.4944967577
 20
13.5690171753
 30
0.0
 10
10.4925604914
 20
13.5630810126
 30
0.0
 10
10.4913171987
 20
13.5601742318
 30
0.0
  0
SPLINE
  5
394
100
AcDbEntity
  8
0
100
AcDbSpline
 62
7
  6
CONTINUOUS
 70
0
 71
3
 72
11
 73
7
 74
0
 42
0.0000001
 43
0.0000001
 44
0.0000000001
 40
0.0
 40
0.0
 40
0.0
 40
0.0
 40
0.2397158039
 40
0.4822473461
 40
0.7341468466
 40
1.0
 40
1.0
 40
1.0
 40
1.0
 10
9.3551955949
 20
13.5459979103
 30
0.0
 10
9.3552865925
 20
13.5494091809
 30
0.0
 10
9.3561543497
 20
13.5562716044
 30
0.0
 10
9.3594244805
 20
13.5662549006
 30
0.0
 10
9.3645001772
 20
13.5758636244
 30
0.0
 10
9.3688622648
 20
13.5818354301
 30
0.0
 10
9.3712700386
 20
13.5847552837
 30
0.0
  0
SPLINE
  5
395
100
AcDbEntity
  8
0
100
AcDbSpline
 62
7
  6
CONTINUOUS
 70
0
 71
3
 72
13
 73
9
 74
0
 42
0.0000001
 43
0.0000001
 44
0.0000000001
 40
0.0
 40
0.0
 40
0.0
 40
0.0
 40
0.1951583478
 40
0.3053215581
 40
0.4247943424
 40
0.5539898661
 40
0.6929903257
 40
1.0
 40
1.0
 40
1.0
 40
1.0
 10
9.3712700386
 20
13.5847552837
 30
0.0
 10
9.377233829
 20
13.5919874392
 30
0.0
 10
9.3882077762
 20
13.6019635894
 30
0.0
 10
9.4049916634
 20
13.6135660627
 30
0.0
 10
9.4198892219
 20
13.6222712758
 30
0.0
 10
9.4365265082
 20
13.6306529911
 30
0.0
 10
9.4618339886
 20
13.6417627588
 30
0.0
 10
9.4820377201
 20
13.6489825171
 30
0.0
 10
9.4960799042
 20
13.653485267
 30
0.0
  0
SPLINE
  5
396
100
AcDbEntity
  8
0
100
AcDbSpline
 62
7
  6
CONTINUOUS
 70
0
 71
3
 72
26
 73
22
 74
0
 42
0.0000001
 43
0.0000001
 44
0.0000000001
 40
0.0
 40
0.0
 40
0.0
 40
0.0
 40
0.0568613576
 40
0.1198085458
 40
0.187916927
 40
0.2600843511
 40
0.3351069284
 40
0.4116963601
 40
0.4885292991
 40
0.564271997
 40
0.6376238233
 40
0.7073393427
 40
0.7722820176
 40
0.8314515379
 40
0.8840402507
 40
0.907707984
 40
0.9295832366
 40
0.9496612073
 40
0.96799494
 40
0.9847090133
 40
1.0
 40
1.0
 40
1.0
 40
1.0
 10
9.5012477936
 20
13.6551191309
 30
0.0
 10
9.5194661555
 20
13.6607982422
 30
0.0
 10
9.5583500711
 20
13.6711866709
 30
0.0
 10
9.6201853093
 20
13.6837281909
 30
0.0
 10
9.6876588735
 20
13.6938570557
 30
0.0
 10
9.7595419991
 20
13.7013885546
 30
0.0
 10
9.8345102736
 20
13.7061782587
 30
0.0
 10
9.9111709254
 20
13.7081318552
 30
0.0
 10
9.9880927071
 20
13.7072213364
 30
0.0
 10
10.0638402063
 20
13.7034509534
 30
0.0
 10
10.1370027971
 20
13.6969070997
 30
0.0
 10
10.2062258522
 20
13.6876984415
 30
0.0
 10
10.2702484724
 20
13.6760131624
 30
0.0
 10
10.3279190753
 20
13.6620517429
 30
0.0
 10
10.3712895109
 20
13.6482697982
 30
0.0
 10
10.4018920983
 20
13.6360643343
 30
0.0
 10
10.421884082
 20
13.6267967285
 30
0.0
 10
10.4396714711
 20
13.6171202893
 30
0.0
 10
10.4551931765
 20
13.6070072415
 30
0.0
 10
10.4683839933
 20
13.5964019627
 30
0.0
 10
10.4758791159
 20
13.5886494601
 30
0.0
 10
10.4791403045
 20
13.5846872071
 30
0.0
  0
SPLINE
  5
397
100
AcDbEntity
  8
0
100
AcDbSpline
 62
7
  6
CONTINUOUS
 70
0
 71
3
 72
11
 73
7
 74
0
 42
0.0000001
 43
0.0000001
 44
0.0000000001
 40
0.0
 40
0.0
 40
0.0
 40
0.0
 40
0.2658421357
 40
0.5174296472
 40
0.7597627198
 40
1.0
 40
1.0
 40
1.0
 40
1.0
 10
10.4791403045
 20
13.5846872071
 30
0.0
 10
10.4816183908
 20
13.5816764016
 30
0.0
 10
10.4860941461
 20
13.5755128052
 30
0.0
 10
10.4912388558
 20
13.5655717358
 30
0.0
 10
10.4944488717
 20
13.5552286227
 30
0.0
 10
10.4951770363
 20
13.5481296046
 30
0.0
 10
10.4951770363
 20
13.5446057165
 30
0.0
  0
LINE
  5
398
100
AcDbEntity
  8
0
100
AcDbLine
 62
7
  6
CONTINUOUS
 10
10.1638619606
 20
11.4567696771
 11
10.159800267
 21
11.4576688611
  0
SPLINE
  5
399
100
AcDbEntity
  8
0
100
AcDbSpline
 62
7
  6
CONTINUOUS
 70
0
 71
3
 72
9
 73
5
 74
0
 42
0.0000001
 43
0.0000001
 44
0.0000000001
 40
0.0
 40
0.0
 40
0.0
 40
0.0
 40
0.2506136158
 40
1.0
 40
1.0
 40
1.0
 40
1.0
 10
10.4951365789
 20
11.3638355701
 30
0.0
 10
10.4951018562
 20
11.3629544346
 30
0.0
 10
10.4948743944
 20
11.3594424515
 30
0.0
 10
10.4942897744
 20
11.3559546999
 30
0.0
 10
10.4936670152
 20
11.3533924741
 30
0.0
  0
SPLINE
  5
39A
100
AcDbEntity
  8
0
100
AcDbSpline
 62
7
  6
CONTINUOUS
 70
0
 71
3
 72
9
 73
5
 74
0
 42
0.0000001
 43
0.0000001
 44
0.0000000001
 40
0.0
 40
0.0
 40
0.0
 40
0.0
 40
0.4832450855
 40
1.0
 40
1.0
 40
1.0
 40
1.0
 10
10.4932937056
 20
11.3519423907
 30
0.0
 10
10.4920270513
 20
11.3472829994
 30
0.0
 10
10.4881305997
 20
11.3379644846
 30
0.0
 10
10.482368983
 20
11.3297245865
 30
0.0
 10
10.4790840339
 20
11.325741002
 30
0.0
  0
SPLINE
  5
39B
100
AcDbEntity
  8
0
100
AcDbSpline
 62
7
  6
CONTINUOUS
 70
0
 71
3
 72
17
 73
13
 74
0
 42
0.0000001
 43
0.0000001
 44
0.0000000001
 40
0.0
 40
0.0
 40
0.0
 40
0.0
 40
0.0787286937
 40
0.1225888579
 40
0.1697763851
 40
0.2204609843
 40
0.2747181302
 40
0.393882824
 40
0.5269906282
 40
0.6732435669
 40
0.8313947381
 40
1.0
 40
1.0
 40
1.0
 40
1.0
 10
10.4790840339
 20
11.325741002
 30
0.0
 10
10.4737809786
 20
11.3193101052
 30
0.0
 10
10.4642229808
 20
11.310349933
 30
0.0
 10
10.4496754026
 20
11.2997885171
 30
0.0
 10
10.4369116111
 20
11.2918698103
 30
0.0
 10
10.4227298331
 20
11.2842190854
 30
0.0
 10
10.4012875937
 20
11.2740388139
 30
0.0
 10
10.3710451921
 20
11.2621572047
 30
0.0
 10
10.3307703676
 20
11.2494933981
 30
0.0
 10
10.2858438308
 20
11.2381236917
 30
0.0
 10
10.236751073
 20
11.2281521191
 30
0.0
 10
10.2025822453
 20
11.2226715401
 30
0.0
 10
10.184908843
 20
11.2201592402
 30
0.0
  0
SPLINE
  5
39C
100
AcDbEntity
  8
0
100
AcDbSpline
 62
7
  6
CONTINUOUS
 70
0
 71
3
 72
11
 73
7
 74
0
 42
0.0000001
 43
0.0000001
 44
0.0000000001
 40
0.0
 40
0.0
 40
0.0
 40
0.0
 40
0.2461138623
 40
0.4999987051
 40
0.7538842561
 40
1.0
 40
1.0
 40
1.0
 40
1.0
 10
10.1269677104
 20
11.2130253542
 30
0.0
 10
10.0939877312
 20
11.2095628681
 30
0.0
 10
10.0267728081
 20
11.2044646606
 30
0.0
 10
9.9251859697
 20
11.2019509356
 30
0.0
 10
9.8235988475
 20
11.2044637123
 30
0.0
 10
9.7563835447
 20
11.2095614644
 30
0.0
 10
9.7234032711
 20
11.2130235732
 30
0.0
  0
SPLINE
  5
39D
100
AcDbEntity
  8
0
100
AcDbSpline
 62
7
  6
CONTINUOUS
 70
0
 71
3
 72
17
 73
13
 74
0
 42
0.0000001
 43
0.0000001
 44
0.0000000001
 40
0.0
 40
0.0
 40
0.0
 40
0.0
 40
0.1686360174
 40
0.326810141
 40
0.473076248
 40
0.6061874038
 40
0.7253440863
 40
0.7795940992
 40
0.8302701204
 40
0.8774473427
 40
0.9212958115
 40
1.0
 40
1.0
 40
1.0
 40
1.0
 10
9.6654259623
 20
11.2201619611
 30
0.0
 10
9.6477455549
 20
11.2226755136
 30
0.0
 10
9.6135638465
 20
11.2281589471
 30
0.0
 10
9.5644539412
 20
11.2381361288
 30
0.0
 10
9.5195144661
 20
11.249512648
 30
0.0
 10
9.4792314022
 20
11.2621837638
 30
0.0
 10
9.4489856348
 20
11.2740728184
 30
0.0
 10
9.4275436824
 20
11.2842598431
 30
0.0
 10
9.4133637917
 20
11.2919156209
 30
0.0
 10
9.4006031201
 20
11.2998394332
 30
0.0
 10
9.3860616469
 20
11.3104074731
 30
0.0
 10
9.3765103502
 20
11.3193738792
 30
0.0
 10
9.371213768
 20
11.3258090785
 30
0.0
  0
SPLINE
  5
39E
100
AcDbEntity
  8
0
100
AcDbSpline
 62
7
  6
CONTINUOUS
 70
0
 71
3
 72
9
 73
5
 74
0
 42
0.0000001
 43
0.0000001
 44
0.0000000001
 40
0.0
 40
0.0
 40
0.0
 40
0.0
 40
0.5171915439
 40
1.0
 40
1.0
 40
1.0
 40
1.0
 10
9.371213768
 20
11.3258090785
 30
0.0
 10
9.3677520377
 20
11.3300149839
 30
0.0
 10
9.3617193003
 20
11.3387402409
 30
0.0
 10
9.3578152327
 20
11.348664901
 30
0.0
 10
9.3566344384
 20
11.3536110827
 30
0.0
  0
SPLINE
  5
39F
100
AcDbEntity
  8
0
100
AcDbSpline
 62
7
  6
CONTINUOUS
 70
0
 71
3
 72
9
 73
5
 74
0
 42
0.0000001
 43
0.0000001
 44
0.0000000001
 40
0.0
 40
0.0
 40
0.0
 40
0.0
 40
0.239522344
 40
1.0
 40
1.0
 40
1.0
 40
1.0
 10
10.2340553277
 20
11.3498335719
 30
0.0
 10
10.2338092258
 20
11.3504066033
 30
0.0
 10
10.2327055923
 20
11.3527661525
 30
0.0
 10
10.231313123
 20
11.3549856229
 30
0.0
 10
10.2301444661
 20
11.3565840125
 30
0.0
  0
SPLINE
  5
3A0
100
AcDbEntity
  8
0
100
AcDbSpline
 62
7
  6
CONTINUOUS
 70
0
 71
3
 72
9
 73
5
 74
0
 42
0.0000001
 43
0.0000001
 44
0.0000000001
 40
0.0
 40
0.0
 40
0.0
 40
0.0
 40
0.2444889042
 40
1.0
 40
1.0
 40
1.0
 40
1.0
 10
10.3659827794
 20
11.3651983365
 30
0.0
 10
10.3658920631
 20
11.3643632483
 30
0.0
 10
10.3653929978
 20
11.3609619637
 30
0.0
 10
10.3643810865
 20
11.357642159
 30
0.0
 10
10.3633898855
 20
11.3552431182
 30
0.0
  0
SPLINE
  5
3A1
100
AcDbEntity
  8
0
100
AcDbSpline
 62
7
  6
CONTINUOUS
 70
0
 71
3
 72
9
 73
5
 74
0
 42
0.0000001
 43
0.0000001
 44
0.0000000001
 40
0.0
 40
0.0
 40
0.0
 40
0.0
 40
0.2384604688
 40
1.0
 40
1.0
 40
1.0
 40
1.0
 10
10.3633898855
 20
11.3552431182
 30
0.0
 10
10.3630169161
 20
11.3543404063
 30
0.0
 10
10.3613174628
 20
11.3506109289
 30
0.0
 10
10.3591075244
 20
11.3471247253
 30
0.0
 10
10.3572393397
 20
11.3446268147
 30
0.0
  0
SPLINE
  5
3A2
100
AcDbEntity
  8
0
100
AcDbSpline
 62
7
  6
CONTINUOUS
 70
0
 71
3
 72
9
 73
5
 74
0
 42
0.0000001
 43
0.0000001
 44
0.0000000001
 40
0.0
 40
0.0
 40
0.0
 40
0.0
 40
0.2408049703
 40
1.0
 40
1.0
 40
1.0
 40
1.0
 10
10.3572393397
 20
11.3446268147
 30
0.0
 10
10.3567933495
 20
11.3440304905
 30
0.0
 10
10.3548954382
 20
11.3415884918
 30
0.0
 10
10.3528245695
 20
11.3392828442
 30
0.0
 10
10.351182225
 20
11.3376052273
 30
0.0
  0
SPLINE
  5
3A3
100
AcDbEntity
  8
0
100
AcDbSpline
 62
7
  6
CONTINUOUS
 70
0
 71
3
 72
9
 73
5
 74
0
 42
0.0000001
 43
0.0000001
 44
0.0000000001
 40
0.0
 40
0.0
 40
0.0
 40
0.0
 40
0.2419768525
 40
1.0
 40
1.0
 40
1.0
 40
1.0
 10
10.2968861926
 20
11.2919769187
 30
0.0
 10
10.2959872127
 20
11.2914559885
 30
0.0
 10
10.2922534686
 20
11.2893353332
 30
0.0
 10
10.2884494199
 20
11.2873392668
 30
0.0
 10
10.2855364302
 20
11.2858872583
 30
0.0
  0
LINE
  5
3A4
100
AcDbEntity
  8
0
100
AcDbLine
 62
7
  6
CONTINUOUS
 10
10.2041472653
 20
11.3774997679
 11
10.1963812676
 21
11.3815320615
  0
SPLINE
  5
3A5
100
AcDbEntity
  8
0
100
AcDbSpline
 62
7
  6
CONTINUOUS
 70
0
 71
3
 72
9
 73
5
 74
0
 42
0.0000001
 43
0.0000001
 44
0.0000000001
 40
0.0
 40
0.0
 40
0.0
 40
0.0
 40
0.5051854579
 40
1.0
 40
1.0
 40
1.0
 40
1.0
 10
9.9251770363
 20
11.2968764437
 30
0.0
 10
9.911355475
 20
11.2968764437
 30
0.0
 10
9.8839931535
 20
11.2974709032
 30
0.0
 10
9.8566810229
 20
11.2992509235
 30
0.0
 10
9.8431972009
 20
11.3004588547
 30
0.0
  0
SPLINE
  5
3A6
100
AcDbEntity
  8
0
100
AcDbSpline
 62
7
  6
CONTINUOUS
 70
0
 71
3
 72
9
 73
5
 74
0
 42
0.0000001
 43
0.0000001
 44
0.0000000001
 40
0.0
 40
0.0
 40
0.0
 40
0.0
 40
0.516537313
 40
1.0
 40
1.0
 40
1.0
 40
1.0
 10
9.8313429646
 20
11.3016080266
 30
0.0
 10
9.8207022585
 20
11.30271905
 30
0.0
 10
9.8001427186
 20
11.3052836545
 30
0.0
 10
9.7797181828
 20
11.3087818091
 30
0.0
 10
9.7698992397
 20
11.3107461642
 30
0.0
  0
SPLINE
  5
3A7
100
AcDbEntity
  8
0
100
AcDbSpline
 62
7
  6
CONTINUOUS
 70
0
 71
3
 72
9
 73
5
 74
0
 42
0.0000001
 43
0.0000001
 44
0.0000000001
 40
0.0
 40
0.0
 40
0.0
 40
0.0
 40
0.2576975193
 40
1.0
 40
1.0
 40
1.0
 40
1.0
 10
9.7698992397
 20
11.3107461642
 30
0.0
 10
9.7678928229
 20
11.3111475633
 30
0.0
 10
9.7601159993
 20
11.3127501162
 30
0.0
 10
9.752376346
 20
11.3145353287
 30
0.0
 10
9.7466620633
 20
11.3159798764
 30
0.0
  0
SPLINE
  5
3A8
100
AcDbEntity
  8
0
100
AcDbSpline
 62
7
  6
CONTINUOUS
 70
0
 71
3
 72
9
 73
5
 74
0
 42
0.0000001
 43
0.0000001
 44
0.0000000001
 40
0.0
 40
0.0
 40
0.0
 40
0.0
 40
0.2598869033
 40
1.0
 40
1.0
 40
1.0
 40
1.0
 10
9.7466620633
 20
11.3159798764
 30
0.0
 10
9.7447597752
 20
11.3164607672
 30
0.0
 10
9.7374533224
 20
11.31836258
 30
0.0
 10
9.7302007249
 20
11.3204750547
 30
0.0
 10
9.7248804518
 20
11.3221833603
 30
0.0
  0
LINE
  5
3A9
100
AcDbEntity
  8
0
100
AcDbLine
 62
7
  6
CONTINUOUS
 10
9.7248804518
 20
11.3221833603
 11
9.7124670624
 21
11.3264924903
  0
SPLINE
  5
3AA
100
AcDbEntity
  8
0
100
AcDbSpline
 62
7
  6
CONTINUOUS
 70
0
 71
3
 72
11
 73
7
 74
0
 42
0.0000001
 43
0.0000001
 44
0.0000000001
 40
0.0
 40
0.0
 40
0.0
 40
0.0
 40
0.3166638391
 40
0.587793588
 40
0.814050619
 40
1.0
 40
1.0
 40
1.0
 40
1.0
 10
9.7124670624
 20
11.3264924903
 30
0.0
 10
9.7068469037
 20
11.3286053
 30
0.0
 10
9.6965518538
 20
11.3329171282
 30
0.0
 10
9.682978611
 20
11.3403495029
 30
0.0
 10
9.6725834632
 20
11.348169976
 30
0.0
 10
9.6674157182
 20
11.3541846342
 30
0.0
 10
9.6656105668
 20
11.3572132053
 30
0.0
  0
SPLINE
  5
3AB
100
AcDbEntity
  8
0
100
AcDbSpline
 62
7
  6
CONTINUOUS
 70
0
 71
3
 72
9
 73
5
 74
0
 42
0.0000001
 43
0.0000001
 44
0.0000000001
 40
0.0
 40
0.0
 40
0.0
 40
0.0
 40
0.5183075487
 40
1.0
 40
1.0
 40
1.0
 40
1.0
 10
9.6656105668
 20
11.3572132053
 30
0.0
 10
9.6645337399
 20
11.3590198388
 30
0.0
 10
9.6628108747
 20
11.3627452575
 30
0.0
 10
9.6621798863
 20
11.3668216553
 30
0.0
 10
9.6621801178
 20
11.3687762844
 30
0.0
  0
SPLINE
  5
3AC
100
AcDbEntity
  8
0
100
AcDbSpline
 62
7
  6
CONTINUOUS
 70
0
 71
3
 72
9
 73
5
 74
0
 42
0.0000001
 43
0.0000001
 44
0.0000000001
 40
0.0
 40
0.0
 40
0.0
 40
0.0
 40
0.2639513428
 40
1.0
 40
1.0
 40
1.0
 40
1.0
 10
9.7626145968
 20
11.4192490767
 30
0.0
 10
9.7600559751
 20
11.4186328363
 30
0.0
 10
9.7503854758
 20
11.4162055386
 30
0.0
 10
9.740806468
 20
11.4133988302
 30
0.0
 10
9.7338540555
 20
11.4110485176
 30
0.0
  0
SPLINE
  5
3AD
100
AcDbEntity
  8
0
100
AcDbSpline
 62
7
  6
CONTINUOUS
 70
0
 71
3
 72
11
 73
7
 74
0
 42
0.0000001
 43
0.0000001
 44
0.0000000001
 40
0.0
 40
0.0
 40
0.0
 40
0.0
 40
0.2906305103
 40
0.5541836648
 40
0.7905119747
 40
1.0
 40
1.0
 40
1.0
 40
1.0
 10
9.7262163763
 20
11.4083269058
 30
0.0
 10
9.7226306039
 20
11.4069788914
 30
0.0
 10
9.7158570252
 20
11.4042319492
 30
0.0
 10
9.7064634794
 20
11.3997027135
 30
0.0
 10
9.6983751642
 20
11.3949913305
 30
0.0
 10
9.6936003167
 20
11.3915399576
 30
0.0
 10
9.6914775779
 20
11.3897740358
 30
0.0
  0
SPLINE
  5
3AE
100
AcDbEntity
  8
0
100
AcDbSpline
 62
7
  6
CONTINUOUS
 70
0
 71
3
 72
11
 73
7
 74
0
 42
0.0000001
 43
0.0000001
 44
0.0000000001
 40
0.0
 40
0.0
 40
0.0
 40
0.0
 40
0.2849057899
 40
0.5432554005
 40
0.7795755467
 40
1.0
 40
1.0
 40
1.0
 40
1.0
 10
9.6893811212
 20
11.3879416096
 30
0.0
 10
9.6880742895
 20
11.386739057
 30
0.0
 10
9.6856955842
 20
11.3843162926
 30
0.0
 10
9.6827594718
 20
11.3804236486
 30
0.0
 10
9.6806555492
 20
11.3764706571
 30
0.0
 10
9.6798018408
 20
11.3737311443
 30
0.0
 10
9.6795357967
 20
11.3723831516
 30
0.0
  0
SPLINE
  5
3AF
100
AcDbEntity
  8
0
100
AcDbSpline
 62
7
  6
CONTINUOUS
 70
0
 71
3
 72
9
 73
5
 74
0
 42
0.0000001
 43
0.0000001
 44
0.0000000001
 40
0.0
 40
0.0
 40
0.0
 40
0.0
 40
0.2580566118
 40
1.0
 40
1.0
 40
1.0
 40
1.0
 10
9.5648176424
 20
11.2858872583
 30
0.0
 10
9.5638259665
 20
11.2863815689
 30
0.0
 10
9.5599968691
 20
11.2883244524
 30
0.0
 10
9.5562242989
 20
11.2903796617
 30
0.0
 10
9.5534678799
 20
11.2919769187
 30
0.0
  0
SPLINE
  5
3B0
100
AcDbEntity
  8
0
100
AcDbSpline
 62
7
  6
CONTINUOUS
 70
0
 71
3
 72
9
 73
5
 74
0
 42
0.0000001
 43
0.0000001
 44
0.0000000001
 40
0.0
 40
0.0
 40
0.0
 40
0.0
 40
0.2615695709
 40
1.0
 40
1.0
 40
1.0
 40
1.0
 10
9.6202096065
 20
11.3565840125
 30
0.0
 10
9.6198076701
 20
11.3560342781
 30
0.0
 10
9.6183229201
 20
11.3538958303
 30
0.0
 10
9.6170574062
 20
11.351600063
 30
0.0
 10
9.6162987448
 20
11.3498335719
 30
0.0
  0
LINE
  5
3B1
100
AcDbEntity
  8
0
100
AcDbLine
 62
7
  6
CONTINUOUS
 10
9.6539728049
 20
11.3815320615
 11
9.6462068072
 21
11.3774997679
  0
SPLINE
  5
3B2
100
AcDbEntity
  8
0
100
AcDbSpline
 62
9
  6
CONTINUOUS
 70
0
 71
3
 72
23
 73
19
 74
0
 42
0.0000001
 43
0.0000001
 44
0.0000000001
 40
0.0
 40
0.0
 40
0.0
 40
0.0
 40
0.1801695193
 40
0.3540281024
 40
0.4366064535
 40
0.515355503
 40
0.5896257672
 40
0.658797276
 40
0.7223563528
 40
0.7798877061
 40
0.8310833264
 40
0.8758372756
 40
0.9142517188
 40
0.9312411015
 40
0.9468865715
 40
0.9747672544
 40
0.9875641676
 40
1.0
 40
1.0
 40
1.0
 40
1.0
 10
9.9251770363
 20
13.982196206
 30
0.0
 10
9.8881032759
 20
13.982196206
 30
0.0
 10
9.8152406515
 20
13.9802650141
 30
0.0
 10
9.7256410412
 20
13.9729829943
 30
0.0
 10
9.6572215098
 20
13.9641870042
 30
0.0
 10
9.609363625
 20
13.9563860576
 30
0.0
 10
9.5645309115
 20
13.9473595436
 30
0.0
 10
9.5231540066
 20
13.9371844624
 30
0.0
 10
9.4856262774
 20
13.9259638325
 30
0.0
 10
9.4522948893
 20
13.9138156173
 30
0.0
 10
9.4234619222
 20
13.9008379286
 30
0.0
 10
9.3993758768
 20
13.8871689565
 30
0.0
 10
9.3827820446
 20
13.8748024194
 30
0.0
 10
9.3723229265
 20
13.8645496291
 30
0.0
 10
9.3643657733
 20
13.8549608036
 30
0.0
 10
9.3585467709
 20
13.8447192794
 30
0.0
 10
9.3556552604
 20
13.8341304221
 30
0.0
 10
9.3551822121
 20
13.8289265941
 30
0.0
 10
9.3551822121
 20
13.8263676536
 30
0.0
  0
SPLINE
  5
3B3
100
AcDbEntity
  8
0
100
AcDbSpline
 62
9
  6
CONTINUOUS
 70
0
 71
3
 72
11
 73
7
 74
0
 42
0.0000001
 43
0.0000001
 44
0.0000000001
 40
0.0
 40
0.0
 40
0.0
 40
0.0
 40
0.2251002803
 40
0.4630499992
 40
0.7198074034
 40
1.0
 40
1.0
 40
1.0
 40
1.0
 10
9.3655442842
 20
11.3618040422
 30
0.0
 10
9.3659179483
 20
11.3646147125
 30
0.0
 10
9.3672716442
 20
11.3703309733
 30
0.0
 10
9.3709350443
 20
11.378669495
 30
0.0
 10
9.376230417
 20
11.3869091482
 30
0.0
 10
9.3806236921
 20
11.3920769013
 30
0.0
 10
9.383049618
 20
11.3946403378
 30
0.0
  0
SPLINE
  5
3B4
100
AcDbEntity
  8
0
100
AcDbSpline
 62
9
  6
CONTINUOUS
 70
0
 71
3
 72
33
 73
29
 74
0
 42
0.0000001
 43
0.0000001
 44
0.0000000001
 40
0.0
 40
0.0
 40
0.0
 40
0.0
 40
0.0160356563
 40
0.0343925502
 40
0.0551849605
 40
0.0784426894
 40
0.1041145609
 40
0.1321121696
 40
0.1623164788
 40
0.1945666853
 40
0.2644792641
 40
0.340227912
 40
0.4199640397
 40
0.5016919338
 40
0.5833527662
 40
0.6628898854
 40
0.7012382779
 40
0.7383211181
 40
0.7739154917
 40
0.8078048103
 40
0.8397989576
 40
0.8697259099
 40
0.8974281769
 40
0.9227909542
 40
0.9457311967
 40
0.9662048117
 40
0.9842514773
 40
1.0
 40
1.0
 40
1.0
 40
1.0
 10
9.383049618
 20
11.3946403378
 30
0.0
 10
9.3871960829
 20
11.3990218397
 30
0.0
 10
9.3969414221
 20
11.4076192995
 30
0.0
 10
9.4141464082
 20
11.4193006461
 30
0.0
 10
9.4347864194
 20
11.4305524847
 30
0.0
 10
9.4587354509
 20
11.4412974454
 30
0.0
 10
9.4858406362
 20
11.4514805554
 30
0.0
 10
9.5159272904
 20
11.4610262072
 30
0.0
 10
9.5487973579
 20
11.4698627462
 30
0.0
 10
9.5973578808
 20
11.4809285444
 30
0.0
 10
9.6633503174
 20
11.4923716053
 30
0.0
 10
9.7476081689
 20
11.5021898806
 30
0.0
 10
9.8366811217
 20
11.508137344
 30
0.0
 10
9.9281535242
 20
11.5100492839
 30
0.0
 10
10.0195439654
 20
11.5078726452
 30
0.0
 10
10.0944608886
 20
11.5026413239
 30
0.0
 10
10.152427411
 20
11.4963830806
 30
0.0
 10
10.193824129
 20
11.4907943483
 30
0.0
 10
10.2333899814
 20
11.4843000757
 30
0.0
 10
10.2708552168
 20
11.4769365248
 30
0.0
 10
10.3059665153
 20
11.4687585474
 30
0.0
 10
10.3384880041
 20
11.4598277122
 30
0.0
 10
10.3681989604
 20
11.4501954576
 30
0.0
 10
10.3949042026
 20
11.4399346317
 30
0.0
 10
10.4184323978
 20
11.4291210655
 30
0.0
 10
10.4386340739
 20
11.4178091767
 30
0.0
 10
10.4553868102
 20
11.4060758183
 30
0.0
 10
10.4648027947
 20
11.3974433526
 30
0.0
 10
10.4687773164
 20
11.3930499082
 30
0.0
  0
SPLINE
  5
3B5
100
AcDbEntity
  8
0
100
AcDbSpline
 62
9
  6
CONTINUOUS
 70
0
 71
3
 72
11
 73
7
 74
0
 42
0.0000001
 43
0.0000001
 44
0.0000000001
 40
0.0
 40
0.0
 40
0.0
 40
0.0
 40
0.2788540264
 40
0.5350474001
 40
0.7733947965
 40
1.0
 40
1.0
 40
1.0
 40
1.0
 10
10.4687773164
 20
11.3930499082
 30
0.0
 10
10.4710748626
 20
11.3905101958
 30
0.0
 10
10.4752230488
 20
11.3853885551
 30
0.0
 10
10.4801622631
 20
11.3772355502
 30
0.0
 10
10.4835056399
 20
11.368989944
 30
0.0
 10
10.4846649241
 20
11.3633570012
 30
0.0
 10
10.4849525612
 20
11.3605888565
 30
0.0
  0
SPLINE
  5
3B6
100
AcDbEntity
  8
0
100
AcDbSpline
 62
9
  6
CONTINUOUS
 70
0
 71
3
 72
11
 73
7
 74
0
 42
0.0000001
 43
0.0000001
 44
0.0000000001
 40
0.0
 40
0.0
 40
0.0
 40
0.0
 40
0.2247379626
 40
0.4612824218
 40
0.7176548276
 40
1.0
 40
1.0
 40
1.0
 40
1.0
 10
10.4851448813
 20
11.3546309314
 30
0.0
 10
10.4850225811
 20
11.3515110694
 30
0.0
 10
10.4840352079
 20
11.3451173856
 30
0.0
 10
10.4804584721
 20
11.33574501
 30
0.0
 10
10.4748325979
 20
11.3265027813
 30
0.0
 10
10.4700006747
 20
11.3207517496
 30
0.0
 10
10.4673044545
 20
11.3179026977
 30
0.0
  0
SPLINE
  5
3B7
100
AcDbEntity
  8
0
100
AcDbSpline
 62
9
  6
CONTINUOUS
 70
0
 71
3
 72
15
 73
11
 74
0
 42
0.0000001
 43
0.0000001
 44
0.0000000001
 40
0.0
 40
0.0
 40
0.0
 40
0.0
 40
0.0846160057
 40
0.1804300781
 40
0.2880016661
 40
0.4075462204
 40
0.5389241159
 40
0.6817873308
 40
0.8356862418
 40
1.0
 40
1.0
 40
1.0
 40
1.0
 10
10.4673044545
 20
11.3179026977
 30
0.0
 10
10.4635357949
 20
11.3139204164
 30
0.0
 10
10.4547972781
 20
11.3060868259
 30
0.0
 10
10.4394997468
 20
11.2953474069
 30
0.0
 10
10.4213081465
 20
11.2849564474
 30
0.0
 10
10.4003137898
 20
11.2749748723
 30
0.0
 10
10.3766293336
 20
11.2654466132
 30
0.0
 10
10.3503844841
 20
11.2564241587
 30
0.0
 10
10.3217217254
 20
11.2479674926
 30
0.0
 10
10.3017308754
 20
11.2428953578
 30
0.0
 10
10.2913692512
 20
11.2404469806
 30
0.0
  0
SPLINE
  5
3B8
100
AcDbEntity
  8
0
100
AcDbSpline
 62
9
  6
CONTINUOUS
 70
0
 71
3
 72
15
 73
11
 74
0
 42
0.0000001
 43
0.0000001
 44
0.0000000001
 40
0.0
 40
0.0
 40
0.0
 40
0.0
 40
0.1652752563
 40
0.3198769928
 40
0.463154366
 40
0.5946489597
 40
0.7140163478
 40
0.8211280757
 40
0.9162418855
 40
1.0
 40
1.0
 40
1.0
 40
1.0
 10
9.5587410328
 20
11.2405046023
 30
0.0
 10
9.5482168608
 20
11.2429943962
 30
0.0
 10
9.5279263267
 20
11.2481545483
 30
0.0
 10
9.4988615565
 20
11.2567700421
 30
0.0
 10
9.4723026002
 20
11.2659688896
 30
0.0
 10
9.44839833
 20
11.2756876729
 30
0.0
 10
9.4272829784
 20
11.2858701313
 30
0.0
 10
9.4090732797
 20
11.2964712361
 30
0.0
 10
9.3938632568
 20
11.3074274945
 30
0.0
 10
9.3852535482
 20
11.3154287937
 30
0.0
 10
9.3815767561
 20
11.3194931273
 30
0.0
  0
SPLINE
  5
3B9
100
AcDbEntity
  8
0
100
AcDbSpline
 62
9
  6
CONTINUOUS
 70
0
 71
3
 72
11
 73
7
 74
0
 42
0.0000001
 43
0.0000001
 44
0.0000000001
 40
0.0
 40
0.0
 40
0.0
 40
0.0
 40
0.2809484747
 40
0.5365664683
 40
0.7734349281
 40
1.0
 40
1.0
 40
1.0
 40
1.0
 10
9.3815767561
 20
11.3194931273
 30
0.0
 10
9.3789914612
 20
11.3223509176
 30
0.0
 10
9.3743797245
 20
11.3281234923
 30
0.0
 10
9.3691133321
 20
11.3373925115
 30
0.0
 10
9.3659060033
 20
11.3467870413
 30
0.0
 10
9.3651770363
 20
11.3531638114
 30
0.0
 10
9.3651770363
 20
11.3562715177
 30
0.0
  0
SPLINE
  5
3BA
100
AcDbEntity
  8
0
100
AcDbSpline
 62
7
  6
CONTINUOUS
 70
0
 71
3
 72
9
 73
5
 74
0
 42
0.0000001
 43
0.0000001
 44
0.0000000001
 40
0.0
 40
0.0
 40
0.0
 40
0.0
 40
0.4862242445
 40
1.0
 40
1.0
 40
1.0
 40
1.0
 10
9.4801770363
 20
11.3562715177
 30
0.0
 10
9.4801770363
 20
11.3534970817
 30
0.0
 10
9.4809162869
 20
11.3477712347
 30
0.0
 10
9.4829861982
 20
11.3423991286
 30
0.0
 10
9.484298635
 20
11.3397776663
 30
0.0
  0
SPLINE
  5
3BB
100
AcDbEntity
  8
0
100
AcDbSpline
 62
7
  6
CONTINUOUS
 70
0
 71
3
 72
9
 73
5
 74
0
 42
0.0000001
 43
0.0000001
 44
0.0000000001
 40
0.0
 40
0.0
 40
0.0
 40
0.0
 40
0.2313818547
 40
1.0
 40
1.0
 40
1.0
 40
1.0
 10
9.484298635
 20
11.3397776663
 30
0.0
 10
9.4849706275
 20
11.3384354277
 30
0.0
 10
9.4881628144
 20
11.3327781515
 30
0.0
 10
9.4923805341
 20
11.3277435069
 30
0.0
 10
9.4959037666
 20
11.3242150365
 30
0.0
  0
LINE
  5
3BC
100
AcDbEntity
  8
0
100
AcDbLine
 62
7
  6
CONTINUOUS
 10
9.4959037666
 20
11.3242150365
 11
9.5009648551
 21
11.3195219477
  0
SPLINE
  5
3BD
100
AcDbEntity
  8
0
100
AcDbSpline
 62
7
  6
CONTINUOUS
 70
0
 71
3
 72
9
 73
5
 74
0
 42
0.0000001
 43
0.0000001
 44
0.0000000001
 40
0.0
 40
0.0
 40
0.0
 40
0.0
 40
0.2383238881
 40
1.0
 40
1.0
 40
1.0
 40
1.0
 10
9.5009648551
 20
11.3195219477
 30
0.0
 10
9.5018467612
 20
11.3187611362
 30
0.0
 10
9.5056013222
 20
11.3156316273
 30
0.0
 10
9.5095544539
 20
11.3127440185
 30
0.0
 10
9.5126385112
 20
11.3106595202
 30
0.0
  0
SPLINE
  5
3BE
100
AcDbEntity
  8
0
100
AcDbSpline
 62
7
  6
CONTINUOUS
 70
0
 71
3
 72
9
 73
5
 74
0
 42
0.0000001
 43
0.0000001
 44
0.0000000001
 40
0.0
 40
0.0
 40
0.0
 40
0.0
 40
0.4747235548
 40
1.0
 40
1.0
 40
1.0
 40
1.0
 10
9.5126385112
 20
11.3106595202
 30
0.0
 10
9.5167600941
 20
11.3078737637
 30
0.0
 10
9.525730172
 20
11.3024280169
 30
0.0
 10
9.5350771541
 20
11.2976717748
 30
0.0
 10
9.5400547472
 20
11.2953216999
 30
0.0
  0
LINE
  5
3BF
100
AcDbEntity
  8
0
100
AcDbLine
 62
7
  6
CONTINUOUS
 10
9.9234263276
 20
11.2346175395
 11
9.9264145132
 21
11.2346170834
  0
LINE
  5
3C0
100
AcDbEntity
  8
0
100
AcDbLine
 62
7
  6
CONTINUOUS
 10
10.0536188794
 20
11.239794712
 11
10.0560375725
 21
11.2399962031
  0
SPLINE
  5
3C1
100
AcDbEntity
  8
0
100
AcDbSpline
 62
7
  6
CONTINUOUS
 70
0
 71
3
 72
9
 73
5
 74
0
 42
0.0000001
 43
0.0000001
 44
0.0000000001
 40
0.0
 40
0.0
 40
0.0
 40
0.0
 40
0.2578029937
 40
1.0
 40
1.0
 40
1.0
 40
1.0
 10
10.2376811382
 20
11.2696626617
 30
0.0
 10
10.2400561334
 20
11.270303185
 30
0.0
 10
10.2492542746
 20
11.2728401892
 30
0.0
 10
10.2583939595
 20
11.2755911937
 30
0.0
 10
10.2651313869
 20
11.2777725178
 30
0.0
  0
SPLINE
  5
3C2
100
AcDbEntity
  8
0
100
AcDbSpline
 62
7
  6
CONTINUOUS
 70
0
 71
3
 72
9
 73
5
 74
0
 42
0.0000001
 43
0.0000001
 44
0.0000000001
 40
0.0
 40
0.0
 40
0.0
 40
0.0
 40
0.5258549804
 40
1.0
 40
1.0
 40
1.0
 40
1.0
 10
10.309525321
 20
11.2949577505
 30
0.0
 10
10.314654106
 20
11.2973599885
 30
0.0
 10
10.3242736191
 20
11.3022230459
 30
0.0
 10
10.3334997787
 20
11.3078095834
 30
0.0
 10
10.3377302757
 20
11.3106696551
 30
0.0
  0
SPLINE
  5
3C3
100
AcDbEntity
  8
0
100
AcDbSpline
 62
7
  6
CONTINUOUS
 70
0
 71
3
 72
9
 73
5
 74
0
 42
0.0000001
 43
0.0000001
 44
0.0000000001
 40
0.0
 40
0.0
 40
0.0
 40
0.0
 40
0.5249161592
 40
1.0
 40
1.0
 40
1.0
 40
1.0
 10
10.3377302757
 20
11.3106696551
 30
0.0
 10
10.3409297881
 20
11.3128327189
 30
0.0
 10
10.3468724528
 20
11.3171871529
 30
0.0
 10
10.3523701097
 20
11.3221026057
 30
0.0
 10
10.3548240423
 20
11.3245918529
 30
0.0
  0
LINE
  5
3C4
100
AcDbEntity
  8
0
100
AcDbLine
 62
7
  6
CONTINUOUS
 10
10.3548240423
 20
11.3245918529
 11
10.3592121623
 21
11.3294386116
  0
SPLINE
  5
3C5
100
AcDbEntity
  8
0
100
AcDbSpline
 62
7
  6
CONTINUOUS
 70
0
 71
3
 72
9
 73
5
 74
0
 42
0.0000001
 43
0.0000001
 44
0.0000000001
 40
0.0
 40
0.0
 40
0.0
 40
0.0
 40
0.2630514771
 40
1.0
 40
1.0
 40
1.0
 40
1.0
 10
10.3592121623
 20
11.3294386116
 30
0.0
 10
10.3599032576
 20
11.3302753539
 30
0.0
 10
10.3624528264
 20
11.3335183432
 30
0.0
 10
10.3646757746
 20
11.3370276317
 30
0.0
 10
10.3660390637
 20
11.3397451946
 30
0.0
  0
SPLINE
  5
3C6
100
AcDbEntity
  8
0
100
AcDbSpline
 62
7
  6
CONTINUOUS
 70
0
 71
3
 72
9
 73
5
 74
0
 42
0.0000001
 43
0.0000001
 44
0.0000000001
 40
0.0
 40
0.0
 40
0.0
 40
0.0
 40
0.513827572
 40
1.0
 40
1.0
 40
1.0
 40
1.0
 10
10.3660390637
 20
11.3397451946
 30
0.0
 10
10.3673565199
 20
11.342371395
 30
0.0
 10
10.3694346503
 20
11.3477535229
 30
0.0
 10
10.3701770363
 20
11.3534915214
 30
0.0
 10
10.3701770363
 20
11.3562715177
 30
0.0
  0
SPLINE
  5
3C7
100
AcDbEntity
  8
0
100
AcDbSpline
 62
9
  6
CONTINUOUS
 70
0
 71
3
 72
39
 73
35
 74
0
 42
0.0000001
 43
0.0000001
 44
0.0000000001
 40
0.0
 40
0.0
 40
0.0
 40
0.0
 40
0.0062192283
 40
0.012663888
 40
0.0194883493
 40
0.0268200048
 40
0.0433606255
 40
0.062830175
 40
0.0854554133
 40
0.1112945817
 40
0.1402659964
 40
0.1722229676
 40
0.2069506531
 40
0.2441853702
 40
0.2836359382
 40
0.3249672441
 40
0.4118437368
 40
0.5018020899
 40
0.5916730092
 40
0.6782913088
 40
0.7194330891
 40
0.758656928
 40
0.7956306299
 40
0.830066828
 40
0.8617064538
 40
0.8903405204
 40
0.91583014
 40
0.9381043716
 40
0.9572374238
 40
0.9734815152
 40
0.9806925509
 40
0.9874225022
 40
0.9938051278
 40
1.0
 40
1.0
 40
1.0
 40
1.0
 10
9.3552097654
 20
11.3675604516
 30
0.0
 10
9.3553098887
 20
11.3701145841
 30
0.0
 10
9.3559915643
 20
11.375307385
 30
0.0
 10
9.3583965807
 20
11.3829835035
 30
0.0
 10
9.36216744
 20
11.3905988146
 30
0.0
 10
9.3692753634
 20
11.4010620769
 30
0.0
 10
9.3818811736
 20
11.4138421069
 30
0.0
 10
9.4014558995
 20
11.4280134085
 30
0.0
 10
9.4259159088
 20
11.4415864917
 30
0.0
 10
9.4550673807
 20
11.4544383155
 30
0.0
 10
9.4886600882
 20
11.4664796825
 30
0.0
 10
9.5263950802
 20
11.4775763754
 30
0.0
 10
9.5679207881
 20
11.487627962
 30
0.0
 10
9.6128477372
 20
11.4965391305
 30
0.0
 10
9.6607516852
 20
11.5042132102
 30
0.0
 10
9.7291256025
 20
11.5128531921
 30
0.0
 10
9.8185651145
 20
11.5199570567
 30
0.0
 10
9.9281966151
 20
11.522690847
 30
0.0
 10
10.037713698
 20
11.5196416674
 30
0.0
 10
10.12691209
 20
11.5122781096
 30
0.0
 10
10.1949806566
 20
11.5034347769
 30
0.0
 10
10.2425802812
 20
11.4956219556
 30
0.0
 10
10.2871548048
 20
11.4865810099
 30
0.0
 10
10.3282835834
 20
11.476409917
 30
0.0
 10
10.3655813223
 20
11.4652051475
 30
0.0
 10
10.3987011361
 20
11.4530678639
 30
0.0
 10
10.4273499336
 20
11.440133032
 30
0.0
 10
10.451283401
 20
11.4264883361
 30
0.0
 10
10.4703149249
 20
11.4122548249
 30
0.0
 10
10.4824321743
 20
11.3994230208
 30
0.0
 10
10.4891283873
 20
11.3889382025
 30
0.0
 10
10.4926011444
 20
11.3813058804
 30
0.0
 10
10.4947031864
 20
11.3736171404
 30
0.0
 10
10.4951770363
 20
11.368436653
 30
0.0
 10
10.4951770363
 20
11.3658905691
 30
0.0
  0
SPLINE
  5
3C8
100
AcDbEntity
  8
0
100
AcDbSpline
 62
7
  6
CONTINUOUS
 70
0
 71
3
 72
11
 73
7
 74
0
 42
0.0000001
 43
0.0000001
 44
0.0000000001
 40
0.0
 40
0.0
 40
0.0
 40
0.0
 40
0.2164781997
 40
0.4501322743
 40
0.7093376027
 40
1.0
 40
1.0
 40
1.0
 40
1.0
 10
10.1710140035
 20
11.3711690598
 30
0.0
 10
10.1708068637
 20
11.3696039662
 30
0.0
 10
10.1699562548
 20
11.3663954797
 30
0.0
 10
10.1675444551
 20
11.361781809
 30
0.0
 10
10.1640106559
 20
11.3572598252
 30
0.0
 10
10.1611002024
 20
11.3544825611
 30
0.0
 10
10.1594891606
 20
11.3531049157
 30
0.0
  0
SPLINE
  5
3C9
100
AcDbEntity
  8
0
100
AcDbSpline
 62
7
  6
CONTINUOUS
 70
0
 71
3
 72
19
 73
15
 74
0
 42
0.0000001
 43
0.0000001
 44
0.0000000001
 40
0.0
 40
0.0
 40
0.0
 40
0.0
 40
0.0342445434
 40
0.0729749835
 40
0.1162694713
 40
0.1641114851
 40
0.2164039673
 40
0.2729309044
 40
0.3975952283
 40
0.4651616451
 40
0.5357535923
 40
0.6845139103
 40
0.840644483
 40
1.0
 40
1.0
 40
1.0
 40
1.0
 10
10.1594891606
 20
11.3531049157
 30
0.0
 10
10.1573885875
 20
11.3513086587
 30
0.0
 10
10.1526391949
 20
11.3477974588
 30
0.0
 10
10.1445556702
 20
11.3430097504
 30
0.0
 10
10.1351282601
 20
11.3384067964
 30
0.0
 10
10.1244087691
 20
11.3340189039
 30
0.0
 10
10.11245687
 20
11.3298761161
 30
0.0
 10
10.0943810458
 20
11.3245312676
 30
0.0
 10
10.0747972895
 20
11.3200155769
 30
0.0
 10
10.0539296289
 20
11.3161992132
 30
0.0
 10
10.0310365241
 20
11.3126920486
 30
0.0
 10
10.0009068056
 20
11.3093089078
 30
0.0
 10
9.9635047297
 20
11.3068840679
 30
0.0
 10
9.9380385612
 20
11.3063334877
 30
0.0
 10
9.9251770363
 20
11.3063334877
 30
0.0
  0
SPLINE
  5
3CA
100
AcDbEntity
  8
0
100
AcDbSpline
 62
7
  6
CONTINUOUS
 70
0
 71
3
 72
20
 73
16
 74
0
 42
0.0000001
 43
0.0000001
 44
0.0000000001
 40
0.0
 40
0.0
 40
0.0
 40
0.0
 40
0.0124370584
 40
0.0252387619
 40
0.0531210973
 40
0.0857009224
 40
0.1241246125
 40
0.168877843
 40
0.2200664247
 40
0.2776041166
 40
0.3411811428
 40
0.4845481912
 40
0.64587742
 40
0.8199222385
 40
1.0
 40
1.0
 40
1.0
 40
1.0
 10
9.6791799186
 20
11.3687762848
 30
0.0
 10
9.6791800495
 20
11.3676719226
 30
0.0
 10
9.6793865933
 20
11.3654259077
 30
0.0
 10
9.6806413639
 20
11.3608572169
 30
0.0
 10
9.6839032374
 20
11.3551142981
 30
0.0
 10
9.6899819041
 20
11.3487025796
 30
0.0
 10
9.6982537153
 20
11.342539143
 30
0.0
 10
9.7086488258
 20
11.3366389087
 30
0.0
 10
9.7210894948
 20
11.3310370862
 30
0.0
 10
9.7354748079
 20
11.3257943687
 30
0.0
 10
9.7579878092
 20
11.3190706993
 30
0.0
 10
9.7899816647
 20
11.3120904912
 30
0.0
 10
9.8320908732
 20
11.3060661271
 30
0.0
 10
9.8777358465
 20
11.3023628209
 30
0.0
 10
9.9091868356
 20
11.301523962
 30
0.0
 10
9.9251770363
 20
11.301523962
 30
0.0
  0
SPLINE
  5
3CB
100
AcDbEntity
  8
0
100
AcDbSpline
 62
9
  6
CONTINUOUS
 70
0
 71
3
 72
23
 73
19
 74
0
 42
0.0000001
 43
0.0000001
 44
0.0000000001
 40
0.0
 40
0.0
 40
0.0
 40
0.0
 40
0.0124358324
 40
0.0252327456
 40
0.0531134285
 40
0.0687588985
 40
0.0857482812
 40
0.1241627244
 40
0.1689166736
 40
0.2201122939
 40
0.2776436472
 40
0.341202724
 40
0.4103742328
 40
0.484644497
 40
0.5633935465
 40
0.6459718976
 40
0.8198304807
 40
1.0
 40
1.0
 40
1.0
 40
1.0
 10
10.4951718604
 20
13.8263676536
 30
0.0
 10
10.4951718604
 20
13.8289265941
 30
0.0
 10
10.4946988121
 20
13.8341304221
 30
0.0
 10
10.4918073016
 20
13.8447192794
 30
0.0
 10
10.4859882992
 20
13.8549608036
 30
0.0
 10
10.478031146
 20
13.8645496291
 30
0.0
 10
10.4675720279
 20
13.8748024194
 30
0.0
 10
10.4509781957
 20
13.8871689565
 30
0.0
 10
10.4268921503
 20
13.9008379286
 30
0.0
 10
10.3980591832
 20
13.9138156173
 30
0.0
 10
10.3647277951
 20
13.9259638325
 30
0.0
 10
10.3272000659
 20
13.9371844624
 30
0.0
 10
10.285823161
 20
13.9473595436
 30
0.0
 10
10.2409904475
 20
13.9563860576
 30
0.0
 10
10.1931325627
 20
13.9641870042
 30
0.0
 10
10.1247130314
 20
13.9729829943
 30
0.0
 10
10.035113421
 20
13.9802650141
 30
0.0
 10
9.9622507966
 20
13.982196206
 30
0.0
 10
9.9251770363
 20
13.982196206
 30
0.0
  0
SPLINE
  5
3CC
100
AcDbEntity
  8
0
100
AcDbSpline
 62
7
  6
CONTINUOUS
 70
0
 71
3
 72
9
 73
5
 74
0
 42
0.0000001
 43
0.0000001
 44
0.0000000001
 40
0.0
 40
0.0
 40
0.0
 40
0.0
 40
0.2609676596
 40
1.0
 40
1.0
 40
1.0
 40
1.0
 10
9.6660052119
 20
11.3573741265
 30
0.0
 10
9.6647092018
 20
11.3579083923
 30
0.0
 10
9.6597609684
 20
11.3599984994
 30
0.0
 10
9.6548861681
 20
11.3622653887
 30
0.0
 10
9.6513462869
 20
11.3640621752
 30
0.0
  0
SPLINE
  5
3CD
100
AcDbEntity
  8
0
100
AcDbSpline
 62
7
  6
CONTINUOUS
 70
0
 71
3
 72
9
 73
5
 74
0
 42
0.0000001
 43
0.0000001
 44
0.0000000001
 40
0.0
 40
0.0
 40
0.0
 40
0.0
 40
0.4900793274
 40
1.0
 40
1.0
 40
1.0
 40
1.0
 10
9.3551845384
 20
13.578272397
 30
0.0
 10
9.3551844392
 20
13.5813108914
 30
0.0
 10
9.3558573148
 20
13.5875276176
 30
0.0
 10
9.3577935811
 20
13.5934637803
 30
0.0
 10
9.3590368738
 20
13.5963705611
 30
0.0
  0
SPLINE
  5
3CE
100
AcDbEntity
  8
0
100
AcDbSpline
 62
7
  6
CONTINUOUS
 70
0
 71
3
 72
14
 73
10
 74
0
 42
0.0000001
 43
0.0000001
 44
0.0000000001
 40
0.0
 40
0.0
 40
0.0
 40
0.0
 40
0.1729606581
 40
0.2767759536
 40
0.3938016253
 40
0.5246161832
 40
0.6693572818
 40
0.8279307435
 40
1.0
 40
1.0
 40
1.0
 40
1.0
 10
9.3590368738
 20
13.5963705611
 30
0.0
 10
9.362602437
 20
13.6047067407
 30
0.0
 10
9.3716594948
 20
13.6165910742
 30
0.0
 10
9.3871875883
 20
13.6301674339
 30
0.0
 10
9.4023747751
 20
13.6407004352
 30
0.0
 10
9.4202788003
 20
13.6508795942
 30
0.0
 10
9.4408340586
 20
13.6606871196
 30
0.0
 10
9.4639364121
 20
13.6700602716
 30
0.0
 10
9.4803120099
 20
13.6757621032
 30
0.0
 10
9.4888899453
 20
13.67855119
 30
0.0
  0
SPLINE
  5
3CF
100
AcDbEntity
  8
0
100
AcDbSpline
 62
7
  6
CONTINUOUS
 70
0
 71
3
 72
15
 73
11
 74
0
 42
0.0000001
 43
0.0000001
 44
0.0000000001
 40
0.0
 40
0.0
 40
0.0
 40
0.0
 40
0.1002266797
 40
0.2099417821
 40
0.3280853259
 40
0.4534480922
 40
0.5847529122
 40
0.7206627045
 40
0.8596788206
 40
1.0
 40
1.0
 40
1.0
 40
1.0
 10
9.4888899453
 20
13.67855119
 30
0.0
 10
9.502913412
 20
13.6831108729
 30
0.0
 10
9.5326129587
 20
13.691674795
 30
0.0
 10
9.5796512248
 20
13.7025866921
 30
0.0
 10
9.6307649606
 20
13.7120601763
 30
0.0
 10
9.6853519592
 20
13.7199741732
 30
0.0
 10
9.7427822888
 20
13.7262308803
 30
0.0
 10
9.8023887873
 20
13.7307562583
 30
0.0
 10
9.863431048
 20
13.7334867344
 30
0.0
 10
9.9045318922
 20
13.7341009488
 30
0.0
 10
9.9251770363
 20
13.7341009488
 30
0.0
  0
LINE
  5
3D0
100
AcDbEntity
  8
0
100
AcDbLine
 62
9
  6
CONTINUOUS
 10
12.0441770363
 20
5.3386231078
 11
12.0541905675
 21
5.3430053576
  0
SPLINE
  5
3D1
100
AcDbEntity
  8
0
100
AcDbSpline
 62
9
  6
CONTINUOUS
 70
0
 71
3
 72
13
 73
9
 74
0
 42
0.0000001
 43
0.0000001
 44
0.0000000001
 40
0.0
 40
0.0
 40
0.0
 40
0.0
 40
0.1826968466
 40
0.4208224922
 40
0.5559902191
 40
0.6991996023
 40
0.8482549083
 40
1.0
 40
1.0
 40
1.0
 40
1.0
 10
12.0839605316
 20
5.3553719044
 30
0.0
 10
12.1009735242
 20
5.362151498
 30
0.0
 10
12.1405649956
 20
5.37677109
 30
0.0
 10
12.1940915644
 20
5.3925550232
 30
0.0
 10
12.2446734595
 20
5.4037050931
 30
0.0
 10
12.2869848365
 20
5.4106239854
 30
0.0
 10
12.3313039937
 20
5.4150306016
 30
0.0
 10
12.3614656693
 20
5.4160741231
 30
0.0
 10
12.3766770362
 20
5.4160741752
 30
0.0
  0
LINE
  5
3D2
100
AcDbEntity
  8
0
100
AcDbLine
 62
9
  6
CONTINUOUS
 10
12.3316770363
 20
6.9186231078
 11
12.3421006634
 21
6.9140635585
  0
SPLINE
  5
3D3
100
AcDbEntity
  8
0
100
AcDbSpline
 62
9
  6
CONTINUOUS
 70
0
 71
3
 72
12
 73
8
 74
0
 42
0.0000001
 43
0.0000001
 44
0.0000000001
 40
0.0
 40
0.0
 40
0.0
 40
0.0
 40
0.1821609084
 40
0.419132801
 40
0.6969880585
 40
0.8466639082
 40
1.0
 40
1.0
 40
1.0
 40
1.0
 10
12.3701451945
 20
6.9023994599
 30
0.0
 10
12.3860507616
 20
6.8960370984
 30
0.0
 10
12.4230023864
 20
6.8822638763
 30
0.0
 10
12.4857740256
 20
6.8632015507
 30
0.0
 10
12.5470563035
 20
6.8503450833
 30
0.0
 10
12.6012992408
 20
6.8436649769
 30
0.0
 10
12.6297632113
 20
6.8418932754
 30
0.0
 10
12.6441770363
 20
6.8414675144
 30
0.0
  0
SPLINE
  5
3D4
100
AcDbEntity
  8
0
100
AcDbSpline
 62
9
  6
CONTINUOUS
 70
0
 71
3
 72
11
 73
7
 74
0
 42
0.0000001
 43
0.0000001
 44
0.0000000001
 40
0.0
 40
0.0
 40
0.0
 40
0.0
 40
0.4008417424
 40
0.7046657681
 40
0.9031596806
 40
1.0
 40
1.0
 40
1.0
 40
1.0
 10
12.644177221
 20
6.8414675792
 30
0.0
 10
12.6442170275
 20
6.8417245089
 30
0.0
 10
12.6442915485
 20
6.8421715896
 30
0.0
 10
12.6444365825
 20
6.8427536342
 30
0.0
 10
12.6445460389
 20
6.8430989847
 30
0.0
 10
12.6446862902
 20
6.843289142
 30
0.0
 10
12.6447490424
 20
6.8432863842
 30
0.0
  0
SPLINE
  5
3D5
100
AcDbEntity
  8
0
100
AcDbSpline
 62
9
  6
CONTINUOUS
 70
0
 71
3
 72
11
 73
7
 74
0
 42
0.0000001
 43
0.0000001
 44
0.0000000001
 40
0.0
 40
0.0
 40
0.0
 40
0.0
 40
0.2268028268
 40
0.4637955922
 40
0.7193481297
 40
1.0
 40
1.0
 40
1.0
 40
1.0
 10
10.4951770363
 20
13.5446057165
 30
0.0
 10
10.4951770363
 20
13.5477491572
 30
0.0
 10
10.4944447977
 20
13.5541973098
 30
0.0
 10
10.491221813
 20
13.5636996609
 30
0.0
 10
10.4859282947
 20
13.5730769974
 30
0.0
 10
10.4812901398
 20
13.5789205624
 30
0.0
 10
10.478689898
 20
13.5818135039
 30
0.0
  0
SPLINE
  5
3D6
100
AcDbEntity
  8
0
100
AcDbSpline
 62
9
  6
CONTINUOUS
 70
0
 71
3
 72
11
 73
7
 74
0
 42
0.0000001
 43
0.0000001
 44
0.0000000001
 40
0.0
 40
0.0
 40
0.0
 40
0.0
 40
0.2061581304
 40
0.4406234601
 40
0.7050240615
 40
1.0
 40
1.0
 40
1.0
 40
1.0
 10
10.478689898
 20
13.5818135039
 30
0.0
 10
10.4749242489
 20
13.5860030384
 30
0.0
 10
10.4660809994
 20
13.594250011
 30
0.0
 10
10.4504231861
 20
13.6055307778
 30
0.0
 10
10.431642858
 20
13.6164410147
 30
0.0
 10
10.4178520853
 20
13.623064525
 30
0.0
 10
10.410484647
 20
13.6263333221
 30
0.0
  0
SPLINE
  5
3D7
100
AcDbEntity
  8
0
100
AcDbSpline
 62
9
  6
CONTINUOUS
 70
0
 71
3
 72
14
 73
10
 74
0
 42
0.0000001
 43
0.0000001
 44
0.0000000001
 40
0.0
 40
0.0
 40
0.0
 40
0.0
 40
0.0909575316
 40
0.1946526018
 40
0.3099113377
 40
0.435251061
 40
0.5689198977
 40
0.709001451
 40
1.0
 40
1.0
 40
1.0
 40
1.0
 10
10.410484647
 20
13.6263333221
 30
0.0
 10
10.3968007756
 20
13.6324046045
 30
0.0
 10
10.3667945309
 20
13.6437804073
 30
0.0
 10
10.3178150358
 20
13.6581374282
 30
0.0
 10
10.2625339604
 20
13.6707268168
 30
0.0
 10
10.2018308566
 20
13.6813221608
 30
0.0
 10
10.1366705107
 20
13.6897612422
 30
0.0
 10
10.0440731792
 20
13.6980273502
 30
0.0
 10
9.9730852274
 20
13.7004324282
 30
0.0
 10
9.9251911714
 20
13.7004328694
 30
0.0
  0
SPLINE
  5
3D8
100
AcDbEntity
  8
0
100
AcDbSpline
 62
9
  6
CONTINUOUS
 70
0
 71
3
 72
14
 73
10
 74
0
 42
0.0000001
 43
0.0000001
 44
0.0000000001
 40
0.0
 40
0.0
 40
0.0
 40
0.0
 40
0.2767551259
 40
0.4116718257
 40
0.5424614634
 40
0.6678459705
 40
0.7866166444
 40
0.8976556448
 40
1.0
 40
1.0
 40
1.0
 40
1.0
 10
9.9251911714
 20
13.7004328694
 30
0.0
 10
9.8858099824
 20
13.7004332322
 30
0.0
 10
9.8272103136
 20
13.6987919368
 30
0.0
 10
9.7502141184
 20
13.6932068945
 30
0.0
 10
9.6948513777
 20
13.6874519492
 30
0.0
 10
9.6419878145
 20
13.6801630655
 30
0.0
 10
9.5921925264
 20
13.6714258315
 30
0.0
 10
9.5460054229
 20
13.6613273713
 30
0.0
 10
9.5166694565
 20
13.6534291412
 30
0.0
 10
9.5027273771
 20
13.6492213576
 30
0.0
  0
SPLINE
  5
3D9
100
AcDbEntity
  8
0
100
AcDbSpline
 62
9
  6
CONTINUOUS
 70
0
 71
3
 72
9
 73
5
 74
0
 42
0.0000001
 43
0.0000001
 44
0.0000000001
 40
0.0
 40
0.0
 40
0.0
 40
0.0
 40
0.5236068483
 40
1.0
 40
1.0
 40
1.0
 40
1.0
 10
9.49894848
 20
13.6480693691
 30
0.0
 10
9.4885151835
 20
13.644856694
 30
0.0
 10
9.4687282036
 20
13.6382554747
 30
0.0
 10
9.4493466386
 20
13.6305262499
 30
0.0
 10
9.4402633325
 20
13.6265081117
 30
0.0
  0
SPLINE
  5
3DA
100
AcDbEntity
  8
0
100
AcDbSpline
 62
9
  6
CONTINUOUS
 70
0
 71
3
 72
11
 73
7
 74
0
 42
0.0000001
 43
0.0000001
 44
0.0000000001
 40
0.0
 40
0.0
 40
0.0
 40
0.0
 40
0.2939048662
 40
0.5580067188
 40
0.7928816824
 40
1.0
 40
1.0
 40
1.0
 40
1.0
 10
9.4402633325
 20
13.6265081117
 30
0.0
 10
9.4330132651
 20
13.6233009345
 30
0.0
 10
9.419422207
 20
13.6168017872
 30
0.0
 10
9.4008662075
 20
13.6061151259
 30
0.0
 10
9.3853115733
 20
13.5950694929
 30
0.0
 10
9.3764640402
 20
13.587007288
 30
0.0
 10
9.3726659423
 20
13.5829101306
 30
0.0
  0
SPLINE
  5
3DB
100
AcDbEntity
  8
0
100
AcDbSpline
 62
9
  6
CONTINUOUS
 70
0
 71
3
 72
11
 73
7
 74
0
 42
0.0000001
 43
0.0000001
 44
0.0000000001
 40
0.0
 40
0.0
 40
0.0
 40
0.0
 40
0.2816161371
 40
0.5376835715
 40
0.7744489021
 40
1.0
 40
1.0
 40
1.0
 40
1.0
 10
9.3726659423
 20
13.5829101306
 30
0.0
 10
9.3699897117
 20
13.5800231755
 30
0.0
 10
9.3652006565
 20
13.5741944329
 30
0.0
 10
9.3596607276
 20
13.5648352565
 30
0.0
 10
9.3561845854
 20
13.5553477605
 30
0.0
 10
9.3552756569
 20
13.5488877853
 30
0.0
 10
9.3551920311
 20
13.5457360157
 30
0.0
  0
SPLINE
  5
3DC
100
AcDbEntity
  8
0
100
AcDbSpline
 62
7
  6
CONTINUOUS
 70
0
 71
3
 72
9
 73
5
 74
0
 42
0.0000001
 43
0.0000001
 44
0.0000000001
 40
0.0
 40
0.0
 40
0.0
 40
0.0
 40
0.2468801512
 40
1.0
 40
1.0
 40
1.0
 40
1.0
 10
9.6621801178
 20
11.3687762844
 30
0.0
 10
9.6621801787
 20
11.3692897429
 30
0.0
 10
9.6622620782
 20
11.3713691409
 30
0.0
 10
9.6626780672
 20
11.3734319672
 30
0.0
 10
9.6631485305
 20
11.3749259733
 30
0.0
  0
SPLINE
  5
3DD
100
AcDbEntity
  8
0
100
AcDbSpline
 62
7
  6
CONTINUOUS
 70
0
 71
3
 72
10
 73
6
 74
0
 42
0.0000001
 43
0.0000001
 44
0.0000000001
 40
0.0
 40
0.0
 40
0.0
 40
0.0
 40
0.2194854646
 40
0.582722744
 40
1.0
 40
1.0
 40
1.0
 40
1.0
 10
9.6631485305
 20
11.3749259733
 30
0.0
 10
9.6635822169
 20
11.3763031905
 30
0.0
 10
9.6650909255
 20
11.379852461
 30
0.0
 10
9.6688927466
 20
11.385286276
 30
0.0
 10
9.6725863268
 20
11.3888884878
 30
0.0
 10
9.6746726106
 20
11.3906725256
 30
0.0
  0
SPLINE
  5
3DE
100
AcDbEntity
  8
0
100
AcDbSpline
 62
7
  6
CONTINUOUS
 70
0
 71
3
 72
9
 73
5
 74
0
 42
0.0000001
 43
0.0000001
 44
0.0000000001
 40
0.0
 40
0.0
 40
0.0
 40
0.0
 40
0.2393559368
 40
1.0
 40
1.0
 40
1.0
 40
1.0
 10
9.6746726106
 20
11.3906725256
 30
0.0
 10
9.6751464962
 20
11.391077758
 30
0.0
 10
9.6771521276
 20
11.3927405469
 30
0.0
 10
9.6792531853
 20
11.3942867368
 30
0.0
 10
9.6808877852
 20
11.395406713
 30
0.0
  0
LINE
  5
3DF
100
AcDbEntity
  8
0
100
AcDbLine
 62
7
  6
CONTINUOUS
 10
9.6808877852
 20
11.395406713
 11
9.6876231411
 21
11.3996247675
  0
SPLINE
  5
3E0
100
AcDbEntity
  8
0
100
AcDbSpline
 62
7
  6
CONTINUOUS
 70
0
 71
3
 72
9
 73
5
 74
0
 42
0.0000001
 43
0.0000001
 44
0.0000000001
 40
0.0
 40
0.0
 40
0.0
 40
0.0
 40
0.2402942862
 40
1.0
 40
1.0
 40
1.0
 40
1.0
 10
9.7312989884
 20
11.4173545831
 30
0.0
 10
9.7331596555
 20
11.4179093834
 30
0.0
 10
9.7409227649
 20
11.4201515533
 30
0.0
 10
9.7487583156
 20
11.4221399474
 30
0.0
 10
9.7547369974
 20
11.4235317802
 30
0.0
  0
SPLINE
  5
3E1
100
AcDbEntity
  8
0
100
AcDbSpline
 62
7
  6
CONTINUOUS
 70
0
 71
3
 72
9
 73
5
 74
0
 42
0.0000001
 43
0.0000001
 44
0.0000000001
 40
0.0
 40
0.0
 40
0.0
 40
0.0
 40
0.4900817349
 40
1.0
 40
1.0
 40
1.0
 40
1.0
 10
10.4871696365
 20
13.578272397
 30
0.0
 10
10.4871697348
 20
13.5812678632
 30
0.0
 10
10.4865064807
 20
13.5873965202
 30
0.0
 10
10.4845978749
 20
13.5932486578
 30
0.0
 10
10.483372333
 20
13.5961143047
 30
0.0
  0
SPLINE
  5
3E2
100
AcDbEntity
  8
0
100
AcDbSpline
 62
7
  6
CONTINUOUS
 70
0
 71
3
 72
21
 73
17
 74
0
 42
0.0000001
 43
0.0000001
 44
0.0000000001
 40
0.0
 40
0.0
 40
0.0
 40
0.0
 40
0.0271889557
 40
0.0423524753
 40
0.058721564
 40
0.0953967072
 40
0.1376681615
 40
0.1856343934
 40
0.2392331021
 40
0.2982438255
 40
0.36234642
 40
0.4311606567
 40
0.5042024211
 40
0.6608492867
 40
0.8278642272
 40
1.0
 40
1.0
 40
1.0
 40
1.0
 10
10.483372333
 20
13.5961143047
 30
0.0
 10
10.4812685947
 20
13.6010334111
 30
0.0
 10
10.476814379
 20
13.6082119358
 30
0.0
 10
10.4692592967
 20
13.6169609141
 30
0.0
 10
10.4595676646
 20
13.6262750482
 30
0.0
 10
10.4444943468
 20
13.6375472676
 30
0.0
 10
10.4228549229
 20
13.6500893358
 30
0.0
 10
10.3971726004
 20
13.6620568427
 30
0.0
 10
10.3676368183
 20
13.673341282
 30
0.0
 10
10.3344772327
 20
13.6838612778
 30
0.0
 10
10.2979566625
 20
13.6935303915
 30
0.0
 10
10.2583693769
 20
13.7022570926
 30
0.0
 10
10.2005749366
 20
13.712799539
 30
0.0
 10
10.1231229549
 20
13.7229539013
 30
0.0
 10
10.0257978304
 20
13.7302723059
 30
0.0
 10
9.9590488639
 20
13.7319138814
 30
0.0
 10
9.9251770363
 20
13.7319138814
 30
0.0
  0
SPLINE
  5
3E3
100
AcDbEntity
  8
0
100
AcDbSpline
 62
9
  6
CONTINUOUS
 70
0
 71
3
 72
11
 73
7
 74
0
 42
0.0000001
 43
0.0000001
 44
0.0000000001
 40
0.0
 40
0.0
 40
0.0
 40
0.0
 40
0.2377514039
 40
0.4831624554
 40
0.7384955991
 40
1.0
 40
1.0
 40
1.0
 40
1.0
 10
12.6641770363
 20
5.4341133887
 30
0.0
 10
12.6641770363
 20
5.4317596665
 30
0.0
 10
12.6630828836
 20
5.426922831
 30
0.0
 10
12.6585756328
 20
5.420915833
 30
0.0
 10
12.6519257924
 20
5.4169943672
 30
0.0
 10
12.6467659115
 20
5.4160741752
 30
0.0
 10
12.6441770363
 20
5.4160741752
 30
0.0
  0
SPLINE
  5
3E4
100
AcDbEntity
  8
0
100
AcDbSpline
 62
7
  6
CONTINUOUS
 70
0
 71
3
 72
9
 73
5
 74
0
 42
0.0000001
 43
0.0000001
 44
0.0000000001
 40
0.0
 40
0.0
 40
0.0
 40
0.0
 40
0.25866686
 40
1.0
 40
1.0
 40
1.0
 40
1.0
 10
10.3289737251
 20
11.3608632878
 30
0.0
 10
10.3293574975
 20
11.360310297
 30
0.0
 10
10.3307998725
 20
11.3581443811
 30
0.0
 10
10.3320700275
 20
11.3558615647
 30
0.0
 10
10.3328845867
 20
11.3541128473
 30
0.0
  0
SPLINE
  5
3E5
100
AcDbEntity
  8
0
100
AcDbSpline
 62
9
  6
CONTINUOUS
 70
0
 71
3
 72
103
 73
99
 74
0
 42
0.0000001
 43
0.0000001
 44
0.0000000001
 40
0.0
 40
0.0
 40
0.0
 40
0.0
 40
0.000015193
 40
0.0000600699
 40
0.0001345789
 40
0.0002386678
 40
0.0003722841
 40
0.0005353755
 40
0.0009497741
 40
0.0014814445
 40
0.0021299552
 40
0.0028944943
 40
0.0037738109
 40
0.0047666295
 40
0.0058716747
 40
0.0084133151
 40
0.0113867212
 40
0.0147770587
 40
0.0185692357
 40
0.0227474612
 40
0.0272946647
 40
0.0321936389
 40
0.0429789125
 40
0.0549697363
 40
0.0680383241
 40
0.0820660243
 40
0.096944017
 40
0.1125760225
 40
0.1288740229
 40
0.1457628717
 40
0.1810462978
 40
0.21797533
 40
0.2561971744
 40
0.2954314427
 40
0.3354509526
 40
0.3556951576
 40
0.3760674781
 40
0.3965486624
 40
0.4171206604
 40
0.4274353984
 40
0.437766535
 40
0.4481121135
 40
0.4584700824
 40
0.4688386993
 40
0.4792153438
 40
0.484408251
 40
0.4896029444
 40
0.4948012536
 40
0.4974021156
 40
0.5000020716
 40
0.5052002363
 40
0.5103961964
 40
0.5155908178
 40
0.5207837601
 40
0.5259738624
 40
0.5311621078
 40
0.5415306074
 40
0.5518886211
 40
0.5622341615
 40
0.5725652958
 40
0.5828800237
 40
0.6034520084
 40
0.6239331766
 40
0.6443054791
 40
0.6645496624
 40
0.7045691202
 40
0.7438033121
 40
0.7820250682
 40
0.8189539436
 40
0.8542372293
 40
0.8711259761
 40
0.8874239176
 40
0.9030559355
 40
0.9179339616
 40
0.9319616945
 40
0.9450303018
 40
0.9570211203
 40
0.9678063822
 40
0.9727053514
 40
0.9772525525
 40
0.9814307784
 40
0.9852229575
 40
0.9886132952
 40
0.9915867006
 40
0.9941283382
 40
0.9952333792
 40
0.996226193
 40
0.9971055054
 40
0.9978700419
 40
0.9985185521
 40
0.9990502225
 40
0.9994646212
 40
0.9996277128
 40
0.9997613295
 40
0.9998654188
 40
0.9999399284
 40
0.9999848061
 40
1.0
 40
1.0
 40
1.0
 40
1.0
 10
10.7251770363
 20
5.237973481
 30
0.0
 10
10.7251743238
 20
5.2379849809
 30
0.0
 10
10.7251316362
 20
5.2380141091
 30
0.0
 10
10.7250737677
 20
5.238098326
 30
0.0
 10
10.7249521826
 20
5.2382252595
 30
0.0
 10
10.7247940677
 20
5.2384084818
 30
0.0
 10
10.7245862608
 20
5.2386412209
 30
0.0
 10
10.7242199397
 20
5.239055316
 30
0.0
 10
10.7236472423
 20
5.2397004787
 30
0.0
 10
10.7228243851
 20
5.2406281734
 30
0.0
 10
10.7218204687
 20
5.2417593305
 30
0.0
 10
10.7206370738
 20
5.2430926539
 30
0.0
 10
10.7192758687
 20
5.2446261902
 30
0.0
 10
10.7177388856
 20
5.2463577774
 30
0.0
 10
10.7153437712
 20
5.2490562519
 30
0.0
 10
10.7119264284
 20
5.2529069051
 30
0.0
 10
10.7073298752
 20
5.2580872472
 30
0.0
 10
10.7020881968
 20
5.2639953435
 30
0.0
 10
10.6962249943
 20
5.2706046036
 30
0.0
 10
10.6897649574
 20
5.2778870776
 30
0.0
 10
10.6827337618
 20
5.2858134918
 30
0.0
 10
10.6722926715
 20
5.2975836067
 30
0.0
 10
10.658009414
 20
5.3136836452
 30
0.0
 10
10.6395110747
 20
5.3345375298
 30
0.0
 10
10.6193419007
 20
5.3572800096
 30
0.0
 10
10.5976846098
 20
5.3817038509
 30
0.0
 10
10.5747064758
 20
5.4076208739
 30
0.0
 10
10.5505596618
 20
5.4348613397
 30
0.0
 10
10.5253788155
 20
5.4632749779
 30
0.0
 10
10.4900670835
 20
5.5031309116
 30
0.0
 10
10.4441276839
 20
5.5550068292
 30
0.0
 10
10.3872180365
 20
5.6193285381
 30
0.0
 10
10.3283161558
 20
5.6859900717
 30
0.0
 10
10.2678933563
 20
5.7545149123
 30
0.0
 10
10.2168155421
 20
5.8126398343
 30
0.0
 10
10.1755342863
 20
5.8598455485
 30
0.0
 10
10.1443406801
 20
5.8956874959
 30
0.0
 10
10.1131103028
 20
5.9318350073
 30
0.0
 10
10.0871698023
 20
5.9622158664
 30
0.0
 10
10.0665497625
 20
5.9867582929
 30
0.0
 10
10.0511872791
 20
6.0053298773
 30
0.0
 10
10.0360099788
 20
6.0240967345
 30
0.0
 10
10.0211465187
 20
6.0431521645
 30
0.0
 10
10.0068093348
 20
6.0626380647
 30
0.0
 10
9.9957309186
 20
6.0795226423
 30
0.0
 10
9.9879507159
 20
6.0936874625
 30
0.0
 10
9.9830774348
 20
6.104808915
 30
0.0
 10
9.9802252332
 20
6.1145481648
 30
0.0
 10
9.9789822099
 20
6.1225518735
 30
0.0
 10
9.9785831522
 20
6.1306431443
 30
0.0
 10
9.9796607737
 20
6.1407608533
 30
0.0
 10
9.9830485682
 20
6.1524512533
 30
0.0
 10
9.9879824822
 20
6.1635462091
 30
0.0
 10
9.9937843258
 20
6.1741895828
 30
0.0
 10
10.0001670523
 20
6.1844860357
 30
0.0
 10
10.0092033495
 20
6.1978559338
 30
0.0
 10
10.0211457343
 20
6.2140979137
 30
0.0
 10
10.0360114893
 20
6.2331501139
 30
0.0
 10
10.0511881784
 20
6.2519178076
 30
0.0
 10
10.0665508003
 20
6.2704891398
 30
0.0
 10
10.0871708451
 20
6.2950315638
 30
0.0
 10
10.1131113831
 20
6.3254123368
 30
0.0
 10
10.1443416937
 20
6.3615598613
 30
0.0
 10
10.1755352846
 20
6.3974017634
 30
0.0
 10
10.2168164905
 20
6.4446074268
 30
0.0
 10
10.2678942184
 20
6.5027322689
 30
0.0
 10
10.3283169185
 20
6.5712569724
 30
0.0
 10
10.3872186077
 20
6.6379183415
 30
0.0
 10
10.4441280394
 20
6.702239841
 30
0.0
 10
10.4900672589
 20
6.7541155034
 30
0.0
 10
10.525378831
 20
6.7939712658
 30
0.0
 10
10.550559594
 20
6.8223848235
 30
0.0
 10
10.5747064167
 20
6.849625268
 30
0.0
 10
10.5976846128
 20
6.8755423175
 30
0.0
 10
10.6193419348
 20
6.8999662203
 30
0.0
 10
10.6395110968
 20
6.9227087594
 30
0.0
 10
10.6580094326
 20
6.9435626498
 30
0.0
 10
10.6722926974
 20
6.9596626589
 30
0.0
 10
10.6827337874
 20
6.9714327542
 30
0.0
 10
10.6897649823
 20
6.9793591615
 30
0.0
 10
10.6962250188
 20
6.986641636
 30
0.0
 10
10.7020882181
 20
6.9932509018
 30
0.0
 10
10.7073298917
 20
6.999159004
 30
0.0
 10
10.71192644
 20
7.0043393471
 30
0.0
 10
10.7153437822
 20
7.0081899929
 30
0.0
 10
10.7177388964
 20
7.0108884552
 30
0.0
 10
10.7192758774
 20
7.0126200305
 30
0.0
 10
10.7206370809
 20
7.0141535561
 30
0.0
 10
10.7218204754
 20
7.0154868723
 30
0.0
 10
10.7228243918
 20
7.0166180263
 30
0.0
 10
10.7236472482
 20
7.0175457214
 30
0.0
 10
10.7242199442
 20
7.0181908857
 30
0.0
 10
10.7245862635
 20
7.0186049829
 30
0.0
 10
10.7247940697
 20
7.0188377239
 30
0.0
 10
10.724952183
 20
7.0190209482
 30
0.0
 10
10.7250737694
 20
7.0191478843
 30
0.0
 10
10.7251316345
 20
7.0192321033
 30
0.0
 10
10.7251743258
 20
7.0192612336
 30
0.0
 10
10.7251770363
 20
7.0192727347
 30
0.0
  0
SPLINE
  5
3E6
100
AcDbEntity
  8
0
100
AcDbSpline
 62
9
  6
CONTINUOUS
 70
0
 71
3
 72
100
 73
96
 74
0
 42
0.0000001
 43
0.0000001
 44
0.0000000001
 40
0.0
 40
0.0
 40
0.0
 40
0.0
 40
0.0000152007
 40
0.0000600012
 40
0.0001343512
 40
0.0002382002
 40
0.0003714977
 40
0.0005341932
 40
0.0009475761
 40
0.0014779447
 40
0.0021248855
 40
0.0028876241
 40
0.003764914
 40
0.0058580336
 40
0.0083940018
 40
0.0113609995
 40
0.0147442656
 40
0.0185287158
 40
0.0226987361
 40
0.03212764
 40
0.0428950044
 40
0.0548680301
 40
0.0679190914
 40
0.0819305901
 40
0.0967933182
 40
0.112411929
 40
0.1455765757
 40
0.1808452228
 40
0.2177678853
 40
0.255991913
 40
0.2952368923
 40
0.3352757512
 40
0.3555328956
 40
0.3759203671
 40
0.3964189445
 40
0.4170106229
 40
0.427336067
 40
0.4376785009
 40
0.4480359368
 40
0.4584064254
 40
0.4687879517
 40
0.4739826988
 40
0.4791797979
 40
0.4843788875
 40
0.4895797954
 40
0.4947810818
 40
0.4973867302
 40
0.4999924202
 40
0.5025999156
 40
0.5052047566
 40
0.5078114739
 40
0.5104153964
 40
0.5156176353
 40
0.5208171469
 40
0.526014268
 40
0.5312091629
 40
0.5415907638
 40
0.5519612996
 40
0.5623187649
 40
0.5726612234
 40
0.5829866903
 40
0.6035784176
 40
0.62407705
 40
0.6444645834
 40
0.6647218006
 40
0.7047608426
 40
0.7440060876
 40
0.7822304314
 40
0.8191535512
 40
0.8544227828
 40
0.8875878375
 40
0.903206557
 40
0.9180693248
 40
0.9320808656
 40
0.9451319425
 40
0.9571049752
 40
0.9678723414
 40
0.9773012444
 40
0.9814712597
 40
0.985255704
 40
0.9886389677
 40
0.9916059624
 40
0.9941419331
 40
0.9962350712
 40
0.9971123692
 40
0.9978751109
 40
0.9985220495
 40
0.9990524183
 40
0.9994658034
 40
0.9996285003
 40
0.9997617991
 40
0.9998656491
 40
0.9999399997
 40
0.9999848001
 40
1.0
 40
1.0
 40
1.0
 40
1.0
 10
10.8243043827
 20
6.9192765424
 30
0.0
 10
10.8242935491
 20
6.9192720203
 30
0.0
 10
10.8242634008
 20
6.9192338794
 30
0.0
 10
10.8241812331
 20
6.9191723482
 30
0.0
 10
10.8240548179
 20
6.9190540859
 30
0.0
 10
10.8238736933
 20
6.9188963
 30
0.0
 10
10.8236431065
 20
6.9186906962
 30
0.0
 10
10.8232331243
 20
6.9183274054
 30
0.0
 10
10.8225942413
 20
6.9177598803
 30
0.0
 10
10.8216756519
 20
6.9169442035
 30
0.0
 10
10.820555564
 20
6.9159490603
 30
0.0
 10
10.8192352738
 20
6.914775876
 30
0.0
 10
10.8170801969
 20
6.9128606939
 30
0.0
 10
10.8139015207
 20
6.910035752
 30
0.0
 10
10.8095162692
 20
6.9061390004
 30
0.0
 10
10.8043858438
 20
6.9015808242
 30
0.0
 10
10.7985344641
 20
6.8963824088
 30
0.0
 10
10.7919884724
 20
6.8905669643
 30
0.0
 10
10.781952088
 20
6.8816503888
 30
0.0
 10
10.767884834
 20
6.8691511705
 30
0.0
 10
10.749315047
 20
6.8526466055
 30
0.0
 10
10.7286556753
 20
6.8342822037
 30
0.0
 10
10.7061245675
 20
6.8142523228
 30
0.0
 10
10.6819276054
 20
6.79273736
 30
0.0
 10
10.6562516413
 20
6.7699015976
 30
0.0
 10
10.6195269697
 20
6.7372308322
 30
0.0
 10
10.5710370954
 20
6.6940748297
 30
0.0
 10
10.5102776698
 20
6.639956967
 30
0.0
 10
10.4466295674
 20
6.5832076122
 30
0.0
 10
10.3807320518
 20
6.5243666864
 30
0.0
 10
10.3131051686
 20
6.463849258
 30
0.0
 10
10.2559071933
 20
6.4124857401
 30
0.0
 10
10.20964477
 20
6.3707420661
 30
0.0
 10
10.174660145
 20
6.3390264374
 30
0.0
 10
10.1395960263
 20
6.3070142186
 30
0.0
 10
10.1104203103
 20
6.2800780723
 30
0.0
 10
10.0871713404
 20
6.2582869214
 30
0.0
 10
10.0698074728
 20
6.2417755189
 30
0.0
 10
10.0525920331
 20
6.2250586419
 30
0.0
 10
10.0356290874
 20
6.208042693
 30
0.0
 10
10.021860415
 20
6.1934757727
 30
0.0
 10
10.0112915263
 20
6.1814024981
 30
0.0
 10
10.0036994279
 20
6.1720521683
 30
0.0
 10
9.9966337459
 20
6.1622837015
 30
0.0
 10
9.9904563332
 20
6.1519155179
 30
0.0
 10
9.9866095586
 20
6.1425589867
 30
0.0
 10
9.9849083048
 20
6.1346760979
 30
0.0
 10
9.9844725841
 20
6.1286322426
 30
0.0
 10
9.9849069384
 20
6.12258917
 30
0.0
 10
9.9861804719
 20
6.1166684411
 30
0.0
 10
9.9881472703
 20
6.1109500219
 30
0.0
 10
9.9914718887
 20
6.1036174395
 30
0.0
 10
9.9966323606
 20
6.0949688305
 30
0.0
 10
10.0036925239
 20
6.085198969
 30
0.0
 10
10.0112861217
 20
6.0758479396
 30
0.0
 10
10.0218576161
 20
6.0637771556
 30
0.0
 10
10.0356239033
 20
6.0492075702
 30
0.0
 10
10.0525872752
 20
6.0321918798
 30
0.0
 10
10.0698027855
 20
6.0154749658
 30
0.0
 10
10.0871667896
 20
5.9989636203
 30
0.0
 10
10.1104156918
 20
5.9771722892
 30
0.0
 10
10.1395915731
 20
5.9502361767
 30
0.0
 10
10.1746556976
 20
5.9182237751
 30
0.0
 10
10.2096404817
 20
5.8865081033
 30
0.0
 10
10.2559030451
 20
5.8447642183
 30
0.0
 10
10.3131012881
 20
5.7934003955
 30
0.0
 10
10.380728614
 20
5.7328825759
 30
0.0
 10
10.4466267647
 20
5.6740411565
 30
0.0
 10
10.5102756204
 20
5.6172910708
 30
0.0
 10
10.5710358942
 20
5.563172477
 30
0.0
 10
10.6195263782
 20
5.5200158804
 30
0.0
 10
10.65625139
 20
5.487344851
 30
0.0
 10
10.6819274816
 20
5.4645090104
 30
0.0
 10
10.7061244786
 20
5.4429939735
 30
0.0
 10
10.7286555866
 20
5.4229640178
 30
0.0
 10
10.749314978
 20
5.4045996098
 30
0.0
 10
10.7678847975
 20
5.3880950723
 30
0.0
 10
10.7819520572
 20
5.3755958651
 30
0.0
 10
10.7919884315
 20
5.3666792919
 30
0.0
 10
10.7985344088
 20
5.3608638467
 30
0.0
 10
10.804385775
 20
5.3556654293
 30
0.0
 10
10.809516195
 20
5.3511072504
 30
0.0
 10
10.8139014622
 20
5.3472104955
 30
0.0
 10
10.8170801671
 20
5.3443855519
 30
0.0
 10
10.8192352698
 20
5.3424703644
 30
0.0
 10
10.8205555698
 20
5.3412971806
 30
0.0
 10
10.8216756603
 20
5.3403020391
 30
0.0
 10
10.8225942483
 20
5.3394863604
 30
0.0
 10
10.8232331303
 20
5.3389188298
 30
0.0
 10
10.8236431121
 20
5.3385555331
 30
0.0
 10
10.8238736986
 20
5.3383499245
 30
0.0
 10
10.8240548232
 20
5.3381921355
 30
0.0
 10
10.8241812364
 20
5.3380738686
 30
0.0
 10
10.8242634043
 20
5.3380123388
 30
0.0
 10
10.8242935495
 20
5.3379741945
 30
0.0
 10
10.8243043827
 20
5.3379696733
 30
0.0
  0
LINE
  5
3E7
100
AcDbEntity
  8
0
100
AcDbLine
 62
9
  6
CONTINUOUS
 10
12.9425280839
 20
5.2486315938
 11
12.9376927286
 21
5.2499427363
  0
SPLINE
  5
3E8
100
AcDbEntity
  8
0
100
AcDbSpline
 62
9
  6
CONTINUOUS
 70
0
 71
3
 72
13
 73
9
 74
0
 42
0.0000001
 43
0.0000001
 44
0.0000000001
 40
0.0
 40
0.0
 40
0.0
 40
0.0
 40
0.0486713012
 40
0.1259607821
 40
0.3544823329
 40
0.6570210081
 40
0.8260279999
 40
1.0
 40
1.0
 40
1.0
 40
1.0
 10
12.9376927286
 20
5.2499427363
 30
0.0
 10
12.9333296982
 20
5.2511193559
 30
0.0
 10
12.9220241893
 20
5.2541130266
 30
0.0
 10
12.8900804952
 20
5.2620437189
 30
0.0
 10
12.8347841255
 20
5.273695461
 30
0.0
 10
12.7703323207
 20
5.2827171488
 30
0.0
 10
12.7105412185
 20
5.2870931166
 30
0.0
 10
12.6786917222
 20
5.2879089823
 30
0.0
 10
12.662539241
 20
5.2879091256
 30
0.0
  0
LINE
  5
3E9
100
AcDbEntity
  8
0
100
AcDbLine
 62
9
  6
CONTINUOUS
 10
12.4025415824
 20
5.2286231827
 11
12.4047983325
 21
5.2293132199
  0
SPLINE
  5
3EA
100
AcDbEntity
  8
0
100
AcDbSpline
 62
9
  6
CONTINUOUS
 70
0
 71
3
 72
14
 73
10
 74
0
 42
0.0000001
 43
0.0000001
 44
0.0000000001
 40
0.0
 40
0.0
 40
0.0
 40
0.0
 40
0.0408450437
 40
0.1129690158
 40
0.4847760474
 40
0.6051740642
 40
0.7327397133
 40
0.865156744
 40
1.0
 40
1.0
 40
1.0
 40
1.0
 10
12.4047983325
 20
5.2293132199
 30
0.0
 10
12.4082080311
 20
5.2303440117
 30
0.0
 10
12.4176652775
 20
5.233106767
 30
0.0
 10
12.4583818877
 20
5.2444813459
 30
0.0
 10
12.5065818508
 20
5.2549823281
 30
0.0
 10
12.5600917473
 20
5.2626556818
 30
0.0
 10
12.5930981443
 20
5.2660736158
 30
0.0
 10
12.6274689199
 20
5.2682726548
 30
0.0
 10
12.6507795393
 20
5.2688012897
 30
0.0
 10
12.6625392413
 20
5.2688013207
 30
0.0
  0
SPLINE
  5
3EB
100
AcDbEntity
  8
0
100
AcDbSpline
 62
7
  6
CONTINUOUS
 70
0
 71
3
 72
9
 73
5
 74
0
 42
0.0000001
 43
0.0000001
 44
0.0000000001
 40
0.0
 40
0.0
 40
0.0
 40
0.0
 40
0.2606535816
 40
1.0
 40
1.0
 40
1.0
 40
1.0
 10
10.1963812676
 20
11.2983061991
 30
0.0
 10
10.1973875142
 20
11.2987963355
 30
0.0
 10
10.2012305586
 20
11.3007120382
 30
0.0
 10
10.2050020129
 20
11.3027735298
 30
0.0
 10
10.2077310301
 20
11.3043958595
 30
0.0
  0
LINE
  5
3EC
100
AcDbEntity
  8
0
100
AcDbLine
 62
7
  6
CONTINUOUS
 10
10.3328845867
 20
11.3257254133
 11
10.3304441772
 21
11.3212177368
  0
SPLINE
  5
3ED
100
AcDbEntity
  8
0
100
AcDbSpline
 62
7
  6
CONTINUOUS
 70
0
 71
3
 72
9
 73
5
 74
0
 42
0.0000001
 43
0.0000001
 44
0.0000000001
 40
0.0
 40
0.0
 40
0.0
 40
0.0
 40
0.2615695709
 40
1.0
 40
1.0
 40
1.0
 40
1.0
 10
10.2301444661
 20
11.3232542481
 30
0.0
 10
10.2305464025
 20
11.3238039825
 30
0.0
 10
10.2320311524
 20
11.3259424303
 30
0.0
 10
10.2332966663
 20
11.3282381976
 30
0.0
 10
10.2340553277
 20
11.3300046887
 30
0.0
  0
SPLINE
  5
3EE
100
AcDbEntity
  8
0
100
AcDbSpline
 62
9
  6
CONTINUOUS
 70
0
 71
3
 72
10
 73
6
 74
0
 42
0.0000001
 43
0.0000001
 44
0.0000000001
 40
0.0
 40
0.0
 40
0.0
 40
0.0
 40
0.3634071686
 40
0.6775903032
 40
1.0
 40
1.0
 40
1.0
 40
1.0
 10
12.662539241
 20
5.2879091256
 30
0.0
 10
12.6282967852
 20
5.2879090465
 30
0.0
 10
12.5643967976
 20
5.2845164933
 30
0.0
 10
12.4711084997
 20
5.2705777132
 30
0.0
 10
12.4126381845
 20
5.2568595393
 30
0.0
 10
12.3833359711
 20
5.2488414611
 30
0.0
  0
LINE
  5
3EF
100
AcDbEntity
  8
0
100
AcDbLine
 62
9
  6
CONTINUOUS
 10
12.3833359711
 20
5.2488414611
 11
12.3825397118
 21
5.2486235526
  0
SPLINE
  5
3F0
100
AcDbEntity
  8
0
100
AcDbSpline
 62
7
  6
CONTINUOUS
 70
0
 71
3
 72
9
 73
5
 74
0
 42
0.0000001
 43
0.0000001
 44
0.0000000001
 40
0.0
 40
0.0
 40
0.0
 40
0.0
 40
0.2580566118
 40
1.0
 40
1.0
 40
1.0
 40
1.0
 10
10.2855364302
 20
11.3939510023
 30
0.0
 10
10.2865281061
 20
11.3934566916
 30
0.0
 10
10.2903572034
 20
11.3915138082
 30
0.0
 10
10.2941297736
 20
11.3894585989
 30
0.0
 10
10.2968861926
 20
11.3878613419
 30
0.0
  0
SPLINE
  5
3F1
100
AcDbEntity
  8
0
100
AcDbSpline
 62
7
  6
CONTINUOUS
 70
0
 71
3
 72
21
 73
17
 74
0
 42
0.0000001
 43
0.0000001
 44
0.0000000001
 40
0.0
 40
0.0
 40
0.0
 40
0.0
 40
0.1715922463
 40
0.3381330337
 40
0.4944450519
 40
0.5673905713
 40
0.6361635583
 40
0.7002850156
 40
0.7593769855
 40
0.8131186137
 40
0.8612870548
 40
0.903810078
 40
0.9407682835
 40
0.9572810478
 40
0.9725824615
 40
1.0
 40
1.0
 40
1.0
 40
1.0
 10
9.9251770363
 20
13.7341009488
 30
0.0
 10
9.9593462089
 20
13.7341009488
 30
0.0
 10
10.0266915697
 20
13.732453407
 30
0.0
 10
10.124915992
 20
13.7251085177
 30
0.0
 10
10.2031236029
 20
13.714916726
 30
0.0
 10
10.2615302346
 20
13.7043360104
 30
0.0
 10
10.301582071
 20
13.6955728973
 30
0.0
 10
10.3385709499
 20
13.6858608834
 30
0.0
 10
10.37220195
 20
13.675291154
 30
0.0
 10
10.402210882
 20
13.6639487992
 30
0.0
 10
10.4283664937
 20
13.6519158884
 30
0.0
 10
10.450476862
 20
13.6393005504
 30
0.0
 10
10.4659465458
 20
13.6279632834
 30
0.0
 10
10.4759593172
 20
13.6185918954
 30
0.0
 10
10.4838120503
 20
13.6097853782
 30
0.0
 10
10.4885064825
 20
13.6025594799
 30
0.0
 10
10.4907760819
 20
13.5975939225
 30
0.0
  0
SPLINE
  5
3F2
100
AcDbEntity
  8
0
100
AcDbSpline
 62
7
  6
CONTINUOUS
 70
0
 71
3
 72
9
 73
5
 74
0
 42
0.0000001
 43
0.0000001
 44
0.0000000001
 40
0.0
 40
0.0
 40
0.0
 40
0.0
 40
0.5112334316
 40
1.0
 40
1.0
 40
1.0
 40
1.0
 10
10.4907760819
 20
13.5975939225
 30
0.0
 10
10.4921880109
 20
13.5945048246
 30
0.0
 10
10.4943965107
 20
13.5881834017
 30
0.0
 10
10.4951694282
 20
13.581519612
 30
0.0
 10
10.4951695341
 20
13.578272396
 30
0.0
  0
SPLINE
  5
3F3
100
AcDbEntity
  8
0
100
AcDbSpline
 62
7
  6
CONTINUOUS
 70
0
 71
3
 72
15
 73
11
 74
0
 42
0.0000001
 43
0.0000001
 44
0.0000000001
 40
0.0
 40
0.0
 40
0.0
 40
0.0
 40
0.140827806
 40
0.2802955428
 40
0.4165448743
 40
0.5480402268
 40
0.6734029809
 40
0.7913179369
 40
0.9005381167
 40
1.0
 40
1.0
 40
1.0
 40
1.0
 10
9.9251770363
 20
13.7319138814
 30
0.0
 10
9.9045161581
 20
13.7319138814
 30
0.0
 10
9.8633912927
 20
13.7312901861
 30
0.0
 10
9.8023336011
 20
13.7285178827
 30
0.0
 10
9.7427577144
 20
13.7239236498
 30
0.0
 10
9.685423681
 20
13.7175754799
 30
0.0
 10
9.6310165683
 20
13.7095482806
 30
0.0
 10
9.5801836873
 20
13.6999486427
 30
0.0
 10
9.5335424037
 20
13.6888964885
 30
0.0
 10
9.5041585332
 20
13.680218371
 30
0.0
 10
9.4903176162
 20
13.6755969364
 30
0.0
  0
SPLINE
  5
3F4
100
AcDbEntity
  8
0
100
AcDbSpline
 62
7
  6
CONTINUOUS
 70
0
 71
3
 72
14
 73
10
 74
0
 42
0.0000001
 43
0.0000001
 44
0.0000000001
 40
0.0
 40
0.0
 40
0.0
 40
0.0
 40
0.1706645755
 40
0.3281974714
 40
0.4723270977
 40
0.6029737134
 40
0.7202739514
 40
0.8247871758
 40
1.0
 40
1.0
 40
1.0
 40
1.0
 10
9.4903176162
 20
13.6755969364
 30
0.0
 10
9.4822878871
 20
13.6729158375
 30
0.0
 10
9.4669488929
 20
13.6674419751
 30
0.0
 10
9.4452925615
 20
13.658474739
 30
0.0
 10
9.4259807347
 20
13.6491162073
 30
0.0
 10
9.4091051126
 20
13.6394196836
 30
0.0
 10
9.3947256833
 20
13.6294011115
 30
0.0
 10
9.3798873442
 20
13.6164722078
 30
0.0
 10
9.3711320215
 20
13.6052316329
 30
0.0
 10
9.3675183511
 20
13.5973274003
 30
0.0
  0
SPLINE
  5
3F5
100
AcDbEntity
  8
0
100
AcDbSpline
 62
7
  6
CONTINUOUS
 70
0
 71
3
 72
9
 73
5
 74
0
 42
0.0000001
 43
0.0000001
 44
0.0000000001
 40
0.0
 40
0.0
 40
0.0
 40
0.0
 40
0.5112385947
 40
1.0
 40
1.0
 40
1.0
 40
1.0
 10
9.3675183511
 20
13.5973274003
 30
0.0
 10
9.3661255783
 20
13.5942809686
 30
0.0
 10
9.3639470057
 20
13.588046807
 30
0.0
 10
9.3631845411
 20
13.5814748329
 30
0.0
 10
9.363184436
 20
13.578272396
 30
0.0
  0
SPLINE
  5
3F6
100
AcDbEntity
  8
0
100
AcDbSpline
 62
9
  6
CONTINUOUS
 70
0
 71
3
 72
20
 73
16
 74
0
 42
0.0000001
 43
0.0000001
 44
0.0000000001
 40
0.0
 40
0.0
 40
0.0
 40
0.0
 40
0.193854297
 40
0.3803450124
 40
0.5521284829
 40
0.7032807324
 40
0.8281888655
 40
0.8792579507
 40
0.9219343351
 40
0.9556613166
 40
0.9801026569
 40
0.9887532628
 40
0.9949766861
 40
0.9987374552
 40
1.0
 40
1.0
 40
1.0
 40
1.0
 10
12.6625392411
 20
5.2688013156
 30
0.0
 10
12.6795995628
 20
5.2688011062
 30
0.0
 10
12.713079145
 20
5.2677024588
 30
0.0
 10
12.7614968828
 20
5.2633173703
 30
0.0
 10
12.8058655312
 20
5.2567352108
 30
0.0
 10
12.8445474638
 20
5.2491202057
 30
0.0
 10
12.8725675504
 20
5.2424833142
 30
0.0
 10
12.8911806679
 20
5.2375990785
 30
0.0
 10
12.9019960228
 20
5.2346184969
 30
0.0
 10
12.910532646
 20
5.2321913215
 30
0.0
 10
12.9161776047
 20
5.2305434372
 30
0.0
 10
12.9194921785
 20
5.2295510639
 30
0.0
 10
12.9210628954
 20
5.229079249
 30
0.0
 10
12.9220073746
 20
5.2287835163
 30
0.0
 10
12.9224316306
 20
5.2286587689
 30
0.0
 10
12.9225368872
 20
5.2286231769
 30
0.0
  0
SPLINE
  5
3F7
100
AcDbEntity
  8
0
100
AcDbSpline
 62
9
  6
CONTINUOUS
 70
0
 71
3
 72
11
 73
7
 74
0
 42
0.0000001
 43
0.0000001
 44
0.0000000001
 40
0.0
 40
0.0
 40
0.0
 40
0.0
 40
0.2378002087
 40
0.4832301623
 40
0.7385424047
 40
1.0
 40
1.0
 40
1.0
 40
1.0
 10
12.6641770363
 20
6.8234208796
 30
0.0
 10
12.664177035
 20
6.8257755212
 30
0.0
 10
12.6630830785
 20
6.8306139103
 30
0.0
 10
12.6585761696
 20
6.836623441
 30
0.0
 10
12.6519263018
 20
6.8405468474
 30
0.0
 10
12.6467661172
 20
6.8414675681
 30
0.0
 10
12.6441772259
 20
6.8414675791
 30
0.0
  0
SPLINE
  5
3F8
100
AcDbEntity
  8
0
100
AcDbSpline
 62
7
  6
CONTINUOUS
 70
0
 71
3
 72
9
 73
5
 74
0
 42
0.0000001
 43
0.0000001
 44
0.0000000001
 40
0.0
 40
0.0
 40
0.0
 40
0.0
 40
0.2595437583
 40
1.0
 40
1.0
 40
1.0
 40
1.0
 10
10.0956312424
 20
11.4235284977
 30
0.0
 10
10.097671876
 20
11.4230533906
 30
0.0
 10
10.1055215282
 20
11.421169076
 30
0.0
 10
10.1133193505
 20
11.4190649965
 30
0.0
 10
10.1190476554
 20
11.4173572027
 30
0.0
  0
SPLINE
  5
3F9
100
AcDbEntity
  8
0
100
AcDbSpline
 62
7
  6
CONTINUOUS
 70
0
 71
3
 72
9
 73
5
 74
0
 42
0.0000001
 43
0.0000001
 44
0.0000000001
 40
0.0
 40
0.0
 40
0.0
 40
0.0
 40
0.2688032209
 40
1.0
 40
1.0
 40
1.0
 40
1.0
 10
10.1627210909
 20
11.3996307526
 30
0.0
 10
10.163879253
 20
11.398964508
 30
0.0
 10
10.1681438495
 20
11.3964125582
 30
0.0
 10
10.1722323907
 20
11.3935495041
 30
0.0
 10
10.1750264572
 20
11.3912250999
 30
0.0
  0
SPLINE
  5
3FA
100
AcDbEntity
  8
0
100
AcDbSpline
 62
7
  6
CONTINUOUS
 70
0
 71
3
 72
9
 73
5
 74
0
 42
0.0000001
 43
0.0000001
 44
0.0000000001
 40
0.0
 40
0.0
 40
0.0
 40
0.0
 40
0.28813316
 40
1.0
 40
1.0
 40
1.0
 40
1.0
 10
10.1750264572
 20
11.3912250999
 30
0.0
 10
10.1765520815
 20
11.389955922
 30
0.0
 10
10.181623027
 20
11.3853362796
 30
0.0
 10
10.1858246003
 20
11.3794418233
 30
0.0
 10
10.1872596123
 20
11.3747535201
 30
0.0
  0
SPLINE
  5
3FB
100
AcDbEntity
  8
0
100
AcDbSpline
 62
7
  6
CONTINUOUS
 70
0
 71
3
 72
9
 73
5
 74
0
 42
0.0000001
 43
0.0000001
 44
0.0000000001
 40
0.0
 40
0.0
 40
0.0
 40
0.0
 40
0.2549222038
 40
1.0
 40
1.0
 40
1.0
 40
1.0
 10
10.1872596123
 20
11.3747535201
 30
0.0
 10
10.1874103074
 20
11.3742611867
 30
0.0
 10
10.1879348417
 20
11.3723103234
 30
0.0
 10
10.188174133
 20
11.3702811576
 30
0.0
 10
10.1881739547
 20
11.3687762848
 30
0.0
  0
SPLINE
  5
3FC
100
AcDbEntity
  8
0
100
AcDbSpline
 62
7
  6
CONTINUOUS
 70
0
 71
3
 72
20
 73
16
 74
0
 42
0.0000001
 43
0.0000001
 44
0.0000000001
 40
0.0
 40
0.0
 40
0.0
 40
0.0
 40
0.1800825155
 40
0.3541217618
 40
0.5154428767
 40
0.6588078712
 40
0.7223852675
 40
0.7799210557
 40
0.8311121968
 40
0.8758693413
 40
0.9142933616
 40
0.9468752666
 40
0.974760291
 40
0.9875625876
 40
1.0
 40
1.0
 40
1.0
 40
1.0
 10
9.9251770363
 20
11.301523962
 30
0.0
 10
9.9411676731
 20
11.301523962
 30
0.0
 10
9.9726186235
 20
11.302362738
 30
0.0
 10
10.0182628276
 20
11.3060661146
 30
0.0
 10
10.0603707335
 20
11.3120900636
 30
0.0
 10
10.0923637282
 20
11.3190700945
 30
0.0
 10
10.1148766992
 20
11.3257928695
 30
0.0
 10
10.1292619371
 20
11.3310361342
 30
0.0
 10
10.1417030508
 20
11.3366378776
 30
0.0
 10
10.1520992114
 20
11.3425375673
 30
0.0
 10
10.160371173
 20
11.3487018444
 30
0.0
 10
10.1664500295
 20
11.3551138721
 30
0.0
 10
10.1697129789
 20
11.3608567385
 30
0.0
 10
10.1709680311
 20
11.3654257303
 30
0.0
 10
10.1711742847
 20
11.3676718899
 30
0.0
 10
10.1711741539
 20
11.3687762844
 30
0.0
  0
SPLINE
  5
3FD
100
AcDbEntity
  8
0
100
AcDbSpline
 62
7
  6
CONTINUOUS
 70
0
 71
3
 72
18
 73
14
 74
0
 42
0.0000001
 43
0.0000001
 44
0.0000000001
 40
0.0
 40
0.0
 40
0.0
 40
0.0
 40
0.1588770807
 40
0.314580415
 40
0.4630232906
 40
0.5335126449
 40
0.6010217477
 40
0.7257263618
 40
0.8347758087
 40
0.8828303427
 40
0.9263882512
 40
0.9654237281
 40
1.0
 40
1.0
 40
1.0
 40
1.0
 10
9.9251770363
 20
11.3063334877
 30
0.0
 10
9.9123968761
 20
11.3063334877
 30
0.0
 10
9.8870885012
 20
11.3068772088
 30
0.0
 10
9.8499085512
 20
11.3092721483
 30
0.0
 10
9.8199445002
 20
11.3126131467
 30
0.0
 10
9.7971621402
 20
11.3160770876
 30
0.0
 10
9.7763668261
 20
11.3198484725
 30
0.0
 10
9.7527271986
 20
11.325258016
 30
0.0
 10
9.7310431886
 20
11.3319902797
 30
0.0
 10
9.716067133
 20
11.338035348
 30
0.0
 10
9.7065868942
 20
11.3425923529
 30
0.0
 10
9.6984290602
 20
11.3473336021
 30
0.0
 10
9.693615757
 20
11.3508092923
 30
0.0
 10
9.6914775779
 20
11.352588059
 30
0.0
  0
SPLINE
  5
3FE
100
AcDbEntity
  8
0
100
AcDbSpline
 62
7
  6
CONTINUOUS
 70
0
 71
3
 72
11
 73
7
 74
0
 42
0.0000001
 43
0.0000001
 44
0.0000000001
 40
0.0
 40
0.0
 40
0.0
 40
0.0
 40
0.2901655552
 40
0.5498439997
 40
0.7840698898
 40
1.0
 40
1.0
 40
1.0
 40
1.0
 10
9.6914775779
 20
11.352588059
 30
0.0
 10
9.6898805341
 20
11.3539166513
 30
0.0
 10
9.6869794211
 20
11.3565938032
 30
0.0
 10
9.6833926675
 20
11.3609393972
 30
0.0
 10
9.6808455037
 20
11.3653687629
 30
0.0
 10
9.6798351346
 20
11.3684622579
 30
0.0
 10
9.6795357967
 20
11.3699789432
 30
0.0
  0
SPLINE
  5
3FF
100
AcDbEntity
  8
0
100
AcDbSpline
 62
7
  6
CONTINUOUS
 70
0
 71
3
 72
9
 73
5
 74
0
 42
0.0000001
 43
0.0000001
 44
0.0000000001
 40
0.0
 40
0.0
 40
0.0
 40
0.0
 40
0.2394050567
 40
1.0
 40
1.0
 40
1.0
 40
1.0
 10
9.6426230425
 20
11.3043958595
 30
0.0
 10
9.6435067236
 20
11.3038705341
 30
0.0
 10
9.6472237765
 20
11.3017198836
 30
0.0
 10
9.6510365205
 20
11.2997364448
 30
0.0
 10
9.6539728049
 20
11.2983061991
 30
0.0
  0
SPLINE
  5
400
100
AcDbEntity
  8
0
100
AcDbSpline
 62
7
  6
CONTINUOUS
 70
0
 71
3
 72
9
 73
5
 74
0
 42
0.0000001
 43
0.0000001
 44
0.0000000001
 40
0.0
 40
0.0
 40
0.0
 40
0.0
 40
0.25866686
 40
1.0
 40
1.0
 40
1.0
 40
1.0
 10
9.5213803474
 20
11.3189749728
 30
0.0
 10
9.520996575
 20
11.3195279636
 30
0.0
 10
9.5195542
 20
11.3216938795
 30
0.0
 10
9.518284045
 20
11.3239766959
 30
0.0
 10
9.5174694858
 20
11.3257254133
 30
0.0
  0
SPLINE
  5
401
100
AcDbEntity
  8
0
100
AcDbSpline
 62
7
  6
CONTINUOUS
 70
0
 71
3
 72
9
 73
5
 74
0
 42
0.0000001
 43
0.0000001
 44
0.0000000001
 40
0.0
 40
0.0
 40
0.0
 40
0.0
 40
0.239522344
 40
1.0
 40
1.0
 40
1.0
 40
1.0
 10
9.6162987448
 20
11.3300046887
 30
0.0
 10
9.6165448467
 20
11.3294316573
 30
0.0
 10
9.6176484802
 20
11.3270721081
 30
0.0
 10
9.6190409495
 20
11.3248526377
 30
0.0
 10
9.6202096065
 20
11.3232542481
 30
0.0
  0
SPLINE
  5
402
100
AcDbEntity
  8
0
100
AcDbSpline
 62
7
  6
CONTINUOUS
 70
0
 71
3
 72
9
 73
5
 74
0
 42
0.0000001
 43
0.0000001
 44
0.0000000001
 40
0.0
 40
0.0
 40
0.0
 40
0.0
 40
0.241958166
 40
1.0
 40
1.0
 40
1.0
 40
1.0
 10
9.5174694858
 20
11.3541128473
 30
0.0
 10
9.5177353518
 20
11.3546836154
 30
0.0
 10
9.5188894309
 20
11.3570166889
 30
0.0
 10
9.5202556406
 20
11.359242659
 30
0.0
 10
9.5213803474
 20
11.3608632878
 30
0.0
  0
SPLINE
  5
403
100
AcDbEntity
  8
0
100
AcDbSpline
 62
7
  6
CONTINUOUS
 70
0
 71
3
 72
9
 73
5
 74
0
 42
0.0000001
 43
0.0000001
 44
0.0000000001
 40
0.0
 40
0.0
 40
0.0
 40
0.0
 40
0.2419768525
 40
1.0
 40
1.0
 40
1.0
 40
1.0
 10
9.5534678799
 20
11.3878613419
 30
0.0
 10
9.5543668598
 20
11.3883822721
 30
0.0
 10
9.5581006039
 20
11.3905029274
 30
0.0
 10
9.5619046526
 20
11.3924989938
 30
0.0
 10
9.5648176424
 20
11.3939510023
 30
0.0
  0
ELLIPSE
  5
404
100
AcDbEntity
  8
0
100
AcDbEllipse
 62
7
  6
CONTINUOUS
 10
9.5246530895
 20
11.5563921961
 30
0.0
 11
0.6633617622
 21
-0.3694151249
 31
0.0
 40
0.0060188508
 41
4.9684113616
 42
5.0265595817
  0
ELLIPSE
  5
405
100
AcDbEntity
  8
0
100
AcDbEllipse
 62
7
  6
CONTINUOUS
 10
9.8089866464
 20
11.4665374456
 30
0.0
 11
0.0240478314
 21
0.0171501161
 31
0.0
 40
0.3984738029
 41
1.7651561983
 42
2.8647891074
  0
ELLIPSE
  5
406
100
AcDbEntity
  8
0
100
AcDbEllipse
 62
7
  6
CONTINUOUS
 10
10.0413674261
 20
11.2710151235
 30
0.0
 11
0.0246129774
 21
0.0167702093
 31
0.0
 40
0.2612927158
 41
1.7087681284
 42
2.9654390639
  0
ELLIPSE
  5
407
100
AcDbEntity
  8
0
100
AcDbEllipse
 62
7
  6
CONTINUOUS
 10
10.3691612514
 20
11.5929591299
 30
0.0
 11
0.6892144168
 21
0.4218057537
 31
0.0
 40
0.0988868305
 41
-2.4324615571
 42
-2.3492623535
  0
ELLIPSE
  5
408
100
AcDbEntity
  8
0
100
AcDbEllipse
 62
7
  6
CONTINUOUS
 10
9.4811928211
 20
11.6314078795
 30
0.0
 11
0.6842653211
 21
-0.4640469236
 31
0.0
 40
0.199112349
 41
-0.958745886
 42
-0.8755466824
  0
ELLIPSE
  5
409
100
AcDbEntity
  8
0
100
AcDbEllipse
 62
7
  6
CONTINUOUS
 10
9.5246530895
 20
11.6679748133
 30
0.0
 11
0.6455332948
 21
-0.4959026464
 31
0.0
 40
0.3080767986
 41
-1.103546716
 42
-1.027586862
  0
ELLIPSE
  5
40A
100
AcDbEntity
  8
0
100
AcDbEllipse
 62
7
  6
CONTINUOUS
 10
9.6073194324
 20
11.6990805051
 30
0.0
 11
0.5736302527
 21
-0.5177717825
 31
0.0
 40
0.4387875903
 41
-1.2266340964
 42
-1.1636498221
  0
ELLIPSE
  5
40B
100
AcDbEntity
  8
0
100
AcDbEllipse
 62
7
  6
CONTINUOUS
 10
9.7210998923
 20
11.7216801131
 30
0.0
 11
-0.465514095
 21
0.5358419238
 31
0.0
 40
0.6035099097
 41
-4.4660365933
 42
-4.4054714755
  0
ELLIPSE
  5
40C
100
AcDbEntity
  8
0
100
AcDbEllipse
 62
7
  6
CONTINUOUS
 10
9.9954972277
 20
11.4908055792
 30
0.0
 11
0.5320865851
 21
0.0886870333
 31
0.0
 40
0.4313025445
 41
3.4627950298
 42
3.5218271709
  0
ELLIPSE
  5
40D
100
AcDbEntity
  8
0
100
AcDbEllipse
 62
7
  6
CONTINUOUS
 10
9.8548568448
 20
11.4908055792
 30
0.0
 11
0.5320865851
 21
-0.0886870333
 31
0.0
 40
0.4313025445
 41
4.0162409848
 42
4.0994401884
  0
ELLIPSE
  5
40E
100
AcDbEntity
  8
0
100
AcDbEllipse
 62
7
  6
CONTINUOUS
 10
9.7210998923
 20
11.5026868963
 30
0.0
 11
0.5634027094
 21
-0.2197241602
 31
0.0
 40
0.282729568
 41
4.4586136506
 42
4.5219756362
  0
ELLIPSE
  5
40F
100
AcDbEntity
  8
0
100
AcDbEllipse
 62
7
  6
CONTINUOUS
 10
9.6073194324
 20
11.5252865042
 30
0.0
 11
0.6157090325
 21
-0.3049388509
 31
0.0
 40
0.1299458398
 41
4.7474157669
 42
4.8066994489
  0
ELLIPSE
  5
410
100
AcDbEntity
  8
0
100
AcDbEllipse
 62
7
  6
CONTINUOUS
 10
9.9251770363
 20
11.332131578
 30
0.0
 11
0.3109974968
 21
0.1726467536
 31
0.0
 40
0.0072273801
 41
8.1641287223
 42
8.2810045993
  0
ELLIPSE
  5
411
100
AcDbEntity
  8
0
100
AcDbEllipse
 62
7
  6
CONTINUOUS
 10
9.9251770363
 20
11.332131578
 30
0.0
 11
0.3103867213
 21
0.1399977487
 31
0.0
 40
0.1394404861
 41
8.419489245
 42
8.536365122
  0
ELLIPSE
  5
412
100
AcDbEntity
  8
0
100
AcDbEllipse
 62
7
  6
CONTINUOUS
 10
9.9251770363
 20
11.332131578
 30
0.0
 11
0.3100308434
 21
0.094599916
 31
0.0
 40
0.2593360093
 41
2.4343073049
 42
2.5511831819
  0
ELLIPSE
  5
413
100
AcDbEntity
  8
0
100
AcDbEllipse
 62
7
  6
CONTINUOUS
 10
9.9251770363
 20
11.332131578
 30
0.0
 11
0.3107840466
 21
0.0342512477
 31
0.0
 40
0.338316712
 41
9.0733503598
 42
9.1902262368
  0
ELLIPSE
  5
414
100
AcDbEntity
  8
0
100
AcDbEllipse
 62
7
  6
CONTINUOUS
 10
9.9251770363
 20
11.332131578
 30
0.0
 11
0.2938280912
 21
0.1192072417
 31
0.0
 40
0.8549143835
 41
-3.7496233576
 42
-3.6727349232
  0
ELLIPSE
  5
415
100
AcDbEntity
  8
0
100
AcDbEllipse
 62
7
  6
CONTINUOUS
 10
9.9251770363
 20
11.332131578
 30
0.0
 11
0.2818916689
 21
0.1885676735
 31
0.0
 40
0.6966731679
 41
2.1047182117
 42
2.1940455914
  0
ELLIPSE
  5
416
100
AcDbEntity
  8
0
100
AcDbEllipse
 62
7
  6
CONTINUOUS
 10
9.9251770363
 20
11.332131578
 30
0.0
 11
0.2897707709
 21
0.2082774161
 31
0.0
 40
0.5422247385
 41
1.8274907481
 42
1.9443666251
  0
ELLIPSE
  5
417
100
AcDbEntity
  8
0
100
AcDbEllipse
 62
7
  6
CONTINUOUS
 10
9.9251770363
 20
11.332131578
 30
0.0
 11
0.2991550223
 21
0.2133474441
 31
0.0
 40
0.3984738029
 41
1.6080765656
 42
1.7249524426
  0
ELLIPSE
  5
418
100
AcDbEntity
  8
0
100
AcDbEllipse
 62
7
  6
CONTINUOUS
 10
9.9251770363
 20
11.332131578
 30
0.0
 11
0.3100141621
 21
-0.1951151457
 31
0.0
 40
0.1268126365
 41
1.8477235851
 42
1.9645994621
  0
ELLIPSE
  5
419
100
AcDbEntity
  8
0
100
AcDbEllipse
 62
7
  6
CONTINUOUS
 10
9.9251770363
 20
11.332131578
 30
0.0
 11
0.3061854394
 21
0.208621404
 31
0.0
 40
0.2612927158
 41
1.3946088631
 42
1.5114847401
  0
ELLIPSE
  5
41A
100
AcDbEntity
  8
0
100
AcDbEllipse
 62
7
  6
CONTINUOUS
 10
9.9251770363
 20
11.332131578
 30
0.0
 11
0.3061854394
 21
-0.208621404
 31
0.0
 40
0.2612927158
 41
1.6301079135
 42
1.7469837905
  0
ELLIPSE
  5
41B
100
AcDbEntity
  8
0
100
AcDbEllipse
 62
7
  6
CONTINUOUS
 10
9.9251770363
 20
11.332131578
 30
0.0
 11
0.3100141621
 21
0.1951151457
 31
0.0
 40
0.1268126365
 41
1.1769931915
 42
1.2938690685
  0
ELLIPSE
  5
41C
100
AcDbEntity
  8
0
100
AcDbEllipse
 62
7
  6
CONTINUOUS
 10
9.9251770363
 20
11.332131578
 30
0.0
 11
0.2991550223
 21
-0.2133474441
 31
0.0
 40
0.3984738029
 41
1.416640211
 42
1.533516088
  0
ELLIPSE
  5
41D
100
AcDbEntity
  8
0
100
AcDbEllipse
 62
7
  6
CONTINUOUS
 10
9.9251770363
 20
11.332131578
 30
0.0
 11
0.2897707709
 21
-0.2082774161
 31
0.0
 40
0.5422247385
 41
1.1972260284
 42
1.3141019055
  0
ELLIPSE
  5
41E
100
AcDbEntity
  8
0
100
AcDbEllipse
 62
7
  6
CONTINUOUS
 10
9.9251770363
 20
11.332131578
 30
0.0
 11
0.2818916689
 21
-0.1885676735
 31
0.0
 40
0.6966731679
 41
0.9475470622
 42
1.0368744419
  0
ELLIPSE
  5
41F
100
AcDbEntity
  8
0
100
AcDbEllipse
 62
7
  6
CONTINUOUS
 10
9.9251770363
 20
11.332131578
 30
0.0
 11
-0.2938280912
 21
0.1192072417
 31
0.0
 40
0.8549143835
 41
-2.610450384
 42
-2.5335619496
  0
ELLIPSE
  5
420
100
AcDbEntity
  8
0
100
AcDbEllipse
 62
7
  6
CONTINUOUS
 10
9.9251770363
 20
11.332131578
 30
0.0
 11
0.3107840466
 21
-0.0342512477
 31
0.0
 40
0.338316712
 41
6.5177370312
 42
6.6346129082
  0
ELLIPSE
  5
421
100
AcDbEntity
  8
0
100
AcDbEllipse
 62
7
  6
CONTINUOUS
 10
9.9251770363
 20
11.332131578
 30
0.0
 11
0.3100308434
 21
-0.094599916
 31
0.0
 40
0.2593360093
 41
6.8735947789
 42
6.9904706559
  0
ELLIPSE
  5
422
100
AcDbEntity
  8
0
100
AcDbEllipse
 62
7
  6
CONTINUOUS
 10
9.9251770363
 20
11.332131578
 30
0.0
 11
0.3103867213
 21
-0.1399977487
 31
0.0
 40
0.1394404861
 41
7.171598146
 42
7.288474023
  0
ELLIPSE
  5
423
100
AcDbEntity
  8
0
100
AcDbEllipse
 62
7
  6
CONTINUOUS
 10
9.9251770363
 20
11.332131578
 30
0.0
 11
0.3109974968
 21
-0.1726467536
 31
0.0
 40
0.0072273801
 41
7.4269586686
 42
7.5438345457
  0
ELLIPSE
  5
424
100
AcDbEntity
  8
0
100
AcDbEllipse
 62
7
  6
CONTINUOUS
 10
10.325700983
 20
11.5563921961
 30
0.0
 11
0.6633617622
 21
0.3694151249
 31
0.0
 40
0.0060188508
 41
-1.8849669281
 42
-1.8265783817
  0
ELLIPSE
  5
425
100
AcDbEntity
  8
0
100
AcDbEllipse
 62
7
  6
CONTINUOUS
 10
10.2430346401
 20
11.5252865042
 30
0.0
 11
0.6157090325
 21
0.3049388509
 31
0.0
 40
0.1299458398
 41
4.6180785119
 42
4.6775192247
  0
ELLIPSE
  5
426
100
AcDbEntity
  8
0
100
AcDbEllipse
 62
7
  6
CONTINUOUS
 10
10.1292541802
 20
11.5026868963
 30
0.0
 11
0.5634027094
 21
0.2197241602
 31
0.0
 40
0.282729568
 41
4.9028023246
 42
4.9662618661
  0
ELLIPSE
  5
427
100
AcDbEntity
  8
0
100
AcDbEllipse
 62
7
  6
CONTINUOUS
 10
9.9954972277
 20
11.4908055792
 30
0.0
 11
0.5320865851
 21
0.0886870333
 31
0.0
 40
0.4313025445
 41
5.3253377724
 42
5.408536976
  0
ELLIPSE
  5
428
100
AcDbEntity
  8
0
100
AcDbEllipse
 62
7
  6
CONTINUOUS
 10
9.8548568448
 20
11.4908055792
 30
0.0
 11
0.5320865851
 21
-0.0886870333
 31
0.0
 40
0.4313025445
 41
5.8787837274
 42
5.961982931
  0
ELLIPSE
  5
429
100
AcDbEntity
  8
0
100
AcDbEllipse
 62
7
  6
CONTINUOUS
 10
10.1292541802
 20
11.7216801131
 30
0.0
 11
0.465514095
 21
0.5358419238
 31
0.0
 40
0.6035099097
 41
-1.8777138317
 42
-1.8219745958
  0
ELLIPSE
  5
42A
100
AcDbEntity
  8
0
100
AcDbEllipse
 62
7
  6
CONTINUOUS
 10
10.2430346401
 20
11.6990805051
 30
0.0
 11
0.5736302527
 21
0.5177717825
 31
0.0
 40
0.4387875903
 41
-1.9779428315
 42
-1.9118541375
  0
ELLIPSE
  5
42B
100
AcDbEntity
  8
0
100
AcDbEllipse
 62
7
  6
CONTINUOUS
 10
10.325700983
 20
11.6679748133
 30
0.0
 11
0.6455332948
 21
0.4959026464
 31
0.0
 40
0.3080767986
 41
-2.1140057916
 42
-2.0366723829
  0
ELLIPSE
  5
42C
100
AcDbEntity
  8
0
100
AcDbEllipse
 62
7
  6
CONTINUOUS
 10
10.3691612514
 20
11.6314078795
 30
0.0
 11
0.6842653211
 21
0.4640469236
 31
0.0
 40
0.199112349
 41
-2.2660459712
 42
-2.1828467676
  0
ELLIPSE
  5
42D
100
AcDbEntity
  8
0
100
AcDbEllipse
 62
7
  6
CONTINUOUS
 10
9.4811928211
 20
11.5929591299
 30
0.0
 11
0.6892144168
 21
-0.4218057537
 31
0.0
 40
0.0988868305
 41
-0.7923303001
 42
-0.7091310965
  0
ELLIPSE
  5
42E
100
AcDbEntity
  8
0
100
AcDbEllipse
 62
7
  6
CONTINUOUS
 10
9.8089866464
 20
11.2710151235
 30
0.0
 11
0.0246129774
 21
-0.0167702093
 31
0.0
 40
0.2612927158
 41
0.1761529496
 42
1.4328245252
  0
ELLIPSE
  5
42F
100
AcDbEntity
  8
0
100
AcDbEllipse
 62
7
  6
CONTINUOUS
 10
10.0413674261
 20
11.4665374456
 30
0.0
 11
0.0249207526
 21
0.0156844972
 31
0.0
 40
0.1268126365
 41
1.3340728241
 42
2.7477895183
  0
ELLIPSE
  5
430
100
AcDbEntity
  8
0
100
AcDbEllipse
 62
7
  6
CONTINUOUS
 10
10.0413674261
 20
11.4665374456
 30
0.0
 11
0.0240478314
 21
-0.0171501161
 31
0.0
 40
0.3984738029
 41
0.2768016483
 42
1.3764364553
  0
ELLIPSE
  5
431
100
AcDbEntity
  8
0
100
AcDbEllipse
 62
7
  6
CONTINUOUS
 10
9.8089866464
 20
11.4665374456
 30
0.0
 11
0.0249207526
 21
-0.0156844972
 31
0.0
 40
0.1268126365
 41
0.3938031353
 42
1.8075198295
  0
ELLIPSE
  5
432
100
AcDbEntity
  8
0
100
AcDbEllipse
 62
7
  6
CONTINUOUS
 10
9.8548568448
 20
11.7335614301
 30
0.0
 11
-0.259978427
 21
0.5845915437
 31
0.0
 40
0.7968339283
 41
-4.4185513482
 42
-4.3353521446
  0
ELLIPSE
  5
433
100
AcDbEntity
  8
0
100
AcDbEllipse
 62
7
  6
CONTINUOUS
 10
9.9954972277
 20
11.7335614301
 30
0.0
 11
0.259978427
 21
0.5845915437
 31
0.0
 40
0.7968339283
 41
-3.7941428633
 42
-3.7271767016
  0
ELLIPSE
  5
434
100
AcDbEntity
  8
0
100
AcDbEllipse
 62
7
  6
CONTINUOUS
 10
10.1292541802
 20
11.7216801131
 30
0.0
 11
0.465514095
 21
0.5358419238
 31
0.0
 40
0.6035099097
 41
-3.7175461814
 42
-3.6570573707
  0
ELLIPSE
  5
435
100
AcDbEntity
  8
0
100
AcDbEllipse
 62
7
  6
CONTINUOUS
 10
9.9251770363
 20
11.332131578
 30
0.0
 11
0.2938280912
 21
0.1192072417
 31
0.0
 40
0.8549143835
 41
-0.4507347583
 42
-0.3790973552
  0
ELLIPSE
  5
436
100
AcDbEntity
  8
0
100
AcDbEllipse
 62
7
  6
CONTINUOUS
 10
10.2430346401
 20
11.6990805051
 30
0.0
 11
0.5736302527
 21
0.5177717825
 31
0.0
 40
0.4387875903
 41
2.4683935651
 42
2.5258989367
  0
ELLIPSE
  5
437
100
AcDbEntity
  8
0
100
AcDbEllipse
 62
7
  6
CONTINUOUS
 10
9.7041697814
 20
11.4519368953
 30
0.0
 11
0.0232934703
 21
0.0167425576
 31
0.0
 40
0.5422247385
 41
1.9845703808
 42
4.9690834018
  0
ELLIPSE
  5
438
100
AcDbEntity
  8
0
100
AcDbEllipse
 62
7
  6
CONTINUOUS
 10
9.9251770363
 20
11.332131578
 30
0.0
 11
0.3100141621
 21
0.1951151457
 31
0.0
 40
0.1268126365
 41
-1.7673160738
 42
-1.6504401968
  0
ELLIPSE
  5
439
100
AcDbEntity
  8
0
100
AcDbEllipse
 62
7
  6
CONTINUOUS
 10
9.9251770363
 20
11.332131578
 30
0.0
 11
0.3061854394
 21
-0.208621404
 31
0.0
 40
0.2612927158
 41
-1.7087681284
 42
-1.5918922514
  0
ELLIPSE
  5
43A
100
AcDbEntity
  8
0
100
AcDbEllipse
 62
7
  6
CONTINUOUS
 10
9.9251770363
 20
11.332131578
 30
0.0
 11
0.2991550223
 21
-0.2133474441
 31
0.0
 40
0.3984738029
 41
-1.922235831
 42
-1.805359954
  0
ELLIPSE
  5
43B
100
AcDbEntity
  8
0
100
AcDbEllipse
 62
7
  6
CONTINUOUS
 10
9.9251770363
 20
11.332131578
 30
0.0
 11
0.2897707709
 21
-0.2082774161
 31
0.0
 40
0.5422247385
 41
-2.1416500135
 42
-2.0247741365
  0
ELLIPSE
  5
43C
100
AcDbEntity
  8
0
100
AcDbEllipse
 62
7
  6
CONTINUOUS
 10
9.9251770363
 20
11.332131578
 30
0.0
 11
0.2818916689
 21
-0.1885676735
 31
0.0
 40
0.6966731679
 41
-2.3913289797
 42
-2.2744531027
  0
ELLIPSE
  5
43D
100
AcDbEntity
  8
0
100
AcDbEllipse
 62
7
  6
CONTINUOUS
 10
9.9251770363
 20
11.332131578
 30
0.0
 11
-0.2938280912
 21
0.1192072417
 31
0.0
 40
0.8549143835
 41
0.3727750387
 42
0.4507347583
  0
ELLIPSE
  5
43E
100
AcDbEntity
  8
0
100
AcDbEllipse
 62
7
  6
CONTINUOUS
 10
10.325700983
 20
11.6679748133
 30
0.0
 11
0.6455332948
 21
0.4959026464
 31
0.0
 40
0.3080767986
 41
2.3334845795
 42
2.3898359766
  0
ELLIPSE
  5
43F
100
AcDbEntity
  8
0
100
AcDbEllipse
 62
7
  6
CONTINUOUS
 10
9.9251770363
 20
11.332131578
 30
0.0
 11
0.2818916689
 21
0.1885676735
 31
0.0
 40
0.6966731679
 41
-0.8671395509
 42
-0.7502636739
  0
ELLIPSE
  5
440
100
AcDbEntity
  8
0
100
AcDbEllipse
 62
7
  6
CONTINUOUS
 10
9.9251770363
 20
11.332131578
 30
0.0
 11
0.2897707709
 21
0.2082774161
 31
0.0
 40
0.5422247385
 41
-1.1168185171
 42
-0.9999426401
  0
ELLIPSE
  5
441
100
AcDbEntity
  8
0
100
AcDbEllipse
 62
7
  6
CONTINUOUS
 10
9.9251770363
 20
11.332131578
 30
0.0
 11
0.2991550223
 21
0.2133474441
 31
0.0
 40
0.3984738029
 41
-1.3362326996
 42
-1.2193568226
  0
ELLIPSE
  5
442
100
AcDbEntity
  8
0
100
AcDbEllipse
 62
7
  6
CONTINUOUS
 10
9.9251770363
 20
11.332131578
 30
0.0
 11
0.3061854394
 21
0.208621404
 31
0.0
 40
0.2612927158
 41
-1.5497004022
 42
-1.4328245252
  0
ELLIPSE
  5
443
100
AcDbEntity
  8
0
100
AcDbEllipse
 62
7
  6
CONTINUOUS
 10
9.9251770363
 20
11.332131578
 30
0.0
 11
0.3100141621
 21
-0.1951151457
 31
0.0
 40
0.1268126365
 41
-1.4911524568
 42
-1.3742765798
  0
ELLIPSE
  5
444
100
AcDbEntity
  8
0
100
AcDbEllipse
 62
7
  6
CONTINUOUS
 10
9.4811928211
 20
11.6314078795
 30
0.0
 11
0.6842653211
 21
-0.4640469236
 31
0.0
 40
0.199112349
 41
0.9037968566
 42
0.9605015922
  0
ELLIPSE
  5
445
100
AcDbEntity
  8
0
100
AcDbEllipse
 62
7
  6
CONTINUOUS
 10
10.3691612514
 20
11.5929591299
 30
0.0
 11
0.6892144168
 21
0.4218057537
 31
0.0
 40
0.0988868305
 41
2.0133933892
 42
2.0713802111
  0
ELLIPSE
  5
446
100
AcDbEntity
  8
0
100
AcDbEllipse
 62
7
  6
CONTINUOUS
 10
9.5246530895
 20
11.6679748133
 30
0.0
 11
0.6455332948
 21
-0.4959026464
 31
0.0
 40
0.3080767986
 41
0.751756677
 42
0.8081790395
  0
ELLIPSE
  5
447
100
AcDbEntity
  8
0
100
AcDbEllipse
 62
7
  6
CONTINUOUS
 10
9.6073194324
 20
11.6990805051
 30
0.0
 11
0.5736302527
 21
-0.5177717825
 31
0.0
 40
0.4387875903
 41
0.6156937169
 42
0.673206199
  0
ELLIPSE
  5
448
100
AcDbEntity
  8
0
100
AcDbEllipse
 62
7
  6
CONTINUOUS
 10
9.7210998923
 20
11.7216801131
 30
0.0
 11
-0.465514095
 21
0.5358419238
 31
0.0
 40
0.6035099097
 41
-2.6261279365
 42
-2.5656610053
  0
ELLIPSE
  5
449
100
AcDbEntity
  8
0
100
AcDbEllipse
 62
7
  6
CONTINUOUS
 10
9.8548568448
 20
11.7335614301
 30
0.0
 11
-0.259978427
 21
0.5845915437
 31
0.0
 40
0.7968339283
 41
-2.5560086056
 42
-2.4890369087
  0
ELLIPSE
  5
44A
100
AcDbEntity
  8
0
100
AcDbEllipse
 62
7
  6
CONTINUOUS
 10
9.9954972277
 20
11.7335614301
 30
0.0
 11
0.259978427
 21
0.5845915437
 31
0.0
 40
0.7968339283
 41
-1.9478331626
 42
-1.864633959
  0
ELLIPSE
  5
44B
100
AcDbEntity
  8
0
100
AcDbEllipse
 62
7
  6
CONTINUOUS
 10
9.8089866464
 20
11.2710151235
 30
0.0
 11
0.0246129774
 21
-0.0167702093
 31
0.0
 40
0.2612927158
 41
-1.5516884958
 42
-0.1379718016
  0
ELLIPSE
  5
44C
100
AcDbEntity
  8
0
100
AcDbEllipse
 62
7
  6
CONTINUOUS
 10
9.9251770363
 20
11.2659841167
 30
0.0
 11
0.0249207526
 21
-0.0156844972
 31
0.0
 40
0.1268126365
 41
-1.3340728241
 42
1.5322163645
  0
ELLIPSE
  5
44D
100
AcDbEntity
  8
0
100
AcDbEllipse
 62
7
  6
CONTINUOUS
 10
9.9251770363
 20
11.2659841167
 30
0.0
 11
0.0249207526
 21
0.0156844972
 31
0.0
 40
0.1268126365
 41
7.774337764
 42
10.7588507849
  0
ELLIPSE
  5
44E
100
AcDbEntity
  8
0
100
AcDbEllipse
 62
7
  6
CONTINUOUS
 10
9.7041697814
 20
11.2856156739
 30
0.0
 11
0.0240478314
 21
-0.0171501161
 31
0.0
 40
0.3984738029
 41
-1.4209895283
 42
0.9269487027
  0
ELLIPSE
  5
44F
100
AcDbEntity
  8
0
100
AcDbEllipse
 62
7
  6
CONTINUOUS
 10
10.0413674261
 20
11.2710151235
 30
0.0
 11
0.0246129774
 21
0.0167702093
 31
0.0
 40
0.2612927158
 41
-3.003620852
 42
-1.5899041578
  0
ELLIPSE
  5
450
100
AcDbEntity
  8
0
100
AcDbEllipse
 62
7
  6
CONTINUOUS
 10
9.8089866464
 20
11.4665374456
 30
0.0
 11
0.0249207526
 21
-0.0156844972
 31
0.0
 40
0.1268126365
 41
-1.1769931914
 42
0.079677744
  0
ELLIPSE
  5
451
100
AcDbEntity
  8
0
100
AcDbEllipse
 62
7
  6
CONTINUOUS
 10
10.1461842911
 20
11.2856156739
 30
0.0
 11
0.0240478314
 21
0.0171501161
 31
0.0
 40
0.3984738029
 41
2.3467940115
 42
4.5625919933
  0
ELLIPSE
  5
452
100
AcDbEntity
  8
0
100
AcDbEllipse
 62
7
  6
CONTINUOUS
 10
9.6209866464
 20
11.3083565642
 30
0.0
 11
0.0232934703
 21
-0.0167425576
 31
0.0
 40
0.5422247385
 41
-1.3863725257
 42
0.3716255878
  0
ELLIPSE
  5
453
100
AcDbEntity
  8
0
100
AcDbEllipse
 62
7
  6
CONTINUOUS
 10
10.2293674261
 20
11.3083565642
 30
0.0
 11
0.0232934703
 21
0.0167425576
 31
0.0
 40
0.5422247385
 41
2.7699667086
 42
4.527987458
  0
ELLIPSE
  5
454
100
AcDbEntity
  8
0
100
AcDbEllipse
 62
7
  6
CONTINUOUS
 10
10.2827742864
 20
11.3370117578
 30
0.0
 11
0.022660102
 21
0.0151581731
 31
0.0
 40
0.6966731679
 41
3.1439631801
 42
4.6473075705
  0
ELLIPSE
  5
455
100
AcDbEntity
  8
0
100
AcDbEllipse
 62
7
  6
CONTINUOUS
 10
9.5675797861
 20
11.3370117578
 30
0.0
 11
0.022660102
 21
-0.0151581731
 31
0.0
 40
0.6966731679
 41
-1.5056169704
 42
-0.0022039812
  0
ELLIPSE
  5
456
100
AcDbEntity
  8
0
100
AcDbEllipse
 62
7
  6
CONTINUOUS
 10
10.3011770363
 20
11.3687762846
 30
0.0
 11
0.0236196215
 21
0.0095825757
 31
0.0
 40
0.8549143835
 41
3.5603679727
 42
5.063712363
  0
ELLIPSE
  5
457
100
AcDbEntity
  8
0
100
AcDbEllipse
 62
7
  6
CONTINUOUS
 10
10.2827742864
 20
11.4005408113
 30
0.0
 11
-0.0236196215
 21
0.0095825757
 31
0.0
 40
0.8549143835
 41
1.2971989403
 42
3.207261409
  0
ELLIPSE
  5
458
100
AcDbEntity
  8
0
100
AcDbEllipse
 62
7
  6
CONTINUOUS
 10
10.2293674261
 20
11.4291960049
 30
0.0
 11
0.022660102
 21
-0.0151581731
 31
0.0
 40
0.6966731679
 41
-1.6526115339
 42
0.4361337751
  0
ELLIPSE
  5
459
100
AcDbEntity
  8
0
100
AcDbEllipse
 62
7
  6
CONTINUOUS
 10
9.5491770363
 20
11.3687762846
 30
0.0
 11
-0.0236196215
 21
0.0095825757
 31
0.0
 40
0.8549143835
 41
1.2195708906
 42
2.7229838798
  0
ELLIPSE
  5
45A
100
AcDbEntity
  8
0
100
AcDbEllipse
 62
7
  6
CONTINUOUS
 10
10.0413674261
 20
11.4665374456
 30
0.0
 11
0.0240478314
 21
-0.0171501161
 31
0.0
 40
0.3984738029
 41
-1.6080765655
 42
-0.0372802388
  0
ELLIPSE
  5
45B
100
AcDbEntity
  8
0
100
AcDbEllipse
 62
7
  6
CONTINUOUS
 10
10.0413674261
 20
11.4665374456
 30
0.0
 11
0.0249207526
 21
0.0156844972
 31
0.0
 40
0.1268126365
 41
3.0619142695
 42
4.318585845
  0
ELLIPSE
  5
45C
100
AcDbEntity
  8
0
100
AcDbEllipse
 62
7
  6
CONTINUOUS
 10
10.3691612514
 20
11.6314078795
 30
0.0
 11
0.6842653211
 21
0.4640469236
 31
0.0
 40
0.199112349
 41
2.1812552278
 42
2.237795797
  0
ELLIPSE
  5
45D
100
AcDbEntity
  8
0
100
AcDbEllipse
 62
7
  6
CONTINUOUS
 10
9.4811928211
 20
11.5929591299
 30
0.0
 11
0.6892144168
 21
-0.4218057537
 31
0.0
 40
0.0988868305
 41
1.0702124425
 42
1.1259516784
  0
ELLIPSE
  5
45E
100
AcDbEntity
  8
0
100
AcDbEllipse
 62
7
  6
CONTINUOUS
 10
9.8089866464
 20
11.4665374456
 30
0.0
 11
0.0240478314
 21
0.0171501161
 31
0.0
 40
0.3984738029
 41
-3.1043124148
 42
-1.5335160881
  0
ELLIPSE
  5
45F
100
AcDbEntity
  8
0
100
AcDbEllipse
 62
7
  6
CONTINUOUS
 10
9.5675797861
 20
11.4005408113
 30
0.0
 11
0.0236196215
 21
0.0095825757
 31
0.0
 40
0.8549143835
 41
3.1465792785
 42
4.9860732514
  0
ELLIPSE
  5
460
100
AcDbEntity
  8
0
100
AcDbEllipse
 62
7
  6
CONTINUOUS
 10
9.9251770363
 20
11.4715684524
 30
0.0
 11
0.0246129774
 21
-0.0167702093
 31
0.0
 40
0.2612927158
 41
-1.3946088631
 42
1.5899041579
  0
ELLIPSE
  5
461
100
AcDbEntity
  8
0
100
AcDbEllipse
 62
7
  6
CONTINUOUS
 10
9.9251770363
 20
11.4715684524
 30
0.0
 11
0.0246129774
 21
0.0167702093
 31
0.0
 40
0.2612927158
 41
7.8348738029
 42
10.8193868239
  0
ELLIPSE
  5
462
100
AcDbEntity
  8
0
100
AcDbEllipse
 62
7
  6
CONTINUOUS
 10
10.1461842911
 20
11.4519368953
 30
0.0
 11
0.0232934703
 21
-0.0167425576
 31
0.0
 40
0.5422247385
 41
4.455694559
 42
7.44020758
  0
ELLIPSE
  5
463
100
AcDbEntity
  8
0
100
AcDbEllipse
 62
7
  6
CONTINUOUS
 10
9.6209866464
 20
11.4291960049
 30
0.0
 11
0.022660102
 21
0.0151581731
 31
0.0
 40
0.6966731679
 41
2.7054591507
 42
4.8010801098
  0
ENDSEC
  0
SECTION
  2
OBJECTS
  0
DICTIONARY
  5
C
100
AcDbDictionary
280
0
281
1
  3
ACAD_GROUP
350
D
  3
ACAD_MLINESTYLE
350
17
  3
ACAD_LAYOUT
350
1A
  3
ACAD_PLOTSETTINGS
350
19
  3
ACAD_PLOTSTYLENAME
350
E
  0
DICTIONARY
  5
D
102
{ACAD_REACTORS
330
C
102
}
100
AcDbDictionary
280
0
281
1
  0
ACDBDICTIONARYWDFLT
  5
E
102
{ACAD_REACTORS
330
C
102
}
100
AcDbDictionary
281
1
  3
Normal
350
F
100
AcDbDictionaryWithDefault
340
F
  0
DICTIONARY
  5
17
102
{ACAD_REACTORS
330
C
102
}
100
AcDbDictionary
280
0
281
1
  3
Standard
350
18
  0
DICTIONARY
  5
19
102
{ACAD_REACTORS
330
C
102
}
100
AcDbDictionary
281
1
  0
DICTIONARY
  5
1A
102
{ACAD_REACTORS
330
C
102
}
100
AcDbDictionary
281
1
  3
Model
350
464
  3
Layout1
350
465
  0
ACDBPLACEHOLDER
  5
F
102
{ACAD_REACTORS
330
E
102
}
  0
MLINESTYLE
  5
18
102
{ACAD_REACTORS
330
17
102
}
100
AcDbMlineStyle
  2
STANDARD
 70
0
  3

 62
256
 51
90.0
 52
90.0
 71
2
 49
0.5
 62
256
  6
BYLAYER
 49
-0.5
 62
256
  6
BYLAYER
  0
LAYOUT
  5
464
102
{ACAD_REACTORS
330
1A
102
}
100
AcDbPlotSettings
  1

  2
none_device
  4
ANSI_C_(22.00_x_17.00_Inches)
  6

 40
0.0
 41
0.0
 42
0.0
 43
0.0
 44
558.8
 45
431.8
 46
0.0
 47
0.0
 48
0.0
 49
0.0
140
0.0
141
0.0
142
1.0
143
1.0
 70
1024
 72
0
 73
0
 74
0
  7

 75
0
147
1.0
148
0.0
149
0.0
100
AcDbLayout
  1
Model
 70
0
 71
0
 10
0.0
 20
0.0
 11
22.0
 21
17.0
 12
0.0
 22
0.0
 32
0.0
 14
0.0
 24
0.0
 34
0.0
 15
0.0
 25
0.0
 35
0.0
146
0.0
 13
0.0
 23
0.0
 33
0.0
 16
1.0
 26
0.0
 36
0.0
 17
0.0
 27
1.0
 37
0.0
 76
0
330
202
345
0
346
0
  0
LAYOUT
  5
465
102
{ACAD_REACTORS
330
1A
102
}
100
AcDbPlotSettings
  1

  2
none_device
  4
ANSI_C_(22.00_x_17.00_Inches)
  6

 40
0.0
 41
0.0
 42
0.0
 43
0.0
 44
558.8
 45
431.8
 46
0.0
 47
0.0
 48
0.0
 49
0.0
140
0.0
141
0.0
142
1.0
143
1.0
 70
0
 72
0
 73
0
 74
0
  7

 75
0
147
1.0
148
0.0
149
0.0
100
AcDbLayout
  1
Layout1
 70
0
 71
1
 10
0.0
 20
0.0
 11
22.0
 21
17.0
 12
0.0
 22
0.0
 32
0.0
 14
0.0
 24
0.0
 34
0.0
 15
0.0
 25
0.0
 35
0.0
146
0.0
 13
0.0
 23
0.0
 33
0.0
 16
1.0
 26
0.0
 36
0.0
 17
0.0
 27
1.0
 37
0.0
 76
0
330
203
345
0
346
0
  0
ENDSEC
  0
EOF
