999
DXF file: E:\BT Custom\CADOUTPUT\_TOP.dxf
999
Pro/ENGINEER 2018400 by Parametric Technology Corporation
  0
SECTION
  2
HEADER
  9
$ACADVER
  1
AC1018
  9
$DWGCODEPAGE
  3
ANSI_1252
  9
$EXTMAX
 10
22.0
 20
17.0
 30
0.0
  9
$EXTMIN
 10
0.0
 20
0.0
 30
0.0
  9
$LIMMIN
 10
0.0
 20
0.0
  9
$LIMMAX
 10
22.0
 20
17.0
  9
$VIEWCTR
 10
11.0
 20
8.5
  9
$VIEWSIZE
 40
17.0
  9
$CLAYER
  8
0
  9
$LTSCALE
 40
1.21
  9
$CELTYPE
  6
BYLAYER
  9
$DIMSCALE
 40
1.0
  9
$DIMASZ
 40
0.1
  9
$DIMEXO
 40
0.0625
  9
$DIMDLI
 40
0.836
  9
$DIMEXE
 40
0.125
  9
$DIMCEN
 40
0.198
  9
$DIMLFAC
 40
1.0
  9
$DIMBLK
  1
_FILLED
  9
$DIMALT
 70
1
  9
$DIMALTD
 70
2
  9
$DIMALTTD
 70
2
  9
$DIMALTF
 40
25.4
  9
$DIMTXT
 40
0.08
  9
$DIMTOL
 70
1
  9
$DIMLIM
 70
0
  9
$DIMTFAC
 40
1.0
  9
$DIMTP
 40
0.001
  9
$DIMTM
 40
0.001
  9
$DIMGAP
 40
0.09
  9
$DIMDSEP
 70
46
  9
$AUNITS
 70
0
  9
$PDMODE
 70
3
  9
$PDSIZE
 40
0.06
  9
$HANDSEED
  5
26F
  9
$TILEMODE
 70
1
  9
$MEASUREMENT
 70
0
  9
$INSUNITS
 70
1
  0
ENDSEC
  0
SECTION
  2
CLASSES
  0
CLASS
  1
ACDBDICTIONARYWDFLT
  2
AcDbDictionaryWithDefault
  3
AutoCAD 2000
 90
0
 91
1
280
0
281
0
  0
CLASS
  1
ACDBPLACEHOLDER
  2
AcDbPlaceHolder
  3
AutoCAD 2000
 90
0
 91
1
280
0
281
0
  0
CLASS
  1
LAYOUT
  2
AcDbLayout
  3
AutoCAD 2000
 90
0
 91
0
280
0
281
0
  0
ENDSEC
  0
SECTION
  2
TABLES
  0
TABLE
  2
VPORT
  5
8
100
AcDbSymbolTable
 70
2
  0
VPORT
  5
1F4
100
AcDbSymbolTableRecord
100
AcDbViewportTableRecord
  2
*ACTIVE
 70
0
 10
0.0
 20
0.0
 11
1.0
 21
1.0
 12
11.0
 22
8.5
 13
0.0
 23
0.0
 14
1.0
 24
1.0
 15
0.0
 25
0.0
 16
0.0
 26
0.0
 36
1.0
 17
0.0
 27
0.0
 37
0.0
 40
17.0
 41
1.2941176471
 42
50.0
 43
0.0
 44
0.0
 50
0.0
 51
0.0
 71
0
 72
100
 73
1
 74
1
 75
0
 76
0
 77
0
 78
0
  0
ENDTAB
  0
TABLE
  2
LTYPE
  5
5
100
AcDbSymbolTable
 70
6
  0
LTYPE
  5
14
100
AcDbSymbolTableRecord
100
AcDbLinetypeTableRecord
  2
BYBLOCK
 70
0
  3

 72
65
 73
0
 40
0.0
  0
LTYPE
  5
15
100
AcDbSymbolTableRecord
100
AcDbLinetypeTableRecord
  2
BYLAYER
 70
0
  3

 72
65
 73
0
 40
0.0
  0
LTYPE
  5
16
100
AcDbSymbolTableRecord
100
AcDbLinetypeTableRecord
  2
CONTINUOUS
 70
64
  3
Solid line
 72
65
 73
0
 40
0.0
  0
LTYPE
  5
1F5
100
AcDbSymbolTableRecord
100
AcDbLinetypeTableRecord
  2
CENTER
 70
64
  3
____ _ ____ _ ____ _ ____ _ ____ _ ____ _ ____
 72
65
 73
4
 40
0.6
 49
0.375
 74
0
 49
-0.075
 74
0
 49
0.075
 74
0
 49
-0.075
 74
0
  0
LTYPE
  5
1F6
100
AcDbSymbolTableRecord
100
AcDbLinetypeTableRecord
  2
HIDDEN
 70
64
  3
- - - - - - - - - - - - - - - - - - - -
 72
65
 73
2
 40
0.2
 49
0.1
 74
0
 49
-0.1
 74
0
  0
LTYPE
  5
1F7
100
AcDbSymbolTableRecord
100
AcDbLinetypeTableRecord
  2
PHANTOM
 70
64
  3
_____ _ _ _____ _ _ _____ _ _ _____
 72
65
 73
6
 40
0.8
 49
0.45
 74
0
 49
-0.05
 74
0
 49
0.1
 74
0
 49
-0.05
 74
0
 49
0.1
 74
0
 49
-0.05
 74
0
  0
LTYPE
  5
1F8
100
AcDbSymbolTableRecord
100
AcDbLinetypeTableRecord
  2
DOT
 70
64
  3
. . . . . . . . . . . . . . . . . . . .
 72
65
 73
2
 40
0.2
 49
0.1
 74
0
 49
-0.1
 74
0
  0
LTYPE
  5
1F9
100
AcDbSymbolTableRecord
100
AcDbLinetypeTableRecord
  2
DASHED
 70
64
  3
- - - - - - - - - - - - - - - - - - - -
 72
65
 73
2
 40
0.2
 49
0.1
 74
0
 49
-0.1
 74
0
  0
ENDTAB
  0
TABLE
  2
LAYER
  5
2
100
AcDbSymbolTable
 70
36
  0
LAYER
  5
10
100
AcDbSymbolTableRecord
100
AcDbLayerTableRecord
  2
0
 70
0
 62
7
  6
CONTINUOUS
370
-3
390
F
  0
LAYER
  5
1FA
100
AcDbSymbolTableRecord
100
AcDbLayerTableRecord
  2
DEFAULT_1
 70
0
 62
7
  6
CENTER
370
-3
390
F
  0
LAYER
  5
1FB
100
AcDbSymbolTableRecord
100
AcDbLayerTableRecord
  2
DEFAULT_2
 70
0
 62
8
  6
HIDDEN
370
-3
390
F
  0
LAYER
  5
1FC
100
AcDbSymbolTableRecord
100
AcDbLayerTableRecord
  2
DEFAULT_3
 70
0
 62
7
  6
PHANTOM
370
-3
390
F
  0
LAYER
  5
1FD
100
AcDbSymbolTableRecord
100
AcDbLayerTableRecord
  2
ALL_FEATURES
 70
0
 62
7
  6
CONTINUOUS
370
-3
390
F
  0
LAYER
  5
1FE
100
AcDbSymbolTableRecord
100
AcDbLayerTableRecord
  2
AXES_FEATURES
 70
0
 62
7
  6
CONTINUOUS
370
-3
390
F
  0
LAYER
  5
1FF
100
AcDbSymbolTableRecord
100
AcDbLayerTableRecord
  2
DIMENSIONS
 70
0
 62
7
  6
CONTINUOUS
370
-3
390
F
  0
ENDTAB
  0
TABLE
  2
STYLE
  5
3
100
AcDbSymbolTable
 70
1
  0
STYLE
  5
11
100
AcDbSymbolTableRecord
100
AcDbTextStyleTableRecord
  2
STANDARD
 70
0
 40
0.0
 41
0.8
 50
0.0
 71
0
 42
0.2
  3
txt
  4

  0
STYLE
  5
200
100
AcDbSymbolTableRecord
100
AcDbTextStyleTableRecord
  2
TEXTSTYLE_1
 70
0
 40
0.0
 41
0.8
 50
0.0
 71
0
 42
0.2
  3
gdt
  4

  0
ENDTAB
  0
TABLE
  2
VIEW
  5
6
100
AcDbSymbolTable
 70
0
  0
ENDTAB
  0
TABLE
  2
UCS
  5
7
100
AcDbSymbolTable
 70
0
  0
ENDTAB
  0
TABLE
  2
APPID
  5
9
100
AcDbSymbolTable
 70
1
  0
APPID
  5
201
100
AcDbSymbolTableRecord
100
AcDbRegAppTableRecord
  2
ACAD
 70
0
  0
ENDTAB
  0
TABLE
  2
BLOCK_RECORD
  5
1
100
AcDbSymbolTable
 70
0
  0
BLOCK_RECORD
  5
202
100
AcDbSymbolTableRecord
100
AcDbBlockTableRecord
  2
*Model_Space
  0
BLOCK_RECORD
  5
203
100
AcDbSymbolTableRecord
100
AcDbBlockTableRecord
  2
*Paper_Space
  0
BLOCK_RECORD
  5
204
100
AcDbSymbolTableRecord
100
AcDbBlockTableRecord
  2
_FILLED
  0
ENDTAB
  0
TABLE
  2
DIMSTYLE
  5
A
100
AcDbSymbolTable
 70
1
100
AcDbDimStyleTable
 71
0
  0
DIMSTYLE
105
205
100
AcDbSymbolTableRecord
100
AcDbDimStyleTableRecord
  2
STANDARD
 70
0
  3

  4

 40
1.0
 41
0.1
 42
0.0625
 43
0.38
 44
0.125
 45
0.0
 46
0.0
 47
0.001
 48
0.001
140
0.08
141
0.09
142
0.0
143
25.4
144
1.0
145
0.0
146
1.0
147
0.09
 71
1.0
 72
0.0
 73
1
 74
1
 75
0
 76
0
 77
0
 78
4
 79
1
170
1
171
2
172
0
173
0
174
0
175
0
176
0
177
0
178
0
270
2
179
3
271
3
272
3
273
2
274
2
275
0
280
0
281
0
282
0
283
1
284
4
285
0
286
0
287
3
288
0
340
11
278
46
341
204
342
204
343
204
344
204
  0
ENDTAB
  0
ENDSEC
  0
SECTION
  2
BLOCKS
  0
BLOCK
  5
20
100
AcDbEntity
  8
0
100
AcDbBlockBegin
  2
*Model_Space
 70
0
 10
0.0
 20
0.0
 30
0.0
  3
*Model_Space
  1

  0
ENDBLK
  5
21
100
AcDbEntity
  8
0
100
AcDbBlockEnd
  0
BLOCK
  5
1C
100
AcDbEntity
  8
0
100
AcDbBlockBegin
  2
*Paper_Space
 70
0
 10
0.0
 20
0.0
 30
0.0
  3
*Paper_Space
  1

  0
ENDBLK
  5
1D
100
AcDbEntity
  8
0
100
AcDbBlockEnd
  0
BLOCK
  5
206
100
AcDbEntity
  8
0
100
AcDbBlockBegin
  2
_FILLED
 70
64
 10
0.0
 20
0.0
  3
_FILLED
  1

  0
SOLID
  5
207
100
AcDbEntity
  8
0
  6
BYBLOCK
 62
0
100
AcDbTrace
 10
0.0
 20
0.0
 11
-1.0
 21
0.2
 12
-1.0
 22
-0.2
 13
-1.0
 23
-0.2
  0
ENDBLK
  5
208
100
AcDbEntity
  8
0
  6
BYBLOCK
 62
0
100
AcDbBlockEnd
  0
ENDSEC
  0
SECTION
  2
ENTITIES
  0
LINE
  5
209
100
AcDbEntity
  8
0
100
AcDbLine
 62
7
  6
CONTINUOUS
 10
9.4648030318
 20
11.8911098355
 11
9.4648030318
 21
3.261002643
  0
LINE
  5
20A
100
AcDbEntity
  8
0
100
AcDbLine
 62
7
  6
CONTINUOUS
 10
9.4648030318
 20
2.632220765
 11
9.4648030318
 21
3.2514342231
  0
LINE
  5
20B
100
AcDbEntity
  8
0
100
AcDbLine
 62
7
  6
CONTINUOUS
 10
10.6048030318
 20
11.8911098355
 11
10.6048030318
 21
3.261002643
  0
LINE
  5
20C
100
AcDbEntity
  8
0
100
AcDbLine
 62
7
  6
CONTINUOUS
 10
10.6048030318
 20
2.632220765
 11
10.6048030318
 21
3.2514342231
  0
LINE
  5
20D
100
AcDbEntity
  8
0
100
AcDbLine
 62
9
  6
CONTINUOUS
 10
11.7430648279
 20
11.1075176103
 11
11.7430648279
 21
12.6747020606
  0
LINE
  5
20E
100
AcDbEntity
  8
0
100
AcDbLine
 62
7
  6
CONTINUOUS
 10
11.7728030318
 20
11.137516468
 11
11.7728030318
 21
12.6446523686
  0
LINE
  5
20F
100
AcDbEntity
  8
0
100
AcDbLine
 62
7
  6
CONTINUOUS
 10
11.7898030318
 20
12.6510564864
 11
11.7898030318
 21
11.1311098355
  0
LINE
  5
210
100
AcDbEntity
  8
0
100
AcDbLine
 62
9
  6
CONTINUOUS
 10
11.8198030318
 20
12.6811098355
 11
11.8198030318
 21
11.1011098355
  0
LINE
  5
211
100
AcDbEntity
  8
0
100
AcDbLine
 62
9
  6
CONTINUOUS
 10
12.7538030318
 20
11.1011098355
 11
12.7538030318
 21
11.5505913308
  0
LINE
  5
212
100
AcDbEntity
  8
0
100
AcDbLine
 62
9
  6
CONTINUOUS
 10
12.7538030318
 20
12.2316279946
 11
12.7538030318
 21
12.6811098355
  0
LINE
  5
213
100
AcDbEntity
  8
0
100
AcDbLine
 62
7
  6
CONTINUOUS
 10
12.7738030318
 20
12.661109763
 11
12.7738030318
 21
12.2230071914
  0
LINE
  5
214
100
AcDbEntity
  8
0
100
AcDbLine
 62
7
  6
CONTINUOUS
 10
12.7738030318
 20
11.5592120491
 11
12.7738030318
 21
11.1211099078
  0
LINE
  5
215
100
AcDbEntity
  8
0
100
AcDbLine
 62
7
  6
CONTINUOUS
 10
11.7430648279
 20
11.1075176103
 11
10.6048030318
 21
11.0975841501
  0
LINE
  5
216
100
AcDbEntity
  8
0
100
AcDbLine
 62
7
  6
CONTINUOUS
 10
11.8198030318
 20
11.1011098355
 11
12.7538030318
 21
11.1011098355
  0
LINE
  5
217
100
AcDbEntity
  8
0
100
AcDbLine
 62
7
  6
CONTINUOUS
 10
11.7898030318
 20
11.2141098355
 11
11.7728030318
 21
11.2141098355
  0
LINE
  5
218
100
AcDbEntity
  8
0
100
AcDbLine
 62
7
  6
CONTINUOUS
 10
12.6790470321
 20
11.6241098355
 11
12.6140530059
 21
11.6241098355
  0
LINE
  5
219
100
AcDbEntity
  8
0
100
AcDbLine
 62
9
  6
CONTINUOUS
 10
12.6050049
 20
11.6447296287
 11
12.585364972
 21
11.6447296287
  0
LINE
  5
21A
100
AcDbEntity
  8
0
100
AcDbLine
 62
9
  6
CONTINUOUS
 10
10.9339303704
 20
11.8911097177
 11
10.8348024499
 21
11.8911097972
  0
LINE
  5
21B
100
AcDbEntity
  8
0
100
AcDbLine
 62
9
  6
CONTINUOUS
 10
12.4613030318
 20
11.8911098354
 11
12.4413030318
 21
11.8911098354
  0
LINE
  5
21C
100
AcDbEntity
  8
0
100
AcDbLine
 62
9
  6
CONTINUOUS
 10
12.6050056586
 20
12.1374900798
 11
12.5828157933
 21
12.1374900798
  0
LINE
  5
21D
100
AcDbEntity
  8
0
100
AcDbLine
 62
7
  6
CONTINUOUS
 10
12.6128900594
 20
12.1581098355
 11
12.6790470321
 21
12.1581098355
  0
LINE
  5
21E
100
AcDbEntity
  8
0
100
AcDbLine
 62
7
  6
CONTINUOUS
 10
11.7898030318
 20
12.5681098355
 11
11.7728030318
 21
12.5681098355
  0
LINE
  5
21F
100
AcDbEntity
  8
0
100
AcDbLine
 62
7
  6
CONTINUOUS
 10
11.8198030318
 20
12.6811098355
 11
12.7538030318
 21
12.6811098355
  0
LINE
  5
220
100
AcDbEntity
  8
0
100
AcDbLine
 62
7
  6
CONTINUOUS
 10
11.7430648279
 20
12.6747020606
 11
10.0942374856
 21
12.6890911589
  0
LINE
  5
221
100
AcDbEntity
  8
0
100
AcDbLine
 62
7
  6
CONTINUOUS
 10
10.0942376469
 20
12.6890907472
 11
10.0884205457
 21
12.68931131
  0
ARC
  5
222
100
AcDbEntity
  8
0
100
AcDbCircle
 62
9
  6
CONTINUOUS
 10
10.0697349591
 20
3.2533813731
 40
0.5353438441
100
AcDbArc
 50
338.7712943671
 51
339.8257924111
  0
ARC
  5
223
100
AcDbEntity
  8
0
100
AcDbCircle
 62
9
  6
CONTINUOUS
 10
9.9994121018
 20
3.2532130325
 40
0.5348551099
100
AcDbArc
 50
199.8336059106
 51
200.7169518119
  0
ARC
  5
224
100
AcDbEntity
  8
0
100
AcDbCircle
 62
9
  6
CONTINUOUS
 10
10.0747204639
 20
3.2516952046
 40
0.5300827072
100
AcDbArc
 50
339.8110210431
 51
351.1747643661
  0
ARC
  5
225
100
AcDbEntity
  8
0
100
AcDbCircle
 62
9
  6
CONTINUOUS
 10
9.9943793164
 20
3.2516953496
 40
0.5295820082
100
AcDbArc
 50
181.6969748682
 51
199.844893831
  0
ARC
  5
226
100
AcDbEntity
  8
0
100
AcDbCircle
 62
7
  6
CONTINUOUS
 10
10.0761122787
 20
3.2610074026
 40
0.5286832502
100
AcDbArc
 50
358.9659853453
 51
359.9994665648
  0
ARC
  5
227
100
AcDbEntity
  8
0
100
AcDbCircle
 62
9
  6
CONTINUOUS
 10
10.0762271518
 20
3.2515913191
 40
0.5285779345
100
AcDbArc
 50
351.1608352438
 51
358.8288619827
  0
ARC
  5
228
100
AcDbEntity
  8
0
100
AcDbCircle
 62
7
  6
CONTINUOUS
 10
9.9933685367
 20
3.2609959764
 40
0.5285579893
100
AcDbArc
 50
179.9994661885
 51
181.4640438368
  0
ARC
  5
229
100
AcDbEntity
  8
0
100
AcDbCircle
 62
9
  6
CONTINUOUS
 10
9.9923630955
 20
3.3314729323
 40
0.5275548895
100
AcDbArc
 50
179.9955517313
 51
187.1920578441
  0
ARC
  5
22A
100
AcDbEntity
  8
0
100
AcDbCircle
 62
7
  6
CONTINUOUS
 10
9.9922086256
 20
2.6322207946
 40
0.5274055938
100
AcDbArc
 50
180.000003216
 51
180.6383150022
  0
ARC
  5
22B
100
AcDbEntity
  8
0
100
AcDbCircle
 62
9
  6
CONTINUOUS
 10
9.9922050835
 20
3.2514342323
 40
0.5274020517
100
AcDbArc
 50
180.0000009974
 51
180.4320553703
  0
ARC
  5
22C
100
AcDbEntity
  8
0
100
AcDbCircle
 62
7
  6
CONTINUOUS
 10
10.0774009802
 20
3.2514342139
 40
0.5274020516
100
AcDbArc
 50
0.0000009972
 51
0.4320553702
  0
ARC
  5
22D
100
AcDbEntity
  8
0
100
AcDbCircle
 62
9
  6
CONTINUOUS
 10
9.9907962667
 20
3.3312968431
 40
0.5259783432
100
AcDbArc
 50
187.1943951457
 51
187.545785066
  0
ARC
  5
22E
100
AcDbEntity
  8
0
100
AcDbCircle
 62
9
  6
CONTINUOUS
 10
9.9883150277
 20
3.2514092766
 40
0.5235119183
100
AcDbArc
 50
180.4325346108
 51
181.6853339692
  0
ARC
  5
22F
100
AcDbEntity
  8
0
100
AcDbCircle
 62
9
  6
CONTINUOUS
 10
10.0813843994
 20
3.2514379846
 40
0.5234186324
100
AcDbArc
 50
358.8341047408
 51
359.9995882476
  0
ARC
  5
230
100
AcDbEntity
  8
0
100
AcDbCircle
 62
7
  6
CONTINUOUS
 10
9.9882006929
 20
3.2514338506
 40
0.5233976611
100
AcDbArc
 50
179.6365111329
 51
179.9999592295
  0
ARC
  5
231
100
AcDbEntity
  8
0
100
AcDbCircle
 62
7
  6
CONTINUOUS
 10
10.0348030318
 20
11.8911098355
 40
0.99
100
AcDbArc
 50
305.334717461
 51
306.4600232075
  0
ARC
  5
232
100
AcDbEntity
  8
0
100
AcDbCircle
 62
7
  6
CONTINUOUS
 10
10.0348030318
 20
11.8911098355
 40
0.99
100
AcDbArc
 50
53.5399767925
 51
234.665282539
  0
ARC
  5
233
100
AcDbEntity
  8
0
100
AcDbCircle
 62
9
  6
CONTINUOUS
 10
10.0348030318
 20
11.8911098355
 40
0.96
100
AcDbArc
 50
56.2709197361
 51
233.4541260331
  0
ARC
  5
234
100
AcDbEntity
  8
0
100
AcDbCircle
 62
7
  6
CONTINUOUS
 10
10.0348030318
 20
11.8911098355
 40
0.8
100
AcDbArc
 50
315.4282571166
 51
224.2168022217
  0
ARC
  5
235
100
AcDbEntity
  8
0
100
AcDbCircle
 62
9
  6
CONTINUOUS
 10
10.0348030318
 20
11.8911098355
 40
0.77
100
AcDbArc
 50
318.0585213826
 51
222.0025069019
  0
ARC
  5
236
100
AcDbEntity
  8
0
100
AcDbCircle
 62
7
  6
CONTINUOUS
 10
10.0348030318
 20
11.8911098355
 40
0.57
100
AcDbArc
 50
0.0
 51
180.0
  0
ARC
  5
237
100
AcDbEntity
  8
0
100
AcDbCircle
 62
9
  6
CONTINUOUS
 10
12.0876658487
 20
11.5992682823
 40
0.6679134988
100
AcDbArc
 50
355.8206254445
 51
356.9435312102
  0
ARC
  5
238
100
AcDbEntity
  8
0
100
AcDbCircle
 62
9
  6
CONTINUOUS
 10
12.2056967689
 20
11.5934728559
 40
0.5497417013
100
AcDbArc
 50
356.8907689182
 51
357.5359423059
  0
ARC
  5
239
100
AcDbEntity
  8
0
100
AcDbCircle
 62
7
  6
CONTINUOUS
 10
11.8198030318
 20
11.1311098355
 40
0.03
100
AcDbArc
 50
180.0
 51
270.0
  0
ARC
  5
23A
100
AcDbEntity
  8
0
100
AcDbCircle
 62
7
  6
CONTINUOUS
 10
11.7428030318
 20
11.137516468
 40
0.03
100
AcDbArc
 50
270.5000000001
 51
360.0
  0
ARC
  5
23B
100
AcDbEntity
  8
0
100
AcDbCircle
 62
9
  6
CONTINUOUS
 10
12.0125998537
 20
12.1783619025
 40
0.7431170244
100
AcDbArc
 50
3.1011982434
 51
3.613655595
  0
ARC
  5
23C
100
AcDbEntity
  8
0
100
AcDbCircle
 62
9
  6
CONTINUOUS
 10
12.118176505
 20
12.1852128346
 40
0.6373185106
100
AcDbArc
 50
3.5972049984
 51
4.1764777035
  0
ARC
  5
23D
100
AcDbEntity
  8
0
100
AcDbCircle
 62
9
  6
CONTINUOUS
 10
12.2568334905
 20
12.191234599
 40
0.4985447786
100
AcDbArc
 50
2.4310605174
 51
3.1424705495
  0
ARC
  5
23E
100
AcDbEntity
  8
0
100
AcDbCircle
 62
7
  6
CONTINUOUS
 10
11.8198030318
 20
12.6511098355
 40
0.03
100
AcDbArc
 50
90.0
 51
180.0
  0
ARC
  5
23F
100
AcDbEntity
  8
0
100
AcDbCircle
 62
7
  6
CONTINUOUS
 10
11.7428030318
 20
12.644703203
 40
0.03
100
AcDbArc
 50
0.0
 51
89.4999999999
  0
ARC
  5
240
100
AcDbEntity
  8
0
100
AcDbCircle
 62
9
  6
CONTINUOUS
 10
12.7601907002
 20
11.7221251797
 40
0.4434237368
100
AcDbArc
 50
104.4523236569
 51
108.7224093237
  0
ARC
  5
241
100
AcDbEntity
  8
0
100
AcDbCircle
 62
9
  6
CONTINUOUS
 10
12.7518634098
 20
11.7469625246
 40
0.4172277514
100
AcDbArc
 50
108.7341816493
 51
110.6087527162
  0
ARC
  5
242
100
AcDbEntity
  8
0
100
AcDbCircle
 62
9
  6
CONTINUOUS
 10
12.7868112288
 20
11.8911075185
 40
0.345508197
100
AcDbArc
 50
179.6026457382
 51
179.9996157763
  0
ARC
  5
243
100
AcDbEntity
  8
0
100
AcDbCircle
 62
9
  6
CONTINUOUS
 10
12.7735460071
 20
11.8698688844
 40
0.3198873885
100
AcDbArc
 50
265.7353907914
 51
266.4615405831
  0
ARC
  5
244
100
AcDbEntity
  8
0
100
AcDbCircle
 62
7
  6
CONTINUOUS
 10
12.6790470321
 20
11.5641098355
 40
0.06
100
AcDbArc
 50
74.1048938384
 51
90.0
  0
ARC
  5
245
100
AcDbEntity
  8
0
100
AcDbCircle
 62
7
  6
CONTINUOUS
 10
12.7538030318
 20
11.1211098355
 40
0.02
100
AcDbArc
 50
270.0
 51
360.0
  0
ARC
  5
246
100
AcDbEntity
  8
0
100
AcDbCircle
 62
7
  6
CONTINUOUS
 10
12.7538030318
 20
11.5592118843
 40
0.02
100
AcDbArc
 50
0.0001412703
 51
86.551555736
  0
ARC
  5
247
100
AcDbEntity
  8
0
100
AcDbCircle
 62
9
  6
CONTINUOUS
 10
12.7677373527
 20
12.0905300195
 40
0.4747796956
100
AcDbArc
 50
255.5826002665
 51
259.1216398613
  0
ARC
  5
248
100
AcDbEntity
  8
0
100
AcDbCircle
 62
9
  6
CONTINUOUS
 10
12.7866136388
 20
11.8911130852
 40
0.345310607
100
AcDbArc
 50
180.0005392085
 51
180.4029962546
  0
ARC
  5
249
100
AcDbEntity
  8
0
100
AcDbCircle
 62
9
  6
CONTINUOUS
 10
12.7734975344
 20
11.9130163195
 40
0.3192197878
100
AcDbArc
 50
93.5371521717
 51
94.2881575032
  0
ARC
  5
24A
100
AcDbEntity
  8
0
100
AcDbCircle
 62
7
  6
CONTINUOUS
 10
12.7738030318
 20
11.8911098355
 40
0.3125
100
AcDbArc
 50
93.448459371
 51
266.5515615104
  0
CIRCLE
  5
24B
100
AcDbEntity
  8
0
100
AcDbCircle
 62
7
  6
CONTINUOUS
 10
12.7721652365
 20
11.8911098355
 40
0.28
  0
ARC
  5
24C
100
AcDbEntity
  8
0
100
AcDbCircle
 62
7
  6
CONTINUOUS
 10
12.7721652365
 20
11.8911098355
 40
0.28
100
AcDbArc
 50
89.999999987
 51
90.5844170909
  0
CIRCLE
  5
24D
100
AcDbEntity
  8
0
100
AcDbCircle
 62
9
  6
CONTINUOUS
 10
12.7721652365
 20
11.8911098355
 40
0.2599999484
  0
ARC
  5
24E
100
AcDbEntity
  8
0
100
AcDbCircle
 62
9
  6
CONTINUOUS
 10
12.7721652365
 20
11.8911098355
 40
0.2599999484
100
AcDbArc
 50
88.0293853758
 51
88.6862569172
  0
ARC
  5
24F
100
AcDbEntity
  8
0
100
AcDbCircle
 62
7
  6
CONTINUOUS
 10
12.6790470321
 20
12.2181098355
 40
0.06
100
AcDbArc
 50
270.0
 51
285.8951061616
  0
ARC
  5
250
100
AcDbEntity
  8
0
100
AcDbCircle
 62
7
  6
CONTINUOUS
 10
12.7538030318
 20
12.6611098355
 40
0.02
100
AcDbArc
 50
0.0
 51
90.0
  0
ARC
  5
251
100
AcDbEntity
  8
0
100
AcDbCircle
 62
7
  6
CONTINUOUS
 10
12.7538030318
 20
12.2230073591
 40
0.02
100
AcDbArc
 50
273.448517941
 51
0.0007796648
  0
SPLINE
  5
252
100
AcDbEntity
  8
0
100
AcDbSpline
 62
7
  6
CONTINUOUS
 70
0
 71
3
 72
20
 73
16
 74
0
 42
0.0000001
 43
0.0000001
 44
0.0000000001
 40
0.0
 40
0.0
 40
0.0
 40
0.0
 40
0.1272287703
 40
0.1908529125
 40
0.2543109655
 40
0.3175928596
 40
0.3806910532
 40
0.4435815079
 40
0.5062393605
 40
0.6306981887
 40
0.7542834957
 40
0.8158785694
 40
0.8773367356
 40
0.9386955501
 40
1.0
 40
1.0
 40
1.0
 40
1.0
 10
10.0348030318
 20
2.7127167118
 30
0.0
 10
10.0716195835
 20
2.7127167118
 30
0.0
 10
10.1270281561
 20
2.7179152099
 30
0.0
 10
10.1986914748
 20
2.734965277
 30
0.0
 10
10.2509281826
 20
2.7527294178
 30
0.0
 10
10.301116431
 20
2.7752627731
 30
0.0
 10
10.3487932497
 20
2.8023858391
 30
0.0
 10
10.3935338761
 20
2.8338146447
 30
0.0
 10
10.4485305596
 20
2.8809601507
 30
0.0
 10
10.508020606
 20
2.9491826027
 30
0.0
 10
10.5528401013
 20
3.0274950811
 30
0.0
 10
10.5786962075
 20
3.0941246838
 30
0.0
 10
10.5929524028
 20
3.1456467517
 30
0.0
 10
10.601960905
 20
3.1982456847
 30
0.0
 10
10.6043893034
 20
3.2337298404
 30
0.0
 10
10.6047094371
 20
3.2514667949
 30
0.0
  0
SPLINE
  5
253
100
AcDbEntity
  8
0
100
AcDbSpline
 62
7
  6
CONTINUOUS
 70
0
 71
3
 72
20
 73
16
 74
0
 42
0.0000001
 43
0.0000001
 44
0.0000000001
 40
0.0
 40
0.0
 40
0.0
 40
0.0
 40
0.0612989676
 40
0.1226555472
 40
0.1841133178
 40
0.2457101117
 40
0.3693036541
 40
0.4937733128
 40
0.556435184
 40
0.6193279034
 40
0.6824261573
 40
0.7457072393
 40
0.8091636221
 40
0.872784315
 40
1.0
 40
1.0
 40
1.0
 40
1.0
 10
9.4649830923
 20
3.2474915287
 30
0.0
 10
9.465434229
 20
3.2298400799
 30
0.0
 10
9.4681101568
 20
3.1945395036
 30
0.0
 10
9.4774348356
 20
3.142246742
 30
0.0
 10
9.4919463711
 20
3.0910509745
 30
0.0
 10
9.5180753335
 20
3.0248768636
 30
0.0
 10
9.563081807
 20
2.9471486733
 30
0.0
 10
9.622576874
 20
2.8794786646
 30
0.0
 10
9.6774850229
 20
2.8327329791
 30
0.0
 10
9.7221114945
 20
2.8015750346
 30
0.0
 10
9.769635892
 20
2.7746917357
 30
0.0
 10
9.8196381413
 20
2.7523616994
 30
0.0
 10
9.8716607312
 20
2.7347589557
 30
0.0
 10
9.9430096033
 20
2.7178671385
 30
0.0
 10
9.9981584597
 20
2.7127167118
 30
0.0
 10
10.0348030318
 20
2.7127167118
 30
0.0
  0
SPLINE
  5
254
100
AcDbEntity
  8
0
100
AcDbSpline
 62
7
  6
CONTINUOUS
 70
0
 71
3
 72
36
 73
32
 74
0
 42
0.0000001
 43
0.0000001
 44
0.0000000001
 40
0.0
 40
0.0
 40
0.0
 40
0.0
 40
0.0612890033
 40
0.0920474039
 40
0.1228555023
 40
0.1537424101
 40
0.1847313054
 40
0.215829507
 40
0.2470395541
 40
0.2783635808
 40
0.3097980811
 40
0.3413375451
 40
0.3729701898
 40
0.4363832313
 40
0.4681974003
 40
0.5000327581
 40
0.5318668151
 40
0.5636774592
 40
0.5954446977
 40
0.6271478238
 40
0.6587709432
 40
0.6902992911
 40
0.7217218591
 40
0.7530334302
 40
0.7842309744
 40
0.81531703
 40
0.8462941078
 40
0.8771709834
 40
0.9079721188
 40
0.9387265762
 40
1.0
 40
1.0
 40
1.0
 40
1.0
 10
9.4648361011
 20
2.626336913
 30
0.0
 10
9.4652378945
 20
2.5905797088
 30
0.0
 10
9.4713537956
 20
2.5367334974
 30
0.0
 10
9.4901477436
 20
2.4674750265
 30
0.0
 10
9.509490383
 20
2.417013392
 30
0.0
 10
9.5338481452
 20
2.3686334051
 30
0.0
 10
9.5630113921
 20
2.3227866398
 30
0.0
 10
9.5966658196
 20
2.2798897268
 30
0.0
 10
9.6345214875
 20
2.2403794309
 30
0.0
 10
9.6761964847
 20
2.2046214301
 30
0.0
 10
9.721288539
 20
2.1729496274
 30
0.0
 10
9.7693876738
 20
2.1456859
 30
0.0
 10
9.8368875035
 20
2.1154999112
 30
0.0
 10
9.9085885836
 20
2.0950923172
 30
0.0
 10
9.9821195593
 20
2.0850228506
 30
0.0
 10
10.037869244
 20
2.0826949939
 30
0.0
 10
10.0935830045
 20
2.0855963508
 30
0.0
 10
10.1487372131
 20
2.093738617
 30
0.0
 10
10.2028058209
 20
2.107014363
 30
0.0
 10
10.2552752696
 20
2.1253072752
 30
0.0
 10
10.3056359841
 20
2.1484585895
 30
0.0
 10
10.3534238605
 20
2.1762165664
 30
0.0
 10
10.3981604487
 20
2.2083553217
 30
0.0
 10
10.4394362206
 20
2.2445404896
 30
0.0
 10
10.4768468674
 20
2.2844430813
 30
0.0
 10
10.510022285
 20
2.3276846121
 30
0.0
 10
10.5386729308
 20
2.3738304165
 30
0.0
 10
10.5624877925
 20
2.4224612097
 30
0.0
 10
10.5812685258
 20
2.473121854
 30
0.0
 10
10.5992819554
 20
2.5425713085
 30
0.0
 10
10.6048030318
 20
2.5964703934
 30
0.0
 10
10.6048030318
 20
2.632220765
 30
0.0
  0
SPLINE
  5
255
100
AcDbEntity
  8
0
100
AcDbSpline
 62
9
  6
CONTINUOUS
 70
0
 71
3
 72
20
 73
16
 74
0
 42
0.0000001
 43
0.0000001
 44
0.0000000001
 40
0.0
 40
0.0
 40
0.0
 40
0.0
 40
0.1270449761
 40
0.1905936834
 40
0.2539943342
 40
0.3172343889
 40
0.3803076573
 40
0.5057622455
 40
0.5682305493
 40
0.6304803296
 40
0.6925152525
 40
0.7543497958
 40
0.816002163
 40
0.8774951085
 40
1.0
 40
1.0
 40
1.0
 40
1.0
 10
10.0348030318
 20
2.7832279589
 30
0.0
 10
10.0005723545
 20
2.7832279589
 30
0.0
 10
9.9490746247
 20
2.7877222662
 30
0.0
 10
9.8821865099
 20
2.8024687163
 30
0.0
 10
9.8332351569
 20
2.8178604264
 30
0.0
 10
9.7859344596
 20
2.8374190207
 30
0.0
 10
9.7257155108
 20
2.8687916485
 30
0.0
 10
9.6700340247
 20
2.9079243182
 30
0.0
 10
9.6205634968
 20
2.9538120234
 30
0.0
 10
9.5868519348
 20
2.9912656482
 30
0.0
 10
9.556787519
 20
3.0314885408
 30
0.0
 10
9.5306254653
 20
3.0741628161
 30
0.0
 10
9.5085497564
 20
3.1189337303
 30
0.0
 10
9.4848856185
 20
3.1808144746
 30
0.0
 10
9.4737072353
 20
3.2295046272
 30
0.0
 10
9.469372769
 20
3.2622262012
 30
0.0
  0
SPLINE
  5
256
100
AcDbEntity
  8
0
100
AcDbSpline
 62
9
  6
CONTINUOUS
 70
0
 71
3
 72
20
 73
16
 74
0
 42
0.0000001
 43
0.0000001
 44
0.0000000001
 40
0.0
 40
0.0
 40
0.0
 40
0.0
 40
0.0613302656
 40
0.1228012051
 40
0.1844385354
 40
0.246250102
 40
0.308238856
 40
0.3704090573
 40
0.4952021084
 40
0.6206747389
 40
0.683675792
 40
0.746800596
 40
0.8100292651
 40
0.8733362967
 40
1.0
 40
1.0
 40
1.0
 40
1.0
 10
10.5687517122
 20
3.0595378501
 30
0.0
 10
10.5637059216
 20
3.0465482379
 30
0.0
 10
10.5525834893
 20
3.0209221301
 30
0.0
 10
10.5329413391
 20
2.9838576057
 30
0.0
 10
10.5104290465
 20
2.9483307807
 30
0.0
 10
10.4851937079
 20
2.9145389121
 30
0.0
 10
10.4573695324
 20
2.8826801531
 30
0.0
 10
10.4169856577
 20
2.8430066554
 30
0.0
 10
10.3608256006
 20
2.7991152755
 30
0.0
 10
10.2985784351
 20
2.7640218272
 30
0.0
 10
10.2459506955
 20
2.7415866298
 30
0.0
 10
10.2051963089
 20
2.727671812
 30
0.0
 10
10.1634627367
 20
2.7167659532
 30
0.0
 10
10.1068554296
 20
2.7063056818
 30
0.0
 10
10.0636027225
 20
2.7031544181
 30
0.0
 10
10.034822722
 20
2.7031532161
 30
0.0
  0
SPLINE
  5
257
100
AcDbEntity
  8
0
100
AcDbSpline
 62
9
  6
CONTINUOUS
 70
0
 71
3
 72
18
 73
14
 74
0
 42
0.0000001
 43
0.0000001
 44
0.0000000001
 40
0.0
 40
0.0
 40
0.0
 40
0.0
 40
0.1267032414
 40
0.1900300016
 40
0.2532770518
 40
0.3793482163
 40
0.5048444174
 40
0.6296545581
 40
0.691831399
 40
0.7538259395
 40
0.8156418185
 40
0.8772819043
 40
1.0
 40
1.0
 40
1.0
 40
1.0
 10
10.034822722
 20
2.7031532161
 30
0.0
 10
10.0058354937
 20
2.7031520055
 30
0.0
 10
9.9622706663
 20
2.7063468692
 30
0.0
 10
9.9052667906
 20
2.7169550007
 30
0.0
 10
9.8493240665
 20
2.7316749787
 30
0.0
 10
9.7818645321
 20
2.7577167857
 30
0.0
 10
9.7067497985
 20
2.8004422388
 30
0.0
 10
9.6503951132
 20
2.8449175854
 30
0.0
 10
9.6099566876
 20
2.8851003823
 30
0.0
 10
9.5821412472
 20
2.9173571348
 30
0.0
 10
9.5569603025
 20
2.9515601173
 30
0.0
 10
9.5271457379
 20
2.999385521
 30
0.0
 10
9.5090727431
 20
3.0377470399
 30
0.0
 10
9.4991410393
 20
3.0640071851
 30
0.0
  0
SPLINE
  5
258
100
AcDbEntity
  8
0
100
AcDbSpline
 62
9
  6
CONTINUOUS
 70
0
 71
3
 72
21
 73
17
 74
0
 42
0.0000001
 43
0.0000001
 44
0.0000000001
 40
0.0
 40
0.0
 40
0.0
 40
0.0
 40
0.0613048125
 40
0.1226561855
 40
0.1841015004
 40
0.2456798049
 40
0.3074299617
 40
0.3693792837
 40
0.4938031147
 40
0.5564472697
 40
0.6193260255
 40
0.6824162878
 40
0.7456930789
 40
0.809147529
 40
0.8727691415
 40
1.0
 40
1.0
 40
1.0
 40
1.0
 10
10.604797856
 20
3.33151389
 30
0.0
 10
10.604797856
 20
3.3135767591
 30
0.0
 10
10.6029712738
 20
3.2776614422
 30
0.0
 10
10.5947363986
 20
3.2243383564
 30
0.0
 10
10.5811145025
 20
3.1720433431
 30
0.0
 10
10.5622338285
 20
3.1212874083
 30
0.0
 10
10.5382525163
 20
3.0725620877
 30
0.0
 10
10.4998184957
 20
3.0108629077
 30
0.0
 10
10.4521104181
 20
2.9550429176
 30
0.0
 10
10.3969099716
 20
2.9069413941
 30
0.0
 10
10.351898032
 20
2.8748534974
 30
0.0
 10
10.3038571336
 20
2.8471513161
 30
0.0
 10
10.2532226342
 20
2.8241273376
 30
0.0
 10
10.2004726221
 20
2.8059731211
 30
0.0
 10
10.1280581348
 20
2.7885416172
 30
0.0
 10
10.0720294171
 20
2.7832279589
 30
0.0
 10
10.0348030318
 20
2.7832279589
 30
0.0
  0
SPLINE
  5
259
100
AcDbEntity
  8
0
100
AcDbSpline
 62
9
  6
CONTINUOUS
 70
0
 71
3
 72
18
 73
14
 74
0
 42
0.0000001
 43
0.0000001
 44
0.0000000001
 40
0.0
 40
0.0
 40
0.0
 40
0.0
 40
0.1265230411
 40
0.1896459778
 40
0.2524505093
 40
0.3770797078
 40
0.5008705158
 40
0.5626743848
 40
0.6244946307
 40
0.7484864447
 40
0.8109541613
 40
0.873777237
 40
1.0
 40
1.0
 40
1.0
 40
1.0
 10
12.4413115733
 20
11.8886843246
 30
0.0
 10
12.4414604802
 20
11.8675099879
 30
0.0
 10
12.4445949271
 20
11.8356956548
 30
0.0
 10
12.4543936579
 20
11.7945548277
 30
0.0
 10
12.4678088826
 20
11.7547693685
 30
0.0
 10
12.4911198372
 20
11.7078515721
 30
0.0
 10
12.522452306
 20
11.6660664676
 30
0.0
 10
12.5516539598
 20
11.6366348725
 30
0.0
 10
12.5834659853
 20
11.6100032393
 30
0.0
 10
12.6189927289
 20
11.5878969301
 30
0.0
 10
12.6572327315
 20
11.5710806319
 30
0.0
 10
12.6972632022
 20
11.5579120918
 30
0.0
 10
12.7286921722
 20
11.552437974
 30
0.0
 10
12.7497582963
 20
11.550867182
 30
0.0
  0
LINE
  5
25A
100
AcDbEntity
  8
0
100
AcDbLine
 62
9
  6
CONTINUOUS
 10
12.7549301645
 20
11.5698379959
 11
12.7551205761
 21
11.5779437612
  0
LINE
  5
25B
100
AcDbEntity
  8
0
100
AcDbLine
 62
9
  6
CONTINUOUS
 10
12.7551205761
 20
11.5779437612
 11
12.7550062165
 21
11.5791757934
  0
SPLINE
  5
25C
100
AcDbEntity
  8
0
100
AcDbSpline
 62
9
  6
CONTINUOUS
 70
0
 71
3
 72
16
 73
12
 74
0
 42
0.0000001
 43
0.0000001
 44
0.0000000001
 40
0.0
 40
0.0
 40
0.0
 40
0.0
 40
0.0735965213
 40
0.1584827975
 40
0.2602255221
 40
0.3805748967
 40
0.4474451533
 40
0.5183838388
 40
0.6709284488
 40
0.8335269882
 40
1.0
 40
1.0
 40
1.0
 40
1.0
 10
12.7738030318
 20
11.5592119829
 30
0.0
 10
12.7738030312
 20
11.5586395112
 30
0.0
 10
12.7734850921
 20
11.5573998039
 30
0.0
 10
12.7722534827
 20
11.5557522873
 30
0.0
 10
12.7703544115
 20
11.554272331
 30
0.0
 10
12.7683417832
 20
11.5532490445
 30
0.0
 10
12.7664694455
 20
11.5525211537
 30
0.0
 10
12.7643155788
 20
11.5518367716
 30
0.0
 10
12.7613791314
 20
11.5511792373
 30
0.0
 10
12.7576591172
 20
11.5507025726
 30
0.0
 10
12.7550981345
 20
11.5505912983
 30
0.0
 10
12.7538032214
 20
11.5505912957
 30
0.0
  0
SPLINE
  5
25D
100
AcDbEntity
  8
0
100
AcDbSpline
 62
9
  6
CONTINUOUS
 70
0
 71
3
 72
37
 73
33
 74
0
 42
0.0000001
 43
0.0000001
 44
0.0000000001
 40
0.0
 40
0.0
 40
0.0
 40
0.0
 40
0.061231198
 40
0.0919703089
 40
0.1227606988
 40
0.1536319097
 40
0.1846085729
 40
0.2156991115
 40
0.2469058427
 40
0.2782307976
 40
0.3096702964
 40
0.3412184633
 40
0.3728632672
 40
0.404589184
 40
0.4363793084
 40
0.4682120211
 40
0.5000665747
 40
0.5319198841
 40
0.5637489016
 40
0.5955330181
 40
0.6272508315
 40
0.6588857297
 40
0.6904225573
 40
0.7218497002
 40
0.7531617476
 40
0.7843555085
 40
0.8154335115
 40
0.8463985586
 40
0.8772595315
 40
0.9080414611
 40
0.9387742298
 40
1.0
 40
1.0
 40
1.0
 40
1.0
 10
9.464835761
 20
2.6263452495
 30
0.0
 10
9.4652336583
 20
2.5906311675
 30
0.0
 10
9.4713517151
 20
2.5368449228
 30
0.0
 10
9.4901251774
 20
2.4676580979
 30
0.0
 10
9.5094580236
 20
2.4172407701
 30
0.0
 10
9.5338016604
 20
2.3688996091
 30
0.0
 10
9.5629528955
 20
2.3230866615
 30
0.0
 10
9.5965976493
 20
2.2802178681
 30
0.0
 10
9.634443415
 20
2.2407260633
 30
0.0
 10
9.6761150892
 20
2.2049846012
 30
0.0
 10
9.7212071491
 20
2.1733210912
 30
0.0
 10
9.769305246
 20
2.1460649415
 30
0.0
 10
9.8199288865
 20
2.1234383306
 30
0.0
 10
9.8726112476
 20
2.105691076
 30
0.0
 10
9.9268394424
 20
2.0929737467
 30
0.0
 10
9.9820982091
 20
2.0854023638
 30
0.0
 10
10.0378609135
 20
2.0830763019
 30
0.0
 10
10.0935945412
 20
2.0859768242
 30
0.0
 10
10.1487659329
 20
2.0941171953
 30
0.0
 10
10.202849558
 20
2.1073926392
 30
0.0
 10
10.2553314692
 20
2.1256818454
 30
0.0
 10
10.3057004766
 20
2.148828988
 30
0.0
 10
10.3534925261
 20
2.1765794508
 30
0.0
 10
10.3982296187
 20
2.2087061265
 30
0.0
 10
10.4395010615
 20
2.2448753426
 30
0.0
 10
10.4769049859
 20
2.2847553197
 30
0.0
 10
10.5100704431
 20
2.3279688322
 30
0.0
 10
10.5387097568
 20
2.3740800383
 30
0.0
 10
10.5625134848
 20
2.4226697422
 30
0.0
 10
10.5812834897
 20
2.4732838055
 30
0.0
 10
10.5992856153
 20
2.5426632359
 30
0.0
 10
10.6048030318
 20
2.5965076327
 30
0.0
 10
10.6048030318
 20
2.632220765
 30
0.0
  0
SPLINE
  5
25E
100
AcDbEntity
  8
0
100
AcDbSpline
 62
9
  6
CONTINUOUS
 70
0
 71
3
 72
19
 73
15
 74
0
 42
0.0000001
 43
0.0000001
 44
0.0000000001
 40
0.0
 40
0.0
 40
0.0
 40
0.0
 40
0.1262340727
 40
0.1890472853
 40
0.2514702254
 40
0.3753798339
 40
0.4988561153
 40
0.5607280747
 40
0.6227549334
 40
0.6850136732
 40
0.7475535923
 40
0.8103823166
 40
0.8735064971
 40
1.0
 40
1.0
 40
1.0
 40
1.0
 10
12.7496286356
 20
12.2313424865
 30
0.0
 10
12.7285627676
 20
12.2297630228
 30
0.0
 10
12.6971390083
 20
12.2242712612
 30
0.0
 10
12.6571214644
 20
12.211100652
 30
0.0
 10
12.618906583
 20
12.1942786704
 30
0.0
 10
12.5746203184
 20
12.1667016717
 30
0.0
 10
12.5362964112
 20
12.1314540258
 30
0.0
 10
12.5099383211
 20
12.0994696031
 30
0.0
 10
12.4923736433
 20
12.0736857928
 30
0.0
 10
12.4771775742
 20
12.0463130421
 30
0.0
 10
12.4644775561
 20
12.0175509684
 30
0.0
 10
12.4543843758
 20
11.9876154103
 30
0.0
 10
12.4445878709
 20
11.9464803187
 30
0.0
 10
12.44145812
 20
11.9146715504
 30
0.0
 10
12.4413113406
 20
11.8935036471
 30
0.0
  0
SPLINE
  5
25F
100
AcDbEntity
  8
0
100
AcDbSpline
 62
9
  6
CONTINUOUS
 70
0
 71
3
 72
9
 73
5
 74
0
 42
0.0000001
 43
0.0000001
 44
0.0000000001
 40
0.0
 40
0.0
 40
0.0
 40
0.0
 40
0.5150416227
 40
1.0
 40
1.0
 40
1.0
 40
1.0
 10
12.6050050199
 20
11.6447297602
 30
0.0
 10
12.6125075984
 20
11.6419057839
 30
0.0
 10
12.6272408742
 20
11.6368573641
 30
0.0
 10
12.6422151902
 20
11.6325851604
 30
0.0
 10
12.6495247967
 20
11.630702279
 30
0.0
  0
LINE
  5
260
100
AcDbEntity
  8
0
100
AcDbLine
 62
9
  6
CONTINUOUS
 10
12.6781347652
 20
11.6242820858
 11
12.6790469669
 21
11.6241098393
  0
SPLINE
  5
261
100
AcDbEntity
  8
0
100
AcDbSpline
 62
9
  6
CONTINUOUS
 70
0
 71
3
 72
9
 73
5
 74
0
 42
0.0000001
 43
0.0000001
 44
0.0000000001
 40
0.0
 40
0.0
 40
0.0
 40
0.0
 40
0.4976966056
 40
1.0
 40
1.0
 40
1.0
 40
1.0
 10
12.6050056325
 20
12.1374900798
 30
0.0
 10
12.5928943034
 20
12.1317999113
 30
0.0
 10
12.5691693276
 20
12.1190160916
 30
0.0
 10
12.5470959161
 20
12.103531119
 30
0.0
 10
12.5365495226
 20
12.0950951178
 30
0.0
  0
SPLINE
  5
262
100
AcDbEntity
  8
0
100
AcDbSpline
 62
9
  6
CONTINUOUS
 70
0
 71
3
 72
9
 73
5
 74
0
 42
0.0000001
 43
0.0000001
 44
0.0000000001
 40
0.0
 40
0.0
 40
0.0
 40
0.0
 40
0.5022915512
 40
1.0
 40
1.0
 40
1.0
 40
1.0
 10
12.5366451648
 20
11.6870483962
 30
0.0
 10
12.5471784385
 20
11.6786294009
 30
0.0
 10
12.5692223444
 20
11.6631743642
 30
0.0
 10
12.5929115385
 20
11.6504109067
 30
0.0
 10
12.6050049
 20
11.6447296287
 30
0.0
  0
SPLINE
  5
263
100
AcDbEntity
  8
0
100
AcDbSpline
 62
9
  6
CONTINUOUS
 70
0
 71
3
 72
18
 73
14
 74
0
 42
0.0000001
 43
0.0000001
 44
0.0000000001
 40
0.0
 40
0.0
 40
0.0
 40
0.0
 40
0.0063518165
 40
0.0246997797
 40
0.0539732998
 40
0.0931020492
 40
0.1410160154
 40
0.1966455678
 40
0.3267755812
 40
0.4760252334
 40
0.6402824653
 40
0.8160894425
 40
1.0
 40
1.0
 40
1.0
 40
1.0
 10
12.6790469705
 20
12.1581098332
 30
0.0
 10
12.6791104298
 20
12.1581185821
 30
0.0
 10
12.6785645166
 20
12.1580240914
 30
0.0
 10
12.6783101909
 20
12.1579682667
 30
0.0
 10
12.6772990508
 20
12.157778965
 30
0.0
 10
12.6762106929
 20
12.157565097
 30
0.0
 10
12.6747763005
 20
12.1572822166
 30
0.0
 10
12.6724758642
 20
12.1568186676
 30
0.0
 10
12.6691618662
 20
12.1561310428
 30
0.0
 10
12.6647919063
 20
12.1551811894
 30
0.0
 10
12.6599791164
 20
12.1540869241
 30
0.0
 10
12.6548388032
 20
12.1528618103
 30
0.0
 10
12.6513196708
 20
12.1519797365
 30
0.0
 10
12.6495235257
 20
12.1515170601
 30
0.0
  0
SPLINE
  5
264
100
AcDbEntity
  8
0
100
AcDbSpline
 62
9
  6
CONTINUOUS
 70
0
 71
3
 72
16
 73
12
 74
0
 42
0.0000001
 43
0.0000001
 44
0.0000000001
 40
0.0
 40
0.0
 40
0.0
 40
0.0
 40
0.0735965141
 40
0.1584830732
 40
0.2602260101
 40
0.3805754332
 40
0.4474456801
 40
0.5183843443
 40
0.6709288868
 40
0.8335272936
 40
1.0
 40
1.0
 40
1.0
 40
1.0
 10
12.7738030318
 20
12.2230071914
 30
0.0
 10
12.7738030318
 20
12.2235796683
 30
0.0
 10
12.7734850883
 20
12.2248193886
 30
0.0
 10
12.7722534686
 20
12.226466925
 30
0.0
 10
12.7703543772
 20
12.2279468987
 30
0.0
 10
12.7683417259
 20
12.2289701898
 30
0.0
 10
12.766469368
 20
12.2296980794
 30
0.0
 10
12.7643154791
 20
12.2303824564
 30
0.0
 10
12.7613790025
 20
12.2310399769
 30
0.0
 10
12.7576589562
 20
12.2315166247
 30
0.0
 10
12.7550979542
 20
12.2316278964
 30
0.0
 10
12.7538030318
 20
12.2316279019
 30
0.0
  0
SPLINE
  5
265
100
AcDbEntity
  8
0
100
AcDbSpline
 62
9
  6
CONTINUOUS
 70
0
 71
3
 72
18
 73
14
 74
0
 42
0.0000001
 43
0.0000001
 44
0.0000000001
 40
0.0
 40
0.0
 40
0.0
 40
0.0
 40
0.0051060408
 40
0.017273009
 40
0.0370503805
 40
0.064534707
 40
0.0997591059
 40
0.1427387484
 40
0.2519919526
 40
0.3923313077
 40
0.5637729611
 40
0.7663267501
 40
1.0
 40
1.0
 40
1.0
 40
1.0
 10
12.7550056334
 20
12.2030435525
 30
0.0
 10
12.755021528
 20
12.2030445115
 30
0.0
 10
12.7550453404
 20
12.2031103165
 30
0.0
 10
12.7550640225
 20
12.2032111973
 30
0.0
 10
12.7550851121
 20
12.2034025676
 30
0.0
 10
12.7551010232
 20
12.2036562603
 30
0.0
 10
12.7551141399
 20
12.2039868049
 30
0.0
 10
12.7551267069
 20
12.2045707257
 30
0.0
 10
12.7551286722
 20
12.2054835671
 30
0.0
 10
12.7551120739
 20
12.2067963488
 30
0.0
 10
12.755074281
 20
12.2083999773
 30
0.0
 10
12.7550134934
 20
12.2102940542
 30
0.0
 10
12.7549601965
 20
12.2116534304
 30
0.0
 10
12.7549295524
 20
12.2123815115
 30
0.0
  0
SPLINE
  5
266
100
AcDbEntity
  8
0
100
AcDbSpline
 62
9
  6
CONTINUOUS
 70
0
 71
3
 72
11
 73
7
 74
0
 42
0.0000001
 43
0.0000001
 44
0.0000000001
 40
0.0
 40
0.0
 40
0.0
 40
0.0
 40
0.2065501625
 40
0.4381865732
 40
0.7008927703
 40
1.0
 40
1.0
 40
1.0
 40
1.0
 10
12.6345043715
 20
11.6472868446
 30
0.0
 10
12.6326580427
 20
11.6483292905
 30
0.0
 10
12.6283279687
 20
11.6498420122
 30
0.0
 10
12.6210634243
 20
11.6501865835
 30
0.0
 10
12.6130073612
 20
11.6485727664
 30
0.0
 10
12.6076884035
 20
11.6462224718
 30
0.0
 10
12.6050053191
 20
11.6447296642
 30
0.0
  0
LINE
  5
267
100
AcDbEntity
  8
0
100
AcDbLine
 62
9
  6
CONTINUOUS
 10
12.462086298
 20
11.8886785553
 11
12.4875840668
 21
11.8886595988
  0
LINE
  5
268
100
AcDbEntity
  8
0
100
AcDbLine
 62
9
  6
CONTINUOUS
 10
12.4875840668
 20
11.8886595988
 11
12.492179014
 21
11.8884984897
  0
SPLINE
  5
269
100
AcDbEntity
  8
0
100
AcDbSpline
 62
9
  6
CONTINUOUS
 70
0
 71
3
 72
11
 73
7
 74
0
 42
0.0000001
 43
0.0000001
 44
0.0000000001
 40
0.0
 40
0.0
 40
0.0
 40
0.0
 40
0.2186311536
 40
0.4558756668
 40
0.7162541515
 40
1.0
 40
1.0
 40
1.0
 40
1.0
 10
12.6345042707
 20
12.1349323955
 30
0.0
 10
12.6325505844
 20
12.1338293604
 30
0.0
 10
12.6280215929
 20
12.1322954974
 30
0.0
 10
12.6205944006
 20
12.132098198
 30
0.0
 10
12.6126931247
 20
12.1337949621
 30
0.0
 10
12.6075503329
 20
12.1360745025
 30
0.0
 10
12.6050059163
 20
12.1374902355
 30
0.0
  0
SPLINE
  5
26A
100
AcDbEntity
  8
0
100
AcDbSpline
 62
9
  6
CONTINUOUS
 70
0
 71
3
 72
15
 73
11
 74
0
 42
0.0000001
 43
0.0000001
 44
0.0000000001
 40
0.0
 40
0.0
 40
0.0
 40
0.0
 40
0.136650507
 40
0.2713356254
 40
0.4026282523
 40
0.5298222791
 40
0.652824887
 40
0.7718980972
 40
0.8874655513
 40
1.0
 40
1.0
 40
1.0
 40
1.0
 10
10.9339303783
 20
11.8911098355
 30
0.0
 10
10.9339256246
 20
11.8580344158
 30
0.0
 10
10.9293141193
 20
11.79226711
 30
0.0
 10
10.9090955696
 20
11.6966397462
 30
0.0
 10
10.8771336441
 20
11.6067150408
 30
0.0
 10
10.8354349187
 20
11.5240741086
 30
0.0
 10
10.7859563567
 20
11.4494074909
 30
0.0
 10
10.730403879
 20
11.3828047092
 30
0.0
 10
10.6701496515
 20
11.3240419795
 30
0.0
 10
10.6270238343
 20
11.2894183988
 30
0.0
 10
10.6050227477
 20
11.2733598857
 30
0.0
  0
SPLINE
  5
26B
100
AcDbEntity
  8
0
100
AcDbSpline
 62
9
  6
CONTINUOUS
 70
0
 71
3
 72
19
 73
15
 74
0
 42
0.0000001
 43
0.0000001
 44
0.0000000001
 40
0.0
 40
0.0
 40
0.0
 40
0.0
 40
0.0740296895
 40
0.1471337244
 40
0.2186132174
 40
0.2880779984
 40
0.3554252283
 40
0.4207359671
 40
0.4841873823
 40
0.545994192
 40
0.6654397427
 40
0.7807321539
 40
0.8928674766
 40
1.0
 40
1.0
 40
1.0
 40
1.0
 10
10.9339303783
 20
11.8911098355
 30
0.0
 10
10.933925892
 20
11.9217826498
 30
0.0
 10
10.9299583367
 20
11.9828182628
 30
0.0
 10
10.912505351
 20
12.0719352057
 30
0.0
 10
10.8847322496
 20
12.1563944641
 30
0.0
 10
10.8482168842
 20
12.234799124
 30
0.0
 10
10.804548552
 20
12.3064497467
 30
0.0
 10
10.7551697127
 20
12.3711517118
 30
0.0
 10
10.7012658704
 20
12.4290159939
 30
0.0
 10
10.6255348278
 20
12.4966021836
 30
0.0
 10
10.5235753167
 20
12.566266736
 30
0.0
 10
10.3931320179
 20
12.6278672018
 30
0.0
 10
10.2600618062
 20
12.6682785473
 30
0.0
 10
10.170033986
 20
12.6826035577
 30
0.0
 10
10.1258329425
 20
12.6866770923
 30
0.0
  0
SPLINE
  5
26C
100
AcDbEntity
  8
0
100
AcDbSpline
 62
9
  6
CONTINUOUS
 70
0
 71
3
 72
16
 73
12
 74
0
 42
0.0000001
 43
0.0000001
 44
0.0000000001
 40
0.0
 40
0.0
 40
0.0
 40
0.0
 40
0.3428778735
 40
0.503647725
 40
0.6535708555
 40
0.7874623804
 40
0.897449074
 40
0.9401294212
 40
0.9725572138
 40
0.9930014338
 40
1.0
 40
1.0
 40
1.0
 40
1.0
 10
10.1258329425
 20
12.6866770923
 30
0.0
 10
10.1222266069
 20
12.6870094495
 30
0.0
 10
10.116926623
 20
12.6874690074
 30
0.0
 10
10.1100446982
 20
12.6880118843
 30
0.0
 10
10.1053615397
 20
12.6883576891
 30
0.0
 10
10.1012120675
 20
12.6886462492
 30
0.0
 10
10.0981917085
 20
12.6888434056
 30
0.0
 10
10.0962407531
 20
12.6889690801
 30
0.0
 10
10.0952330663
 20
12.689027386
 30
0.0
 10
10.0946025154
 20
12.6890734102
 30
0.0
 10
10.0943124874
 20
12.6890829411
 30
0.0
 10
10.0942390077
 20
12.6890910132
 30
0.0
  0
ENDSEC
  0
SECTION
  2
OBJECTS
  0
DICTIONARY
  5
C
100
AcDbDictionary
280
0
281
1
  3
ACAD_GROUP
350
D
  3
ACAD_MLINESTYLE
350
17
  3
ACAD_LAYOUT
350
1A
  3
ACAD_PLOTSETTINGS
350
19
  3
ACAD_PLOTSTYLENAME
350
E
  0
DICTIONARY
  5
D
102
{ACAD_REACTORS
330
C
102
}
100
AcDbDictionary
280
0
281
1
  0
ACDBDICTIONARYWDFLT
  5
E
102
{ACAD_REACTORS
330
C
102
}
100
AcDbDictionary
281
1
  3
Normal
350
F
100
AcDbDictionaryWithDefault
340
F
  0
DICTIONARY
  5
17
102
{ACAD_REACTORS
330
C
102
}
100
AcDbDictionary
280
0
281
1
  3
Standard
350
18
  0
DICTIONARY
  5
19
102
{ACAD_REACTORS
330
C
102
}
100
AcDbDictionary
281
1
  0
DICTIONARY
  5
1A
102
{ACAD_REACTORS
330
C
102
}
100
AcDbDictionary
281
1
  3
Model
350
26D
  3
Layout1
350
26E
  0
ACDBPLACEHOLDER
  5
F
102
{ACAD_REACTORS
330
E
102
}
  0
MLINESTYLE
  5
18
102
{ACAD_REACTORS
330
17
102
}
100
AcDbMlineStyle
  2
STANDARD
 70
0
  3

 62
256
 51
90.0
 52
90.0
 71
2
 49
0.5
 62
256
  6
BYLAYER
 49
-0.5
 62
256
  6
BYLAYER
  0
LAYOUT
  5
26D
102
{ACAD_REACTORS
330
1A
102
}
100
AcDbPlotSettings
  1

  2
none_device
  4
ANSI_C_(22.00_x_17.00_Inches)
  6

 40
0.0
 41
0.0
 42
0.0
 43
0.0
 44
558.8
 45
431.8
 46
0.0
 47
0.0
 48
0.0
 49
0.0
140
0.0
141
0.0
142
1.0
143
1.0
 70
1024
 72
0
 73
0
 74
0
  7

 75
0
147
1.0
148
0.0
149
0.0
100
AcDbLayout
  1
Model
 70
0
 71
0
 10
0.0
 20
0.0
 11
22.0
 21
17.0
 12
0.0
 22
0.0
 32
0.0
 14
0.0
 24
0.0
 34
0.0
 15
0.0
 25
0.0
 35
0.0
146
0.0
 13
0.0
 23
0.0
 33
0.0
 16
1.0
 26
0.0
 36
0.0
 17
0.0
 27
1.0
 37
0.0
 76
0
330
202
345
0
346
0
  0
LAYOUT
  5
26E
102
{ACAD_REACTORS
330
1A
102
}
100
AcDbPlotSettings
  1

  2
none_device
  4
ANSI_C_(22.00_x_17.00_Inches)
  6

 40
0.0
 41
0.0
 42
0.0
 43
0.0
 44
558.8
 45
431.8
 46
0.0
 47
0.0
 48
0.0
 49
0.0
140
0.0
141
0.0
142
1.0
143
1.0
 70
0
 72
0
 73
0
 74
0
  7

 75
0
147
1.0
148
0.0
149
0.0
100
AcDbLayout
  1
Layout1
 70
0
 71
1
 10
0.0
 20
0.0
 11
22.0
 21
17.0
 12
0.0
 22
0.0
 32
0.0
 14
0.0
 24
0.0
 34
0.0
 15
0.0
 25
0.0
 35
0.0
146
0.0
 13
0.0
 23
0.0
 33
0.0
 16
1.0
 26
0.0
 36
0.0
 17
0.0
 27
1.0
 37
0.0
 76
0
330
203
345
0
346
0
  0
ENDSEC
  0
EOF
