999
DXF file: 1500-5203_TOP.dxf
999
Pro/ENGINEER 2018400 by Parametric Technology Corporation
  0
SECTION
  2
HEADER
  9
$ACADVER
  1
AC1027
  9
$DWGCODEPAGE
  3
ANSI_1252
  9
$EXTMAX
 10
11.0
 20
8.5
 30
0.0
  9
$EXTMIN
 10
0.0
 20
0.0
 30
0.0
  9
$LIMMIN
 10
0.0
 20
0.0
  9
$LIMMAX
 10
11.0
 20
8.5
  9
$VIEWCTR
 10
5.5
 20
4.25
  9
$VIEWSIZE
 40
8.5
  9
$CLAYER
  8
0
  9
$LTSCALE
 40
0.605
  9
$CELTYPE
  6
BYLAYER
  9
$DIMSCALE
 40
1.0
  9
$DIMASZ
 40
0.1
  9
$DIMEXO
 40
0.0625
  9
$DIMDLI
 40
0.418
  9
$DIMEXE
 40
0.125
  9
$DIMCEN
 40
0.099
  9
$DIMLFAC
 40
1.0
  9
$DIMBLK
  1
_FILLED
  9
$DIMALT
 70
1
  9
$DIMALTD
 70
2
  9
$DIMALTTD
 70
2
  9
$DIMALTF
 40
25.4
  9
$DIMTXT
 40
0.08
  9
$DIMTOL
 70
1
  9
$DIMLIM
 70
0
  9
$DIMTFAC
 40
1.0
  9
$DIMTP
 40
0.001
  9
$DIMTM
 40
0.001
  9
$DIMGAP
 40
0.09
  9
$DIMDSEP
 70
46
  9
$AUNITS
 70
0
  9
$PDMODE
 70
3
  9
$PDSIZE
 40
0.3125
  9
$HANDSEED
  5
2C6
  9
$TILEMODE
 70
1
  9
$MEASUREMENT
 70
0
  9
$INSUNITS
 70
1
  0
ENDSEC
  0
SECTION
  2
CLASSES
  0
CLASS
  1
ACDBDICTIONARYWDFLT
  2
AcDbDictionaryWithDefault
  3
AutoCAD 2000
 90
0
 91
1
280
0
281
0
  0
CLASS
  1
ACDBPLACEHOLDER
  2
AcDbPlaceHolder
  3
AutoCAD 2000
 90
0
 91
1
280
0
281
0
  0
CLASS
  1
LAYOUT
  2
AcDbLayout
  3
AutoCAD 2000
 90
0
 91
0
280
0
281
0
  0
ENDSEC
  0
SECTION
  2
TABLES
  0
TABLE
  2
VPORT
  5
8
100
AcDbSymbolTable
 70
2
  0
VPORT
  5
1F4
100
AcDbSymbolTableRecord
100
AcDbViewportTableRecord
  2
*ACTIVE
 70
0
 10
0.0
 20
0.0
 11
1.0
 21
1.0
 12
5.5
 22
4.25
 13
0.0
 23
0.0
 14
1.0
 24
1.0
 15
0.0
 25
0.0
 16
0.0
 26
0.0
 36
1.0
 17
0.0
 27
0.0
 37
0.0
 40
8.5
 41
1.2941176471
 42
50.0
 43
0.0
 44
0.0
 50
0.0
 51
0.0
 71
0
 72
100
 73
1
 74
1
 75
0
 76
0
 77
0
 78
0
  0
ENDTAB
  0
TABLE
  2
LTYPE
  5
5
100
AcDbSymbolTable
 70
6
  0
LTYPE
  5
14
100
AcDbSymbolTableRecord
100
AcDbLinetypeTableRecord
  2
BYBLOCK
 70
0
  3

 72
65
 73
0
 40
0.0
  0
LTYPE
  5
15
100
AcDbSymbolTableRecord
100
AcDbLinetypeTableRecord
  2
BYLAYER
 70
0
  3

 72
65
 73
0
 40
0.0
  0
LTYPE
  5
16
100
AcDbSymbolTableRecord
100
AcDbLinetypeTableRecord
  2
CONTINUOUS
 70
64
  3
Solid line
 72
65
 73
0
 40
0.0
  0
LTYPE
  5
1F5
100
AcDbSymbolTableRecord
100
AcDbLinetypeTableRecord
  2
CENTER
 70
64
  3
____ _ ____ _ ____ _ ____ _ ____ _ ____ _ ____
 72
65
 73
4
 40
0.6
 49
0.375
 74
0
 49
-0.075
 74
0
 49
0.075
 74
0
 49
-0.075
 74
0
  0
LTYPE
  5
1F6
100
AcDbSymbolTableRecord
100
AcDbLinetypeTableRecord
  2
HIDDEN
 70
64
  3
- - - - - - - - - - - - - - - - - - - -
 72
65
 73
2
 40
0.2
 49
0.1
 74
0
 49
-0.1
 74
0
  0
LTYPE
  5
1F7
100
AcDbSymbolTableRecord
100
AcDbLinetypeTableRecord
  2
PHANTOM
 70
64
  3
_____ _ _ _____ _ _ _____ _ _ _____
 72
65
 73
6
 40
0.8
 49
0.45
 74
0
 49
-0.05
 74
0
 49
0.1
 74
0
 49
-0.05
 74
0
 49
0.1
 74
0
 49
-0.05
 74
0
  0
LTYPE
  5
1F8
100
AcDbSymbolTableRecord
100
AcDbLinetypeTableRecord
  2
DOT
 70
64
  3
. . . . . . . . . . . . . . . . . . . .
 72
65
 73
2
 40
0.2
 49
0.1
 74
0
 49
-0.1
 74
0
  0
LTYPE
  5
1F9
100
AcDbSymbolTableRecord
100
AcDbLinetypeTableRecord
  2
DASHED
 70
64
  3
- - - - - - - - - - - - - - - - - - - -
 72
65
 73
2
 40
0.2
 49
0.1
 74
0
 49
-0.1
 74
0
  0
ENDTAB
  0
TABLE
  2
LAYER
  5
2
100
AcDbSymbolTable
 70
36
  0
LAYER
  5
10
100
AcDbSymbolTableRecord
100
AcDbLayerTableRecord
  2
0
 70
0
 62
7
  6
CONTINUOUS
370
-3
390
F
  0
LAYER
  5
1FA
100
AcDbSymbolTableRecord
100
AcDbLayerTableRecord
  2
DEFAULT_1
 70
0
 62
7
  6
CENTER
370
-3
390
F
  0
LAYER
  5
1FB
100
AcDbSymbolTableRecord
100
AcDbLayerTableRecord
  2
DEFAULT_2
 70
0
 62
8
  6
HIDDEN
370
-3
390
F
  0
LAYER
  5
1FC
100
AcDbSymbolTableRecord
100
AcDbLayerTableRecord
  2
DEFAULT_3
 70
0
 62
7
  6
PHANTOM
370
-3
390
F
  0
LAYER
  5
1FD
100
AcDbSymbolTableRecord
100
AcDbLayerTableRecord
  2
DEFAULT_COORDINATE_SYSTEM
 70
0
 62
7
  6
CONTINUOUS
370
-3
390
F
  0
LAYER
  5
1FE
100
AcDbSymbolTableRecord
100
AcDbLayerTableRecord
  2
DEFAULT_DATUM_AXES
 70
0
 62
7
  6
CONTINUOUS
370
-3
390
F
  0
LAYER
  5
1FF
100
AcDbSymbolTableRecord
100
AcDbLayerTableRecord
  2
DEFAULT_DATUM_PLANES
 70
0
 62
7
  6
CONTINUOUS
370
-3
390
F
  0
ENDTAB
  0
TABLE
  2
STYLE
  5
3
100
AcDbSymbolTable
 70
1
  0
STYLE
  5
11
100
AcDbSymbolTableRecord
100
AcDbTextStyleTableRecord
  2
STANDARD
 70
0
 40
0.0
 41
0.8
 50
0.0
 71
0
 42
0.2
  3
txt
  4

  0
STYLE
  5
200
100
AcDbSymbolTableRecord
100
AcDbTextStyleTableRecord
  2
TEXTSTYLE_1
 70
0
 40
0.0
 41
0.8
 50
0.0
 71
0
 42
0.2
  3
gdt
  4

  0
ENDTAB
  0
TABLE
  2
VIEW
  5
6
100
AcDbSymbolTable
 70
0
  0
ENDTAB
  0
TABLE
  2
UCS
  5
7
100
AcDbSymbolTable
 70
0
  0
ENDTAB
  0
TABLE
  2
APPID
  5
9
100
AcDbSymbolTable
 70
1
  0
APPID
  5
201
100
AcDbSymbolTableRecord
100
AcDbRegAppTableRecord
  2
ACAD
 70
0
  0
ENDTAB
  0
TABLE
  2
BLOCK_RECORD
  5
1
100
AcDbSymbolTable
 70
0
  0
BLOCK_RECORD
  5
202
100
AcDbSymbolTableRecord
100
AcDbBlockTableRecord
  2
*Model_Space
  0
BLOCK_RECORD
  5
203
100
AcDbSymbolTableRecord
100
AcDbBlockTableRecord
  2
*Paper_Space
  0
BLOCK_RECORD
  5
204
100
AcDbSymbolTableRecord
100
AcDbBlockTableRecord
  2
_FILLED
  0
ENDTAB
  0
TABLE
  2
DIMSTYLE
  5
A
100
AcDbSymbolTable
 70
1
100
AcDbDimStyleTable
 71
0
  0
DIMSTYLE
105
205
100
AcDbSymbolTableRecord
100
AcDbDimStyleTableRecord
  2
STANDARD
 70
0
  3

  4

 40
1.0
 41
0.1
 42
0.0625
 43
0.38
 44
0.125
 45
0.0
 46
0.0
 47
0.001
 48
0.001
140
0.08
141
0.09
142
0.0
143
25.4
144
1.0
145
0.0
146
1.0
147
0.09
 71
1.0
 72
0.0
 73
1
 74
1
 75
0
 76
0
 77
0
 78
4
 79
1
170
1
171
2
172
0
173
0
174
0
175
0
176
0
177
0
178
0
270
2
179
3
271
3
272
3
273
2
274
2
275
0
280
0
281
0
282
0
283
1
284
4
285
0
286
0
287
3
288
0
340
11
278
46
341
204
342
204
343
204
344
204
  0
ENDTAB
  0
ENDSEC
  0
SECTION
  2
BLOCKS
  0
BLOCK
  5
20
100
AcDbEntity
  8
0
100
AcDbBlockBegin
  2
*Model_Space
 70
0
 10
0.0
 20
0.0
 30
0.0
  3
*Model_Space
  1

  0
ENDBLK
  5
21
100
AcDbEntity
  8
0
100
AcDbBlockEnd
  0
BLOCK
  5
1C
100
AcDbEntity
  8
0
100
AcDbBlockBegin
  2
*Paper_Space
 70
0
 10
0.0
 20
0.0
 30
0.0
  3
*Paper_Space
  1

  0
ENDBLK
  5
1D
100
AcDbEntity
  8
0
100
AcDbBlockEnd
  0
BLOCK
  5
206
100
AcDbEntity
  8
0
100
AcDbBlockBegin
  2
_FILLED
 70
64
 10
0.0
 20
0.0
  3
_FILLED
  1

  0
SOLID
  5
207
100
AcDbEntity
  8
0
  6
BYBLOCK
 62
0
100
AcDbTrace
 10
0.0
 20
0.0
 11
-1.0
 21
0.2
 12
-1.0
 22
-0.2
 13
-1.0
 23
-0.2
  0
ENDBLK
  5
208
100
AcDbEntity
  8
0
  6
BYBLOCK
 62
0
100
AcDbBlockEnd
  0
ENDSEC
  0
SECTION
  2
ENTITIES
  0
MTEXT
  5
209
100
AcDbEntity
  8
0
100
AcDbMText
 62
2
  6
CONTINUOUS
  7
STANDARD
 71
3
 72
1
 10
5.0964673913
 20
1.6596836144
 30
0.0
 11
1.0
 21
0.0
 31
0.0
 73
2
 44
0.9
  1
SCALE  .500
 40
0.08
 41
0.704
  0
LINE
  5
20A
100
AcDbEntity
  8
0
100
AcDbLine
 62
7
  6
CONTINUOUS
 10
0.0
 20
0.0
 11
0.0
 21
8.5
  0
LINE
  5
20B
100
AcDbEntity
  8
0
100
AcDbLine
 62
7
  6
CONTINUOUS
 10
0.0
 20
0.0
 11
11.0
 21
0.0
  0
LINE
  5
20C
100
AcDbEntity
  8
0
100
AcDbLine
 62
7
  6
CONTINUOUS
 10
0.0
 20
8.5
 11
11.0
 21
8.5
  0
LINE
  5
20D
100
AcDbEntity
  8
0
100
AcDbLine
 62
7
  6
CONTINUOUS
 10
11.0
 20
0.0
 11
11.0
 21
8.5
  0
LWPOLYLINE
  5
20E
100
AcDbEntity
  8
0
100
AcDbPolyline
 62
7
  6
CONTINUOUS
 90
41
 70
0
 10
4.6346308072
 20
2.0429039669
 10
4.6352674381
 20
2.0429107467
 10
4.6365264685
 20
2.0429643979
 10
4.6377638671
 20
2.0430694748
 10
4.6389775294
 20
2.04322348
 10
4.64017001
 20
2.0434247053
 10
4.6413382311
 20
2.0436707963
 10
4.6424786793
 20
2.0439589705
 10
4.6435938259
 20
2.0442879295
 10
4.6446815848
 20
2.044655324
 10
4.6457391426
 20
2.0450583012
 10
4.6467682038
 20
2.0454956626
 10
4.6477671913
 20
2.0459650069
 10
4.6487342122
 20
2.0464635721
 10
4.6496706777
 20
2.0469902535
 10
4.6505754935
 20
2.0475426825
 10
4.6514475012
 20
2.0481182763
 10
4.6522881047
 20
2.0487161275
 10
4.6530967384
 20
2.0493340716
 10
4.6538727101
 20
2.0499697096
 10
4.6546172688
 20
2.0506222143
 10
4.6553304304
 20
2.0512898171
 10
4.6560117297
 20
2.0519702014
 10
4.6566617712
 20
2.0526620228
 10
4.6572808382
 20
2.0533636184
 10
4.6578689962
 20
2.0540730075
 10
4.6584267008
 20
2.054788586
 10
4.658954561
 20
2.0555089198
 10
4.6594530561
 20
2.0562323622
 10
4.6599227019
 20
2.0569572363
 10
4.6603647576
 20
2.0576830194
 10
4.6607796782
 20
2.0584079204
 10
4.6611672284
 20
2.0591286438
 10
4.6615292481
 20
2.0598455573
 10
4.6618664105
 20
2.060556895
 10
4.6621775616
 20
2.0612564429
 10
4.6624642269
 20
2.061943235
 10
4.6627284872
 20
2.062617891
 10
4.6629707599
 20
2.0632768845
 10
4.663192544
 20
2.0639193263
 10
4.6633286676
 20
2.0643346652
  0
LINE
  5
20F
100
AcDbEntity
  8
0
100
AcDbLine
 62
7
  6
CONTINUOUS
 10
4.4971581418
 20
2.0429039346
 11
4.6346307519
 21
2.0429039346
  0
LINE
  5
210
100
AcDbEntity
  8
0
100
AcDbLine
 62
7
  6
CONTINUOUS
 10
4.496574302
 20
2.0452269355
 11
4.6352146783
 21
2.0452272916
  0
LINE
  5
211
100
AcDbEntity
  8
0
100
AcDbLine
 62
7
  6
CONTINUOUS
 10
4.6352518381
 20
2.190589305
 11
4.5682704141
 21
2.1905894932
  0
LINE
  5
212
100
AcDbEntity
  8
0
100
AcDbLine
 62
7
  6
CONTINUOUS
 10
4.5635184057
 20
2.1905893588
 11
4.4965368819
 21
2.1905889569
  0
LINE
  5
213
100
AcDbEntity
  8
0
100
AcDbLine
 62
7
  6
CONTINUOUS
 10
4.6334314891
 20
2.2440504057
 11
4.4983573406
 21
2.244050965
  0
LINE
  5
214
100
AcDbEntity
  8
0
100
AcDbLine
 62
7
  6
CONTINUOUS
 10
4.5399980868
 20
2.0594950792
 11
4.5379057983
 21
2.0613847183
  0
LWPOLYLINE
  5
215
100
AcDbEntity
  8
0
100
AcDbPolyline
 62
7
  6
CONTINUOUS
 90
41
 70
0
 10
4.4684601312
 20
2.064334728
 10
4.4685951638
 20
2.0639226491
 10
4.4688163225
 20
2.0632817636
 10
4.4690579021
 20
2.0626243012
 10
4.4693213931
 20
2.0619511573
 10
4.4696072043
 20
2.0612658642
 10
4.4699174051
 20
2.0605678104
 10
4.4702535187
 20
2.0598579482
 10
4.4706144019
 20
2.059142462
 10
4.4710007268
 20
2.0584231121
 10
4.4714143317
 20
2.0576995243
 10
4.4718549999
 20
2.0569749608
 10
4.4723232015
 20
2.0562511902
 10
4.4728201897
 20
2.0555287457
 10
4.4733464704
 20
2.054809319
 10
4.4739025322
 20
2.0540945444
 10
4.4744889853
 20
2.0533858548
 10
4.4751062588
 20
2.0526848828
 10
4.4757544124
 20
2.0519936101
 10
4.4764337422
 20
2.0513136794
 10
4.477144852
 20
2.0506464304
 10
4.477887288
 20
2.0499941657
 10
4.4786610681
 20
2.0493586492
 10
4.4794674253
 20
2.0487407129
 10
4.4803056779
 20
2.0481427434
 10
4.4811752673
 20
2.0475668959
 10
4.4820775754
 20
2.047014082
 10
4.4830114568
 20
2.0464868702
 10
4.4839758276
 20
2.0459876179
 10
4.4849720725
 20
2.0455174303
 10
4.4859983141
 20
2.0450790548
 10
4.4870529923
 20
2.0446748781
 10
4.4881377901
 20
2.0443060909
 10
4.4892499238
 20
2.0439755291
 10
4.4903873239
 20
2.0436855303
 10
4.491552426
 20
2.0434373814
 10
4.4927417547
 20
2.0432338485
 10
4.4939522589
 20
2.0430772741
 10
4.495186451
 20
2.0429693474
 10
4.496442245
 20
2.0429125463
 10
4.4971580843
 20
2.0429039698
  0
LINE
  5
216
100
AcDbEntity
  8
0
100
AcDbLine
 62
7
  6
CONTINUOUS
 10
4.4684600172
 20
2.0643350366
 11
4.4684593411
 21
2.0643371428
  0
LINE
  5
217
100
AcDbEntity
  8
0
100
AcDbLine
 62
7
  6
CONTINUOUS
 10
4.6689461411
 20
2.2943931991
 11
4.6693746351
 21
2.2930078006
  0
LINE
  5
218
100
AcDbEntity
  8
0
100
AcDbLine
 62
7
  6
CONTINUOUS
 10
4.1908944099
 20
2.6882805965
 11
4.1908944099
 21
2.4927003559
  0
LINE
  5
219
100
AcDbEntity
  8
0
100
AcDbLine
 62
7
  6
CONTINUOUS
 10
4.2810218869
 20
6.2246541234
 11
4.2810218783
 21
2.6962217896
  0
LINE
  5
21A
100
AcDbEntity
  8
0
100
AcDbLine
 62
7
  6
CONTINUOUS
 10
4.4543827631
 20
2.2561621772
 11
4.4554124207
 21
2.1437440817
  0
LINE
  5
21B
100
AcDbEntity
  8
0
100
AcDbLine
 62
7
  6
CONTINUOUS
 10
4.4557186848
 20
2.2825090709
 11
4.4558910619
 21
2.2627842572
  0
LINE
  5
21C
100
AcDbEntity
  8
0
100
AcDbLine
 62
7
  6
CONTINUOUS
 10
4.4557591516
 20
2.2777563589
 11
4.4558241779
 21
2.2702804198
  0
LINE
  5
21D
100
AcDbEntity
  8
0
100
AcDbLine
 62
7
  6
CONTINUOUS
 10
4.4436388868
 20
2.2578046065
 11
4.4436388868
 21
2.2566471396
  0
LINE
  5
21E
100
AcDbEntity
  8
0
100
AcDbLine
 62
7
  6
CONTINUOUS
 10
4.6329575347
 20
2.2902860034
 11
4.6334314891
 21
2.2440504057
  0
LINE
  5
21F
100
AcDbEntity
  8
0
100
AcDbLine
 62
7
  6
CONTINUOUS
 10
4.5658944099
 20
2.0534633974
 11
4.56589441
 21
2.0531846759
  0
LINE
  5
220
100
AcDbEntity
  8
0
100
AcDbLine
 62
7
  6
CONTINUOUS
 10
4.5658944099
 20
2.1906563585
 11
4.5658944099
 21
2.1818254984
  0
LINE
  5
221
100
AcDbEntity
  8
0
100
AcDbLine
 62
7
  6
CONTINUOUS
 10
4.5658944099
 20
2.1519449127
 11
4.5658944099
 21
2.1607750873
  0
LINE
  5
222
100
AcDbEntity
  8
0
100
AcDbLine
 62
7
  6
CONTINUOUS
 10
4.5658944099
 20
2.0704318294
 11
4.5658944099
 21
2.0675160611
  0
LINE
  5
223
100
AcDbEntity
  8
0
100
AcDbLine
 62
7
  6
CONTINUOUS
 10
4.4983573406
 20
2.244050965
 11
4.4988329282
 21
2.2902857218
  0
LINE
  5
224
100
AcDbEntity
  8
0
100
AcDbLine
 62
7
  6
CONTINUOUS
 10
4.6881499331
 20
2.2578046065
 11
4.6881499331
 21
2.2566471396
  0
LINE
  5
225
100
AcDbEntity
  8
0
100
AcDbLine
 62
7
  6
CONTINUOUS
 10
4.675897758
 20
2.2627842568
 11
4.6760701351
 21
2.282509071
  0
LINE
  5
226
100
AcDbEntity
  8
0
100
AcDbLine
 62
7
  6
CONTINUOUS
 10
4.6774060568
 20
2.2561621772
 11
4.6763763992
 21
2.1437440817
  0
LINE
  5
227
100
AcDbEntity
  8
0
100
AcDbLine
 62
7
  6
CONTINUOUS
 10
4.8507669416
 20
2.6962217896
 11
4.8507669102
 21
6.2247181365
  0
LINE
  5
228
100
AcDbEntity
  8
0
100
AcDbLine
 62
7
  6
CONTINUOUS
 10
4.9408944099
 20
2.6882805965
 11
4.9408944099
 21
2.4927003559
  0
LINE
  5
229
100
AcDbEntity
  8
0
100
AcDbLine
 62
7
  6
CONTINUOUS
 10
4.4624362829
 20
2.2930073426
 11
4.4628636575
 21
2.2943927527
  0
LINE
  5
22A
100
AcDbEntity
  8
0
100
AcDbLine
 62
7
  6
CONTINUOUS
 10
5.5133944099
 20
6.6745831934
 11
5.5133944099
 21
5.7745831934
  0
LINE
  5
22B
100
AcDbEntity
  8
0
100
AcDbLine
 62
7
  6
CONTINUOUS
 10
5.5283944099
 20
5.7845831934
 11
5.5283944099
 21
6.6645831934
  0
LINE
  5
22C
100
AcDbEntity
  8
0
100
AcDbLine
 62
7
  6
CONTINUOUS
 10
4.6633287823
 20
2.0643349732
 11
4.6633294788
 21
2.0643371428
  0
LINE
  5
22D
100
AcDbEntity
  8
0
100
AcDbLine
 62
7
  6
CONTINUOUS
 10
5.5383944099
 20
5.7745831934
 11
5.5383944099
 21
6.6745831934
  0
LINE
  5
22E
100
AcDbEntity
  8
0
100
AcDbLine
 62
7
  6
CONTINUOUS
 10
6.0783944099
 20
5.7745831934
 11
6.0783944099
 21
6.0420635915
  0
LINE
  5
22F
100
AcDbEntity
  8
0
100
AcDbLine
 62
7
  6
CONTINUOUS
 10
6.0783944099
 20
6.4071101455
 11
6.0783944099
 21
6.6745831934
  0
LINE
  5
230
100
AcDbEntity
  8
0
100
AcDbLine
 62
7
  6
CONTINUOUS
 10
6.0883944099
 20
6.664582999
 11
6.0883944099
 21
6.4030532539
  0
LINE
  5
231
100
AcDbEntity
  8
0
100
AcDbLine
 62
7
  6
CONTINUOUS
 10
6.0883944099
 20
6.0461131329
 11
6.0883944099
 21
5.7845833879
  0
LINE
  5
232
100
AcDbEntity
  8
0
100
AcDbLine
 62
7
  6
CONTINUOUS
 10
4.5917907331
 20
2.0594950792
 11
4.5938830215
 21
2.0613847183
  0
LINE
  5
233
100
AcDbEntity
  8
0
100
AcDbLine
 62
7
  6
CONTINUOUS
 10
5.5133944099
 20
5.7745831934
 11
4.8507669416
 21
5.7745831934
  0
LINE
  5
234
100
AcDbEntity
  8
0
100
AcDbLine
 62
7
  6
CONTINUOUS
 10
5.5383944099
 20
5.7745831934
 11
6.0783944099
 21
5.7745831934
  0
LINE
  5
235
100
AcDbEntity
  8
0
100
AcDbLine
 62
7
  6
CONTINUOUS
 10
6.0538353077
 20
6.0910831934
 11
5.985190391
 21
6.0910831934
  0
LINE
  5
236
100
AcDbEntity
  8
0
100
AcDbLine
 62
7
  6
CONTINUOUS
 10
5.9730822123
 20
6.1013930819
 11
6.0168136683
 21
6.1013932945
  0
LINE
  5
237
100
AcDbEntity
  8
0
100
AcDbLine
 62
7
  6
CONTINUOUS
 10
5.9730822404
 20
6.3477733414
 11
6.0168147861
 21
6.3477733931
  0
LINE
  5
238
100
AcDbEntity
  8
0
100
AcDbLine
 62
7
  6
CONTINUOUS
 10
5.9851904289
 20
6.3580831934
 11
6.0538353077
 21
6.3580831934
  0
LWPOLYLINE
  5
239
100
AcDbEntity
  8
0
100
AcDbPolyline
 62
7
  6
CONTINUOUS
 90
3
 70
0
 10
4.7130651667
 20
6.676280073
 10
4.7117776655
 20
6.6766431525
 10
4.7107445742
 20
6.6769616674
  0
LINE
  5
23A
100
AcDbEntity
  8
0
100
AcDbLine
 62
7
  6
CONTINUOUS
 10
5.5383944099
 20
6.6745831934
 11
6.0783944099
 21
6.6745831934
  0
LWPOLYLINE
  5
23B
100
AcDbEntity
  8
0
100
AcDbPolyline
 62
7
  6
CONTINUOUS
 90
11
 70
0
 10
5.5133944099
 20
6.6745831934
 10
4.7256125887
 20
6.6745828945
 10
4.7241428755
 20
6.6746154049
 10
4.7226895237
 20
6.6746901586
 10
4.7212535976
 20
6.6748058108
 10
4.7198362894
 20
6.6749609856
 10
4.7184389179
 20
6.6751542515
 10
4.7170628146
 20
6.6753841157
 10
4.7157084543
 20
6.6756491988
 10
4.7143757562
 20
6.6759482791
 10
4.7130651667
 20
6.676280073
  0
ARC
  5
23C
100
AcDbEntity
  8
0
100
AcDbCircle
 62
7
  6
CONTINUOUS
 10
4.5658944099
 20
2.6636173119
 40
0.3792993769
100
AcDbArc
 50
260.1365317305
 51
279.8634682695
  0
ARC
  5
23D
100
AcDbEntity
  8
0
100
AcDbCircle
 62
7
  6
CONTINUOUS
 10
4.5725800672
 20
2.6941929494
 40
0.3283195164
100
AcDbArc
 50
0.024097019
 51
32.0783543639
  0
ARC
  5
23E
100
AcDbEntity
  8
0
100
AcDbCircle
 62
7
  6
CONTINUOUS
 10
4.559208752
 20
2.6941929491
 40
0.3283195164
100
AcDbArc
 50
147.9216455322
 51
179.9759029317
  0
ARC
  5
23F
100
AcDbEntity
  8
0
100
AcDbCircle
 62
7
  6
CONTINUOUS
 10
4.5671296886
 20
2.170650077
 40
0.1172083674
100
AcDbArc
 50
269.0739704814
 51
269.6584427424
  0
ARC
  5
240
100
AcDbEntity
  8
0
100
AcDbCircle
 62
7
  6
CONTINUOUS
 10
4.5656449439
 20
2.1131654122
 40
0.0597267924
100
AcDbArc
 50
270.7540631544
 51
271.5434860481
  0
ARC
  5
241
100
AcDbEntity
  8
0
100
AcDbCircle
 62
7
  6
CONTINUOUS
 10
4.5658902255
 20
2.1482595506
 40
0.0423968081
100
AcDbArc
 50
86.78167978
 51
89.9943450291
  0
ARC
  5
242
100
AcDbEntity
  8
0
100
AcDbCircle
 62
7
  6
CONTINUOUS
 10
4.5658954456
 20
2.1483714418
 40
0.0422849167
100
AcDbArc
 50
90.0014032861
 51
93.2225719047
  0
ARC
  5
243
100
AcDbEntity
  8
0
100
AcDbCircle
 62
7
  6
CONTINUOUS
 10
4.5310958479
 20
2.2010716352
 40
0.0236220472
100
AcDbArc
 50
240.9990512651
 51
299.0009487349
  0
ARC
  5
244
100
AcDbEntity
  8
0
100
AcDbCircle
 62
7
  6
CONTINUOUS
 10
4.5166818115
 20
2.1905072528
 40
0.0236220472
100
AcDbArc
 50
240.9990512651
 51
299.0009487349
  0
ARC
  5
245
100
AcDbEntity
  8
0
100
AcDbCircle
 62
7
  6
CONTINUOUS
 10
4.5310958479
 20
2.1799428704
 40
0.0236220472
100
AcDbArc
 50
240.9990512651
 51
299.0009487349
  0
ARC
  5
246
100
AcDbEntity
  8
0
100
AcDbCircle
 62
7
  6
CONTINUOUS
 10
4.5658944099
 20
2.17556696
 40
0.0236220472
100
AcDbArc
 50
240.9990512651
 51
299.0009487349
  0
ARC
  5
247
100
AcDbEntity
  8
0
100
AcDbCircle
 62
7
  6
CONTINUOUS
 10
4.600692972
 20
2.1799428704
 40
0.0236220472
100
AcDbArc
 50
240.9990512651
 51
299.0009487349
  0
ARC
  5
248
100
AcDbEntity
  8
0
100
AcDbCircle
 62
7
  6
CONTINUOUS
 10
4.6151070084
 20
2.1905072528
 40
0.0236220472
100
AcDbArc
 50
240.9990512651
 51
299.0009487349
  0
ARC
  5
249
100
AcDbEntity
  8
0
100
AcDbCircle
 62
7
  6
CONTINUOUS
 10
4.600692972
 20
2.2010716352
 40
0.0236220472
100
AcDbArc
 50
240.9990512651
 51
299.0009487349
  0
ARC
  5
24A
100
AcDbEntity
  8
0
100
AcDbCircle
 62
7
  6
CONTINUOUS
 10
4.5658944099
 20
2.2054475456
 40
0.0236220472
100
AcDbArc
 50
240.9990579638
 51
299.0009452642
  0
ARC
  5
24B
100
AcDbEntity
  8
0
100
AcDbCircle
 62
7
  6
CONTINUOUS
 10
4.5658944099
 20
6.2245831934
 40
0.475
100
AcDbArc
 50
306.8492800631
 51
233.145475609
  0
ARC
  5
24C
100
AcDbEntity
  8
0
100
AcDbCircle
 62
7
  6
CONTINUOUS
 10
4.5658944099
 20
6.2245831934
 40
0.46
100
AcDbArc
 50
308.2669240778
 51
231.7330759267
  0
ARC
  5
24D
100
AcDbEntity
  8
0
100
AcDbCircle
 62
7
  6
CONTINUOUS
 10
4.5606123362
 20
6.2245834907
 40
0.2901546053
100
AcDbArc
 50
0.0265904377
 51
2.0765484255
  0
ARC
  5
24E
100
AcDbEntity
  8
0
100
AcDbCircle
 62
7
  6
CONTINUOUS
 10
4.5659391405
 20
6.2311689897
 40
0.2784142072
100
AcDbArc
 50
90.0092052587
 51
93.8904580845
  0
ARC
  5
24F
100
AcDbEntity
  8
0
100
AcDbCircle
 62
7
  6
CONTINUOUS
 10
4.5658507216
 20
6.2312048702
 40
0.2783783266
100
AcDbArc
 50
86.1563134329
 51
89.9910080832
  0
ARC
  5
250
100
AcDbEntity
  8
0
100
AcDbCircle
 62
7
  6
CONTINUOUS
 10
5.5133944099
 20
5.7895831934
 40
0.015
100
AcDbArc
 50
270.0
 51
357.2727272727
  0
ARC
  5
251
100
AcDbEntity
  8
0
100
AcDbCircle
 62
7
  6
CONTINUOUS
 10
5.5383944099
 20
5.7845831934
 40
0.01
100
AcDbArc
 50
180.0
 51
270.0
  0
ARC
  5
252
100
AcDbEntity
  8
0
100
AcDbCircle
 62
7
  6
CONTINUOUS
 10
5.5133944099
 20
6.6595831934
 40
0.015
100
AcDbArc
 50
2.7272727273
 51
90.0
  0
ARC
  5
253
100
AcDbEntity
  8
0
100
AcDbCircle
 62
7
  6
CONTINUOUS
 10
5.5383944099
 20
6.6645831934
 40
0.01
100
AcDbArc
 50
90.0
 51
180.0
  0
ARC
  5
254
100
AcDbEntity
  8
0
100
AcDbCircle
 62
7
  6
CONTINUOUS
 10
6.0538353077
 20
6.0610831934
 40
0.03
100
AcDbArc
 50
74.1048938384
 51
90.0
  0
ARC
  5
255
100
AcDbEntity
  8
0
100
AcDbCircle
 62
7
  6
CONTINUOUS
 10
6.0783944099
 20
6.0461131329
 40
0.01
100
AcDbArc
 50
0.0
 51
86.7929673581
  0
ARC
  5
256
100
AcDbEntity
  8
0
100
AcDbCircle
 62
7
  6
CONTINUOUS
 10
6.0783944099
 20
5.7845831934
 40
0.01
100
AcDbArc
 50
270.0
 51
360.0
  0
ARC
  5
257
100
AcDbEntity
  8
0
100
AcDbCircle
 62
7
  6
CONTINUOUS
 10
6.0883944099
 20
6.2245831934
 40
0.16875
100
AcDbArc
 50
93.2070320259
 51
266.7929679615
  0
CIRCLE
  5
258
100
AcDbEntity
  8
0
100
AcDbCircle
 62
7
  6
CONTINUOUS
 10
6.1003944099
 20
6.2245831934
 40
0.14
  0
CIRCLE
  5
259
100
AcDbEntity
  8
0
100
AcDbCircle
 62
7
  6
CONTINUOUS
 10
6.1003944099
 20
6.2245831934
 40
0.13
  0
ARC
  5
25A
100
AcDbEntity
  8
0
100
AcDbCircle
 62
7
  6
CONTINUOUS
 10
6.0538353077
 20
6.3880831934
 40
0.03
100
AcDbArc
 50
270.0
 51
285.8951061616
  0
ARC
  5
25B
100
AcDbEntity
  8
0
100
AcDbCircle
 62
7
  6
CONTINUOUS
 10
6.0783944099
 20
6.4030532539
 40
0.01
100
AcDbArc
 50
273.2070326419
 51
360.0
  0
ARC
  5
25C
100
AcDbEntity
  8
0
100
AcDbCircle
 62
7
  6
CONTINUOUS
 10
6.0783944099
 20
6.6645831934
 40
0.01
100
AcDbArc
 50
0.0
 51
90.0
  0
SPLINE
  5
25D
100
AcDbEntity
  8
0
100
AcDbSpline
 62
7
  6
CONTINUOUS
 70
0
 71
3
 72
18
 73
14
 74
0
 42
0.0000001
 43
0.0000001
 44
0.0000000001
 40
0.0
 40
0.0
 40
0.0
 40
0.0
 40
0.1473214962
 40
0.2200612337
 40
0.2917099352
 40
0.4304391121
 40
0.5612755431
 40
0.6827847943
 40
0.7947873066
 40
0.8477098471
 40
0.899103558
 40
0.9495855195
 40
1.0
 40
1.0
 40
1.0
 40
1.0
 10
4.56589441
 20
2.0531846759
 30
0.0
 10
4.564562033
 20
2.0531846759
 30
0.0
 10
4.5625713229
 20
2.0532328223
 30
0.0
 10
4.5599378835
 20
2.053395191
 30
0.0
 10
4.557386868
 20
2.0536183452
 30
0.0
 10
4.5543239634
 20
2.0540082977
 30
0.0
 10
4.5508456512
 20
2.0546626979
 30
0.0
 10
4.5476549375
 20
2.0554975829
 30
0.0
 10
4.5452106622
 20
2.0563705856
 30
0.0
 10
4.5434321133
 20
2.0571884934
 30
0.0
 10
4.5422023011
 20
2.0578602299
 30
0.0
 10
4.5410488819
 20
2.05861595
 30
0.0
 10
4.5403364747
 20
2.0591894675
 30
0.0
 10
4.5399980993
 20
2.0594950679
 30
0.0
  0
SPLINE
  5
25E
100
AcDbEntity
  8
0
100
AcDbSpline
 62
7
  6
CONTINUOUS
 70
0
 71
3
 72
18
 73
14
 74
0
 42
0.0000001
 43
0.0000001
 44
0.0000000001
 40
0.0
 40
0.0
 40
0.0
 40
0.0
 40
0.0504145169
 40
0.1008959919
 40
0.1522895268
 40
0.2052124724
 40
0.3172153548
 40
0.4387248991
 40
0.5695614504
 40
0.7082905762
 40
0.7799392242
 40
0.8526788216
 40
1.0
 40
1.0
 40
1.0
 40
1.0
 10
4.5917907206
 20
2.0594950679
 30
0.0
 10
4.591452345
 20
2.0591894673
 30
0.0
 10
4.5907399379
 20
2.0586159566
 30
0.0
 10
4.5895865289
 20
2.057860231
 30
0.0
 10
4.5883567129
 20
2.0571885063
 30
0.0
 10
4.586578168
 20
2.0563705774
 30
0.0
 10
4.584133877
 20
2.0554975869
 30
0.0
 10
4.5809431591
 20
2.0546626937
 30
0.0
 10
4.5774648426
 20
2.0540082963
 30
0.0
 10
4.574401938
 20
2.0536183436
 30
0.0
 10
4.5718509247
 20
2.0533951902
 30
0.0
 10
4.56921749
 20
2.0532328221
 30
0.0
 10
4.567226784
 20
2.0531846759
 30
0.0
 10
4.56589441
 20
2.0531846759
 30
0.0
  0
SPLINE
  5
25F
100
AcDbEntity
  8
0
100
AcDbSpline
 62
7
  6
CONTINUOUS
 70
0
 71
3
 72
30
 73
26
 74
0
 42
0.0000001
 43
0.0000001
 44
0.0000000001
 40
0.0
 40
0.0
 40
0.0
 40
0.0
 40
0.0628166419
 40
0.1256528632
 40
0.1884927997
 40
0.2513000833
 40
0.3140358683
 40
0.345377978
 40
0.3766959331
 40
0.4079923001
 40
0.4392725692
 40
0.470541786
 40
0.5018023137
 40
0.5642777047
 40
0.6267016908
 40
0.6890493466
 40
0.7201981942
 40
0.7513239076
 40
0.7824289374
 40
0.7979764834
 40
0.8135211116
 40
0.844603194
 40
0.875684091
 40
0.9378355345
 40
1.0
 40
1.0
 40
1.0
 40
1.0
 10
4.5658944099
 20
2.4145010318
 30
0.0
 10
4.5565792407
 20
2.4145010318
 30
0.0
 10
4.5379333363
 20
2.4154367687
 30
0.0
 10
4.5102457683
 20
2.4195615241
 30
0.0
 10
4.4830805524
 20
2.4263226378
 30
0.0
 10
4.4566993874
 20
2.4356358549
 30
0.0
 10
4.4355679745
 20
2.445462128
 30
0.0
 10
4.4193187922
 20
2.4545159436
 30
0.0
 10
4.4074913031
 20
2.4618918128
 30
0.0
 10
4.3960549671
 20
2.4698444562
 30
0.0
 10
4.3850407611
 20
2.478360259
 30
0.0
 10
4.3744679284
 20
2.4874102612
 30
0.0
 10
4.3609917406
 20
2.5001478376
 30
0.0
 10
4.345344834
 20
2.5172734568
 30
0.0
 10
4.3286589123
 20
2.5395192405
 30
0.0
 10
4.3166180566
 20
2.5593053365
 30
0.0
 10
4.3081938855
 20
2.5757609457
 30
0.0
 10
4.3024987891
 20
2.588389412
 30
0.0
 10
4.298287663
 20
2.5991326636
 30
0.0
 10
4.2952507353
 20
2.6078425935
 30
0.0
 10
4.2924388538
 20
2.6166241449
 30
0.0
 10
4.2893453176
 20
2.6277302829
 30
0.0
 10
4.2852965357
 20
2.6457215163
 30
0.0
 10
4.2819212179
 20
2.6685565562
 30
0.0
 10
4.2810218783
 20
2.6870033325
 30
0.0
 10
4.2810218783
 20
2.6962217896
 30
0.0
  0
SPLINE
  5
260
100
AcDbEntity
  8
0
100
AcDbSpline
 62
7
  6
CONTINUOUS
 70
0
 71
3
 72
31
 73
27
 74
0
 42
0.0000001
 43
0.0000001
 44
0.0000000001
 40
0.0
 40
0.0
 40
0.0
 40
0.0
 40
0.0624564656
 40
0.1249464013
 40
0.1874668358
 40
0.2499932052
 40
0.2812586536
 40
0.3125158486
 40
0.3437637022
 40
0.3750031509
 40
0.4062377216
 40
0.4374736124
 40
0.4687161241
 40
0.4999676896
 40
0.5624780368
 40
0.6250056097
 40
0.6875215292
 40
0.7187769051
 40
0.7500229464
 40
0.7812610574
 40
0.7968795456
 40
0.8124978474
 40
0.8437347242
 40
0.8749789181
 40
0.9374760697
 40
1.0
 40
1.0
 40
1.0
 40
1.0
 10
4.5658944099
 20
6.5095831934
 30
0.0
 10
4.556580446
 20
6.5095831934
 30
0.0
 10
4.5379346545
 20
6.5086366495
 30
0.0
 10
4.5102483308
 20
6.504464152
 30
0.0
 10
4.4830860578
 20
6.4976257247
 30
0.0
 10
4.4610965515
 20
6.489772568
 30
0.0
 10
4.4440297477
 20
6.4822423124
 30
0.0
 10
4.4315203355
 20
6.4759795446
 30
0.0
 10
4.4193365525
 20
6.4691130826
 30
0.0
 10
4.4075103837
 20
6.4616534438
 30
0.0
 10
4.3960749666
 20
6.4536103705
 30
0.0
 10
4.3850616781
 20
6.4449978138
 30
0.0
 10
4.3744895974
 20
6.4358449705
 30
0.0
 10
4.3610103925
 20
6.4229589896
 30
0.0
 10
4.3453605063
 20
6.4056333843
 30
0.0
 10
4.3286756496
 20
6.3831344667
 30
0.0
 10
4.3166379122
 20
6.3631283569
 30
0.0
 10
4.3082144822
 20
6.3464894101
 30
0.0
 10
4.302518165
 20
6.3337171574
 30
0.0
 10
4.2983061857
 20
6.3228525905
 30
0.0
 10
4.2952682787
 20
6.3140441511
 30
0.0
 10
4.292454816
 20
6.3051617088
 30
0.0
 10
4.2893593366
 20
6.2939281395
 30
0.0
 10
4.2853070794
 20
6.2757298251
 30
0.0
 10
4.2819275583
 20
6.2526336448
 30
0.0
 10
4.2810241662
 20
6.2339781583
 30
0.0
 10
4.281021887
 20
6.2246541338
 30
0.0
  0
SPLINE
  5
261
100
AcDbEntity
  8
0
100
AcDbSpline
 62
7
  6
CONTINUOUS
 70
0
 71
3
 72
11
 73
7
 74
0
 42
0.0000001
 43
0.0000001
 44
0.0000000001
 40
0.0
 40
0.0
 40
0.0
 40
0.0
 40
0.2475865071
 40
0.4961563026
 40
0.7466552742
 40
1.0
 40
1.0
 40
1.0
 40
1.0
 10
4.4554124207
 20
2.1437440817
 30
0.0
 10
4.4554734643
 20
2.137079331
 30
0.0
 10
4.4561156994
 20
2.1237223951
 30
0.0
 10
4.4586323235
 20
2.1037614974
 30
0.0
 10
4.4626851862
 20
2.083897335
 30
0.0
 10
4.4663751854
 20
2.0708309292
 30
0.0
 10
4.4684593411
 20
2.0643371428
 30
0.0
  0
SPLINE
  5
262
100
AcDbEntity
  8
0
100
AcDbSpline
 62
7
  6
CONTINUOUS
 70
0
 71
3
 72
11
 73
7
 74
0
 42
0.0000001
 43
0.0000001
 44
0.0000000001
 40
0.0
 40
0.0
 40
0.0
 40
0.0
 40
0.2533447235
 40
0.5038436974
 40
0.7524134922
 40
1.0
 40
1.0
 40
1.0
 40
1.0
 10
4.6633294788
 20
2.0643371428
 30
0.0
 10
4.6654136345
 20
2.0708309291
 30
0.0
 10
4.6691036336
 20
2.0838973349
 30
0.0
 10
4.6731564964
 20
2.1037614973
 30
0.0
 10
4.6756731205
 20
2.1237223951
 30
0.0
 10
4.6763153555
 20
2.137079331
 30
0.0
 10
4.6763763992
 20
2.1437440817
 30
0.0
  0
LINE
  5
263
100
AcDbEntity
  8
0
100
AcDbLine
 62
7
  6
CONTINUOUS
 10
4.6774060559
 20
2.2561621929
 11
4.6773466251
 21
2.2798757828
  0
LINE
  5
264
100
AcDbEntity
  8
0
100
AcDbLine
 62
7
  6
CONTINUOUS
 10
4.6882720474
 20
2.2572675233
 11
4.6881499331
 21
2.2578046065
  0
SPLINE
  5
265
100
AcDbEntity
  8
0
100
AcDbSpline
 62
7
  6
CONTINUOUS
 70
0
 71
3
 72
30
 73
26
 74
0
 42
0.0000001
 43
0.0000001
 44
0.0000000001
 40
0.0
 40
0.0
 40
0.0
 40
0.0
 40
0.062257577
 40
0.0933948018
 40
0.1245346433
 40
0.1868149619
 40
0.2491174344
 40
0.2802854115
 40
0.3114613691
 40
0.3426460126
 40
0.3738399977
 40
0.4362458032
 40
0.4986952227
 40
0.5611910949
 40
0.6237350842
 40
0.6550314833
 40
0.6863399806
 40
0.7176604325
 40
0.7489926349
 40
0.811678802
 40
0.8744076492
 40
0.9057929146
 40
0.9371871859
 40
0.9685897903
 40
1.0
 40
1.0
 40
1.0
 40
1.0
 10
4.1908944099
 20
2.4927003559
 30
0.0
 10
4.1908944099
 20
2.4828659161
 30
0.0
 10
4.1914881129
 20
2.4681039245
 30
0.0
 10
4.1934619735
 20
2.4485274693
 30
0.0
 10
4.1962209841
 20
2.4290414212
 30
0.0
 10
4.2011354254
 20
2.4049102436
 30
0.0
 10
4.2079713787
 20
2.3812466771
 30
0.0
 10
4.2145644974
 20
2.3626890595
 30
0.0
 10
4.2200658691
 20
2.3489729999
 30
0.0
 10
4.2261139301
 20
2.3354845567
 30
0.0
 10
4.2348937704
 20
2.3178316537
 30
0.0
 10
4.2471893552
 20
2.2964340139
 30
0.0
 10
4.2639527612
 20
2.272007347
 30
0.0
 10
4.2826224673
 20
2.2489768041
 30
0.0
 10
4.2996702143
 20
2.2310703224
 30
0.0
 10
4.3141331464
 20
2.2175868118
 30
0.0
 10
4.3253813987
 20
2.2079055229
 30
0.0
 10
4.3370092333
 20
2.1986745427
 30
0.0
 10
4.3529949187
 20
2.1869856669
 30
0.0
 10
4.3738377019
 20
2.1735685071
 30
0.0
 10
4.3956828487
 20
2.1618363909
 30
0.0
 10
4.4136773728
 20
2.1535040496
 30
0.0
 10
4.4274174865
 20
2.1477885777
 30
0.0
 10
4.4413754569
 20
2.1426178902
 30
0.0
 10
4.4508112017
 20
2.1395395464
 30
0.0
 10
4.4555575731
 20
2.1380938043
 30
0.0
  0
SPLINE
  5
266
100
AcDbEntity
  8
0
100
AcDbSpline
 62
7
  6
CONTINUOUS
 70
0
 71
3
 72
30
 73
26
 74
0
 42
0.0000001
 43
0.0000001
 44
0.0000000001
 40
0.0
 40
0.0
 40
0.0
 40
0.0
 40
0.03141021
 40
0.0628128147
 40
0.094207086
 40
0.1255923514
 40
0.1883211981
 40
0.2510073645
 40
0.2823395663
 40
0.3136600178
 40
0.3449685144
 40
0.3762649129
 40
0.4388089011
 40
0.5013047721
 40
0.5637541907
 40
0.6261599955
 40
0.6573539803
 40
0.6885386237
 40
0.7197145814
 40
0.7508825586
 40
0.8131850319
 40
0.8754653518
 40
0.9066051943
 40
0.9377424201
 40
1.0
 40
1.0
 40
1.0
 40
1.0
 10
4.6762310607
 20
2.1380937475
 30
0.0
 10
4.6809774348
 20
2.1395394879
 30
0.0
 10
4.690413185
 20
2.1426178283
 30
0.0
 10
4.7043711638
 20
2.147788511
 30
0.0
 10
4.718111286
 20
2.1535039785
 30
0.0
 10
4.7361058211
 20
2.1618363155
 30
0.0
 10
4.7579509818
 20
2.1735684267
 30
0.0
 10
4.7787937789
 20
2.1869855832
 30
0.0
 10
4.794779475
 20
2.1986744578
 30
0.0
 10
4.8064073178
 20
2.207905437
 30
0.0
 10
4.8176555776
 20
2.2175867261
 30
0.0
 10
4.8321185203
 20
2.2310702368
 30
0.0
 10
4.8491662793
 20
2.2489767204
 30
0.0
 10
4.8678359993
 20
2.2720072671
 30
0.0
 10
4.8845994181
 20
2.2964339393
 30
0.0
 10
4.8968950126
 20
2.317831585
 30
0.0
 10
4.9056748599
 20
2.3354844934
 30
0.0
 10
4.9117229258
 20
2.3489729409
 30
0.0
 10
4.917224302
 20
2.3626890053
 30
0.0
 10
4.9238174264
 20
2.3812466297
 30
0.0
 10
4.9306533854
 20
2.4049102054
 30
0.0
 10
4.935567831
 20
2.429041393
 30
0.0
 10
4.938326844
 20
2.4485274494
 30
0.0
 10
4.9403007064
 20
2.4681039134
 30
0.0
 10
4.9408944099
 20
2.4828659116
 30
0.0
 10
4.9408944099
 20
2.4927003559
 30
0.0
  0
SPLINE
  5
267
100
AcDbEntity
  8
0
100
AcDbSpline
 62
7
  6
CONTINUOUS
 70
0
 71
3
 72
15
 73
11
 74
0
 42
0.0000001
 43
0.0000001
 44
0.0000000001
 40
0.0
 40
0.0
 40
0.0
 40
0.0
 40
0.1248290583
 40
0.2496743134
 40
0.37455612
 40
0.499489422
 40
0.6244891142
 40
0.7495678112
 40
0.8747356503
 40
1.0
 40
1.0
 40
1.0
 40
1.0
 10
4.9408944099
 20
2.6882805965
 30
0.0
 10
4.9408944099
 20
2.699227681
 30
0.0
 10
4.9399143086
 20
2.7211358971
 30
0.0
 10
4.9355154398
 20
2.7537293579
 30
0.0
 10
4.9282228837
 20
2.7858116996
 30
0.0
 10
4.9180940011
 20
2.817127948
 30
0.0
 10
4.9052090768
 20
2.8474332527
 30
0.0
 10
4.8896692514
 20
2.8764907395
 30
0.0
 10
4.8715992088
 20
2.9040705548
 30
0.0
 10
4.8579604601
 20
2.9213278329
 30
0.0
 10
4.8507742164
 20
2.9296364909
 30
0.0
  0
SPLINE
  5
268
100
AcDbEntity
  8
0
100
AcDbSpline
 62
7
  6
CONTINUOUS
 70
0
 71
3
 72
15
 73
11
 74
0
 42
0.0000001
 43
0.0000001
 44
0.0000000001
 40
0.0
 40
0.0
 40
0.0
 40
0.0
 40
0.1252643444
 40
0.2504321791
 40
0.375510873
 40
0.5005105637
 40
0.6254438661
 40
0.750325675
 40
0.8751709348
 40
1.0
 40
1.0
 40
1.0
 40
1.0
 10
4.2810143348
 20
2.9296361801
 30
0.0
 10
4.2738281119
 20
2.9213275274
 30
0.0
 10
4.2601894027
 20
2.904070263
 30
0.0
 10
4.2421194136
 20
2.8764904756
 30
0.0
 10
4.2265796349
 20
2.8474330232
 30
0.0
 10
4.2136947496
 20
2.8171277583
 30
0.0
 10
4.2035658977
 20
2.785811554
 30
0.0
 10
4.1962733638
 20
2.7537292593
 30
0.0
 10
4.1918745083
 20
2.7211358475
 30
0.0
 10
4.1908944099
 20
2.6992276646
 30
0.0
 10
4.1908944099
 20
2.6882805965
 30
0.0
  0
SPLINE
  5
269
100
AcDbEntity
  8
0
100
AcDbSpline
 62
7
  6
CONTINUOUS
 70
0
 71
3
 72
30
 73
26
 74
0
 42
0.0000001
 43
0.0000001
 44
0.0000000001
 40
0.0
 40
0.0
 40
0.0
 40
0.0
 40
0.0621644655
 40
0.124315909
 40
0.155396806
 40
0.1864788884
 40
0.2020235166
 40
0.2175710626
 40
0.2486760924
 40
0.2798018058
 40
0.3109506534
 40
0.3732983092
 40
0.4357222953
 40
0.4981976863
 40
0.529458214
 40
0.5607274308
 40
0.5920076999
 40
0.6233040669
 40
0.654622022
 40
0.6859641317
 40
0.7486999167
 40
0.8115072003
 40
0.8743471368
 40
0.9371833581
 40
1.0
 40
1.0
 40
1.0
 40
1.0
 10
4.8507669416
 20
2.6962217896
 30
0.0
 10
4.8507669416
 20
2.6870033325
 30
0.0
 10
4.8498676019
 20
2.6685565562
 30
0.0
 10
4.8464922842
 20
2.6457215163
 30
0.0
 10
4.8424435023
 20
2.6277302829
 30
0.0
 10
4.8393499661
 20
2.6166241449
 30
0.0
 10
4.8365380846
 20
2.6078425935
 30
0.0
 10
4.8335011569
 20
2.5991326636
 30
0.0
 10
4.8292900308
 20
2.588389412
 30
0.0
 10
4.8235949344
 20
2.5757609457
 30
0.0
 10
4.8151707633
 20
2.5593053365
 30
0.0
 10
4.8031299076
 20
2.5395192405
 30
0.0
 10
4.7864439859
 20
2.5172734568
 30
0.0
 10
4.7707970793
 20
2.5001478376
 30
0.0
 10
4.7573208915
 20
2.4874102612
 30
0.0
 10
4.7467480588
 20
2.478360259
 30
0.0
 10
4.7357338527
 20
2.4698444562
 30
0.0
 10
4.7242975168
 20
2.4618918128
 30
0.0
 10
4.7124700277
 20
2.4545159436
 30
0.0
 10
4.6962208454
 20
2.445462128
 30
0.0
 10
4.6750894325
 20
2.4356358549
 30
0.0
 10
4.6487082675
 20
2.4263226378
 30
0.0
 10
4.6215430515
 20
2.4195615241
 30
0.0
 10
4.5938554836
 20
2.4154367687
 30
0.0
 10
4.5752095792
 20
2.4145010318
 30
0.0
 10
4.5658944099
 20
2.4145010318
 30
0.0
  0
SPLINE
  5
26A
100
AcDbEntity
  8
0
100
AcDbSpline
 62
7
  6
CONTINUOUS
 70
0
 71
3
 72
31
 73
27
 74
0
 42
0.0000001
 43
0.0000001
 44
0.0000000001
 40
0.0
 40
0.0
 40
0.0
 40
0.0
 40
0.0625239051
 40
0.1250209907
 40
0.1562651517
 40
0.187502009
 40
0.2031203091
 40
0.2187388021
 40
0.2499769367
 40
0.2812230096
 40
0.3124784166
 40
0.3749943819
 40
0.4375219584
 40
0.5000322777
 40
0.5312838235
 40
0.5625263192
 40
0.5937622027
 40
0.6249967783
 40
0.65623624
 40
0.6874841087
 40
0.7187413172
 40
0.7500067757
 40
0.8125331575
 40
0.8750535927
 40
0.9375435283
 40
1.0
 40
1.0
 40
1.0
 40
1.0
 10
4.8507669102
 20
6.2247181564
 30
0.0
 10
4.8507625747
 20
6.2340408431
 30
0.0
 10
4.8498553262
 20
6.252693446
 30
0.0
 10
4.8464716249
 20
6.2757856138
 30
0.0
 10
4.8424164093
 20
6.2939805184
 30
0.0
 10
4.8393192436
 20
6.3052118852
 30
0.0
 10
4.8365045246
 20
6.3140925291
 30
0.0
 10
4.8334654444
 20
6.3228991581
 30
0.0
 10
4.829252164
 20
6.3337614408
 30
0.0
 10
4.8235545385
 20
6.346530932
 30
0.0
 10
4.8151296899
 20
6.363166187
 30
0.0
 10
4.8030907705
 20
6.3831676881
 30
0.0
 10
4.7864053623
 20
6.4056611995
 30
0.0
 10
4.770755684
 20
6.4229824708
 30
0.0
 10
4.7572770128
 20
6.4358651352
 30
0.0
 10
4.7467055087
 20
6.4450155775
 30
0.0
 10
4.7356929618
 20
6.4536258304
 30
0.0
 10
4.7242584509
 20
6.4616667164
 30
0.0
 10
4.7124333604
 20
6.4691243226
 30
0.0
 10
4.7002508078
 20
6.4759889036
 30
0.0
 10
4.6877427657
 20
6.4822499485
 30
0.0
 10
4.6706779556
 20
6.4897781234
 30
0.0
 10
4.6486912227
 20
6.4976290947
 30
0.0
 10
4.6215326074
 20
6.5044656037
 30
0.0
 10
4.5938501656
 20
6.5086369203
 30
0.0
 10
4.5752070429
 20
6.5095831934
 30
0.0
 10
4.5658944099
 20
6.5095831934
 30
0.0
  0
LINE
  5
26B
100
AcDbEntity
  8
0
100
AcDbLine
 62
7
  6
CONTINUOUS
 10
4.4436388868
 20
2.2578046065
 11
4.4435167725
 21
2.2572675233
  0
SPLINE
  5
26C
100
AcDbEntity
  8
0
100
AcDbSpline
 62
7
  6
CONTINUOUS
 70
0
 71
3
 72
26
 73
22
 74
0
 42
0.0000001
 43
0.0000001
 44
0.0000000001
 40
0.0
 40
0.0
 40
0.0
 40
0.0
 40
0.0071953995
 40
0.0154150481
 40
0.0250979943
 40
0.0365019761
 40
0.0497685352
 40
0.0649699346
 40
0.082132704
 40
0.1012581502
 40
0.1223265048
 40
0.1453055052
 40
0.1968145547
 40
0.2553621386
 40
0.3204360383
 40
0.3914667387
 40
0.4678414525
 40
0.5489122374
 40
0.6340011974
 40
0.8133762919
 40
1.0
 40
1.0
 40
1.0
 40
1.0
 10
4.461001484
 20
2.2934499528
 30
0.0
 10
4.4610436506
 20
2.2935376274
 30
0.0
 10
4.4611679509
 20
2.2937098492
 30
0.0
 10
4.4614362286
 20
2.2939221884
 30
0.0
 10
4.4617903527
 20
2.2941039378
 30
0.0
 10
4.4622299801
 20
2.2942570136
 30
0.0
 10
4.4627549343
 20
2.2943825657
 30
0.0
 10
4.463364451
 20
2.2944808605
 30
0.0
 10
4.4640572449
 20
2.2945523404
 30
0.0
 10
4.464831655
 20
2.2945972432
 30
0.0
 10
4.4656857392
 20
2.2946161645
 30
0.0
 10
4.4669778503
 20
2.2946070087
 30
0.0
 10
4.4687754251
 20
2.29452794
 30
0.0
 10
4.4711365912
 20
2.2943460402
 30
0.0
 10
4.4737552158
 20
2.2940805019
 30
0.0
 10
4.4766078932
 20
2.2937393943
 30
0.0
 10
4.4796700334
 20
2.2933310092
 30
0.0
 10
4.4829158929
 20
2.292863862
 30
0.0
 10
4.4875346969
 20
2.2921612189
 30
0.0
 10
4.4935556013
 20
2.2911871744
 30
0.0
 10
4.4984340839
 20
2.2903568437
 30
0.0
 10
4.5009200747
 20
2.2899245261
 30
0.0
  0
SPLINE
  5
26D
100
AcDbEntity
  8
0
100
AcDbSpline
 62
7
  6
CONTINUOUS
 70
0
 71
3
 72
26
 73
22
 74
0
 42
0.0000001
 43
0.0000001
 44
0.0000000001
 40
0.0
 40
0.0
 40
0.0
 40
0.0
 40
0.1866237084
 40
0.3659988031
 40
0.4510877636
 40
0.5321585483
 40
0.6085332621
 40
0.6795639626
 40
0.7446378621
 40
0.8031854457
 40
0.8546944953
 40
0.8776734956
 40
0.89874185
 40
0.917867296
 40
0.9350300653
 40
0.9502314647
 40
0.9634980238
 40
0.9749020057
 40
0.9845849519
 40
0.9928046005
 40
1.0
 40
1.0
 40
1.0
 40
1.0
 10
4.6308687452
 20
2.2899245261
 30
0.0
 10
4.633354736
 20
2.2903568437
 30
0.0
 10
4.6382332186
 20
2.2911871744
 30
0.0
 10
4.644254123
 20
2.2921612189
 30
0.0
 10
4.648872927
 20
2.292863862
 30
0.0
 10
4.6521187865
 20
2.2933310092
 30
0.0
 10
4.6551809267
 20
2.2937393943
 30
0.0
 10
4.6580336041
 20
2.2940805019
 30
0.0
 10
4.6606522287
 20
2.2943460402
 30
0.0
 10
4.6630133948
 20
2.29452794
 30
0.0
 10
4.6648109696
 20
2.2946070087
 30
0.0
 10
4.6661030807
 20
2.2946161645
 30
0.0
 10
4.6669571649
 20
2.2945972432
 30
0.0
 10
4.6677315749
 20
2.2945523404
 30
0.0
 10
4.6684243688
 20
2.2944808605
 30
0.0
 10
4.6690338856
 20
2.2943825657
 30
0.0
 10
4.6695588398
 20
2.2942570136
 30
0.0
 10
4.6699984672
 20
2.2941039378
 30
0.0
 10
4.6703525913
 20
2.2939221884
 30
0.0
 10
4.670620869
 20
2.2937098492
 30
0.0
 10
4.6707451692
 20
2.2935376274
 30
0.0
 10
4.6707873359
 20
2.2934499528
 30
0.0
  0
LINE
  5
26E
100
AcDbEntity
  8
0
100
AcDbLine
 62
7
  6
CONTINUOUS
 10
4.4544421949
 20
2.2798757807
 11
4.4543827639
 21
2.2561621929
  0
SPLINE
  5
26F
100
AcDbEntity
  8
0
100
AcDbSpline
 62
7
  6
CONTINUOUS
 70
0
 71
3
 72
28
 73
24
 74
0
 42
0.0000001
 43
0.0000001
 44
0.0000000001
 40
0.0
 40
0.0
 40
0.0
 40
0.0
 40
0.0006329471
 40
0.0017910644
 40
0.006033827
 40
0.0129444978
 40
0.0225284526
 40
0.0347553519
 40
0.0495865919
 40
0.0669661205
 40
0.0868269871
 40
0.1090973979
 40
0.1336887138
 40
0.1894531621
 40
0.2532635237
 40
0.324139332
 40
0.4009903412
 40
0.4826320927
 40
0.5678065209
 40
0.6552031909
 40
0.7434762484
 40
0.8312563312
 40
1.0
 40
1.0
 40
1.0
 40
1.0
 10
6.0789538505
 20
6.0560974719
 30
0.0
 10
6.0789568129
 20
6.0560973059
 30
0.0
 10
6.07896352
 20
6.0560902535
 30
0.0
 10
6.0789724041
 20
6.0560640595
 30
0.0
 10
6.0789820259
 20
6.0560062373
 30
0.0
 10
6.0789902314
 20
6.0559097888
 30
0.0
 10
6.0789968784
 20
6.055775107
 30
0.0
 10
6.0790013057
 20
6.0556034649
 30
0.0
 10
6.0790035678
 20
6.0553951392
 30
0.0
 10
6.0790035559
 20
6.0551510533
 30
0.0
 10
6.0790012706
 20
6.0548720942
 30
0.0
 10
6.0789966965
 20
6.0545593576
 30
0.0
 10
6.0789871516
 20
6.0540783792
 30
0.0
 10
6.0789692255
 20
6.053402816
 30
0.0
 10
6.0789399543
 20
6.0525105345
 30
0.0
 10
6.0789024623
 20
6.051519637
 30
0.0
 10
6.0788573135
 20
6.0504453933
 30
0.0
 10
6.0788051788
 20
6.0493043657
 30
0.0
 10
6.0787468611
 20
6.0481141419
 30
0.0
 10
6.0786832607
 20
6.0468930607
 30
0.0
 10
6.0786153721
 20
6.0456599772
 30
0.0
 10
6.0785217014
 20
6.0440464213
 30
0.0
 10
6.0784467295
 20
6.0428462667
 30
0.0
 10
6.0783944099
 20
6.0420569951
 30
0.0
  0
SPLINE
  5
270
100
AcDbEntity
  8
0
100
AcDbSpline
 62
7
  6
CONTINUOUS
 70
0
 71
3
 72
23
 73
19
 74
0
 42
0.0000001
 43
0.0000001
 44
0.0000000001
 40
0.0
 40
0.0
 40
0.0
 40
0.0
 40
0.0719559589
 40
0.1363143605
 40
0.1934768776
 40
0.2442483219
 40
0.2899598182
 40
0.332576824
 40
0.3745820723
 40
0.4185776525
 40
0.4668011086
 40
0.5208719268
 40
0.5818280809
 40
0.6502300298
 40
0.7263221933
 40
0.810124731
 40
0.9014847632
 40
1.0
 40
1.0
 40
1.0
 40
1.0
 10
4.5425483786
 20
2.1592827532
 30
0.0
 10
4.5427078781
 20
2.1593711621
 30
0.0
 10
4.5430039141
 20
2.1595502541
 30
0.0
 10
4.5433971608
 20
2.159844766
 30
0.0
 10
4.5437124357
 20
2.1601489211
 30
0.0
 10
4.5439476663
 20
2.1604618171
 30
0.0
 10
4.5441000321
 20
2.1607829705
 30
0.0
 10
4.5441657041
 20
2.1611105363
 30
0.0
 10
4.5441414855
 20
2.16143958
 30
0.0
 10
4.5440288087
 20
2.1617641094
 30
0.0
 10
4.5438315316
 20
2.1620809029
 30
0.0
 10
4.5435531052
 20
2.1623892086
 30
0.0
 10
4.5431956874
 20
2.1626882889
 30
0.0
 10
4.5427615313
 20
2.1629772161
 30
0.0
 10
4.5422530107
 20
2.1632544645
 30
0.0
 10
4.5416730839
 20
2.1635185526
 30
0.0
 10
4.5410254066
 20
2.1637676842
 30
0.0
 10
4.5405678568
 20
2.1639174085
 30
0.0
 10
4.5403289498
 20
2.1639899375
 30
0.0
  0
SPLINE
  5
271
100
AcDbEntity
  8
0
100
AcDbSpline
 62
7
  6
CONTINUOUS
 70
0
 71
3
 72
20
 73
16
 74
0
 42
0.0000001
 43
0.0000001
 44
0.0000000001
 40
0.0
 40
0.0
 40
0.0
 40
0.0
 40
0.1692713258
 40
0.3331296358
 40
0.4865178891
 40
0.5578936303
 40
0.6250753528
 40
0.6876882932
 40
0.7454688403
 40
0.7982965796
 40
0.8462285803
 40
0.8895648991
 40
0.9289164308
 40
0.9652811331
 40
1.0
 40
1.0
 40
1.0
 40
1.0
 10
6.0783944099
 20
6.0420569951
 30
0.0
 10
6.0790451429
 20
6.0420569951
 30
0.0
 10
6.0803264484
 20
6.0421073353
 30
0.0
 10
6.0821851977
 20
6.0423322075
 30
0.0
 10
6.0836492021
 20
6.042643227
 30
0.0
 10
6.0847250099
 20
6.0429649032
 30
0.0
 10
6.0854519332
 20
6.043230398
 30
0.0
 10
6.0861115271
 20
6.0435233731
 30
0.0
 10
6.0866976536
 20
6.0438411405
 30
0.0
 10
6.0872049634
 20
6.0441808281
 30
0.0
 10
6.0876287726
 20
6.0445397412
 30
0.0
 10
6.0879651896
 20
6.0449150991
 30
0.0
 10
6.0882104517
 20
6.0453046835
 30
0.0
 10
6.0883603261
 20
6.0457053723
 30
0.0
 10
6.0883944099
 20
6.0459796625
 30
0.0
 10
6.0883944099
 20
6.0461131329
 30
0.0
  0
SPLINE
  5
272
100
AcDbEntity
  8
0
100
AcDbSpline
 62
7
  6
CONTINUOUS
 70
0
 71
3
 72
28
 73
24
 74
0
 42
0.0000001
 43
0.0000001
 44
0.0000000001
 40
0.0
 40
0.0
 40
0.0
 40
0.0
 40
0.0355942211
 40
0.0711421375
 40
0.1065832625
 40
0.1418730061
 40
0.1769687676
 40
0.2118290633
 40
0.2464202613
 40
0.2807137913
 40
0.3146863464
 40
0.348319961
 40
0.41451129
 40
0.4792433511
 40
0.5425101942
 40
0.6043388747
 40
0.6647742106
 40
0.7238656994
 40
0.7816574199
 40
0.8381803818
 40
0.8934404582
 40
0.9474073154
 40
1.0
 40
1.0
 40
1.0
 40
1.0
 10
5.0908944099
 20
6.2245831934
 30
0.0
 10
5.0908936501
 20
6.2188196651
 30
0.0
 10
5.0906566167
 20
6.2072987882
 30
0.0
 10
5.0896048743
 20
6.1900681412
 30
0.0
 10
5.0878659033
 20
6.1729424602
 30
0.0
 10
5.0854453027
 20
6.1559738254
 30
0.0
 10
5.0823654899
 20
6.139208159
 30
0.0
 10
5.0786533105
 20
6.1226871312
 30
0.0
 10
5.0743326733
 20
6.1064491565
 30
0.0
 10
5.0694307162
 20
6.0905276971
 30
0.0
 10
5.0639806194
 20
6.0749495895
 30
0.0
 10
5.0560684014
 20
6.0547767877
 30
0.0
 10
5.0449875929
 20
6.0305167626
 30
0.0
 10
5.0299262261
 20
6.0028868857
 30
0.0
 10
5.0134080783
 20
5.976938016
 30
0.0
 10
4.9956500407
 20
5.9526815103
 30
0.0
 10
4.9768470305
 20
5.9301013335
 30
0.0
 10
4.957174638
 20
5.9091652162
 30
0.0
 10
4.9367920927
 20
5.8898316159
 30
0.0
 10
4.9158470117
 20
5.872055632
 30
0.0
 10
4.8944812751
 20
5.8557927342
 30
0.0
 10
4.8728404349
 20
5.8410013227
 30
0.0
 10
4.8581281763
 20
5.8319716355
 30
0.0
 10
4.8507660539
 20
5.8276913373
 30
0.0
  0
SPLINE
  5
273
100
AcDbEntity
  8
0
100
AcDbSpline
 62
7
  6
CONTINUOUS
 70
0
 71
3
 72
33
 73
29
 74
0
 42
0.0000001
 43
0.0000001
 44
0.0000000001
 40
0.0
 40
0.0
 40
0.0
 40
0.0
 40
0.0827822792
 40
0.1254612679
 40
0.1687548523
 40
0.2565405329
 40
0.3448195613
 40
0.4322220059
 40
0.5174018639
 40
0.599048948
 40
0.675904835
 40
0.7467838109
 40
0.8105951354
 40
0.8395403936
 40
0.866359893
 40
0.8909518416
 40
0.913224231
 40
0.9330885553
 40
0.9504727099
 40
0.9653106106
 40
0.9775442269
 40
0.9871303609
 40
0.9940301731
 40
0.9964703243
 40
0.9982459688
 40
0.9988917182
 40
0.9993850591
 40
1.0
 40
1.0
 40
1.0
 40
1.0
 10
6.0783944099
 20
6.4071093916
 30
0.0
 10
6.078416657
 20
6.4067220003
 30
0.0
 10
6.0784555701
 20
6.4061351974
 30
0.0
 10
6.0785064229
 20
6.4053458217
 30
0.0
 10
6.0785555314
 20
6.4045328353
 30
0.0
 10
6.0786143483
 20
6.4035063089
 30
0.0
 10
6.07868287
 20
6.4022732469
 30
0.0
 10
6.0787465008
 20
6.4010521524
 30
0.0
 10
6.0788045552
 20
6.3998619026
 30
0.0
 10
6.0788558995
 20
6.3987208271
 30
0.0
 10
6.0788999706
 20
6.3976465347
 30
0.0
 10
6.0789378034
 20
6.3966556647
 30
0.0
 10
6.0789645579
 20
6.3958891109
 30
0.0
 10
6.0789815051
 20
6.3953288709
 30
0.0
 10
6.0789911895
 20
6.3949523336
 30
0.0
 10
6.0789981278
 20
6.3946070192
 30
0.0
 10
6.079002339
 20
6.394294264
 30
0.0
 10
6.0790037914
 20
6.394015269
 30
0.0
 10
6.0790026601
 20
6.3937711191
 30
0.0
 10
6.0789990775
 20
6.3935627649
 30
0.0
 10
6.0789934229
 20
6.3933910186
 30
0.0
 10
6.0789861543
 20
6.3932565902
 30
0.0
 10
6.0789794168
 20
6.3931681154
 30
0.0
 10
6.0789726834
 20
6.3931164056
 30
0.0
 10
6.0789684539
 20
6.3930940377
 30
0.0
 10
6.0789641897
 20
6.3930809123
 30
0.0
 10
6.0789609474
 20
6.3930736197
 30
0.0
 10
6.0789567284
 20
6.3930690761
 30
0.0
 10
6.0789538505
 20
6.3930689148
 30
0.0
  0
SPLINE
  5
274
100
AcDbEntity
  8
0
100
AcDbSpline
 62
7
  6
CONTINUOUS
 70
0
 71
3
 72
20
 73
16
 74
0
 42
0.0000001
 43
0.0000001
 44
0.0000000001
 40
0.0
 40
0.0
 40
0.0
 40
0.0
 40
0.0347122755
 40
0.0710636004
 40
0.1104068477
 40
0.153737965
 40
0.2016635335
 40
0.2544818575
 40
0.3122536251
 40
0.3748553843
 40
0.4420283047
 40
0.5134004349
 40
0.6668007559
 40
0.8306912874
 40
1.0
 40
1.0
 40
1.0
 40
1.0
 10
6.0883944099
 20
6.4030532539
 30
0.0
 10
6.0883944099
 20
6.403186699
 30
0.0
 10
6.0883603894
 20
6.4034609203
 30
0.0
 10
6.0882105199
 20
6.4038614963
 30
0.0
 10
6.0879653836
 20
6.4042510294
 30
0.0
 10
6.0876290656
 20
6.4046263793
 30
0.0
 10
6.0872053338
 20
6.4049852569
 30
0.0
 10
6.0866981526
 20
6.405324966
 30
0.0
 10
6.0861121357
 20
6.4056427017
 30
0.0
 10
6.0854526714
 20
6.4059356933
 30
0.0
 10
6.0847258525
 20
6.4062012129
 30
0.0
 10
6.083650059
 20
6.4065229338
 30
0.0
 10
6.0821859178
 20
6.4068340656
 30
0.0
 10
6.0803268609
 20
6.4070590324
 30
0.0
 10
6.0790452869
 20
6.4071093916
 30
0.0
 10
6.0783944099
 20
6.4071093916
 30
0.0
  0
SPLINE
  5
275
100
AcDbEntity
  8
0
100
AcDbSpline
 62
7
  6
CONTINUOUS
 70
0
 71
3
 72
11
 73
7
 74
0
 42
0.0000001
 43
0.0000001
 44
0.0000000001
 40
0.0
 40
0.0
 40
0.0
 40
0.0
 40
0.2423632978
 40
0.4879356122
 40
0.739663933
 40
1.0
 40
1.0
 40
1.0
 40
1.0
 10
4.5242337598
 20
2.1573394859
 30
0.0
 10
4.5247716622
 20
2.1571761887
 30
0.0
 10
4.5258825081
 20
2.1569326906
 30
0.0
 10
4.5276014582
 20
2.1568295887
 30
0.0
 10
4.5293576961
 20
2.156987695
 30
0.0
 10
4.5305180575
 20
2.1572602845
 30
0.0
 10
4.5310958479
 20
2.157435694
 30
0.0
  0
SPLINE
  5
276
100
AcDbEntity
  8
0
100
AcDbSpline
 62
7
  6
CONTINUOUS
 70
0
 71
3
 72
30
 73
26
 74
0
 42
0.0000001
 43
0.0000001
 44
0.0000000001
 40
0.0
 40
0.0
 40
0.0
 40
0.0
 40
0.0628166419
 40
0.1256528632
 40
0.1884927997
 40
0.2513000833
 40
0.3140358683
 40
0.345377978
 40
0.3766959331
 40
0.4079923001
 40
0.4392725692
 40
0.470541786
 40
0.5018023137
 40
0.5642777047
 40
0.6267016908
 40
0.6890493466
 40
0.7201981942
 40
0.7513239076
 40
0.7824289374
 40
0.7979764834
 40
0.8135211116
 40
0.844603194
 40
0.875684091
 40
0.9378355345
 40
1.0
 40
1.0
 40
1.0
 40
1.0
 10
4.5658944099
 20
2.4428624356
 30
0.0
 10
4.5565792407
 20
2.4428624356
 30
0.0
 10
4.5379333363
 20
2.4437981725
 30
0.0
 10
4.5102457683
 20
2.4479229279
 30
0.0
 10
4.4830805524
 20
2.4546840416
 30
0.0
 10
4.4566993874
 20
2.4639972587
 30
0.0
 10
4.4355679745
 20
2.4738235318
 30
0.0
 10
4.4193187922
 20
2.4828773474
 30
0.0
 10
4.4074913031
 20
2.4902532166
 30
0.0
 10
4.3960549671
 20
2.49820586
 30
0.0
 10
4.3850407611
 20
2.5067216628
 30
0.0
 10
4.3744679284
 20
2.515771665
 30
0.0
 10
4.3609917406
 20
2.5285092414
 30
0.0
 10
4.345344834
 20
2.5456348606
 30
0.0
 10
4.3286589123
 20
2.5678806443
 30
0.0
 10
4.3166180566
 20
2.5876667403
 30
0.0
 10
4.3081938855
 20
2.6041223495
 30
0.0
 10
4.3024987891
 20
2.6167508158
 30
0.0
 10
4.298287663
 20
2.6274940674
 30
0.0
 10
4.2952507353
 20
2.6362039973
 30
0.0
 10
4.2924388538
 20
2.6449855487
 30
0.0
 10
4.2893453176
 20
2.6560916867
 30
0.0
 10
4.2852965357
 20
2.6740829201
 30
0.0
 10
4.2819212179
 20
2.69691796
 30
0.0
 10
4.2810218783
 20
2.7153647363
 30
0.0
 10
4.2810218783
 20
2.7245831934
 30
0.0
  0
SPLINE
  5
277
100
AcDbEntity
  8
0
100
AcDbSpline
 62
7
  6
CONTINUOUS
 70
0
 71
3
 72
31
 73
27
 74
0
 42
0.0000001
 43
0.0000001
 44
0.0000000001
 40
0.0
 40
0.0
 40
0.0
 40
0.0
 40
0.0262791782
 40
0.0503327067
 40
0.072234223
 40
0.092119378
 40
0.110213712
 40
0.1268449488
 40
0.1424641474
 40
0.1576296083
 40
0.1729574073
 40
0.189041594
 40
0.2063890908
 40
0.2253851291
 40
0.2463015976
 40
0.2693151727
 40
0.2945252967
 40
0.3219798223
 40
0.3835661381
 40
0.4537446585
 40
0.5317905163
 40
0.6167204897
 40
0.7073669767
 40
0.8024090306
 40
0.9004576901
 40
1.0
 40
1.0
 40
1.0
 40
1.0
 10
4.5773469406
 20
2.1549068428
 30
0.0
 10
4.5774767315
 20
2.1549787845
 30
0.0
 10
4.5777211645
 20
2.1551243536
 30
0.0
 10
4.5780549876
 20
2.1553595495
 30
0.0
 10
4.5783384923
 20
2.1556010569
 30
0.0
 10
4.5785704509
 20
2.1558482506
 30
0.0
 10
4.5787498881
 20
2.1561004419
 30
0.0
 10
4.5788754738
 20
2.1563571504
 30
0.0
 10
4.5789457659
 20
2.1566174102
 30
0.0
 10
4.5789594297
 20
2.1568794817
 30
0.0
 10
4.5789160201
 20
2.1571408777
 30
0.0
 10
4.5788166768
 20
2.1573994512
 30
0.0
 10
4.5786627587
 20
2.1576538681
 30
0.0
 10
4.5784557545
 20
2.1579035197
 30
0.0
 10
4.5781967318
 20
2.1581478287
 30
0.0
 10
4.5778867775
 20
2.1583861197
 30
0.0
 10
4.5775271374
 20
2.1586177224
 30
0.0
 10
4.5769611546
 20
2.1589282845
 30
0.0
 10
4.5761351026
 20
2.1592878413
 30
0.0
 10
4.5750106259
 20
2.1596643084
 30
0.0
 10
4.5737351664
 20
2.1599945127
 30
0.0
 10
4.5723296097
 20
2.1602728296
 30
0.0
 10
4.5708170336
 20
2.1604944199
 30
0.0
 10
4.5692224212
 20
2.1606555294
 30
0.0
 10
4.5675724168
 20
2.1607532772
 30
0.0
 10
4.5664565148
 20
2.1607750873
 30
0.0
 10
4.5658944099
 20
2.1607750873
 30
0.0
  0
SPLINE
  5
278
100
AcDbEntity
  8
0
100
AcDbSpline
 62
7
  6
CONTINUOUS
 70
0
 71
3
 72
30
 73
26
 74
0
 42
0.0000001
 43
0.0000001
 44
0.0000000001
 40
0.0
 40
0.0
 40
0.0
 40
0.0
 40
0.0621644655
 40
0.124315909
 40
0.155396806
 40
0.1864788884
 40
0.2020235166
 40
0.2175710626
 40
0.2486760924
 40
0.2798018058
 40
0.3109506534
 40
0.3732983092
 40
0.4357222953
 40
0.4981976863
 40
0.529458214
 40
0.5607274308
 40
0.5920076999
 40
0.6233040669
 40
0.654622022
 40
0.6859641317
 40
0.7486999167
 40
0.8115072003
 40
0.8743471368
 40
0.9371833581
 40
1.0
 40
1.0
 40
1.0
 40
1.0
 10
4.8507669416
 20
2.7245831934
 30
0.0
 10
4.8507669416
 20
2.7153647363
 30
0.0
 10
4.8498676019
 20
2.69691796
 30
0.0
 10
4.8464922842
 20
2.6740829201
 30
0.0
 10
4.8424435023
 20
2.6560916867
 30
0.0
 10
4.8393499661
 20
2.6449855487
 30
0.0
 10
4.8365380846
 20
2.6362039973
 30
0.0
 10
4.8335011569
 20
2.6274940674
 30
0.0
 10
4.8292900308
 20
2.6167508158
 30
0.0
 10
4.8235949344
 20
2.6041223495
 30
0.0
 10
4.8151707633
 20
2.5876667403
 30
0.0
 10
4.8031299076
 20
2.5678806443
 30
0.0
 10
4.7864439859
 20
2.5456348606
 30
0.0
 10
4.7707970793
 20
2.5285092414
 30
0.0
 10
4.7573208915
 20
2.515771665
 30
0.0
 10
4.7467480588
 20
2.5067216628
 30
0.0
 10
4.7357338527
 20
2.49820586
 30
0.0
 10
4.7242975168
 20
2.4902532166
 30
0.0
 10
4.7124700277
 20
2.4828773474
 30
0.0
 10
4.6962208454
 20
2.4738235318
 30
0.0
 10
4.6750894325
 20
2.4639972587
 30
0.0
 10
4.6487082675
 20
2.4546840416
 30
0.0
 10
4.6215430515
 20
2.4479229279
 30
0.0
 10
4.5938554836
 20
2.4437981725
 30
0.0
 10
4.5752095792
 20
2.4428624356
 30
0.0
 10
4.5658944099
 20
2.4428624356
 30
0.0
  0
SPLINE
  5
279
100
AcDbEntity
  8
0
100
AcDbSpline
 62
7
  6
CONTINUOUS
 70
0
 71
3
 72
31
 73
27
 74
0
 42
0.0000001
 43
0.0000001
 44
0.0000000001
 40
0.0
 40
0.0
 40
0.0
 40
0.0
 40
0.0200822331
 40
0.0384772822
 40
0.0554176641
 40
0.0712247257
 40
0.086308676
 40
0.1011509785
 40
0.1162593608
 40
0.1321126494
 40
0.1491170056
 40
0.1675892438
 40
0.1877580315
 40
0.2097799806
 40
0.2337506417
 40
0.2597221968
 40
0.2877081309
 40
0.3176964561
 40
0.3835001771
 40
0.4566502316
 40
0.5364263357
 40
0.6219446923
 40
0.7121971945
 40
0.8060788071
 40
0.9024207926
 40
1.0
 40
1.0
 40
1.0
 40
1.0
 10
4.5938830199
 20
2.0613847184
 30
0.0
 10
4.5940606862
 20
2.0615451712
 30
0.0
 10
4.5943871937
 20
2.0618687297
 30
0.0
 10
4.5948007032
 20
2.062386104
 30
0.0
 10
4.5951133862
 20
2.0629121234
 30
0.0
 10
4.5953231068
 20
2.0634453889
 30
0.0
 10
4.5954274785
 20
2.0639838634
 30
0.0
 10
4.5954248771
 20
2.0645242079
 30
0.0
 10
4.595315336
 20
2.0650624954
 30
0.0
 10
4.5951005645
 20
2.0655954508
 30
0.0
 10
4.5947829419
 20
2.0661210688
 30
0.0
 10
4.594364553
 20
2.0666380397
 30
0.0
 10
4.5938473578
 20
2.0671453473
 30
0.0
 10
4.5932331403
 20
2.0676417051
 30
0.0
 10
4.5925240066
 20
2.0681258659
 30
0.0
 10
4.591722221
 20
2.0685962455
 30
0.0
 10
4.5908305002
 20
2.0690514742
 30
0.0
 10
4.5894833723
 20
2.0696547776
 30
0.0
 10
4.5875912794
 20
2.0703515625
 30
0.0
 10
4.5850862152
 20
2.071080648
 30
0.0
 10
4.5823143131
 20
2.0717162072
 30
0.0
 10
4.5793138783
 20
2.0722491716
 30
0.0
 10
4.5761263732
 20
2.0726718467
 30
0.0
 10
4.5727960946
 20
2.0729781843
 30
0.0
 10
4.5693695424
 20
2.0731637489
 30
0.0
 10
4.5670576304
 20
2.073205101
 30
0.0
 10
4.5658944099
 20
2.073205101
 30
0.0
  0
SPLINE
  5
27A
100
AcDbEntity
  8
0
100
AcDbSpline
 62
7
  6
CONTINUOUS
 70
0
 71
3
 72
69
 73
65
 74
0
 42
0.0000001
 43
0.0000001
 44
0.0000000001
 40
0.0
 40
0.0
 40
0.0
 40
0.0
 40
0.0155344538
 40
0.0310707717
 40
0.0466080206
 40
0.0621481052
 40
0.0776916018
 40
0.0932392652
 40
0.1087919006
 40
0.1243501872
 40
0.139914771
 40
0.1554862397
 40
0.1710651104
 40
0.1866518268
 40
0.2022467575
 40
0.2178501939
 40
0.233462343
 40
0.2490833255
 40
0.2647131804
 40
0.2803518614
 40
0.2959992343
 40
0.3116550823
 40
0.3273191101
 40
0.3429909425
 40
0.3586701274
 40
0.3743561454
 40
0.390048413
 40
0.4057462843
 40
0.42144906
 40
0.4371559977
 40
0.4528663138
 40
0.4685791903
 40
0.5
 40
0.5314208097
 40
0.5471336862
 40
0.5628440023
 40
0.57855094
 40
0.5942537157
 40
0.609951587
 40
0.6256438546
 40
0.6413298726
 40
0.6570090575
 40
0.6726808899
 40
0.6883449177
 40
0.7040007657
 40
0.7196481386
 40
0.7352868196
 40
0.7509166745
 40
0.766537657
 40
0.7821498061
 40
0.7977532425
 40
0.8133481732
 40
0.8289348896
 40
0.8445137603
 40
0.860085229
 40
0.8756498128
 40
0.8912080994
 40
0.9067607348
 40
0.9223083982
 40
0.9378518948
 40
0.9533919794
 40
0.9689292283
 40
0.9844655462
 40
1.0
 40
1.0
 40
1.0
 40
1.0
 10
4.9408944099
 20
2.6882805965
 30
0.0
 10
4.9408944099
 20
2.6822159971
 30
0.0
 10
4.940593068
 20
2.6700839154
 30
0.0
 10
4.9392385288
 20
2.6519316536
 30
0.0
 10
4.9369843448
 20
2.633866359
 30
0.0
 10
4.9338362386
 20
2.6159325084
 30
0.0
 10
4.9298016252
 20
2.5981728739
 30
0.0
 10
4.9248903083
 20
2.5806303659
 30
0.0
 10
4.9191141421
 20
2.56334723
 30
0.0
 10
4.9124869614
 20
2.5463651263
 30
0.0
 10
4.9050247983
 20
2.5297249569
 30
0.0
 10
4.8967456604
 20
2.5134667957
 30
0.0
 10
4.8876694575
 20
2.4976298301
 30
0.0
 10
4.8778180426
 20
2.4822522294
 30
0.0
 10
4.8672152122
 20
2.4673710035
 30
0.0
 10
4.8558865105
 20
2.4530219984
 30
0.0
 10
4.8438591832
 20
2.4392398226
 30
0.0
 10
4.8311622452
 20
2.4260576504
 30
0.0
 10
4.8178263142
 20
2.4135072064
 30
0.0
 10
4.803883495
 20
2.4016187446
 30
0.0
 10
4.7893673571
 20
2.3904209328
 30
0.0
 10
4.7743129173
 20
2.3799406878
 30
0.0
 10
4.7587564425
 20
2.3702032443
 30
0.0
 10
4.7427353761
 20
2.3612321098
 30
0.0
 10
4.7262883301
 20
2.3530488687
 30
0.0
 10
4.7094549445
 20
2.3456731868
 30
0.0
 10
4.692275753
 20
2.3391228494
 30
0.0
 10
4.6747921323
 20
2.3334136822
 30
0.0
 10
4.657046184
 20
2.3285593695
 30
0.0
 10
4.6390807917
 20
2.3245715896
 30
0.0
 10
4.6209386981
 20
2.3214600013
 30
0.0
 10
4.5965769684
 20
2.3184897677
 30
0.0
 10
4.5658944099
 20
2.3169991678
 30
0.0
 10
4.5352118515
 20
2.3184897677
 30
0.0
 10
4.5108501218
 20
2.3214600013
 30
0.0
 10
4.4927080282
 20
2.3245715896
 30
0.0
 10
4.4747426359
 20
2.3285593695
 30
0.0
 10
4.4569966876
 20
2.3334136822
 30
0.0
 10
4.4395130669
 20
2.3391228494
 30
0.0
 10
4.4223338753
 20
2.3456731868
 30
0.0
 10
4.4055004898
 20
2.3530488687
 30
0.0
 10
4.3890534438
 20
2.3612321098
 30
0.0
 10
4.3730323774
 20
2.3702032443
 30
0.0
 10
4.3574759026
 20
2.3799406878
 30
0.0
 10
4.3424214627
 20
2.3904209328
 30
0.0
 10
4.3279053249
 20
2.4016187446
 30
0.0
 10
4.3139625057
 20
2.4135072064
 30
0.0
 10
4.3006265747
 20
2.4260576504
 30
0.0
 10
4.2879296367
 20
2.4392398226
 30
0.0
 10
4.2759023094
 20
2.4530219984
 30
0.0
 10
4.2645736077
 20
2.4673710035
 30
0.0
 10
4.2539707773
 20
2.4822522294
 30
0.0
 10
4.2441193624
 20
2.4976298301
 30
0.0
 10
4.2350431594
 20
2.5134667957
 30
0.0
 10
4.2267640215
 20
2.5297249569
 30
0.0
 10
4.2193018584
 20
2.5463651263
 30
0.0
 10
4.2126746778
 20
2.56334723
 30
0.0
 10
4.2068985115
 20
2.5806303659
 30
0.0
 10
4.2019871947
 20
2.5981728739
 30
0.0
 10
4.1979525812
 20
2.6159325084
 30
0.0
 10
4.1948044751
 20
2.633866359
 30
0.0
 10
4.1925502911
 20
2.6519316536
 30
0.0
 10
4.1911957519
 20
2.6700839154
 30
0.0
 10
4.1908944099
 20
2.6822159971
 30
0.0
 10
4.1908944099
 20
2.6882805965
 30
0.0
  0
LINE
  5
27B
100
AcDbEntity
  8
0
100
AcDbLine
 62
7
  6
CONTINUOUS
 10
4.6881499331
 20
2.2566471396
 11
4.6882720474
 21
2.2572675233
  0
SPLINE
  5
27C
100
AcDbEntity
  8
0
100
AcDbSpline
 62
7
  6
CONTINUOUS
 70
0
 71
3
 72
11
 73
7
 74
0
 42
0.0000001
 43
0.0000001
 44
0.0000000001
 40
0.0
 40
0.0
 40
0.0
 40
0.0
 40
0.2465319953
 40
0.4943995892
 40
0.7450858037
 40
1.0
 40
1.0
 40
1.0
 40
1.0
 10
4.455412448
 20
2.1437440817
 30
0.0
 10
4.4553546383
 20
2.1500563227
 30
0.0
 10
4.4557600629
 20
2.1627258538
 30
0.0
 10
4.4579319
 20
2.1817003075
 30
0.0
 10
4.4616650486
 20
2.2006485165
 30
0.0
 10
4.4651576145
 20
2.2131300083
 30
0.0
 10
4.4671493389
 20
2.2193458357
 30
0.0
  0
SPLINE
  5
27D
100
AcDbEntity
  8
0
100
AcDbSpline
 62
7
  6
CONTINUOUS
 70
0
 71
3
 72
63
 73
59
 74
0
 42
0.0000001
 43
0.0000001
 44
0.0000000001
 40
0.0
 40
0.0
 40
0.0
 40
0.0
 40
0.0155352535
 40
0.0310724689
 40
0.0466105814
 40
0.0621515358
 40
0.093234922
 40
0.1243380742
 40
0.1399035398
 40
0.1554758932
 40
0.1710556505
 40
0.186643254
 40
0.2022390734
 40
0.2178433987
 40
0.2334564347
 40
0.2490783052
 40
0.2647090505
 40
0.2803486212
 40
0.2959968832
 40
0.3116536229
 40
0.327318543
 40
0.3429912655
 40
0.3586713422
 40
0.3743582544
 40
0.3900514143
 40
0.4057501773
 40
0.4214538479
 40
0.4371616801
 40
0.4685774022
 40
0.5
 40
0.5314225978
 40
0.5628383199
 40
0.5785461521
 40
0.5942498227
 40
0.6099485857
 40
0.6256417456
 40
0.6413286578
 40
0.6570087345
 40
0.672681457
 40
0.6883463771
 40
0.7040031168
 40
0.7196513788
 40
0.7352909495
 40
0.7509216948
 40
0.7665435653
 40
0.7821566013
 40
0.7977609266
 40
0.813356746
 40
0.8289443495
 40
0.8445241068
 40
0.8600964602
 40
0.8756619258
 40
0.906765078
 40
0.9378484642
 40
0.9533894186
 40
0.9689275311
 40
0.9844647465
 40
1.0
 40
1.0
 40
1.0
 40
1.0
 10
4.9008944099
 20
2.6943310293
 30
0.0
 10
4.90089441
 20
2.6889133489
 30
0.0
 10
4.9006252026
 20
2.6780753614
 30
0.0
 10
4.8994151828
 20
2.6618594467
 30
0.0
 10
4.897401367
 20
2.6457208353
 30
0.0
 10
4.8936521785
 20
2.624361791
 30
0.0
 10
4.8869821465
 20
2.5980400592
 30
0.0
 10
4.8777357152
 20
2.5725002528
 30
0.0
 10
4.868850991
 20
2.5526882804
 30
0.0
 10
4.8614548871
 20
2.5381640281
 30
0.0
 10
4.8533468107
 20
2.5240164267
 30
0.0
 10
4.8445462178
 20
2.5102790726
 30
0.0
 10
4.8350743772
 20
2.4969851636
 30
0.0
 10
4.82495405
 20
2.4841667281
 30
0.0
 10
4.8142096298
 20
2.4718546559
 30
0.0
 10
4.8028670528
 20
2.4600785583
 30
0.0
 10
4.7909536235
 20
2.4488668199
 30
0.0
 10
4.7784980099
 20
2.4382464897
 30
0.0
 10
4.7655302738
 20
2.4282430903
 30
0.0
 10
4.7520816562
 20
2.4188807087
 30
0.0
 10
4.7381845146
 20
2.4101819571
 30
0.0
 10
4.7238723578
 20
2.4021677485
 30
0.0
 10
4.7091796783
 20
2.3948573464
 30
0.0
 10
4.6941418533
 20
2.3882684074
 30
0.0
 10
4.6787950696
 20
2.3824168114
 30
0.0
 10
4.663176456
 20
2.3773165966
 30
0.0
 10
4.6473231192
 20
2.3729800177
 30
0.0
 10
4.625926823
 20
2.3682305661
 30
0.0
 10
4.5987784479
 20
2.3642497696
 30
0.0
 10
4.5658944099
 20
2.3626534537
 30
0.0
 10
4.533010372
 20
2.3642497696
 30
0.0
 10
4.5058619968
 20
2.3682305661
 30
0.0
 10
4.4844657007
 20
2.3729800177
 30
0.0
 10
4.4686123639
 20
2.3773165966
 30
0.0
 10
4.4529937503
 20
2.3824168114
 30
0.0
 10
4.4376469666
 20
2.3882684074
 30
0.0
 10
4.4226091415
 20
2.3948573464
 30
0.0
 10
4.4079164621
 20
2.4021677485
 30
0.0
 10
4.3936043053
 20
2.4101819571
 30
0.0
 10
4.3797071637
 20
2.4188807087
 30
0.0
 10
4.3662585461
 20
2.4282430903
 30
0.0
 10
4.35329081
 20
2.4382464897
 30
0.0
 10
4.3408351964
 20
2.4488668199
 30
0.0
 10
4.328921767
 20
2.4600785583
 30
0.0
 10
4.3175791901
 20
2.4718546559
 30
0.0
 10
4.3068347699
 20
2.4841667281
 30
0.0
 10
4.2967144427
 20
2.4969851636
 30
0.0
 10
4.2872426021
 20
2.5102790726
 30
0.0
 10
4.2784420091
 20
2.5240164267
 30
0.0
 10
4.2703339328
 20
2.5381640281
 30
0.0
 10
4.2629378289
 20
2.5526882804
 30
0.0
 10
4.2540531047
 20
2.5725002528
 30
0.0
 10
4.2448066734
 20
2.5980400592
 30
0.0
 10
4.2381366414
 20
2.624361791
 30
0.0
 10
4.2343874529
 20
2.6457208353
 30
0.0
 10
4.2323736371
 20
2.6618594467
 30
0.0
 10
4.2311636173
 20
2.6780753614
 30
0.0
 10
4.2308944099
 20
2.6889133489
 30
0.0
 10
4.2308944099
 20
2.6943310293
 30
0.0
  0
SPLINE
  5
27E
100
AcDbEntity
  8
0
100
AcDbSpline
 62
7
  6
CONTINUOUS
 70
0
 71
3
 72
29
 73
25
 74
0
 42
0.0000001
 43
0.0000001
 44
0.0000000001
 40
0.0
 40
0.0
 40
0.0
 40
0.0
 40
0.0316031736
 40
0.0473971356
 40
0.063180568
 40
0.0947088451
 40
0.1261824343
 40
0.1575934877
 40
0.1889366104
 40
0.2513952244
 40
0.313592871
 40
0.3755832735
 40
0.437446388
 40
0.499275431
 40
0.5611643911
 40
0.6231969055
 40
0.6854369752
 40
0.7166560761
 40
0.7479385956
 40
0.8106742115
 40
0.8736346622
 40
0.9051905579
 40
0.9367798777
 40
1.0
 40
1.0
 40
1.0
 40
1.0
 10
6.0783944099
 20
6.0420635915
 30
0.0
 10
6.0755138007
 20
6.0422286636
 30
0.0
 10
6.0711985418
 20
6.0425804509
 30
0.0
 10
6.0654702158
 20
6.0432622499
 30
0.0
 10
6.059767512
 20
6.0440869358
 30
0.0
 10
6.0526889396
 20
6.045382762
 30
0.0
 10
6.044293136
 20
6.0473496137
 30
0.0
 10
6.0360196573
 20
6.0497206471
 30
0.0
 10
6.0251940152
 20
6.0534052666
 30
0.0
 10
6.0120587252
 20
6.0589739278
 30
0.0
 10
5.9970614209
 20
6.0671186532
 30
0.0
 10
5.9829550554
 20
6.0766277041
 30
0.0
 10
5.9698387917
 20
6.0874077226
 30
0.0
 10
5.9578001986
 20
6.0993656121
 30
0.0
 10
5.946921094
 20
6.1124073373
 30
0.0
 10
5.9372805442
 20
6.126434066
 30
0.0
 10
5.9303478474
 20
6.138847711
 30
0.0
 10
5.9254963873
 20
6.1491553332
 30
0.0
 10
5.9211095511
 20
6.1597182293
 30
0.0
 10
5.9165381621
 20
6.1733245862
 30
0.0
 10
5.9132387371
 20
6.1873195677
 30
0.0
 10
5.9113796635
 20
6.1986856119
 30
0.0
 10
5.9100463944
 20
6.2101482774
 30
0.0
 10
5.9096444579
 20
6.2188112656
 30
0.0
 10
5.9096444099
 20
6.2245831934
 30
0.0
  0
SPLINE
  5
27F
100
AcDbEntity
  8
0
100
AcDbSpline
 62
7
  6
CONTINUOUS
 70
0
 71
3
 72
30
 73
26
 74
0
 42
0.0000001
 43
0.0000001
 44
0.0000000001
 40
0.0
 40
0.0
 40
0.0
 40
0.0
 40
0.0622135029
 40
0.0933291484
 40
0.1244479458
 40
0.1866885089
 40
0.2489554258
 40
0.280107592
 40
0.3112692367
 40
0.3424411949
 40
0.3736242412
 40
0.4360138238
 40
0.4984551324
 40
0.5609515013
 40
0.6235048696
 40
0.6548093135
 40
0.6861280757
 40
0.7174609843
 40
0.748807791
 40
0.8115293688
 40
0.87430138
 40
0.905710897
 40
0.9371310483
 40
0.968561036
 40
1.0
 40
1.0
 40
1.0
 40
1.0
 10
4.9408944099
 20
2.4927003559
 30
0.0
 10
4.9408944099
 20
2.4828786218
 30
0.0
 10
4.940301125
 20
2.4681356189
 30
0.0
 10
4.9383286634
 20
2.4485843352
 30
0.0
 10
4.9355715268
 20
2.4291227713
 30
0.0
 10
4.9306602371
 20
2.4050211507
 30
0.0
 10
4.9238285718
 20
2.3813862923
 30
0.0
 10
4.9172393718
 20
2.3628505
 30
0.0
 10
4.9117409647
 20
2.3491498372
 30
0.0
 10
4.9056959431
 20
2.3356760618
 30
0.0
 10
4.8969199017
 20
2.3180411625
 30
0.0
 10
4.8846287624
 20
2.2966640117
 30
0.0
 10
4.867870419
 20
2.2722594222
 30
0.0
 10
4.849204581
 20
2.2492476771
 30
0.0
 10
4.8321593123
 20
2.2313548715
 30
0.0
 10
4.817697457
 20
2.2178807429
 30
0.0
 10
4.8064490879
 20
2.208205439
 30
0.0
 10
4.7948205747
 20
2.198979791
 30
0.0
 10
4.7788326762
 20
2.1872968396
 30
0.0
 10
4.7579856269
 20
2.1738858789
 30
0.0
 10
4.7361355417
 20
2.1621592674
 30
0.0
 10
4.7181358844
 20
2.153830541
 30
0.0
 10
4.7043909943
 20
2.1481173329
 30
0.0
 10
4.690427735
 20
2.1429486899
 30
0.0
 10
4.6809883409
 20
2.1398716585
 30
0.0
 10
4.6762400648
 20
2.138426543
 30
0.0
  0
SPLINE
  5
280
100
AcDbEntity
  8
0
100
AcDbSpline
 62
7
  6
CONTINUOUS
 70
0
 71
3
 72
30
 73
26
 74
0
 42
0.0000001
 43
0.0000001
 44
0.0000000001
 40
0.0
 40
0.0
 40
0.0
 40
0.0
 40
0.031438964
 40
0.0628689517
 40
0.094289103
 40
0.12569862
 40
0.1884706312
 40
0.251192209
 40
0.2825390157
 40
0.3138719243
 40
0.3451906865
 40
0.3764951304
 40
0.4390484987
 40
0.5015448676
 40
0.5639861762
 40
0.6263757588
 40
0.6575588051
 40
0.6887307633
 40
0.719892408
 40
0.7510445742
 40
0.8133114911
 40
0.8755520542
 40
0.9066708516
 40
0.9377864971
 40
1.0
 40
1.0
 40
1.0
 40
1.0
 10
4.4555487534
 20
2.1384265435
 30
0.0
 10
4.4508004773
 20
2.1398716591
 30
0.0
 10
4.4413610833
 20
2.1429486905
 30
0.0
 10
4.4273978241
 20
2.1481173335
 30
0.0
 10
4.4136529341
 20
2.1538305417
 30
0.0
 10
4.3956532768
 20
2.1621592681
 30
0.0
 10
4.3738031918
 20
2.1738858796
 30
0.0
 10
4.3529561425
 20
2.1872968404
 30
0.0
 10
4.3369682442
 20
2.1989797917
 30
0.0
 10
4.325339731
 20
2.2082054398
 30
0.0
 10
4.314091362
 20
2.2178807437
 30
0.0
 10
4.2996295069
 20
2.2313548723
 30
0.0
 10
4.2825842383
 20
2.2492476778
 30
0.0
 10
4.2639184003
 20
2.2722594229
 30
0.0
 10
4.247160057
 20
2.2966640124
 30
0.0
 10
4.2348689179
 20
2.318041163
 30
0.0
 10
4.2260928765
 20
2.3356760623
 30
0.0
 10
4.2200478549
 20
2.3491498377
 30
0.0
 10
4.2145494479
 20
2.3628505004
 30
0.0
 10
4.207960248
 20
2.3813862927
 30
0.0
 10
4.2011285827
 20
2.405021151
 30
0.0
 10
4.196217293
 20
2.4291227715
 30
0.0
 10
4.1934601565
 20
2.4485843354
 30
0.0
 10
4.1914876948
 20
2.468135619
 30
0.0
 10
4.1908944099
 20
2.4828786219
 30
0.0
 10
4.1908944099
 20
2.4927003559
 30
0.0
  0
SPLINE
  5
281
100
AcDbEntity
  8
0
100
AcDbSpline
 62
7
  6
CONTINUOUS
 70
0
 71
3
 72
44
 73
40
 74
0
 42
0.0000001
 43
0.0000001
 44
0.0000000001
 40
0.0
 40
0.0
 40
0.0
 40
0.0
 40
0.003906133
 40
0.005859196
 40
0.0078122598
 40
0.0117184075
 40
0.0156245666
 40
0.0195307153
 40
0.0234368639
 40
0.0312491853
 40
0.0390615336
 40
0.0468738951
 40
0.0546863029
 40
0.0624987662
 40
0.0781236199
 40
0.0937485414
 40
0.1093736605
 40
0.1249989693
 40
0.1562487708
 40
0.1874993131
 40
0.2187507309
 40
0.2500031413
 40
0.3125005135
 40
0.3749995654
 40
0.4374977228
 40
0.4999946839
 40
0.5624902379
 40
0.6249843211
 40
0.656237883
 40
0.6874912315
 40
0.7187443297
 40
0.7499972497
 40
0.8124872003
 40
0.8437395737
 40
0.8749920031
 40
0.9062441626
 40
0.9374961324
 40
0.9687482645
 40
1.0
 40
1.0
 40
1.0
 40
1.0
 10
4.7259825769
 20
6.6745831926
 30
0.0
 10
4.7267592617
 20
6.6743551556
 30
0.0
 10
4.727925405
 20
6.6740169192
 30
0.0
 10
4.7294793668
 20
6.6735628673
 30
0.0
 10
4.7310317924
 20
6.6731035734
 30
0.0
 10
4.7329698112
 20
6.6725209904
 30
0.0
 10
4.7352924118
 20
6.6718119268
 30
0.0
 10
4.7376122777
 20
6.671093962
 30
0.0
 10
4.740701528
 20
6.6701241491
 30
0.0
 10
4.7445555706
 20
6.6688880138
 30
0.0
 10
4.7491675561
 20
6.6673650894
 30
0.0
 10
4.753765789
 20
6.6658010681
 30
0.0
 10
4.7583500682
 20
6.6641965344
 30
0.0
 10
4.7644438143
 20
6.6620046858
 30
0.0
 10
4.7720260616
 20
6.6591685642
 30
0.0
 10
4.7810640216
 20
6.6556070273
 30
0.0
 10
4.7900376217
 20
6.6518859411
 30
0.0
 10
4.8019133474
 20
6.6467154795
 30
0.0
 10
4.8165855141
 20
6.639862512
 30
0.0
 10
4.8338879416
 20
6.6310173826
 30
0.0
 10
4.8508620616
 20
6.6215553868
 30
0.0
 10
4.873019233
 20
6.6081271143
 30
0.0
 10
4.8997717436
 20
6.5898287867
 30
0.0
 10
4.9301344887
 20
6.5655260147
 30
0.0
 10
4.9585425015
 20
6.5389606626
 30
0.0
 10
4.9847712988
 20
6.5102397526
 30
0.0
 10
5.0085963722
 20
6.4794956973
 30
0.0
 10
5.0262672555
 20
6.4523151335
 30
0.0
 10
5.0389826173
 20
6.4297391509
 30
0.0
 10
5.0477866392
 20
6.412411427
 30
0.0
 10
5.0558326078
 20
6.3947187259
 30
0.0
 10
5.0655174415
 20
6.3706878572
 30
0.0
 10
5.0736073457
 20
6.3460376858
 30
0.0
 10
5.08001187
 20
6.3209323883
 30
0.0
 10
5.0839651945
 20
6.3019024369
 30
0.0
 10
5.0870557314
 20
6.2827139639
 30
0.0
 10
5.0892655606
 20
6.2634039682
 30
0.0
 10
5.0905937497
 20
6.244014008
 30
0.0
 10
5.0908920241
 20
6.2310594986
 30
0.0
 10
5.0908944099
 20
6.2245831934
 30
0.0
  0
SPLINE
  5
282
100
AcDbEntity
  8
0
100
AcDbSpline
 62
7
  6
CONTINUOUS
 70
0
 71
3
 72
32
 73
28
 74
0
 42
0.0000001
 43
0.0000001
 44
0.0000000001
 40
0.0
 40
0.0
 40
0.0
 40
0.0
 40
0.0229854762
 40
0.0432734403
 40
0.061043424
 40
0.0766687406
 40
0.0907727558
 40
0.1042472549
 40
0.1181254269
 40
0.1333473374
 40
0.1505985034
 40
0.1703027349
 40
0.1926785011
 40
0.2178069996
 40
0.2456676789
 40
0.2761725614
 40
0.3091792146
 40
0.344504045
 40
0.4212038396
 40
0.5042574623
 40
0.5913429711
 40
0.6799664937
 40
0.7675711481
 40
0.8516432583
 40
0.929812264
 40
0.9660319149
 40
1.0
 40
1.0
 40
1.0
 40
1.0
 10
4.6121455118
 20
2.1592827517
 30
0.0
 10
4.6123215662
 20
2.1593803429
 30
0.0
 10
4.6126456706
 20
2.1595781134
 30
0.0
 10
4.6130691316
 20
2.1599066642
 30
0.0
 10
4.6133963324
 20
2.1602472161
 30
0.0
 10
4.6136242354
 20
2.1605990799
 30
0.0
 10
4.6137476843
 20
2.1609616966
 30
0.0
 10
4.6137603048
 20
2.1613300817
 30
0.0
 10
4.6136610604
 20
2.1616946483
 30
0.0
 10
4.613455919
 20
2.162049035
 30
0.0
 10
4.6131505895
 20
2.1623921286
 30
0.0
 10
4.6127483338
 20
2.1627234598
 30
0.0
 10
4.6122520994
 20
2.1630419211
 30
0.0
 10
4.6116652244
 20
2.1633455298
 30
0.0
 10
4.6109919807
 20
2.1636322338
 30
0.0
 10
4.6102373936
 20
2.1638997722
 30
0.0
 10
4.6094072667
 20
2.1641460758
 30
0.0
 10
4.6081741666
 20
2.1644518804
 30
0.0
 10
4.6064923725
 20
2.1647615357
 30
0.0
 10
4.6043443021
 20
2.1650144194
 30
0.0
 10
4.6020810317
 20
2.1651493659
 30
0.0
 10
4.5997740242
 20
2.1651619294
 30
0.0
 10
4.5974959541
 20
2.165051705
 30
0.0
 10
4.5953188136
 20
2.1648222722
 30
0.0
 10
4.5936036932
 20
2.1645314529
 30
0.0
 10
4.5923372999
 20
2.1642398943
 30
0.0
 10
4.5917445152
 20
2.164076352
 30
0.0
 10
4.5914598701
 20
2.1639899375
 30
0.0
  0
SPLINE
  5
283
100
AcDbEntity
  8
0
100
AcDbSpline
 62
7
  6
CONTINUOUS
 70
0
 71
3
 72
28
 73
24
 74
0
 42
0.0000001
 43
0.0000001
 44
0.0000000001
 40
0.0
 40
0.0
 40
0.0
 40
0.0
 40
0.0537651455
 40
0.099164751
 40
0.1190756584
 40
0.1374169374
 40
0.1545329896
 40
0.1708657244
 40
0.1869313703
 40
0.2032763618
 40
0.2204159433
 40
0.2387903971
 40
0.2587401847
 40
0.2805154172
 40
0.3042859668
 40
0.3301554827
 40
0.388358737
 40
0.4551888407
 40
0.530262537
 40
0.6129214107
 40
0.7023044257
 40
0.7973820016
 40
1.0
 40
1.0
 40
1.0
 40
1.0
 10
4.577346943
 20
2.1847874271
 30
0.0
 10
4.5775752058
 20
2.1849139522
 30
0.0
 10
4.5779843874
 20
2.1851701092
 30
0.0
 10
4.5784228017
 20
2.1855531267
 30
0.0
 10
4.5786770402
 20
2.1858710924
 30
0.0
 10
4.5788149807
 20
2.1861029232
 30
0.0
 10
4.5789076503
 20
2.1863379468
 30
0.0
 10
4.5789541328
 20
2.1865752383
 30
0.0
 10
4.5789535655
 20
2.1868133821
 30
0.0
 10
4.5789060398
 20
2.1870506363
 30
0.0
 10
4.578812313
 20
2.1872856009
 30
0.0
 10
4.5786733071
 20
2.187517321
 30
0.0
 10
4.5784900788
 20
2.1877453084
 30
0.0
 10
4.5782633764
 20
2.1879690331
 30
0.0
 10
4.5779940388
 20
2.1881879896
 30
0.0
 10
4.5775620717
 20
2.1884845157
 30
0.0
 10
4.5769160709
 20
2.1888339768
 30
0.0
 10
4.5760189691
 20
2.189209242
 30
0.0
 10
4.5749827371
 20
2.1895505356
 30
0.0
 10
4.5738213172
 20
2.1898530838
 30
0.0
 10
4.5725503458
 20
2.1901126061
 30
0.0
 10
4.5706934158
 20
2.1904023922
 30
0.0
 10
4.5692524028
 20
2.1905343254
 30
0.0
 10
4.5682704141
 20
2.1905894932
 30
0.0
  0
SPLINE
  5
284
100
AcDbEntity
  8
0
100
AcDbSpline
 62
7
  6
CONTINUOUS
 70
0
 71
3
 72
32
 73
28
 74
0
 42
0.0000001
 43
0.0000001
 44
0.0000000001
 40
0.0
 40
0.0
 40
0.0
 40
0.0
 40
0.0229854762
 40
0.0432734403
 40
0.061043424
 40
0.0766687406
 40
0.0907727558
 40
0.1042472549
 40
0.1181254269
 40
0.1333473374
 40
0.1505985034
 40
0.1703027349
 40
0.1926785011
 40
0.2178069996
 40
0.2456676789
 40
0.2761725614
 40
0.3091792146
 40
0.344504045
 40
0.4212038396
 40
0.5042574623
 40
0.5913429711
 40
0.6799664937
 40
0.7675711481
 40
0.8516432583
 40
0.929812264
 40
0.9660319149
 40
1.0
 40
1.0
 40
1.0
 40
1.0
 10
4.5425483877
 20
2.1804115164
 30
0.0
 10
4.542724442
 20
2.1805091076
 30
0.0
 10
4.5430485465
 20
2.1807068781
 30
0.0
 10
4.5434720075
 20
2.1810354289
 30
0.0
 10
4.5437992083
 20
2.1813759809
 30
0.0
 10
4.5440271113
 20
2.1817278446
 30
0.0
 10
4.5441505602
 20
2.1820904614
 30
0.0
 10
4.5441631806
 20
2.1824588465
 30
0.0
 10
4.5440639362
 20
2.182823413
 30
0.0
 10
4.5438587949
 20
2.1831777998
 30
0.0
 10
4.5435534654
 20
2.1835208933
 30
0.0
 10
4.5431512097
 20
2.1838522245
 30
0.0
 10
4.5426549752
 20
2.1841706858
 30
0.0
 10
4.5420681002
 20
2.1844742945
 30
0.0
 10
4.5413948566
 20
2.1847609985
 30
0.0
 10
4.5406402695
 20
2.1850285369
 30
0.0
 10
4.5398101426
 20
2.1852748406
 30
0.0
 10
4.5385770425
 20
2.1855806451
 30
0.0
 10
4.5368952483
 20
2.1858903004
 30
0.0
 10
4.5347471779
 20
2.1861431841
 30
0.0
 10
4.5324839076
 20
2.1862781306
 30
0.0
 10
4.5301769
 20
2.1862906941
 30
0.0
 10
4.5278988299
 20
2.1861804697
 30
0.0
 10
4.5257216895
 20
2.1859510369
 30
0.0
 10
4.5240065691
 20
2.1856602176
 30
0.0
 10
4.5227401758
 20
2.185368659
 30
0.0
 10
4.5221473911
 20
2.1852051167
 30
0.0
 10
4.521862746
 20
2.1851187022
 30
0.0
  0
SPLINE
  5
285
100
AcDbEntity
  8
0
100
AcDbSpline
 62
7
  6
CONTINUOUS
 70
0
 71
3
 72
28
 73
24
 74
0
 42
0.0000001
 43
0.0000001
 44
0.0000000001
 40
0.0
 40
0.0
 40
0.0
 40
0.0
 40
0.0632204906
 40
0.0948099974
 40
0.1263660808
 40
0.1893268505
 40
0.2520628016
 40
0.2833454832
 40
0.314564747
 40
0.376805141
 40
0.4388379787
 40
0.5007272632
 40
0.5625566314
 40
0.6244200716
 40
0.6554028113
 40
0.6864283651
 40
0.7175063071
 40
0.7486442805
 40
0.8111032057
 40
0.873839135
 40
0.9053127162
 40
0.9368409826
 40
1.0
 40
1.0
 40
1.0
 40
1.0
 10
5.9096444099
 20
6.2245831934
 30
0.0
 10
5.909644442
 20
6.2303551405
 30
0.0
 10
5.9100460661
 20
6.239018181
 30
0.0
 10
5.9113797015
 20
6.2504808482
 30
0.0
 10
5.9132388467
 20
6.2618469099
 30
0.0
 10
5.9165381975
 20
6.2758419528
 30
0.0
 10
5.9211096497
 20
6.2894483313
 30
0.0
 10
5.9254964863
 20
6.3000112613
 30
0.0
 10
5.9303479559
 20
6.3103189124
 30
0.0
 10
5.9372807033
 20
6.3227325855
 30
0.0
 10
5.9469212629
 20
6.3367593122
 30
0.0
 10
5.9578005716
 20
6.3498011412
 30
0.0
 10
5.9698386919
 20
6.3617586884
 30
0.0
 10
5.980766331
 20
6.3707395954
 30
0.0
 10
5.9899941772
 20
6.3772838242
 30
0.0
 10
5.9971552922
 20
6.381866641
 30
0.0
 10
6.0045396011
 20
6.3861089802
 30
0.0
 10
6.0146733787
 20
6.3913007647
 30
0.0
 10
6.0278359658
 20
6.3968815694
 30
0.0
 10
6.0415084882
 20
6.4011649406
 30
0.0
 10
6.05268981
 20
6.4037839343
 30
0.0
 10
6.0640235546
 20
6.4058560383
 30
0.0
 10
6.0726375218
 20
6.406780214
 30
0.0
 10
6.0783944099
 20
6.4071101455
 30
0.0
  0
SPLINE
  5
286
100
AcDbEntity
  8
0
100
AcDbSpline
 62
7
  6
CONTINUOUS
 70
0
 71
3
 72
24
 73
20
 74
0
 42
0.0000001
 43
0.0000001
 44
0.0000000001
 40
0.0
 40
0.0
 40
0.0
 40
0.0
 40
0.0342398048
 40
0.0684516449
 40
0.1025813653
 40
0.1365895498
 40
0.2040772821
 40
0.237511486
 40
0.270702526
 40
0.3362811334
 40
0.4007601956
 40
0.4641413132
 40
0.5264741566
 40
0.5878415358
 40
0.6483463046
 40
0.7671740723
 40
0.8840091498
 40
0.9420421734
 40
1.0
 40
1.0
 40
1.0
 40
1.0
 10
5.9304071315
 20
6.2230701479
 30
0.0
 10
5.9303836128
 20
6.224900319
 30
0.0
 10
5.9304202563
 20
6.2285608318
 30
0.0
 10
5.9307313558
 20
6.2340374934
 30
0.0
 10
5.931298363
 20
6.2394813758
 30
0.0
 10
5.932380117
 20
6.2466521378
 30
0.0
 10
5.9339396975
 20
6.2537062127
 30
0.0
 10
5.9359517318
 20
6.2605891123
 30
0.0
 10
5.9382302158
 20
6.2672809044
 30
0.0
 10
5.9415648971
 20
6.2753571469
 30
0.0
 10
5.9462818479
 20
6.2845710738
 30
0.0
 10
5.951609105
 20
6.2932421038
 30
0.0
 10
5.9574624886
 20
6.3013612471
 30
0.0
 10
5.9637712065
 20
6.3089320266
 30
0.0
 10
5.9726537268
 20
6.3182518109
 30
0.0
 10
5.9846424688
 20
6.3286564667
 30
0.0
 10
5.9976428086
 20
6.3375193285
 30
0.0
 10
6.0084648382
 20
6.3436753782
 30
0.0
 10
6.0140106986
 20
6.3464558621
 30
0.0
 10
6.0168147861
 20
6.3477733931
 30
0.0
  0
SPLINE
  5
287
100
AcDbEntity
  8
0
100
AcDbSpline
 62
7
  6
CONTINUOUS
 70
0
 71
3
 72
25
 73
21
 74
0
 42
0.0000001
 43
0.0000001
 44
0.0000000001
 40
0.0
 40
0.0
 40
0.0
 40
0.0
 40
0.1161379886
 40
0.2331277663
 40
0.2923082106
 40
0.352096709
 40
0.4126114179
 40
0.4739617661
 40
0.536249763
 40
0.5995588208
 40
0.663943359
 40
0.7294149774
 40
0.7625524046
 40
0.7959366749
 40
0.8295491847
 40
0.8633661316
 40
0.8973557843
 40
0.9314846748
 40
0.9657165601
 40
1.0
 40
1.0
 40
1.0
 40
1.0
 10
6.0168136683
 20
6.1013932945
 30
0.0
 10
6.0113003995
 20
6.1039833802
 30
0.0
 10
6.0004869434
 20
6.1097434466
 30
0.0
 10
5.9877681525
 20
6.1183622753
 30
0.0
 10
5.9781458263
 20
6.1261548556
 30
0.0
 10
5.9711902122
 20
6.1325070919
 30
0.0
 10
5.9645622542
 20
6.1393603261
 30
0.0
 10
5.9583096341
 20
6.1467315168
 30
0.0
 10
5.952487813
 20
6.1546312783
 30
0.0
 10
5.9471624663
 20
6.1630640922
 30
0.0
 10
5.942412993
 20
6.1720244405
 30
0.0
 10
5.9390157431
 20
6.1798805457
 30
0.0
 10
5.9366661703
 20
6.1863944199
 30
0.0
 10
5.9350958007
 20
6.1914078929
 30
0.0
 10
5.9337344414
 20
6.1965189515
 30
0.0
 10
5.9325905436
 20
6.201715633
 30
0.0
 10
5.9316741218
 20
6.20698477
 30
0.0
 10
5.9309942314
 20
6.2123116579
 30
0.0
 10
5.930557986
 20
6.2176793814
 30
0.0
 10
5.9304305095
 20
6.2212721561
 30
0.0
 10
5.9304071315
 20
6.2230701479
 30
0.0
  0
SPLINE
  5
288
100
AcDbEntity
  8
0
100
AcDbSpline
 62
7
  6
CONTINUOUS
 70
0
 71
3
 72
16
 73
12
 74
0
 42
0.0000001
 43
0.0000001
 44
0.0000000001
 40
0.0
 40
0.0
 40
0.0
 40
0.0
 40
0.1470593449
 40
0.2868447618
 40
0.4193998461
 40
0.4831182952
 40
0.5452140125
 40
0.6648940431
 40
0.7795820986
 40
0.890729598
 40
1.0
 40
1.0
 40
1.0
 40
1.0
 10
6.0168143977
 20
6.1013930401
 30
0.0
 10
6.0174767724
 20
6.1017615794
 30
0.0
 10
6.0187995323
 20
6.1024272782
 30
0.0
 10
6.0208160015
 20
6.1032153167
 30
0.0
 10
6.0224899391
 20
6.1036756409
 30
0.0
 10
6.0238008355
 20
6.103914495
 30
0.0
 10
6.0250578724
 20
6.1040649545
 30
0.0
 10
6.026590471
 20
6.1041012637
 30
0.0
 10
6.0283654404
 20
6.1038909952
 30
0.0
 10
6.0300362604
 20
6.1034268838
 30
0.0
 10
6.03107337
 20
6.102948707
 30
0.0
 10
6.0315638191
 20
6.1026718017
 30
0.0
  0
SPLINE
  5
289
100
AcDbEntity
  8
0
100
AcDbSpline
 62
7
  6
CONTINUOUS
 70
0
 71
3
 72
16
 73
12
 74
0
 42
0.0000001
 43
0.0000001
 44
0.0000000001
 40
0.0
 40
0.0
 40
0.0
 40
0.0
 40
0.1470593522
 40
0.2868447803
 40
0.4193998821
 40
0.483118335
 40
0.5452140519
 40
0.664894072
 40
0.779582107
 40
0.8907295931
 40
1.0
 40
1.0
 40
1.0
 40
1.0
 10
6.0168146589
 20
6.3477733417
 30
0.0
 10
6.0174770307
 20
6.3474048022
 30
0.0
 10
6.0187997848
 20
6.3467391021
 30
0.0
 10
6.0208162455
 20
6.3459510607
 30
0.0
 10
6.0224901767
 20
6.3454907332
 30
0.0
 10
6.0238010683
 20
6.345251876
 30
0.0
 10
6.0250581007
 20
6.3451014134
 30
0.0
 10
6.0265906942
 20
6.3450651002
 30
0.0
 10
6.0283656582
 20
6.3452753637
 30
0.0
 10
6.0300364737
 20
6.3457394703
 30
0.0
 10
6.0310735806
 20
6.3462176442
 30
0.0
 10
6.0315640285
 20
6.346494548
 30
0.0
  0
SPLINE
  5
28A
100
AcDbEntity
  8
0
100
AcDbSpline
 62
7
  6
CONTINUOUS
 70
0
 71
3
 72
45
 73
41
 74
0
 42
0.0000001
 43
0.0000001
 44
0.0000000001
 40
0.0
 40
0.0
 40
0.0
 40
0.0
 40
0.0892449122
 40
0.1327922628
 40
0.1751064607
 40
0.2158464971
 40
0.2546833852
 40
0.2913161289
 40
0.3254760987
 40
0.3569335458
 40
0.3855100885
 40
0.411092288
 40
0.4336549396
 40
0.4533005105
 40
0.4621205821
 40
0.4703416206
 40
0.4852980492
 40
0.4922948111
 40
0.4991456747
 40
0.5060054316
 40
0.5130282981
 40
0.5280809599
 40
0.5363666474
 40
0.5452589937
 40
0.5650651133
 40
0.587798306
 40
0.6135525854
 40
0.6422969748
 40
0.673913578
 40
0.7082208861
 40
0.7449868277
 40
0.7839405148
 40
0.8247772614
 40
0.8671668288
 40
0.888845197
 40
0.9107869827
 40
0.9329283135
 40
0.9552006692
 40
0.9775595983
 40
1.0
 40
1.0
 40
1.0
 40
1.0
 10
4.5652354185
 20
2.0534570179
 30
0.0
 10
4.5637591967
 20
2.0534810679
 30
0.0
 10
4.5615625116
 20
2.0535619837
 30
0.0
 10
4.5586751762
 20
2.053802061
 30
0.0
 10
4.5565943629
 20
2.0540439048
 30
0.0
 10
4.5545999611
 20
2.0543444115
 30
0.0
 10
4.5527104278
 20
2.0547016188
 30
0.0
 10
4.5509432354
 20
2.055112065
 30
0.0
 10
4.5493145878
 20
2.0555717592
 30
0.0
 10
4.5478393253
 20
2.0560764631
 30
0.0
 10
4.546530701
 20
2.0566214292
 30
0.0
 10
4.5454
 20
2.0572018418
 30
0.0
 10
4.5444569665
 20
2.0578128306
 30
0.0
 10
4.5438115689
 20
2.0583627466
 30
0.0
 10
4.5434067412
 20
2.0588163316
 30
0.0
 10
4.543096038
 20
2.0592454909
 30
0.0
 10
4.5428736564
 20
2.0597002727
 30
0.0
 10
4.5427654618
 20
2.0601661025
 30
0.0
 10
4.5427409912
 20
2.0605092786
 30
0.0
 10
4.5427717345
 20
2.060852378
 30
0.0
 10
4.5428885691
 20
2.0613183382
 30
0.0
 10
4.5431191534
 20
2.0617723409
 30
0.0
 10
4.5434374439
 20
2.0622006916
 30
0.0
 10
4.5438504094
 20
2.0626535317
 30
0.0
 10
4.5445055095
 20
2.0632021608
 30
0.0
 10
4.5454594235
 20
2.0638115325
 30
0.0
 10
4.5466005306
 20
2.0643900567
 30
0.0
 10
4.5479189645
 20
2.0649328615
 30
0.0
 10
4.5494033347
 20
2.06543512
 30
0.0
 10
4.5510402892
 20
2.0658920964
 30
0.0
 10
4.5528148687
 20
2.0662997436
 30
0.0
 10
4.5547108743
 20
2.0666535823
 30
0.0
 10
4.5567105929
 20
2.0669506733
 30
0.0
 10
4.5584350568
 20
2.0671490283
 30
0.0
 10
4.5598524144
 20
2.0672751653
 30
0.0
 10
4.5609375913
 20
2.0673530445
 30
0.0
 10
4.5620335043
 20
2.0674168667
 30
0.0
 10
4.5631368683
 20
2.0674704152
 30
0.0
 10
4.5642456428
 20
2.0675137127
 30
0.0
 10
4.5649866302
 20
2.0675309139
 30
0.0
 10
4.5653578412
 20
2.0675356662
 30
0.0
  0
SPLINE
  5
28B
100
AcDbEntity
  8
0
100
AcDbSpline
 62
7
  6
CONTINUOUS
 70
0
 71
3
 72
46
 73
42
 74
0
 42
0.0000001
 43
0.0000001
 44
0.0000000001
 40
0.0
 40
0.0
 40
0.0
 40
0.0
 40
0.0894258955
 40
0.1333689605
 40
0.1762640625
 40
0.2177552698
 40
0.2575038798
 40
0.2951901434
 40
0.3305263951
 40
0.3632610873
 40
0.3931872007
 40
0.4201553911
 40
0.4440947307
 40
0.4650415118
 40
0.4744529329
 40
0.4832073233
 40
0.4989841772
 40
0.506223617
 40
0.5131843014
 40
0.5200131881
 40
0.5268667278
 40
0.533899679
 40
0.5412536808
 40
0.557361103
 40
0.5663153723
 40
0.5759425281
 40
0.5973497671
 40
0.6217643102
 40
0.6351115416
 40
0.6492077873
 40
0.6795847893
 40
0.7127419013
 40
0.748463835
 40
0.7864926341
 40
0.8265353293
 40
0.8682644767
 40
0.8896593641
 40
0.9113546924
 40
0.9554277299
 40
0.977672067
 40
1.0
 40
1.0
 40
1.0
 40
1.0
 10
4.5653578412
 20
2.0675356662
 30
0.0
 10
4.5668483817
 20
2.06752659
 30
0.0
 10
4.569071862
 20
2.0674737202
 30
0.0
 10
4.5720038007
 20
2.0672786282
 30
0.0
 10
4.574132791
 20
2.0670676948
 30
0.0
 10
4.5761843196
 20
2.066795546
 30
0.0
 10
4.5781393338
 20
2.0664650971
 30
0.0
 10
4.5799794777
 20
2.0660789039
 30
0.0
 10
4.5816876505
 20
2.0656409184
 30
0.0
 10
4.5832480887
 20
2.0651553065
 30
0.0
 10
4.5846464896
 20
2.0646266483
 30
0.0
 10
4.5858704361
 20
2.0640597793
 30
0.0
 10
4.586909103
 20
2.0634597461
 30
0.0
 10
4.587637844
 20
2.0629178795
 30
0.0
 10
4.5881114257
 20
2.0624685519
 30
0.0
 10
4.5884855108
 20
2.0620436782
 30
0.0
 10
4.5887751872
 20
2.061593114
 30
0.0
 10
4.5889533648
 20
2.0611246185
 30
0.0
 10
4.5890281741
 20
2.0607807262
 30
0.0
 10
4.5890473215
 20
2.0604356943
 30
0.0
 10
4.5890107304
 20
2.060090877
 30
0.0
 10
4.5889185744
 20
2.0597476204
 30
0.0
 10
4.5887166144
 20
2.059279546
 30
0.0
 10
4.5884047045
 20
2.0588313546
 30
0.0
 10
4.5880098077
 20
2.0584086202
 30
0.0
 10
4.587514078
 20
2.0579618117
 30
0.0
 10
4.5867590805
 20
2.0574237847
 30
0.0
 10
4.5858962425
 20
2.0569430369
 30
0.0
 10
4.5851158376
 20
2.0565709809
 30
0.0
 10
4.5842299778
 20
2.0561908089
 30
0.0
 10
4.5830141246
 20
2.0557451528
 30
0.0
 10
4.5814296158
 20
2.0552667478
 30
0.0
 10
4.5796997023
 20
2.054836553
 30
0.0
 10
4.5778404295
 20
2.0544587745
 30
0.0
 10
4.5758690888
 20
2.0541378354
 30
0.0
 10
4.5741630248
 20
2.0539197396
 30
0.0
 10
4.5727565585
 20
2.0537754947
 30
0.0
 10
4.5713088056
 20
2.0536529274
 30
0.0
 10
4.5698442134
 20
2.0535653904
 30
0.0
 10
4.5683682615
 20
2.0534966477
 30
0.0
 10
4.5676257567
 20
2.0534702703
 30
0.0
 10
4.5672537242
 20
2.0534602905
 30
0.0
  0
SPLINE
  5
28C
100
AcDbEntity
  8
0
100
AcDbSpline
 62
7
  6
CONTINUOUS
 70
0
 71
3
 72
31
 73
27
 74
0
 42
0.0000001
 43
0.0000001
 44
0.0000000001
 40
0.0
 40
0.0
 40
0.0
 40
0.0
 40
0.097578061
 40
0.1939217568
 40
0.2878023042
 40
0.3780551289
 40
0.463573267
 40
0.5433494371
 40
0.6164995654
 40
0.6823033994
 40
0.7122913218
 40
0.7402778177
 40
0.7662487109
 40
0.7902200816
 40
0.8122413198
 40
0.8324107462
 40
0.8508824912
 40
0.8678871731
 40
0.8837402608
 40
0.8988486993
 40
0.9136909882
 40
0.9287750173
 40
0.9445818349
 40
0.9615225878
 40
0.9799171013
 40
1.0
 40
1.0
 40
1.0
 40
1.0
 10
4.5658944099
 20
2.0704318294
 30
0.0
 10
4.5648181583
 20
2.0704318294
 30
0.0
 10
4.5626790666
 20
2.0703935651
 30
0.0
 10
4.5595086706
 20
2.0702218789
 30
0.0
 10
4.5564273361
 20
2.0699384328
 30
0.0
 10
4.5534781221
 20
2.0695473598
 30
0.0
 10
4.5507019828
 20
2.0690542346
 30
0.0
 10
4.5481372929
 20
2.0684661906
 30
0.0
 10
4.5458194944
 20
2.0677916018
 30
0.0
 10
4.5440688358
 20
2.0671469285
 30
0.0
 10
4.5428224263
 20
2.0665886891
 30
0.0
 10
4.5419973496
 20
2.0661675321
 30
0.0
 10
4.5412555247
 20
2.0657322653
 30
0.0
 10
4.5405993702
 20
2.0652843546
 30
0.0
 10
4.540031108
 20
2.0648250446
 30
0.0
 10
4.5395525296
 20
2.0643557141
 30
0.0
 10
4.5391654655
 20
2.0638773446
 30
0.0
 10
4.5388715423
 20
2.0633910512
 30
0.0
 10
4.5386728592
 20
2.062897919
 30
0.0
 10
4.5385714926
 20
2.062399879
 30
0.0
 10
4.5385690784
 20
2.0618999229
 30
0.0
 10
4.5386656757
 20
2.0614017123
 30
0.0
 10
4.538859673
 20
2.0609082889
 30
0.0
 10
4.5391490358
 20
2.0604216294
 30
0.0
 10
4.5395315762
 20
2.0599428802
 30
0.0
 10
4.5398337183
 20
2.0596435466
 30
0.0
 10
4.5399981066
 20
2.0594950813
 30
0.0
  0
SPLINE
  5
28D
100
AcDbEntity
  8
0
100
AcDbSpline
 62
7
  6
CONTINUOUS
 70
0
 71
3
 72
31
 73
27
 74
0
 42
0.0000001
 43
0.0000001
 44
0.0000000001
 40
0.0
 40
0.0
 40
0.0
 40
0.0
 40
0.0975780694
 40
0.1939217854
 40
0.2878023424
 40
0.378055174
 40
0.4635733077
 40
0.5433494684
 40
0.6164995893
 40
0.6823034196
 40
0.712291339
 40
0.7402778339
 40
0.7662487241
 40
0.7902200931
 40
0.8122413291
 40
0.8324107537
 40
0.8508824977
 40
0.8678871781
 40
0.8837402654
 40
0.8988487029
 40
0.9136909912
 40
0.92877502
 40
0.9445818367
 40
0.9615225894
 40
0.979917102
 40
1.0
 40
1.0
 40
1.0
 40
1.0
 10
4.5658944099
 20
2.0704318294
 30
0.0
 10
4.5669706617
 20
2.0704318294
 30
0.0
 10
4.5691097537
 20
2.0703935651
 30
0.0
 10
4.5722801502
 20
2.0702218789
 30
0.0
 10
4.575361485
 20
2.0699384327
 30
0.0
 10
4.5783106991
 20
2.0695473596
 30
0.0
 10
4.5810868384
 20
2.0690542344
 30
0.0
 10
4.583651528
 20
2.0684661904
 30
0.0
 10
4.5859693263
 20
2.0677916016
 30
0.0
 10
4.5877199847
 20
2.0671469283
 30
0.0
 10
4.5889663941
 20
2.0665886888
 30
0.0
 10
4.5897914707
 20
2.0661675319
 30
0.0
 10
4.5905332955
 20
2.065732265
 30
0.0
 10
4.5911894499
 20
2.0652843544
 30
0.0
 10
4.5917577122
 20
2.0648250444
 30
0.0
 10
4.5922362904
 20
2.0643557139
 30
0.0
 10
4.5926233545
 20
2.0638773444
 30
0.0
 10
4.5929172777
 20
2.063391051
 30
0.0
 10
4.5931159607
 20
2.0628979189
 30
0.0
 10
4.5932173272
 20
2.0623998788
 30
0.0
 10
4.5932197416
 20
2.0618999228
 30
0.0
 10
4.5931231441
 20
2.0614017122
 30
0.0
 10
4.5929291469
 20
2.0609082889
 30
0.0
 10
4.592639784
 20
2.0604216293
 30
0.0
 10
4.5922572437
 20
2.0599428802
 30
0.0
 10
4.5919551016
 20
2.0596435466
 30
0.0
 10
4.5917907133
 20
2.0594950813
 30
0.0
  0
SPLINE
  5
28E
100
AcDbEntity
  8
0
100
AcDbSpline
 62
7
  6
CONTINUOUS
 70
0
 71
3
 72
11
 73
7
 74
0
 42
0.0000001
 43
0.0000001
 44
0.0000000001
 40
0.0
 40
0.0
 40
0.0
 40
0.0
 40
0.260336067
 40
0.5120643878
 40
0.7576367022
 40
1.0
 40
1.0
 40
1.0
 40
1.0
 10
4.5310958479
 20
2.1785644587
 30
0.0
 10
4.5316736382
 20
2.1783890492
 30
0.0
 10
4.5328339996
 20
2.1781164597
 30
0.0
 10
4.5345902375
 20
2.1779583534
 30
0.0
 10
4.5363091876
 20
2.1780614554
 30
0.0
 10
4.5374200336
 20
2.1783049534
 30
0.0
 10
4.5379579359
 20
2.1784682506
 30
0.0
  0
SPLINE
  5
28F
100
AcDbEntity
  8
0
100
AcDbSpline
 62
7
  6
CONTINUOUS
 70
0
 71
3
 72
11
 73
7
 74
0
 42
0.0000001
 43
0.0000001
 44
0.0000000001
 40
0.0
 40
0.0
 40
0.0
 40
0.0
 40
0.270793116
 40
0.5280441247
 40
0.7709780181
 40
1.0
 40
1.0
 40
1.0
 40
1.0
 10
4.521862746
 20
2.1851187022
 30
0.0
 10
4.522526418
 20
2.184324024
 30
0.0
 10
4.5239103327
 20
2.1828460823
 30
0.0
 10
4.5261895693
 20
2.1809629163
 30
0.0
 10
4.5285775012
 20
2.1795045911
 30
0.0
 10
4.5302579568
 20
2.1788188314
 30
0.0
 10
4.5310958479
 20
2.1785644587
 30
0.0
  0
SPLINE
  5
290
100
AcDbEntity
  8
0
100
AcDbSpline
 62
7
  6
CONTINUOUS
 70
0
 71
3
 72
15
 73
11
 74
0
 42
0.0000001
 43
0.0000001
 44
0.0000000001
 40
0.0
 40
0.0
 40
0.0
 40
0.0
 40
0.1274325181
 40
0.2527912098
 40
0.376741013
 40
0.4999821694
 40
0.6232256074
 40
0.7471822105
 40
0.8725520925
 40
1.0
 40
1.0
 40
1.0
 40
1.0
 10
4.6352518381
 20
2.190589305
 30
0.0
 10
4.6371672289
 20
2.1846117779
 30
0.0
 10
4.6405382161
 20
2.1726109491
 30
0.0
 10
4.644187098
 20
2.1543981825
 30
0.0
 10
4.6463762053
 20
2.1361591861
 30
0.0
 10
4.6471029327
 20
2.1179078494
 30
0.0
 10
4.6463668499
 20
2.0996565534
 30
0.0
 10
4.6441683967
 20
2.0814176788
 30
0.0
 10
4.6405101874
 20
2.0632051111
 30
0.0
 10
4.637133103
 20
2.0512046417
 30
0.0
 10
4.6352146783
 20
2.0452272916
 30
0.0
  0
SPLINE
  5
291
100
AcDbEntity
  8
0
100
AcDbSpline
 62
7
  6
CONTINUOUS
 70
0
 71
3
 72
15
 73
11
 74
0
 42
0.0000001
 43
0.0000001
 44
0.0000000001
 40
0.0
 40
0.0
 40
0.0
 40
0.0
 40
0.127448107
 40
0.2528179938
 40
0.3767745456
 40
0.5000179658
 40
0.6232590911
 40
0.747208801
 40
0.8725674168
 40
1.0
 40
1.0
 40
1.0
 40
1.0
 10
4.496574302
 20
2.0452269355
 30
0.0
 10
4.4946558187
 20
2.0512042784
 30
0.0
 10
4.4912786467
 20
2.0632047381
 30
0.0
 10
4.4876204233
 20
2.0814173174
 30
0.0
 10
4.4854220433
 20
2.0996562015
 30
0.0
 10
4.4846859743
 20
2.1179074942
 30
0.0
 10
4.4854126328
 20
2.1361588278
 30
0.0
 10
4.4876016104
 20
2.1543978335
 30
0.0
 10
4.4912504395
 20
2.1726106119
 30
0.0
 10
4.4946214612
 20
2.1846114348
 30
0.0
 10
4.4965368819
 20
2.1905889569
 30
0.0
  0
SPLINE
  5
292
100
AcDbEntity
  8
0
100
AcDbSpline
 62
7
  6
CONTINUOUS
 70
0
 71
3
 72
28
 73
24
 74
0
 42
0.0000001
 43
0.0000001
 44
0.0000000001
 40
0.0
 40
0.0
 40
0.0
 40
0.0
 40
0.2026244791
 40
0.2977003815
 40
0.3870828977
 40
0.4697410807
 40
0.5448140698
 40
0.6116435492
 40
0.6698462295
 40
0.6957154892
 40
0.7194858058
 40
0.7412608312
 40
0.7612104395
 40
0.7795847443
 40
0.7967242081
 40
0.8130691116
 40
0.8291346957
 40
0.8454673879
 40
0.862583408
 40
0.8809246565
 40
0.9008355281
 40
0.9462350268
 40
1.0
 40
1.0
 40
1.0
 40
1.0
 10
4.5635184057
 20
2.1905893588
 30
0.0
 10
4.5625363864
 20
2.1905341893
 30
0.0
 10
4.5610953307
 20
2.1904024551
 30
0.0
 10
4.559238394
 20
2.1901125718
 30
0.0
 10
4.5579674341
 20
2.1898530726
 30
0.0
 10
4.5568060254
 20
2.1895505188
 30
0.0
 10
4.5557698051
 20
2.1892092243
 30
0.0
 10
4.5548727136
 20
2.1888339603
 30
0.0
 10
4.5542267212
 20
2.1884844994
 30
0.0
 10
4.5537947604
 20
2.1881879741
 30
0.0
 10
4.5535254268
 20
2.1879690182
 30
0.0
 10
4.5532987283
 20
2.1877452943
 30
0.0
 10
4.5531155035
 20
2.1875173077
 30
0.0
 10
4.5529765007
 20
2.1872855884
 30
0.0
 10
4.5528827767
 20
2.1870506248
 30
0.0
 10
4.5528352534
 20
2.1868133716
 30
0.0
 10
4.5528346881
 20
2.186575229
 30
0.0
 10
4.5528811721
 20
2.1863379386
 30
0.0
 10
4.5529738427
 20
2.1861029162
 30
0.0
 10
4.5531117838
 20
2.1858710866
 30
0.0
 10
4.5533660226
 20
2.1855531225
 30
0.0
 10
4.5538044358
 20
2.1851701069
 30
0.0
 10
4.5542136161
 20
2.184913951
 30
0.0
 10
4.5544418781
 20
2.1847874265
 30
0.0
  0
SPLINE
  5
293
100
AcDbEntity
  8
0
100
AcDbSpline
 62
7
  6
CONTINUOUS
 70
0
 71
3
 72
11
 73
7
 74
0
 42
0.0000001
 43
0.0000001
 44
0.0000000001
 40
0.0
 40
0.0
 40
0.0
 40
0.0
 40
0.2511672482
 40
0.5018372491
 40
0.7515699041
 40
1.0
 40
1.0
 40
1.0
 40
1.0
 10
4.5166818115
 20
2.1680000764
 30
0.0
 10
4.5178334427
 20
2.1680000764
 30
0.0
 10
4.5201376347
 20
2.1681608062
 30
0.0
 10
4.5235190188
 20
2.1688795365
 30
0.0
 10
4.5267549048
 20
2.1700599607
 30
0.0
 10
4.5287765003
 20
2.1711427086
 30
0.0
 10
4.5297393894
 20
2.1717512724
 30
0.0
  0
SPLINE
  5
294
100
AcDbEntity
  8
0
100
AcDbSpline
 62
7
  6
CONTINUOUS
 70
0
 71
3
 72
32
 73
28
 74
0
 42
0.0000001
 43
0.0000001
 44
0.0000000001
 40
0.0
 40
0.0
 40
0.0
 40
0.0
 40
0.0339680846
 40
0.0701877327
 40
0.1483567308
 40
0.2324288307
 40
0.3200334695
 40
0.4086569904
 40
0.4957424803
 40
0.5787961232
 40
0.6554958958
 40
0.6908207475
 40
0.72382741
 40
0.7543322796
 40
0.78219296
 40
0.8073214772
 40
0.8296972455
 40
0.8494014721
 40
0.8666526453
 40
0.881874562
 40
0.8957527347
 40
0.9092272347
 40
0.9233312514
 40
0.9389565701
 40
0.9567265559
 40
0.9770145218
 40
1.0
 40
1.0
 40
1.0
 40
1.0
 10
4.6099260739
 20
2.1851187022
 30
0.0
 10
4.6096414288
 20
2.1852051167
 30
0.0
 10
4.6090486441
 20
2.185368659
 30
0.0
 10
4.6077822509
 20
2.1856602176
 30
0.0
 10
4.6060671307
 20
2.1859510369
 30
0.0
 10
4.6038899905
 20
2.1861804696
 30
0.0
 10
4.6016119207
 20
2.1862906941
 30
0.0
 10
4.5993049135
 20
2.1862781306
 30
0.0
 10
4.5970416431
 20
2.1861431842
 30
0.0
 10
4.5948935729
 20
2.1858903006
 30
0.0
 10
4.5932117786
 20
2.1855806454
 30
0.0
 10
4.5919786784
 20
2.1852748408
 30
0.0
 10
4.5911485513
 20
2.1850285372
 30
0.0
 10
4.5903939641
 20
2.184760999
 30
0.0
 10
4.5897207205
 20
2.1844742948
 30
0.0
 10
4.5891338453
 20
2.1841706861
 30
0.0
 10
4.5886376106
 20
2.183852225
 30
0.0
 10
4.5882353549
 20
2.1835208937
 30
0.0
 10
4.5879300253
 20
2.1831778001
 30
0.0
 10
4.5877248838
 20
2.1828234133
 30
0.0
 10
4.5876256392
 20
2.1824588467
 30
0.0
 10
4.5876382597
 20
2.1820904616
 30
0.0
 10
4.5877617085
 20
2.1817278448
 30
0.0
 10
4.5879896115
 20
2.181375981
 30
0.0
 10
4.5883168123
 20
2.181035429
 30
0.0
 10
4.5887402734
 20
2.1807068781
 30
0.0
 10
4.5890643778
 20
2.1805091076
 30
0.0
 10
4.5892404322
 20
2.1804115164
 30
0.0
  0
SPLINE
  5
295
100
AcDbEntity
  8
0
100
AcDbSpline
 62
7
  6
CONTINUOUS
 70
0
 71
3
 72
14
 73
10
 74
0
 42
0.0000001
 43
0.0000001
 44
0.0000000001
 40
0.0
 40
0.0
 40
0.0
 40
0.0
 40
0.0957851431
 40
0.1952221368
 40
0.3014194163
 40
0.4168815889
 40
0.5434579138
 40
0.6824248641
 40
1.0
 40
1.0
 40
1.0
 40
1.0
 10
4.6020494304
 20
2.1717512724
 30
0.0
 10
4.6020494304
 20
2.1716681643
 30
0.0
 10
4.6020673418
 20
2.1714983065
 30
0.0
 10
4.6021465916
 20
2.1712474905
 30
0.0
 10
4.6022773024
 20
2.1709999701
 30
0.0
 10
4.6024582133
 20
2.170756756
 30
0.0
 10
4.602688183
 20
2.1705182236
 30
0.0
 10
4.6030764971
 20
2.1701928164
 30
0.0
 10
4.6034134767
 20
2.1699807196
 30
0.0
 10
4.6036544749
 20
2.1698471351
 30
0.0
  0
SPLINE
  5
296
100
AcDbEntity
  8
0
100
AcDbSpline
 62
7
  6
CONTINUOUS
 70
0
 71
3
 72
35
 73
31
 74
0
 42
0.0000001
 43
0.0000001
 44
0.0000000001
 40
0.0
 40
0.0
 40
0.0
 40
0.0
 40
0.0068026922
 40
0.0137683261
 40
0.0287095463
 40
0.0457723965
 40
0.0655187382
 40
0.088225292
 40
0.1139817913
 40
0.1427500492
 40
0.1744030987
 40
0.2087498932
 40
0.245546594
 40
0.3253141694
 40
0.4111107305
 40
0.4999999801
 40
0.5888892029
 40
0.6746857863
 40
0.7544533668
 40
0.7912500767
 40
0.825596872
 40
0.8572499278
 40
0.886018193
 40
0.9117746979
 40
0.9344812553
 40
0.9542275996
 40
0.9712904519
 40
0.9862316735
 40
0.9931973077
 40
1.0
 40
1.0
 40
1.0
 40
1.0
 10
4.6281645863
 20
2.1717512724
 30
0.0
 10
4.6281645863
 20
2.1718162857
 30
0.0
 10
4.6281537593
 20
2.1719481084
 30
0.0
 10
4.62808809
 20
2.1722155306
 30
0.0
 10
4.6279172916
 20
2.17255216
 30
0.0
 10
4.6275946762
 20
2.1729311138
 30
0.0
 10
4.6271553484
 20
2.1732957096
 30
0.0
 10
4.6266029638
 20
2.1736443929
 30
0.0
 10
4.6259419231
 20
2.1739748702
 30
0.0
 10
4.6251779397
 20
2.1742843377
 30
0.0
 10
4.6243179105
 20
2.174569946
 30
0.0
 10
4.6233698015
 20
2.1748289134
 30
0.0
 10
4.6219619039
 20
2.1751437793
 30
0.0
 10
4.6200498487
 20
2.1754471882
 30
0.0
 10
4.6176264104
 20
2.1756663295
 30
0.0
 10
4.6151070092
 20
2.1757403396
 30
0.0
 10
4.6125876078
 20
2.1756663295
 30
0.0
 10
4.6101641694
 20
2.1754471884
 30
0.0
 10
4.6082521139
 20
2.1751437794
 30
0.0
 10
4.6068442161
 20
2.1748289136
 30
0.0
 10
4.605896107
 20
2.1745699462
 30
0.0
 10
4.6050360776
 20
2.1742843379
 30
0.0
 10
4.6042720941
 20
2.1739748703
 30
0.0
 10
4.6036110532
 20
2.1736443931
 30
0.0
 10
4.6030586685
 20
2.1732957097
 30
0.0
 10
4.6026193406
 20
2.1729311139
 30
0.0
 10
4.6022967252
 20
2.17255216
 30
0.0
 10
4.6021259267
 20
2.1722155307
 30
0.0
 10
4.6020602574
 20
2.1719481084
 30
0.0
 10
4.6020494304
 20
2.1718162857
 30
0.0
 10
4.6020494304
 20
2.1717512724
 30
0.0
  0
SPLINE
  5
297
100
AcDbEntity
  8
0
100
AcDbSpline
 62
7
  6
CONTINUOUS
 70
0
 71
3
 72
23
 73
19
 74
0
 42
0.0000001
 43
0.0000001
 44
0.0000000001
 40
0.0
 40
0.0
 40
0.0
 40
0.0
 40
0.0985152433
 40
0.1898752758
 40
0.2736778108
 40
0.3497699726
 40
0.418171922
 40
0.4791280728
 40
0.5331988886
 40
0.5814223404
 40
0.6254179184
 40
0.6674231663
 40
0.7100401767
 40
0.7557516684
 40
0.8065230925
 40
0.8636856202
 40
0.9280440476
 40
1.0
 40
1.0
 40
1.0
 40
1.0
 10
4.5914598701
 20
2.1639899375
 30
0.0
 10
4.591220963
 20
2.1639174084
 30
0.0
 10
4.5907634132
 20
2.1637676842
 30
0.0
 10
4.590115736
 20
2.1635185526
 30
0.0
 10
4.5895358092
 20
2.1632544645
 30
0.0
 10
4.5890272886
 20
2.1629772161
 30
0.0
 10
4.5885931325
 20
2.1626882889
 30
0.0
 10
4.5882357147
 20
2.1623892086
 30
0.0
 10
4.5879572882
 20
2.162080903
 30
0.0
 10
4.5877600112
 20
2.1617641095
 30
0.0
 10
4.5876473343
 20
2.1614395801
 30
0.0
 10
4.5876231158
 20
2.1611105363
 30
0.0
 10
4.5876887878
 20
2.1607829706
 30
0.0
 10
4.5878411535
 20
2.1604618173
 30
0.0
 10
4.5880763839
 20
2.1601489211
 30
0.0
 10
4.5883916591
 20
2.1598447661
 30
0.0
 10
4.5887849058
 20
2.1595502542
 30
0.0
 10
4.5890809417
 20
2.1593711621
 30
0.0
 10
4.5892404412
 20
2.1592827532
 30
0.0
  0
SPLINE
  5
298
100
AcDbEntity
  8
0
100
AcDbSpline
 62
7
  6
CONTINUOUS
 70
0
 71
3
 72
11
 73
7
 74
0
 42
0.0000001
 43
0.0000001
 44
0.0000000001
 40
0.0
 40
0.0
 40
0.0
 40
0.0
 40
0.2484300959
 40
0.4981627509
 40
0.7488327518
 40
1.0
 40
1.0
 40
1.0
 40
1.0
 10
4.5036242336
 20
2.1717512724
 30
0.0
 10
4.5045871228
 20
2.1711427086
 30
0.0
 10
4.5066087182
 20
2.1700599607
 30
0.0
 10
4.5098446042
 20
2.1688795365
 30
0.0
 10
4.5132259884
 20
2.1681608062
 30
0.0
 10
4.5155301804
 20
2.1680000764
 30
0.0
 10
4.5166818115
 20
2.1680000764
 30
0.0
  0
SPLINE
  5
299
100
AcDbEntity
  8
0
100
AcDbSpline
 62
7
  6
CONTINUOUS
 70
0
 71
3
 72
31
 73
27
 74
0
 42
0.0000001
 43
0.0000001
 44
0.0000000001
 40
0.0
 40
0.0
 40
0.0
 40
0.0
 40
0.0995423125
 40
0.1975909676
 40
0.2926330187
 40
0.3832795001
 40
0.4682094655
 40
0.5462553183
 40
0.6164338454
 40
0.6780201544
 40
0.7054746763
 40
0.730684807
 40
0.7536983938
 40
0.7746148631
 40
0.7936108955
 40
0.8109583869
 40
0.8270425815
 40
0.8423703899
 40
0.8575358486
 40
0.8731550382
 40
0.8897862763
 40
0.90788062
 40
0.9277657819
 40
0.9496672955
 40
0.9737208168
 40
1.0
 40
1.0
 40
1.0
 40
1.0
 10
4.5658944099
 20
2.1607750873
 30
0.0
 10
4.565332305
 20
2.1607750873
 30
0.0
 10
4.564216403
 20
2.1607532772
 30
0.0
 10
4.5625663987
 20
2.1606555294
 30
0.0
 10
4.5609717863
 20
2.1604944199
 30
0.0
 10
4.5594592104
 20
2.1602728296
 30
0.0
 10
4.5580536538
 20
2.1599945127
 30
0.0
 10
4.5567781943
 20
2.1596643085
 30
0.0
 10
4.5556537176
 20
2.1592878414
 30
0.0
 10
4.5548276655
 20
2.1589282847
 30
0.0
 10
4.5542616828
 20
2.1586177226
 30
0.0
 10
4.5539020426
 20
2.1583861198
 30
0.0
 10
4.5535920882
 20
2.1581478288
 30
0.0
 10
4.5533330654
 20
2.1579035198
 30
0.0
 10
4.5531260611
 20
2.1576538684
 30
0.0
 10
4.5529721432
 20
2.1573994514
 30
0.0
 10
4.5528728
 20
2.1571408778
 30
0.0
 10
4.5528293902
 20
2.1568794818
 30
0.0
 10
4.5528430539
 20
2.1566174103
 30
0.0
 10
4.5529133459
 20
2.1563571504
 30
0.0
 10
4.5530389318
 20
2.1561004421
 30
0.0
 10
4.553218369
 20
2.1558482506
 30
0.0
 10
4.5534503276
 20
2.1556010569
 30
0.0
 10
4.5537338323
 20
2.1553595494
 30
0.0
 10
4.5540676553
 20
2.1551243535
 30
0.0
 10
4.5543120884
 20
2.1549787845
 30
0.0
 10
4.5544418793
 20
2.1549068428
 30
0.0
  0
SPLINE
  5
29A
100
AcDbEntity
  8
0
100
AcDbSpline
 62
7
  6
CONTINUOUS
 70
0
 71
3
 72
11
 73
7
 74
0
 42
0.0000001
 43
0.0000001
 44
0.0000000001
 40
0.0
 40
0.0
 40
0.0
 40
0.0
 40
0.2290219819
 40
0.4719558753
 40
0.729206884
 40
1.0
 40
1.0
 40
1.0
 40
1.0
 10
4.5310958479
 20
2.157435694
 30
0.0
 10
4.531933739
 20
2.1576900666
 30
0.0
 10
4.5336141945
 20
2.1583758263
 30
0.0
 10
4.5360021264
 20
2.1598341516
 30
0.0
 10
4.5382813631
 20
2.1617173176
 30
0.0
 10
4.5396652777
 20
2.1631952593
 30
0.0
 10
4.5403289498
 20
2.1639899375
 30
0.0
  0
SPLINE
  5
29B
100
AcDbEntity
  8
0
100
AcDbSpline
 62
7
  6
CONTINUOUS
 70
0
 71
3
 72
32
 73
28
 74
0
 42
0.0000001
 43
0.0000001
 44
0.0000000001
 40
0.0
 40
0.0
 40
0.0
 40
0.0
 40
0.0339680846
 40
0.0701877327
 40
0.1483567308
 40
0.2324288307
 40
0.3200334695
 40
0.4086569904
 40
0.4957424803
 40
0.5787961232
 40
0.6554958958
 40
0.6908207475
 40
0.72382741
 40
0.7543322796
 40
0.78219296
 40
0.8073214772
 40
0.8296972455
 40
0.8494014721
 40
0.8666526453
 40
0.881874562
 40
0.8957527347
 40
0.9092272347
 40
0.9233312514
 40
0.9389565701
 40
0.9567265559
 40
0.9770145218
 40
1.0
 40
1.0
 40
1.0
 40
1.0
 10
4.5403289498
 20
2.1639899375
 30
0.0
 10
4.5400443046
 20
2.164076352
 30
0.0
 10
4.53945152
 20
2.1642398943
 30
0.0
 10
4.5381851268
 20
2.1645314528
 30
0.0
 10
4.5364700066
 20
2.1648222721
 30
0.0
 10
4.5342928664
 20
2.1650517049
 30
0.0
 10
4.5320147965
 20
2.1651619294
 30
0.0
 10
4.5297077894
 20
2.1651493659
 30
0.0
 10
4.527444519
 20
2.1650144195
 30
0.0
 10
4.5252964487
 20
2.1647615358
 30
0.0
 10
4.5236146544
 20
2.1644518806
 30
0.0
 10
4.5223815543
 20
2.1641460761
 30
0.0
 10
4.5215514271
 20
2.1638997725
 30
0.0
 10
4.52079684
 20
2.1636322343
 30
0.0
 10
4.5201235964
 20
2.1633455301
 30
0.0
 10
4.5195367211
 20
2.1630419214
 30
0.0
 10
4.5190404865
 20
2.1627234602
 30
0.0
 10
4.5186382308
 20
2.162392129
 30
0.0
 10
4.5183329011
 20
2.1620490354
 30
0.0
 10
4.5181277596
 20
2.1616946486
 30
0.0
 10
4.5180285151
 20
2.161330082
 30
0.0
 10
4.5180411356
 20
2.1609616969
 30
0.0
 10
4.5181645843
 20
2.1605990801
 30
0.0
 10
4.5183924874
 20
2.1602472163
 30
0.0
 10
4.5187196882
 20
2.1599066643
 30
0.0
 10
4.5191431492
 20
2.1595781134
 30
0.0
 10
4.5194672537
 20
2.1593803429
 30
0.0
 10
4.5196433081
 20
2.1592827517
 30
0.0
  0
SPLINE
  5
29C
100
AcDbEntity
  8
0
100
AcDbSpline
 62
7
  6
CONTINUOUS
 70
0
 71
3
 72
35
 73
31
 74
0
 42
0.0000001
 43
0.0000001
 44
0.0000000001
 40
0.0
 40
0.0
 40
0.0
 40
0.0
 40
0.0068026922
 40
0.0137683261
 40
0.0287095463
 40
0.0457723965
 40
0.0655187382
 40
0.088225292
 40
0.1139817913
 40
0.1427500492
 40
0.1744030987
 40
0.2087498932
 40
0.245546594
 40
0.3253141694
 40
0.4111107305
 40
0.4999999801
 40
0.5888892029
 40
0.6746857863
 40
0.7544533668
 40
0.7912500767
 40
0.825596872
 40
0.8572499278
 40
0.886018193
 40
0.9117746979
 40
0.9344812553
 40
0.9542275996
 40
0.9712904519
 40
0.9862316735
 40
0.9931973077
 40
1.0
 40
1.0
 40
1.0
 40
1.0
 10
4.5297393894
 20
2.1717512724
 30
0.0
 10
4.5297393894
 20
2.1718162857
 30
0.0
 10
4.5297285625
 20
2.1719481084
 30
0.0
 10
4.5296628932
 20
2.1722155306
 30
0.0
 10
4.5294920947
 20
2.17255216
 30
0.0
 10
4.5291694793
 20
2.1729311138
 30
0.0
 10
4.5287301515
 20
2.1732957096
 30
0.0
 10
4.5281777669
 20
2.1736443929
 30
0.0
 10
4.5275167262
 20
2.1739748702
 30
0.0
 10
4.5267527429
 20
2.1742843377
 30
0.0
 10
4.5258927136
 20
2.174569946
 30
0.0
 10
4.5249446047
 20
2.1748289134
 30
0.0
 10
4.5235367071
 20
2.1751437793
 30
0.0
 10
4.5216246518
 20
2.1754471882
 30
0.0
 10
4.5192012135
 20
2.1756663295
 30
0.0
 10
4.5166818123
 20
2.1757403396
 30
0.0
 10
4.5141624109
 20
2.1756663295
 30
0.0
 10
4.5117389726
 20
2.1754471884
 30
0.0
 10
4.509826917
 20
2.1751437794
 30
0.0
 10
4.5084190193
 20
2.1748289136
 30
0.0
 10
4.5074709102
 20
2.1745699462
 30
0.0
 10
4.5066108808
 20
2.1742843379
 30
0.0
 10
4.5058468973
 20
2.1739748703
 30
0.0
 10
4.5051858564
 20
2.1736443931
 30
0.0
 10
4.5046334717
 20
2.1732957097
 30
0.0
 10
4.5041941438
 20
2.1729311139
 30
0.0
 10
4.5038715283
 20
2.17255216
 30
0.0
 10
4.5037007299
 20
2.1722155307
 30
0.0
 10
4.5036350606
 20
2.1719481084
 30
0.0
 10
4.5036242336
 20
2.1718162857
 30
0.0
 10
4.5036242336
 20
2.1717512724
 30
0.0
  0
SPLINE
  5
29D
100
AcDbEntity
  8
0
100
AcDbSpline
 62
7
  6
CONTINUOUS
 70
0
 71
3
 72
14
 73
10
 74
0
 42
0.0000001
 43
0.0000001
 44
0.0000000001
 40
0.0
 40
0.0
 40
0.0
 40
0.0
 40
0.0957851431
 40
0.1952221368
 40
0.3014194163
 40
0.4168815889
 40
0.5434579138
 40
0.6824248641
 40
1.0
 40
1.0
 40
1.0
 40
1.0
 10
4.5036242336
 20
2.1717512724
 30
0.0
 10
4.5036242336
 20
2.1716681643
 30
0.0
 10
4.5036421449
 20
2.1714983065
 30
0.0
 10
4.5037213947
 20
2.1712474905
 30
0.0
 10
4.5038521055
 20
2.1709999701
 30
0.0
 10
4.5040330165
 20
2.170756756
 30
0.0
 10
4.5042629862
 20
2.1705182236
 30
0.0
 10
4.5046513003
 20
2.1701928164
 30
0.0
 10
4.5049882799
 20
2.1699807196
 30
0.0
 10
4.505229278
 20
2.1698471351
 30
0.0
  0
SPLINE
  5
29E
100
AcDbEntity
  8
0
100
AcDbSpline
 62
7
  6
CONTINUOUS
 70
0
 71
3
 72
11
 73
7
 74
0
 42
0.0000001
 43
0.0000001
 44
0.0000000001
 40
0.0
 40
0.0
 40
0.0
 40
0.0
 40
0.2290219819
 40
0.4719558753
 40
0.729206884
 40
1.0
 40
1.0
 40
1.0
 40
1.0
 10
4.600692972
 20
2.157435694
 30
0.0
 10
4.5998550809
 20
2.1576900666
 30
0.0
 10
4.5981746254
 20
2.1583758263
 30
0.0
 10
4.5957866934
 20
2.1598341516
 30
0.0
 10
4.5935074568
 20
2.1617173176
 30
0.0
 10
4.5921235422
 20
2.1631952593
 30
0.0
 10
4.5914598701
 20
2.1639899375
 30
0.0
  0
SPLINE
  5
29F
100
AcDbEntity
  8
0
100
AcDbSpline
 62
7
  6
CONTINUOUS
 70
0
 71
3
 72
23
 73
19
 74
0
 42
0.0000001
 43
0.0000001
 44
0.0000000001
 40
0.0
 40
0.0
 40
0.0
 40
0.0
 40
0.0985152433
 40
0.1898752758
 40
0.2736778108
 40
0.3497699726
 40
0.418171922
 40
0.4791280728
 40
0.5331988886
 40
0.5814223404
 40
0.6254179184
 40
0.6674231663
 40
0.7100401767
 40
0.7557516684
 40
0.8065230925
 40
0.8636856202
 40
0.9280440476
 40
1.0
 40
1.0
 40
1.0
 40
1.0
 10
4.521862746
 20
2.1851187022
 30
0.0
 10
4.5216238389
 20
2.1850461732
 30
0.0
 10
4.5211662891
 20
2.1848964489
 30
0.0
 10
4.5205186118
 20
2.1846473174
 30
0.0
 10
4.519938685
 20
2.1843832292
 30
0.0
 10
4.5194301644
 20
2.1841059809
 30
0.0
 10
4.5189960083
 20
2.1838170537
 30
0.0
 10
4.5186385906
 20
2.1835179734
 30
0.0
 10
4.5183601641
 20
2.1832096677
 30
0.0
 10
4.5181628871
 20
2.1828928742
 30
0.0
 10
4.5180502102
 20
2.1825683448
 30
0.0
 10
4.5180259917
 20
2.1822393011
 30
0.0
 10
4.5180916637
 20
2.1819117353
 30
0.0
 10
4.5182440294
 20
2.181590582
 30
0.0
 10
4.5184792598
 20
2.1812776859
 30
0.0
 10
4.5187945349
 20
2.1809735308
 30
0.0
 10
4.5191877817
 20
2.1806790189
 30
0.0
 10
4.5194838176
 20
2.1804999268
 30
0.0
 10
4.5196433171
 20
2.1804115179
 30
0.0
  0
SPLINE
  5
2A0
100
AcDbEntity
  8
0
100
AcDbSpline
 62
7
  6
CONTINUOUS
 70
0
 71
3
 72
11
 73
7
 74
0
 42
0.0000001
 43
0.0000001
 44
0.0000000001
 40
0.0
 40
0.0
 40
0.0
 40
0.0
 40
0.2511672482
 40
0.5018372491
 40
0.7515699041
 40
1.0
 40
1.0
 40
1.0
 40
1.0
 10
4.6151070084
 20
2.1680000764
 30
0.0
 10
4.6139553772
 20
2.1680000764
 30
0.0
 10
4.6116511852
 20
2.1681608062
 30
0.0
 10
4.6082698011
 20
2.1688795365
 30
0.0
 10
4.605033915
 20
2.1700599607
 30
0.0
 10
4.6030123196
 20
2.1711427086
 30
0.0
 10
4.6020494304
 20
2.1717512724
 30
0.0
  0
SPLINE
  5
2A1
100
AcDbEntity
  8
0
100
AcDbSpline
 62
7
  6
CONTINUOUS
 70
0
 71
3
 72
31
 73
27
 74
0
 42
0.0000001
 43
0.0000001
 44
0.0000000001
 40
0.0
 40
0.0
 40
0.0
 40
0.0
 40
0.0975792072
 40
0.1939211906
 40
0.2878028016
 40
0.3780553026
 40
0.4635736545
 40
0.5433497612
 40
0.61649981
 40
0.6823035337
 40
0.7122918639
 40
0.7402777954
 40
0.7662493463
 40
0.7902200098
 40
0.8122419652
 40
0.8324107544
 40
0.8508829911
 40
0.8678873467
 40
0.8837406372
 40
0.8988490207
 40
0.9136913234
 40
0.9287752729
 40
0.9445823332
 40
0.961522716
 40
0.9799177674
 40
1.0
 40
1.0
 40
1.0
 40
1.0
 10
4.5658944099
 20
2.073205101
 30
0.0
 10
4.5647311894
 20
2.073205101
 30
0.0
 10
4.5624192775
 20
2.0731637489
 30
0.0
 10
4.5589927254
 20
2.0729781843
 30
0.0
 10
4.5556624468
 20
2.0726718467
 30
0.0
 10
4.5524749418
 20
2.0722491716
 30
0.0
 10
4.5494745071
 20
2.0717162073
 30
0.0
 10
4.546702605
 20
2.0710806481
 30
0.0
 10
4.5441975408
 20
2.0703515626
 30
0.0
 10
4.5423054479
 20
2.0696547777
 30
0.0
 10
4.5409583199
 20
2.0690514743
 30
0.0
 10
4.5400665991
 20
2.0685962457
 30
0.0
 10
4.5392648135
 20
2.0681258661
 30
0.0
 10
4.5385556799
 20
2.0676417052
 30
0.0
 10
4.5379414623
 20
2.0671453474
 30
0.0
 10
4.5374242669
 20
2.0666380397
 30
0.0
 10
4.537005878
 20
2.0661210689
 30
0.0
 10
4.5366882555
 20
2.0655954509
 30
0.0
 10
4.5364734839
 20
2.0650624955
 30
0.0
 10
4.5363639428
 20
2.064524208
 30
0.0
 10
4.5363613413
 20
2.0639838635
 30
0.0
 10
4.5364657131
 20
2.0634453889
 30
0.0
 10
4.5366754336
 20
2.0629121235
 30
0.0
 10
4.5369881167
 20
2.062386104
 30
0.0
 10
4.5374016262
 20
2.0618687297
 30
0.0
 10
4.5377281337
 20
2.0615451712
 30
0.0
 10
4.5379058
 20
2.0613847184
 30
0.0
  0
SPLINE
  5
2A2
100
AcDbEntity
  8
0
100
AcDbSpline
 62
7
  6
CONTINUOUS
 70
0
 71
3
 72
18
 73
14
 74
0
 42
0.0000001
 43
0.0000001
 44
0.0000000001
 40
0.0
 40
0.0
 40
0.0
 40
0.0
 40
0.1602071087
 40
0.3192748732
 40
0.4723746097
 40
0.6148592568
 40
0.74241386
 40
0.7993671892
 40
0.8511859426
 40
0.8974809897
 40
0.9379052005
 40
0.9721621347
 40
1.0
 40
1.0
 40
1.0
 40
1.0
 10
4.4983612608
 20
2.2440515059
 30
0.0
 10
4.4983479017
 20
2.2411939708
 30
0.0
 10
4.4983023247
 20
2.235499293
 30
0.0
 10
4.4981787589
 20
2.2270745342
 30
0.0
 10
4.4980037106
 20
2.2189668548
 30
0.0
 10
4.4977827031
 20
2.2114226109
 30
0.0
 10
4.4975588983
 20
2.205594313
 30
0.0
 10
4.4973580211
 20
2.2013837853
 30
0.0
 10
4.4972062641
 20
2.1986220354
 30
0.0
 10
4.4970490712
 20
2.1961559441
 30
0.0
 10
4.4968876957
 20
2.1940040995
 30
0.0
 10
4.4967237075
 20
2.192182812
 30
0.0
 10
4.4966015003
 20
2.191081822
 30
0.0
 10
4.4965370024
 20
2.1905894932
 30
0.0
  0
SPLINE
  5
2A3
100
AcDbEntity
  8
0
100
AcDbSpline
 62
7
  6
CONTINUOUS
 70
0
 71
3
 72
9
 73
5
 74
0
 42
0.0000001
 43
0.0000001
 44
0.0000000001
 40
0.0
 40
0.0
 40
0.0
 40
0.0
 40
0.4957333592
 40
1.0
 40
1.0
 40
1.0
 40
1.0
 10
4.4558910619
 20
2.2627842572
 30
0.0
 10
4.4565338959
 20
2.2678576044
 30
0.0
 10
4.4582835022
 20
2.2780389046
 30
0.0
 10
4.460895775
 20
2.2880324006
 30
0.0
 10
4.4624141849
 20
2.2930078005
 30
0.0
  0
LINE
  5
2A4
100
AcDbEntity
  8
0
100
AcDbLine
 62
7
  6
CONTINUOUS
 10
4.4695492396
 20
2.2944637047
 11
4.4689933887
 21
2.2408004714
  0
SPLINE
  5
2A5
100
AcDbEntity
  8
0
100
AcDbSpline
 62
7
  6
CONTINUOUS
 70
0
 71
3
 72
18
 73
14
 74
0
 42
0.0000001
 43
0.0000001
 44
0.0000000001
 40
0.0
 40
0.0
 40
0.0
 40
0.0
 40
0.1603630345
 40
0.3194210147
 40
0.4722694234
 40
0.6142749203
 40
0.7412949179
 40
0.7980408048
 40
0.8497401021
 40
0.8960620506
 40
0.9367135228
 40
0.9714344504
 40
1.0
 40
1.0
 40
1.0
 40
1.0
 10
4.4689930561
 20
2.2408004794
 30
0.0
 10
4.4689817643
 20
2.2396472431
 30
0.0
 10
4.4689373998
 20
2.2373503212
 30
0.0
 10
4.4688115107
 20
2.233956042
 30
0.0
 10
4.4686310696
 20
2.2306964053
 30
0.0
 10
4.4684032004
 20
2.2276707578
 30
0.0
 10
4.4681738643
 20
2.2253388344
 30
0.0
 10
4.4679697512
 20
2.223657705
 30
0.0
 10
4.4678162731
 20
2.2225552194
 30
0.0
 10
4.4676580417
 20
2.2215704686
 30
0.0
 10
4.4674965185
 20
2.2207101547
 30
0.0
 10
4.4673330508
 20
2.2199806065
 30
0.0
 10
4.4672121417
 20
2.2195414371
 30
0.0
 10
4.4671493389
 20
2.2193458357
 30
0.0
  0
SPLINE
  5
2A6
100
AcDbEntity
  8
0
100
AcDbSpline
 62
7
  6
CONTINUOUS
 70
0
 71
3
 72
11
 73
7
 74
0
 42
0.0000001
 43
0.0000001
 44
0.0000000001
 40
0.0
 40
0.0
 40
0.0
 40
0.0
 40
0.2484300959
 40
0.4981627509
 40
0.7488327518
 40
1.0
 40
1.0
 40
1.0
 40
1.0
 10
4.6281645863
 20
2.1717512724
 30
0.0
 10
4.6272016971
 20
2.1711427086
 30
0.0
 10
4.6251801017
 20
2.1700599607
 30
0.0
 10
4.6219442156
 20
2.1688795365
 30
0.0
 10
4.6185628315
 20
2.1681608062
 30
0.0
 10
4.6162586395
 20
2.1680000764
 30
0.0
 10
4.6151070084
 20
2.1680000764
 30
0.0
  0
SPLINE
  5
2A7
100
AcDbEntity
  8
0
100
AcDbSpline
 62
7
  6
CONTINUOUS
 70
0
 71
3
 72
11
 73
7
 74
0
 42
0.0000001
 43
0.0000001
 44
0.0000000001
 40
0.0
 40
0.0
 40
0.0
 40
0.0
 40
0.260336067
 40
0.5120643878
 40
0.7576367022
 40
1.0
 40
1.0
 40
1.0
 40
1.0
 10
4.600692972
 20
2.1785644587
 30
0.0
 10
4.6001151816
 20
2.1783890492
 30
0.0
 10
4.5989548202
 20
2.1781164597
 30
0.0
 10
4.5971985823
 20
2.1779583534
 30
0.0
 10
4.5954796322
 20
2.1780614554
 30
0.0
 10
4.5943687863
 20
2.1783049534
 30
0.0
 10
4.5938308839
 20
2.1784682506
 30
0.0
  0
SPLINE
  5
2A8
100
AcDbEntity
  8
0
100
AcDbSpline
 62
7
  6
CONTINUOUS
 70
0
 71
3
 72
11
 73
7
 74
0
 42
0.0000001
 43
0.0000001
 44
0.0000000001
 40
0.0
 40
0.0
 40
0.0
 40
0.0
 40
0.270793116
 40
0.5280441247
 40
0.7709780181
 40
1.0
 40
1.0
 40
1.0
 40
1.0
 10
4.6099260739
 20
2.1851187022
 30
0.0
 10
4.6092624018
 20
2.184324024
 30
0.0
 10
4.6078784872
 20
2.1828460823
 30
0.0
 10
4.6055992506
 20
2.1809629163
 30
0.0
 10
4.6032113187
 20
2.1795045911
 30
0.0
 10
4.6015308631
 20
2.1788188314
 30
0.0
 10
4.600692972
 20
2.1785644587
 30
0.0
  0
LINE
  5
2A9
100
AcDbEntity
  8
0
100
AcDbLine
 62
7
  6
CONTINUOUS
 10
4.4435167725
 20
2.2572675233
 11
4.4435303403
 21
2.2570699011
  0
LINE
  5
2AA
100
AcDbEntity
  8
0
100
AcDbLine
 62
7
  6
CONTINUOUS
 10
4.4435303403
 20
2.2570699011
 11
4.4436388868
 21
2.2566471396
  0
SPLINE
  5
2AB
100
AcDbEntity
  8
0
100
AcDbSpline
 62
7
  6
CONTINUOUS
 70
0
 71
3
 72
18
 73
14
 74
0
 42
0.0000001
 43
0.0000001
 44
0.0000000001
 40
0.0
 40
0.0
 40
0.0
 40
0.0
 40
0.0285708515
 40
0.0632878104
 40
0.1039364288
 40
0.1502558246
 40
0.2019541849
 40
0.258702254
 40
0.3857278505
 40
0.5277303537
 40
0.6805775247
 40
0.8396366128
 40
1.0
 40
1.0
 40
1.0
 40
1.0
 10
4.664639481
 20
2.2193458357
 30
0.0
 10
4.6645767071
 20
2.2195414865
 30
0.0
 10
4.6644557872
 20
2.2199806601
 30
0.0
 10
4.6642922956
 20
2.2207101929
 30
0.0
 10
4.6641307752
 20
2.2215704385
 30
0.0
 10
4.6639725372
 20
2.2225551421
 30
0.0
 10
4.6638190565
 20
2.2236576179
 30
0.0
 10
4.6636149528
 20
2.225338798
 30
0.0
 10
4.6633856451
 20
2.2276707586
 30
0.0
 10
4.6631577384
 20
2.2306964127
 30
0.0
 10
4.6629772928
 20
2.2339560268
 30
0.0
 10
4.6628514174
 20
2.2373503084
 30
0.0
 10
4.6628070806
 20
2.2396472409
 30
0.0
 10
4.6627957637
 20
2.2408004794
 30
0.0
  0
LINE
  5
2AC
100
AcDbEntity
  8
0
100
AcDbLine
 62
7
  6
CONTINUOUS
 10
4.6627948847
 20
2.2408004583
 11
4.6622395688
 21
2.2944637032
  0
SPLINE
  5
2AD
100
AcDbEntity
  8
0
100
AcDbSpline
 62
7
  6
CONTINUOUS
 70
0
 71
3
 72
9
 73
5
 74
0
 42
0.0000001
 43
0.0000001
 44
0.0000000001
 40
0.0
 40
0.0
 40
0.0
 40
0.0
 40
0.5042666778
 40
1.0
 40
1.0
 40
1.0
 40
1.0
 10
4.6693746351
 20
2.2930078006
 30
0.0
 10
4.6708930449
 20
2.2880324002
 30
0.0
 10
4.6735053174
 20
2.278038904
 30
0.0
 10
4.6752549239
 20
2.2678576038
 30
0.0
 10
4.675897758
 20
2.2627842568
 30
0.0
  0
SPLINE
  5
2AE
100
AcDbEntity
  8
0
100
AcDbSpline
 62
7
  6
CONTINUOUS
 70
0
 71
3
 72
11
 73
7
 74
0
 42
0.0000001
 43
0.0000001
 44
0.0000000001
 40
0.0
 40
0.0
 40
0.0
 40
0.0
 40
0.2423632978
 40
0.4879356122
 40
0.739663933
 40
1.0
 40
1.0
 40
1.0
 40
1.0
 10
4.6075550601
 20
2.1573394859
 30
0.0
 10
4.6070171577
 20
2.1571761887
 30
0.0
 10
4.6059063118
 20
2.1569326906
 30
0.0
 10
4.6041873617
 20
2.1568295887
 30
0.0
 10
4.6024311238
 20
2.156987695
 30
0.0
 10
4.6012707624
 20
2.1572602845
 30
0.0
 10
4.600692972
 20
2.157435694
 30
0.0
  0
SPLINE
  5
2AF
100
AcDbEntity
  8
0
100
AcDbSpline
 62
7
  6
CONTINUOUS
 70
0
 71
3
 72
38
 73
34
 74
0
 42
0.0000001
 43
0.0000001
 44
0.0000000001
 40
0.0
 40
0.0
 40
0.0
 40
0.0
 40
0.15139135
 40
0.2262976548
 40
0.3005936299
 40
0.3742001132
 40
0.4470021681
 40
0.5188514686
 40
0.589535927
 40
0.6587551642
 40
0.7260729052
 40
0.7588213247
 40
0.7908154448
 40
0.8219046208
 40
0.8519036704
 40
0.8805517862
 40
0.9075291794
 40
0.9323857707
 40
0.9438494848
 40
0.9545511084
 40
0.9643973828
 40
0.9732825334
 40
0.9810869699
 40
0.9876909771
 40
0.9905071966
 40
0.992981348
 40
0.9950997861
 40
0.9968490274
 40
0.9982194032
 40
0.999205111
 40
0.9995519548
 40
0.9998005201
 40
1.0
 40
1.0
 40
1.0
 40
1.0
 10
6.0168139628
 20
6.1013932945
 30
0.0
 10
6.0186312045
 20
6.1007092852
 30
0.0
 10
6.021362277
 20
6.0997252612
 30
0.0
 10
6.0250155763
 20
6.0984933334
 30
0.0
 10
6.0277355212
 20
6.097616503
 30
0.0
 10
6.0304409173
 20
6.0967833454
 30
0.0
 10
6.0331266472
 20
6.0959937329
 30
0.0
 10
6.0357859593
 20
6.0952479179
 30
0.0
 10
6.0384097662
 20
6.0945464386
 30
0.0
 10
6.0409853634
 20
6.093890413
 30
0.0
 10
6.0430954477
 20
6.0933786199
 30
0.0
 10
6.0447447639
 20
6.0929930703
 30
0.0
 10
6.0459431004
 20
6.0927197066
 30
0.0
 10
6.0471084162
 20
6.0924602181
 30
0.0
 10
6.0482330878
 20
6.0922157176
 30
0.0
 10
6.0493073247
 20
6.091987534
 30
0.0
 10
6.0503180129
 20
6.0917776663
 30
0.0
 10
6.0511135833
 20
6.0916159329
 30
0.0
 10
6.0517049417
 20
6.0914975446
 30
0.0
 10
6.0521076687
 20
6.0914176605
 30
0.0
 10
6.052478078
 20
6.0913448275
 30
0.0
 10
6.0528121249
 20
6.0912796735
 30
0.0
 10
6.0531054378
 20
6.0912228737
 30
0.0
 10
6.0533223666
 20
6.0911811231
 30
0.0
 10
6.05347221
 20
6.091152405
 30
0.0
 10
6.0535655046
 20
6.0911345644
 30
0.0
 10
6.0536455158
 20
6.0911193053
 30
0.0
 10
6.0537111923
 20
6.0911067732
 30
0.0
 10
6.0537637436
 20
6.0910968254
 30
0.0
 10
6.0537960757
 20
6.0910905708
 30
0.0
 10
6.0538183317
 20
6.0910864912
 30
0.0
 10
6.0538242312
 20
6.0910851122
 30
0.0
 10
6.0538378608
 20
6.0910830279
 30
0.0
 10
6.0538353077
 20
6.0910831934
 30
0.0
  0
SPLINE
  5
2B0
100
AcDbEntity
  8
0
100
AcDbSpline
 62
7
  6
CONTINUOUS
 70
0
 71
3
 72
14
 73
10
 74
0
 42
0.0000001
 43
0.0000001
 44
0.0000000001
 40
0.0
 40
0.0
 40
0.0
 40
0.0
 40
0.3175751436
 40
0.4565420947
 40
0.5831184191
 40
0.698580594
 40
0.8047778736
 40
0.9042148638
 40
1.0
 40
1.0
 40
1.0
 40
1.0
 10
4.6265595419
 20
2.1698471351
 30
0.0
 10
4.62680054
 20
2.1699807196
 30
0.0
 10
4.6271375196
 20
2.1701928164
 30
0.0
 10
4.6275258337
 20
2.1705182236
 30
0.0
 10
4.6277558034
 20
2.170756756
 30
0.0
 10
4.6279367144
 20
2.1709999701
 30
0.0
 10
4.6280674252
 20
2.1712474906
 30
0.0
 10
4.6281466749
 20
2.1714983065
 30
0.0
 10
4.6281645863
 20
2.1716681643
 30
0.0
 10
4.6281645863
 20
2.1717512724
 30
0.0
  0
SPLINE
  5
2B1
100
AcDbEntity
  8
0
100
AcDbSpline
 62
7
  6
CONTINUOUS
 70
0
 71
3
 72
38
 73
34
 74
0
 42
0.0000001
 43
0.0000001
 44
0.0000000001
 40
0.0
 40
0.0
 40
0.0
 40
0.0
 40
0.0001994804
 40
0.0004480492
 40
0.0007948978
 40
0.0017806163
 40
0.0031510002
 40
0.0049002424
 40
0.0070186735
 40
0.0094928058
 40
0.0123089894
 40
0.0189128555
 40
0.0267170725
 40
0.0356019979
 40
0.0454481118
 40
0.0561496432
 40
0.0676133086
 40
0.0924698132
 40
0.11944712
 40
0.1480953063
 40
0.17809449
 40
0.2091837741
 40
0.2411778854
 40
0.2739261724
 40
0.3412434389
 40
0.4104624609
 40
0.4811468513
 40
0.5529961218
 40
0.6257982344
 40
0.6994046836
 40
0.7737005339
 40
0.8486072178
 40
1.0
 40
1.0
 40
1.0
 40
1.0
 10
6.0538353077
 20
6.3580831934
 30
0.0
 10
6.0538378606
 20
6.3580833617
 30
0.0
 10
6.0538242314
 20
6.3580812729
 30
0.0
 10
6.0538183318
 20
6.3580798964
 30
0.0
 10
6.0537960761
 20
6.3580758155
 30
0.0
 10
6.0537637442
 20
6.3580695622
 30
0.0
 10
6.0537111937
 20
6.3580596143
 30
0.0
 10
6.0536455184
 20
6.3580470827
 30
0.0
 10
6.053565509
 20
6.3580318241
 30
0.0
 10
6.0534722169
 20
6.3580139841
 30
0.0
 10
6.0533223789
 20
6.357985267
 30
0.0
 10
6.0531054594
 20
6.3579435177
 30
0.0
 10
6.0528121598
 20
6.3578867191
 30
0.0
 10
6.0524781272
 20
6.3578215665
 30
0.0
 10
6.0521077313
 20
6.3577487355
 30
0.0
 10
6.0517050158
 20
6.3576688537
 30
0.0
 10
6.0511136716
 20
6.3575504689
 30
0.0
 10
6.0503181192
 20
6.3573887397
 30
0.0
 10
6.0493074517
 20
6.357178877
 30
0.0
 10
6.0482332333
 20
6.356950701
 30
0.0
 10
6.0471085784
 20
6.3567062092
 30
0.0
 10
6.0459432812
 20
6.3564467296
 30
0.0
 10
6.0447449677
 20
6.3561733742
 30
0.0
 10
6.0430956911
 20
6.3557878332
 30
0.0
 10
6.0409856599
 20
6.3552760442
 30
0.0
 10
6.0384101219
 20
6.3546200336
 30
0.0
 10
6.0357863692
 20
6.3539185703
 30
0.0
 10
6.0331271085
 20
6.3531727715
 30
0.0
 10
6.0304414279
 20
6.3523831834
 30
0.0
 10
6.0277360846
 20
6.3515500446
 30
0.0
 10
6.0250161937
 20
6.3506732174
 30
0.0
 10
6.0213629346
 20
6.3494413376
 30
0.0
 10
6.018631854
 20
6.3484574309
 30
0.0
 10
6.0168146338
 20
6.347773419
 30
0.0
  0
SPLINE
  5
2B2
100
AcDbEntity
  8
0
100
AcDbSpline
 62
7
  6
CONTINUOUS
 70
0
 71
3
 72
23
 73
19
 74
0
 42
0.0000001
 43
0.0000001
 44
0.0000000001
 40
0.0
 40
0.0
 40
0.0
 40
0.0
 40
0.0719559589
 40
0.1363143605
 40
0.1934768776
 40
0.2442483219
 40
0.2899598182
 40
0.332576824
 40
0.3745820723
 40
0.4185776525
 40
0.4668011086
 40
0.5208719268
 40
0.5818280809
 40
0.6502300298
 40
0.7263221933
 40
0.810124731
 40
0.9014847632
 40
1.0
 40
1.0
 40
1.0
 40
1.0
 10
4.6121455028
 20
2.1804115179
 30
0.0
 10
4.6123050023
 20
2.1804999268
 30
0.0
 10
4.6126010382
 20
2.1806790189
 30
0.0
 10
4.6129942849
 20
2.1809735307
 30
0.0
 10
4.6133095599
 20
2.1812776858
 30
0.0
 10
4.6135447904
 20
2.1815905819
 30
0.0
 10
4.6136971562
 20
2.1819117352
 30
0.0
 10
4.6137628282
 20
2.182239301
 30
0.0
 10
4.6137386096
 20
2.1825683448
 30
0.0
 10
4.6136259328
 20
2.1828928741
 30
0.0
 10
4.6134286558
 20
2.1832096677
 30
0.0
 10
4.6131502293
 20
2.1835179734
 30
0.0
 10
4.6127928115
 20
2.1838170537
 30
0.0
 10
4.6123586554
 20
2.1841059809
 30
0.0
 10
4.6118501348
 20
2.1843832292
 30
0.0
 10
4.611270208
 20
2.1846473174
 30
0.0
 10
4.6106225307
 20
2.1848964489
 30
0.0
 10
4.610164981
 20
2.1850461732
 30
0.0
 10
4.6099260739
 20
2.1851187022
 30
0.0
  0
SPLINE
  5
2B3
100
AcDbEntity
  8
0
100
AcDbSpline
 62
7
  6
CONTINUOUS
 70
0
 71
3
 72
24
 73
20
 74
0
 42
0.0000001
 43
0.0000001
 44
0.0000000001
 40
0.0
 40
0.0
 40
0.0
 40
0.0
 40
0.1728255034
 40
0.3479570759
 40
0.433634833
 40
0.5164883837
 40
0.5953056117
 40
0.668879664
 40
0.736133518
 40
0.7964829335
 40
0.8494743084
 40
0.8946730781
 40
0.9318232981
 40
0.9474865123
 40
0.9613000372
 40
0.9733457831
 40
0.9837215267
 40
0.9925508187
 40
1.0
 40
1.0
 40
1.0
 40
1.0
 10
4.4983653462
 20
2.244050317
 30
0.0
 10
4.4966476868
 20
2.2440667779
 30
0.0
 10
4.4931889568
 20
2.2440591979
 30
0.0
 10
4.4888799168
 20
2.2439470085
 30
0.0
 10
4.4854679862
 20
2.2437837488
 30
0.0
 10
4.4830143503
 20
2.2436285293
 30
0.0
 10
4.4806835801
 20
2.2434415679
 30
0.0
 10
4.4785111169
 20
2.2432247686
 30
0.0
 10
4.476526526
 20
2.2429789968
 30
0.0
 10
4.4747516457
 20
2.2427095715
 30
0.0
 10
4.4732020291
 20
2.2424217054
 30
0.0
 10
4.4718905729
 20
2.2421204488
 30
0.0
 10
4.4709545073
 20
2.2418472373
 30
0.0
 10
4.4703321775
 20
2.241620215
 30
0.0
 10
4.4699520637
 20
2.2414589088
 30
0.0
 10
4.4696298947
 20
2.2412972846
 30
0.0
 10
4.469364076
 20
2.2411357088
 30
0.0
 10
4.4691530728
 20
2.2409746159
 30
0.0
 10
4.4690390777
 20
2.2408584765
 30
0.0
 10
4.4689930558
 20
2.2408004793
 30
0.0
  0
SPLINE
  5
2B4
100
AcDbEntity
  8
0
100
AcDbSpline
 62
7
  6
CONTINUOUS
 70
0
 71
3
 72
22
 73
18
 74
0
 42
0.0000001
 43
0.0000001
 44
0.0000000001
 40
0.0
 40
0.0
 40
0.0
 40
0.0
 40
0.1174263844
 40
0.1781451094
 40
0.2399299695
 40
0.3026579579
 40
0.3662199138
 40
0.4303802013
 40
0.4948959985
 40
0.5595500672
 40
0.6241319536
 40
0.688455138
 40
0.7523439717
 40
0.8156154923
 40
0.8780992865
 40
0.9396102716
 40
1.0
 40
1.0
 40
1.0
 40
1.0
 10
4.4965743693
 20
2.0452266415
 30
0.0
 10
4.49514772
 20
2.0451844338
 30
0.0
 10
4.4929749195
 20
2.045275738
 30
0.0
 10
4.4900886273
 20
2.0457043853
 30
0.0
 10
4.4878896905
 20
2.0461981633
 30
0.0
 10
4.4857018389
 20
2.0468686469
 30
0.0
 10
4.4835474519
 20
2.0477222738
 30
0.0
 10
4.4814486311
 20
2.0487549883
 30
0.0
 10
4.4794303629
 20
2.0499637892
 30
0.0
 10
4.4775156976
 20
2.0513396116
 30
0.0
 10
4.4757249823
 20
2.0528698823
 30
0.0
 10
4.4740792177
 20
2.0545420611
 30
0.0
 10
4.472591727
 20
2.0563357782
 30
0.0
 10
4.4712767834
 20
2.0582324466
 30
0.0
 10
4.4701432673
 20
2.0602094676
 30
0.0
 10
4.4691957438
 20
2.0622432902
 30
0.0
 10
4.4686858055
 20
2.0636366086
 30
0.0
 10
4.4684621986
 20
2.0643357346
 30
0.0
  0
SPLINE
  5
2B5
100
AcDbEntity
  8
0
100
AcDbSpline
 62
7
  6
CONTINUOUS
 70
0
 71
3
 72
22
 73
18
 74
0
 42
0.0000001
 43
0.0000001
 44
0.0000000001
 40
0.0
 40
0.0
 40
0.0
 40
0.0
 40
0.0557037731
 40
0.1134631103
 40
0.1730794094
 40
0.2344364903
 40
0.2974490172
 40
0.3618147689
 40
0.4271920134
 40
0.4932207338
 40
0.5595391311
 40
0.6257645929
 40
0.6914891266
 40
0.7562904382
 40
0.8816008965
 40
0.9418217292
 40
1.0
 40
1.0
 40
1.0
 40
1.0
 10
4.4671493393
 20
2.2193458356
 30
0.0
 10
4.4671570133
 20
2.2185039041
 30
0.0
 10
4.4672557043
 20
2.2167887315
 30
0.0
 10
4.4676509205
 20
2.2141989219
 30
0.0
 10
4.4683112415
 20
2.2115749548
 30
0.0
 10
4.4692516608
 20
2.2089529056
 30
0.0
 10
4.4704832272
 20
2.2063743423
 30
0.0
 10
4.4719970799
 20
2.2038792547
 30
0.0
 10
4.4737828317
 20
2.2015134752
 30
0.0
 10
4.4758148272
 20
2.1993151272
 30
0.0
 10
4.4780667885
 20
2.1973233697
 30
0.0
 10
4.4804984989
 20
2.1955637871
 30
0.0
 10
4.483070816
 20
2.1940616588
 30
0.0
 10
4.4865839499
 20
2.1924348691
 30
0.0
 10
4.4902308276
 20
2.1913348984
 30
0.0
 10
4.493870496
 20
2.1907477063
 30
0.0
 10
4.4956580685
 20
2.1906154976
 30
0.0
 10
4.4965370539
 20
2.1905895392
 30
0.0
  0
SPLINE
  5
2B6
100
AcDbEntity
  8
0
100
AcDbSpline
 62
7
  6
CONTINUOUS
 70
0
 71
3
 72
19
 73
15
 74
0
 42
0.0000001
 43
0.0000001
 44
0.0000000001
 40
0.0
 40
0.0
 40
0.0
 40
0.0
 40
0.2238022563
 40
0.4190914086
 40
0.5856201728
 40
0.7232528623
 40
0.7812691943
 40
0.8321317655
 40
0.8759116841
 40
0.9127324125
 40
0.9428222699
 40
0.9666225002
 40
0.985039381
 40
1.0
 40
1.0
 40
1.0
 40
1.0
 10
4.496569775
 20
2.0452265822
 30
0.0
 10
4.4965935244
 20
2.0450460976
 30
0.0
 10
4.4966402909
 20
2.0447084162
 30
0.0
 10
4.4967144998
 20
2.0442378485
 30
0.0
 10
4.4967880156
 20
2.0438382564
 30
0.0
 10
4.496851662
 20
2.0435504959
 30
0.0
 10
4.4969034443
 20
2.0433567516
 30
0.0
 10
4.4969398117
 20
2.0432379893
 30
0.0
 10
4.4969759085
 20
2.0431372767
 30
0.0
 10
4.497011717
 20
2.0430545819
 30
0.0
 10
4.4970472186
 20
2.0429897127
 30
0.0
 10
4.4970826507
 20
2.0429424386
 30
0.0
 10
4.4971187059
 20
2.0429119775
 30
0.0
 10
4.4971459395
 20
2.0429039549
 30
0.0
 10
4.4971581085
 20
2.04290395
 30
0.0
  0
SPLINE
  5
2B7
100
AcDbEntity
  8
0
100
AcDbSpline
 62
7
  6
CONTINUOUS
 70
0
 71
3
 72
19
 73
15
 74
0
 42
0.0000001
 43
0.0000001
 44
0.0000000001
 40
0.0
 40
0.0
 40
0.0
 40
0.0
 40
0.2238028411
 40
0.4190924162
 40
0.585621464
 40
0.7232542321
 40
0.7812705198
 40
0.8321330014
 40
0.8759127936
 40
0.9127333633
 40
0.9428230072
 40
0.9666229799
 40
0.9850395919
 40
1.0
 40
1.0
 40
1.0
 40
1.0
 10
4.6352190463
 20
2.0452265822
 30
0.0
 10
4.6351953025
 20
2.0450460977
 30
0.0
 10
4.6351485465
 20
2.0447084164
 30
0.0
 10
4.6350743522
 20
2.0442378487
 30
0.0
 10
4.6350008488
 20
2.0438382566
 30
0.0
 10
4.6349372112
 20
2.0435504959
 30
0.0
 10
4.6348854347
 20
2.0433567516
 30
0.0
 10
4.6348490709
 20
2.0432379893
 30
0.0
 10
4.6348129771
 20
2.0431372767
 30
0.0
 10
4.6347771712
 20
2.0430545819
 30
0.0
 10
4.6347416717
 20
2.0429897128
 30
0.0
 10
4.6347062412
 20
2.0429424386
 30
0.0
 10
4.6346701872
 20
2.0429119775
 30
0.0
 10
4.6346429541
 20
2.042903955
 30
0.0
 10
4.6346307855
 20
2.0429039501
 30
0.0
  0
SPLINE
  5
2B8
100
AcDbEntity
  8
0
100
AcDbSpline
 62
7
  6
CONTINUOUS
 70
0
 71
3
 72
22
 73
18
 74
0
 42
0.0000001
 43
0.0000001
 44
0.0000000001
 40
0.0
 40
0.0
 40
0.0
 40
0.0
 40
0.1174263721
 40
0.1781450878
 40
0.2399299372
 40
0.3026579134
 40
0.366219857
 40
0.4303801338
 40
0.4948959223
 40
0.5595499851
 40
0.624131869
 40
0.6884550544
 40
0.7523438937
 40
0.8156154249
 40
0.8780992355
 40
0.9396102441
 40
1.0
 40
1.0
 40
1.0
 40
1.0
 10
4.6352144505
 20
2.0452266453
 30
0.0
 10
4.6366410969
 20
2.0451844378
 30
0.0
 10
4.638813893
 20
2.0452757414
 30
0.0
 10
4.6417001795
 20
2.0457043869
 30
0.0
 10
4.6438991119
 20
2.0461981626
 30
0.0
 10
4.6460869594
 20
2.0468686432
 30
0.0
 10
4.6482413426
 20
2.0477222664
 30
0.0
 10
4.6503401601
 20
2.0487549765
 30
0.0
 10
4.6523584257
 20
2.0499637724
 30
0.0
 10
4.6542730891
 20
2.0513395892
 30
0.0
 10
4.6560638034
 20
2.052869854
 30
0.0
 10
4.6577095679
 20
2.0545420266
 30
0.0
 10
4.6591970594
 20
2.0563357375
 30
0.0
 10
4.6605120049
 20
2.0582323997
 30
0.0
 10
4.6616455236
 20
2.0602094148
 30
0.0
 10
4.6625930507
 20
2.062243232
 30
0.0
 10
4.6631029918
 20
2.063636547
 30
0.0
 10
4.6633266002
 20
2.0643356713
 30
0.0
  0
SPLINE
  5
2B9
100
AcDbEntity
  8
0
100
AcDbSpline
 62
7
  6
CONTINUOUS
 70
0
 71
3
 72
11
 73
7
 74
0
 42
0.0000001
 43
0.0000001
 44
0.0000000001
 40
0.0
 40
0.0
 40
0.0
 40
0.0
 40
0.2549141963
 40
0.5056004108
 40
0.7534680047
 40
1.0
 40
1.0
 40
1.0
 40
1.0
 10
4.664639481
 20
2.2193458357
 30
0.0
 10
4.6666312053
 20
2.2131300083
 30
0.0
 10
4.6701237713
 20
2.2006485165
 30
0.0
 10
4.6738569199
 20
2.1817003075
 30
0.0
 10
4.676028757
 20
2.1627258538
 30
0.0
 10
4.6764341815
 20
2.1500563227
 30
0.0
 10
4.6763763718
 20
2.1437440817
 30
0.0
  0
SPLINE
  5
2BA
100
AcDbEntity
  8
0
100
AcDbSpline
 62
7
  6
CONTINUOUS
 70
0
 71
3
 72
22
 73
18
 74
0
 42
0.0000001
 43
0.0000001
 44
0.0000000001
 40
0.0
 40
0.0
 40
0.0
 40
0.0
 40
0.058178274
 40
0.1183991094
 40
0.2437095712
 40
0.3085108829
 40
0.3742354159
 40
0.4404608765
 40
0.5067792721
 40
0.5728079904
 40
0.6381852326
 40
0.7025509822
 40
0.7655635075
 40
0.8269205876
 40
0.8865368866
 40
0.9442962248
 40
1.0
 40
1.0
 40
1.0
 40
1.0
 10
4.635251766
 20
2.1905895601
 30
0.0
 10
4.6361307512
 20
2.1906155185
 30
0.0
 10
4.6379183229
 20
2.1907477272
 30
0.0
 10
4.6415579899
 20
2.1913349188
 30
0.0
 10
4.6452048662
 20
2.1924348885
 30
0.0
 10
4.648717999
 20
2.1940616767
 30
0.0
 10
4.6512903153
 20
2.1955638036
 30
0.0
 10
4.6537220253
 20
2.1973233846
 30
0.0
 10
4.6559739863
 20
2.1993151403
 30
0.0
 10
4.6580059818
 20
2.2015134864
 30
0.0
 10
4.6597917338
 20
2.2038792639
 30
0.0
 10
4.6613055871
 20
2.2063743496
 30
0.0
 10
4.6625371542
 20
2.2089529111
 30
0.0
 10
4.6634775745
 20
2.2115749586
 30
0.0
 10
4.6641378966
 20
2.2141989242
 30
0.0
 10
4.664533114
 20
2.2167887325
 30
0.0
 10
4.6646318059
 20
2.2185039043
 30
0.0
 10
4.6646394804
 20
2.2193458355
 30
0.0
  0
SPLINE
  5
2BB
100
AcDbEntity
  8
0
100
AcDbSpline
 62
7
  6
CONTINUOUS
 70
0
 71
3
 72
24
 73
20
 74
0
 42
0.0000001
 43
0.0000001
 44
0.0000000001
 40
0.0
 40
0.0
 40
0.0
 40
0.0
 40
0.1728477049
 40
0.3479889755
 40
0.4336676486
 40
0.5165198195
 40
0.5953337831
 40
0.6689031014
 40
0.7361516885
 40
0.7964960758
 40
0.8494828363
 40
0.8946775868
 40
0.9318248438
 40
0.9474870768
 40
0.961299935
 40
0.973345313
 40
0.9837209696
 40
0.9925504312
 40
1.0
 40
1.0
 40
1.0
 40
1.0
 10
4.6334314891
 20
2.2440503968
 30
0.0
 10
4.6351489081
 20
2.2440667915
 30
0.0
 10
4.6386070251
 20
2.2440590957
 30
0.0
 10
4.6429152291
 20
2.2439467822
 30
0.0
 10
4.6463263287
 20
2.2437834443
 30
0.0
 10
4.6487792628
 20
2.2436281866
 30
0.0
 10
4.6511093073
 20
2.2434412032
 30
0.0
 10
4.6532810475
 20
2.2432243955
 30
0.0
 10
4.6552649471
 20
2.2429786311
 30
0.0
 10
4.6570391934
 20
2.2427092308
 30
0.0
 10
4.6585882481
 20
2.2424214027
 30
0.0
 10
4.6598992258
 20
2.242120193
 30
0.0
 10
4.66083495
 20
2.2418470295
 30
0.0
 10
4.6614570576
 20
2.2416200515
 30
0.0
 10
4.6618370423
 20
2.2414587765
 30
0.0
 10
4.6621591063
 20
2.2412971839
 30
0.0
 10
4.6624248431
 20
2.24113564
 30
0.0
 10
4.6626357866
 20
2.2409745789
 30
0.0
 10
4.6627497521
 20
2.2408584643
 30
0.0
 10
4.662795764
 20
2.2408004796
 30
0.0
  0
SPLINE
  5
2BC
100
AcDbEntity
  8
0
100
AcDbSpline
 62
7
  6
CONTINUOUS
 70
0
 71
3
 72
19
 73
15
 74
0
 42
0.0000001
 43
0.0000001
 44
0.0000000001
 40
0.0
 40
0.0
 40
0.0
 40
0.0
 40
0.0278378826
 40
0.0620948424
 40
0.1025190331
 40
0.1488140209
 40
0.2006326892
 40
0.2575859248
 40
0.385140267
 40
0.5276246611
 40
0.6807243077
 40
0.8397922
 40
0.9200630363
 40
1.0
 40
1.0
 40
1.0
 40
1.0
 10
4.6352518381
 20
2.1905894932
 30
0.0
 10
4.6351873504
 20
2.1910818184
 30
0.0
 10
4.6350651594
 20
2.1921827991
 30
0.0
 10
4.6349011792
 20
2.1940040682
 30
0.0
 10
4.6347398108
 20
2.1961558896
 30
0.0
 10
4.6345826441
 20
2.1986219536
 30
0.0
 10
4.6344309252
 20
2.201383672
 30
0.0
 10
4.6342300713
 20
2.2055941484
 30
0.0
 10
4.6340062571
 20
2.2114223735
 30
0.0
 10
4.6337853556
 20
2.2189665307
 30
0.0
 10
4.6336102836
 20
2.2270741168
 30
0.0
 10
4.6335073702
 20
2.2340731508
 30
0.0
 10
4.6334530286
 20
2.2397676669
 30
0.0
 10
4.6334369258
 20
2.2426251787
 30
0.0
 10
4.6334314891
 20
2.244050965
 30
0.0
  0
SPLINE
  5
2BD
100
AcDbEntity
  8
0
100
AcDbSpline
 62
7
  6
CONTINUOUS
 70
0
 71
3
 72
14
 73
10
 74
0
 42
0.0000001
 43
0.0000001
 44
0.0000000001
 40
0.0
 40
0.0
 40
0.0
 40
0.0
 40
0.3175751436
 40
0.4565420947
 40
0.5831184191
 40
0.698580594
 40
0.8047778736
 40
0.9042148638
 40
1.0
 40
1.0
 40
1.0
 40
1.0
 10
4.528134345
 20
2.1698471351
 30
0.0
 10
4.5283753432
 20
2.1699807196
 30
0.0
 10
4.5287123228
 20
2.1701928164
 30
0.0
 10
4.5291006369
 20
2.1705182236
 30
0.0
 10
4.5293306066
 20
2.170756756
 30
0.0
 10
4.5295115175
 20
2.1709999701
 30
0.0
 10
4.5296422283
 20
2.1712474906
 30
0.0
 10
4.5297214781
 20
2.1714983065
 30
0.0
 10
4.5297393894
 20
2.1716681643
 30
0.0
 10
4.5297393894
 20
2.1717512724
 30
0.0
  0
ELLIPSE
  5
2BE
100
AcDbEntity
  8
0
100
AcDbEllipse
 62
7
  6
CONTINUOUS
 10
4.5658944099
 20
2.8976444793
 30
0.0
 11
-0.352661436
 21
0.960859161
 31
0.0
 40
0.1326882817
 41
-4.0819902726
 42
-4.0334020647
  0
ELLIPSE
  5
2BF
100
AcDbEntity
  8
0
100
AcDbEllipse
 62
7
  6
CONTINUOUS
 10
4.5658944099
 20
2.8976444793
 30
0.0
 11
0.352661436
 21
0.960859161
 31
0.0
 40
0.1326882817
 41
-2.2497832425
 42
-2.2011950346
  0
ELLIPSE
  5
2C0
100
AcDbEntity
  8
0
100
AcDbEllipse
 62
7
  6
CONTINUOUS
 10
4.5658944099
 20
2.3176726793
 30
0.0
 11
-0.352661436
 21
0.960859161
 31
0.0
 40
0.1326882817
 41
-4.6975718689
 42
-4.6666724503
  0
ELLIPSE
  5
2C1
100
AcDbEntity
  8
0
100
AcDbEllipse
 62
7
  6
CONTINUOUS
 10
4.5658944099
 20
2.3176726793
 30
0.0
 11
0.352661436
 21
0.960859161
 31
0.0
 40
0.1326882817
 41
-1.6165128568
 42
-1.5856134383
  0
ELLIPSE
  5
2C2
100
AcDbEntity
  8
0
100
AcDbEllipse
 62
7
  6
CONTINUOUS
 10
4.5658944099
 20
2.3176726793
 30
0.0
 11
0.3338528261
 21
0.9096133391
 31
0.0
 40
0.1326882817
 41
-1.5983852089
 42
-1.5785982313
  0
ELLIPSE
  5
2C3
100
AcDbEntity
  8
0
100
AcDbEllipse
 62
7
  6
CONTINUOUS
 10
4.5658944099
 20
2.3176726793
 30
0.0
 11
-0.3338528261
 21
0.9096133391
 31
0.0
 40
0.1326882817
 41
-4.7045870759
 42
-4.6848000983
  0
ENDSEC
  0
SECTION
  2
OBJECTS
  0
DICTIONARY
  5
C
100
AcDbDictionary
280
0
281
1
  3
ACAD_GROUP
350
D
  3
ACAD_MLINESTYLE
350
17
  3
ACAD_LAYOUT
350
1A
  3
ACAD_PLOTSETTINGS
350
19
  3
ACAD_PLOTSTYLENAME
350
E
  0
DICTIONARY
  5
D
102
{ACAD_REACTORS
330
C
102
}
100
AcDbDictionary
280
0
281
1
  0
ACDBDICTIONARYWDFLT
  5
E
102
{ACAD_REACTORS
330
C
102
}
100
AcDbDictionary
281
1
  3
Normal
350
F
100
AcDbDictionaryWithDefault
340
F
  0
DICTIONARY
  5
17
102
{ACAD_REACTORS
330
C
102
}
100
AcDbDictionary
280
0
281
1
  3
Standard
350
18
  0
DICTIONARY
  5
19
102
{ACAD_REACTORS
330
C
102
}
100
AcDbDictionary
281
1
  0
DICTIONARY
  5
1A
102
{ACAD_REACTORS
330
C
102
}
100
AcDbDictionary
281
1
  3
Model
350
2C4
  3
Layout1
350
2C5
  0
ACDBPLACEHOLDER
  5
F
102
{ACAD_REACTORS
330
E
102
}
  0
MLINESTYLE
  5
18
102
{ACAD_REACTORS
330
17
102
}
100
AcDbMlineStyle
  2
STANDARD
 70
0
  3

 62
256
 51
90.0
 52
90.0
 71
2
 49
0.5
 62
256
  6
BYLAYER
 49
-0.5
 62
256
  6
BYLAYER
  0
LAYOUT
  5
2C4
102
{ACAD_REACTORS
330
1A
102
}
100
AcDbPlotSettings
  1

  2
none_device
  4
ANSI_A_(11.00_x_8.50_Inches)
  6

 40
0.0
 41
0.0
 42
0.0
 43
0.0
 44
279.4
 45
215.9
 46
0.0
 47
0.0
 48
0.0
 49
0.0
140
0.0
141
0.0
142
1.0
143
1.0
 70
1024
 72
0
 73
0
 74
0
  7

 75
0
147
1.0
148
0.0
149
0.0
100
AcDbLayout
  1
Model
 70
0
 71
0
 10
0.0
 20
0.0
 11
11.0
 21
8.5
 12
0.0
 22
0.0
 32
0.0
 14
0.0
 24
0.0
 34
0.0
 15
0.0
 25
0.0
 35
0.0
146
0.0
 13
0.0
 23
0.0
 33
0.0
 16
1.0
 26
0.0
 36
0.0
 17
0.0
 27
1.0
 37
0.0
 76
0
330
202
345
0
346
0
  0
LAYOUT
  5
2C5
102
{ACAD_REACTORS
330
1A
102
}
100
AcDbPlotSettings
  1

  2
none_device
  4
ANSI_A_(11.00_x_8.50_Inches)
  6

 40
0.0
 41
0.0
 42
0.0
 43
0.0
 44
279.4
 45
215.9
 46
0.0
 47
0.0
 48
0.0
 49
0.0
140
0.0
141
0.0
142
1.0
143
1.0
 70
0
 72
0
 73
0
 74
0
  7

 75
0
147
1.0
148
0.0
149
0.0
100
AcDbLayout
  1
Layout1
 70
0
 71
1
 10
0.0
 20
0.0
 11
11.0
 21
8.5
 12
0.0
 22
0.0
 32
0.0
 14
0.0
 24
0.0
 34
0.0
 15
0.0
 25
0.0
 35
0.0
146
0.0
 13
0.0
 23
0.0
 33
0.0
 16
1.0
 26
0.0
 36
0.0
 17
0.0
 27
1.0
 37
0.0
 76
0
330
203
345
0
346
0
  0
ENDSEC
  0
EOF
