999
DXF file: 1500-5223_TOP.dxf
999
Pro/ENGINEER 2018400 by Parametric Technology Corporation
  0
SECTION
  2
HEADER
  9
$ACADVER
  1
AC1027
  9
$DWGCODEPAGE
  3
ANSI_1252
  9
$EXTMAX
 10
11.0
 20
8.5
 30
0.0
  9
$EXTMIN
 10
0.0
 20
0.0
 30
0.0
  9
$LIMMIN
 10
0.0
 20
0.0
  9
$LIMMAX
 10
11.0
 20
8.5
  9
$VIEWCTR
 10
5.5
 20
4.25
  9
$VIEWSIZE
 40
8.5
  9
$CLAYER
  8
0
  9
$LTSCALE
 40
0.605
  9
$CELTYPE
  6
BYLAYER
  9
$DIMSCALE
 40
1.0
  9
$DIMASZ
 40
0.1
  9
$DIMEXO
 40
0.0625
  9
$DIMDLI
 40
0.418
  9
$DIMEXE
 40
0.125
  9
$DIMCEN
 40
0.099
  9
$DIMLFAC
 40
1.0
  9
$DIMBLK
  1
_FILLED
  9
$DIMALT
 70
1
  9
$DIMALTD
 70
2
  9
$DIMALTTD
 70
2
  9
$DIMALTF
 40
25.4
  9
$DIMTXT
 40
0.08
  9
$DIMTOL
 70
1
  9
$DIMLIM
 70
0
  9
$DIMTFAC
 40
1.0
  9
$DIMTP
 40
0.001
  9
$DIMTM
 40
0.001
  9
$DIMGAP
 40
0.09
  9
$DIMDSEP
 70
46
  9
$AUNITS
 70
0
  9
$PDMODE
 70
3
  9
$PDSIZE
 40
0.3125
  9
$HANDSEED
  5
255
  9
$TILEMODE
 70
1
  9
$MEASUREMENT
 70
0
  9
$INSUNITS
 70
1
  0
ENDSEC
  0
SECTION
  2
CLASSES
  0
CLASS
  1
ACDBDICTIONARYWDFLT
  2
AcDbDictionaryWithDefault
  3
AutoCAD 2000
 90
0
 91
1
280
0
281
0
  0
CLASS
  1
ACDBPLACEHOLDER
  2
AcDbPlaceHolder
  3
AutoCAD 2000
 90
0
 91
1
280
0
281
0
  0
CLASS
  1
LAYOUT
  2
AcDbLayout
  3
AutoCAD 2000
 90
0
 91
0
280
0
281
0
  0
ENDSEC
  0
SECTION
  2
TABLES
  0
TABLE
  2
VPORT
  5
8
100
AcDbSymbolTable
 70
2
  0
VPORT
  5
1F4
100
AcDbSymbolTableRecord
100
AcDbViewportTableRecord
  2
*ACTIVE
 70
0
 10
0.0
 20
0.0
 11
1.0
 21
1.0
 12
5.5
 22
4.25
 13
0.0
 23
0.0
 14
1.0
 24
1.0
 15
0.0
 25
0.0
 16
0.0
 26
0.0
 36
1.0
 17
0.0
 27
0.0
 37
0.0
 40
8.5
 41
1.2941176471
 42
50.0
 43
0.0
 44
0.0
 50
0.0
 51
0.0
 71
0
 72
100
 73
1
 74
1
 75
0
 76
0
 77
0
 78
0
  0
ENDTAB
  0
TABLE
  2
LTYPE
  5
5
100
AcDbSymbolTable
 70
6
  0
LTYPE
  5
14
100
AcDbSymbolTableRecord
100
AcDbLinetypeTableRecord
  2
BYBLOCK
 70
0
  3

 72
65
 73
0
 40
0.0
  0
LTYPE
  5
15
100
AcDbSymbolTableRecord
100
AcDbLinetypeTableRecord
  2
BYLAYER
 70
0
  3

 72
65
 73
0
 40
0.0
  0
LTYPE
  5
16
100
AcDbSymbolTableRecord
100
AcDbLinetypeTableRecord
  2
CONTINUOUS
 70
64
  3
Solid line
 72
65
 73
0
 40
0.0
  0
LTYPE
  5
1F5
100
AcDbSymbolTableRecord
100
AcDbLinetypeTableRecord
  2
CENTER
 70
64
  3
____ _ ____ _ ____ _ ____ _ ____ _ ____ _ ____
 72
65
 73
4
 40
0.6
 49
0.375
 74
0
 49
-0.075
 74
0
 49
0.075
 74
0
 49
-0.075
 74
0
  0
LTYPE
  5
1F6
100
AcDbSymbolTableRecord
100
AcDbLinetypeTableRecord
  2
HIDDEN
 70
64
  3
- - - - - - - - - - - - - - - - - - - -
 72
65
 73
2
 40
0.2
 49
0.1
 74
0
 49
-0.1
 74
0
  0
LTYPE
  5
1F7
100
AcDbSymbolTableRecord
100
AcDbLinetypeTableRecord
  2
PHANTOM
 70
64
  3
_____ _ _ _____ _ _ _____ _ _ _____
 72
65
 73
6
 40
0.8
 49
0.45
 74
0
 49
-0.05
 74
0
 49
0.1
 74
0
 49
-0.05
 74
0
 49
0.1
 74
0
 49
-0.05
 74
0
  0
LTYPE
  5
1F8
100
AcDbSymbolTableRecord
100
AcDbLinetypeTableRecord
  2
DOT
 70
64
  3
. . . . . . . . . . . . . . . . . . . .
 72
65
 73
2
 40
0.2
 49
0.1
 74
0
 49
-0.1
 74
0
  0
LTYPE
  5
1F9
100
AcDbSymbolTableRecord
100
AcDbLinetypeTableRecord
  2
DASHED
 70
64
  3
- - - - - - - - - - - - - - - - - - - -
 72
65
 73
2
 40
0.2
 49
0.1
 74
0
 49
-0.1
 74
0
  0
ENDTAB
  0
TABLE
  2
LAYER
  5
2
100
AcDbSymbolTable
 70
36
  0
LAYER
  5
10
100
AcDbSymbolTableRecord
100
AcDbLayerTableRecord
  2
0
 70
0
 62
7
  6
CONTINUOUS
370
-3
390
F
  0
LAYER
  5
1FA
100
AcDbSymbolTableRecord
100
AcDbLayerTableRecord
  2
DEFAULT_1
 70
0
 62
7
  6
CENTER
370
-3
390
F
  0
LAYER
  5
1FB
100
AcDbSymbolTableRecord
100
AcDbLayerTableRecord
  2
DEFAULT_2
 70
0
 62
8
  6
HIDDEN
370
-3
390
F
  0
LAYER
  5
1FC
100
AcDbSymbolTableRecord
100
AcDbLayerTableRecord
  2
DEFAULT_3
 70
0
 62
7
  6
PHANTOM
370
-3
390
F
  0
LAYER
  5
1FD
100
AcDbSymbolTableRecord
100
AcDbLayerTableRecord
  2
DEFAULT_COORDINATE_SYSTEM
 70
0
 62
7
  6
CONTINUOUS
370
-3
390
F
  0
LAYER
  5
1FE
100
AcDbSymbolTableRecord
100
AcDbLayerTableRecord
  2
DEFAULT_DATUM_AXES
 70
0
 62
7
  6
CONTINUOUS
370
-3
390
F
  0
LAYER
  5
1FF
100
AcDbSymbolTableRecord
100
AcDbLayerTableRecord
  2
DEFAULT_DATUM_PLANES
 70
0
 62
7
  6
CONTINUOUS
370
-3
390
F
  0
ENDTAB
  0
TABLE
  2
STYLE
  5
3
100
AcDbSymbolTable
 70
1
  0
STYLE
  5
11
100
AcDbSymbolTableRecord
100
AcDbTextStyleTableRecord
  2
STANDARD
 70
0
 40
0.0
 41
0.8
 50
0.0
 71
0
 42
0.2
  3
txt
  4

  0
STYLE
  5
200
100
AcDbSymbolTableRecord
100
AcDbTextStyleTableRecord
  2
TEXTSTYLE_1
 70
0
 40
0.0
 41
0.8
 50
0.0
 71
0
 42
0.2
  3
gdt
  4

  0
ENDTAB
  0
TABLE
  2
VIEW
  5
6
100
AcDbSymbolTable
 70
0
  0
ENDTAB
  0
TABLE
  2
UCS
  5
7
100
AcDbSymbolTable
 70
0
  0
ENDTAB
  0
TABLE
  2
APPID
  5
9
100
AcDbSymbolTable
 70
1
  0
APPID
  5
201
100
AcDbSymbolTableRecord
100
AcDbRegAppTableRecord
  2
ACAD
 70
0
  0
ENDTAB
  0
TABLE
  2
BLOCK_RECORD
  5
1
100
AcDbSymbolTable
 70
0
  0
BLOCK_RECORD
  5
202
100
AcDbSymbolTableRecord
100
AcDbBlockTableRecord
  2
*Model_Space
  0
BLOCK_RECORD
  5
203
100
AcDbSymbolTableRecord
100
AcDbBlockTableRecord
  2
*Paper_Space
  0
BLOCK_RECORD
  5
204
100
AcDbSymbolTableRecord
100
AcDbBlockTableRecord
  2
_FILLED
  0
ENDTAB
  0
TABLE
  2
DIMSTYLE
  5
A
100
AcDbSymbolTable
 70
1
100
AcDbDimStyleTable
 71
0
  0
DIMSTYLE
105
205
100
AcDbSymbolTableRecord
100
AcDbDimStyleTableRecord
  2
STANDARD
 70
0
  3

  4

 40
1.0
 41
0.1
 42
0.0625
 43
0.38
 44
0.125
 45
0.0
 46
0.0
 47
0.001
 48
0.001
140
0.08
141
0.09
142
0.0
143
25.4
144
1.0
145
0.0
146
1.0
147
0.09
 71
1.0
 72
0.0
 73
1
 74
1
 75
0
 76
0
 77
0
 78
4
 79
1
170
1
171
2
172
0
173
0
174
0
175
0
176
0
177
0
178
0
270
2
179
3
271
3
272
3
273
2
274
2
275
0
280
0
281
0
282
0
283
1
284
4
285
0
286
0
287
3
288
0
340
11
278
46
341
204
342
204
343
204
344
204
  0
ENDTAB
  0
ENDSEC
  0
SECTION
  2
BLOCKS
  0
BLOCK
  5
20
100
AcDbEntity
  8
0
100
AcDbBlockBegin
  2
*Model_Space
 70
0
 10
0.0
 20
0.0
 30
0.0
  3
*Model_Space
  1

  0
ENDBLK
  5
21
100
AcDbEntity
  8
0
100
AcDbBlockEnd
  0
BLOCK
  5
1C
100
AcDbEntity
  8
0
100
AcDbBlockBegin
  2
*Paper_Space
 70
0
 10
0.0
 20
0.0
 30
0.0
  3
*Paper_Space
  1

  0
ENDBLK
  5
1D
100
AcDbEntity
  8
0
100
AcDbBlockEnd
  0
BLOCK
  5
206
100
AcDbEntity
  8
0
100
AcDbBlockBegin
  2
_FILLED
 70
64
 10
0.0
 20
0.0
  3
_FILLED
  1

  0
SOLID
  5
207
100
AcDbEntity
  8
0
  6
BYBLOCK
 62
0
100
AcDbTrace
 10
0.0
 20
0.0
 11
-1.0
 21
0.2
 12
-1.0
 22
-0.2
 13
-1.0
 23
-0.2
  0
ENDBLK
  5
208
100
AcDbEntity
  8
0
  6
BYBLOCK
 62
0
100
AcDbBlockEnd
  0
ENDSEC
  0
SECTION
  2
ENTITIES
  0
MTEXT
  5
209
100
AcDbEntity
  8
0
100
AcDbMText
 62
2
  6
CONTINUOUS
  7
STANDARD
 71
3
 72
1
 10
4.4162267081
 20
1.6548164581
 30
0.0
 11
1.0
 21
0.0
 31
0.0
 73
2
 44
0.9
  1
SCALE  .500
 40
0.08
 41
0.704
  0
LINE
  5
20A
100
AcDbEntity
  8
0
100
AcDbLine
 62
7
  6
CONTINUOUS
 10
0.0
 20
0.0
 11
0.0
 21
8.5
  0
LINE
  5
20B
100
AcDbEntity
  8
0
100
AcDbLine
 62
7
  6
CONTINUOUS
 10
0.0
 20
0.0
 11
11.0
 21
0.0
  0
LINE
  5
20C
100
AcDbEntity
  8
0
100
AcDbLine
 62
7
  6
CONTINUOUS
 10
0.0
 20
8.5
 11
11.0
 21
8.5
  0
LINE
  5
20D
100
AcDbEntity
  8
0
100
AcDbLine
 62
7
  6
CONTINUOUS
 10
11.0
 20
0.0
 11
11.0
 21
8.5
  0
LINE
  5
20E
100
AcDbEntity
  8
0
100
AcDbLine
 62
7
  6
CONTINUOUS
 10
3.7391104249
 20
2.5949007309
 11
3.7391104249
 21
2.423597852
  0
LINE
  5
20F
100
AcDbEntity
  8
0
100
AcDbLine
 62
7
  6
CONTINUOUS
 10
3.739237902
 20
6.1259801739
 11
3.7392378933
 21
2.5975477953
  0
LINE
  5
210
100
AcDbEntity
  8
0
100
AcDbLine
 62
7
  6
CONTINUOUS
 10
4.3089829566
 20
2.5975477953
 11
4.3089829253
 21
6.1260440023
  0
LINE
  5
211
100
AcDbEntity
  8
0
100
AcDbLine
 62
7
  6
CONTINUOUS
 10
4.3091104249
 20
2.5949007309
 11
4.3091104249
 21
2.423597852
  0
LINE
  5
212
100
AcDbEntity
  8
0
100
AcDbLine
 62
7
  6
CONTINUOUS
 10
4.3089829566
 20
6.1259091991
 11
4.3089808758
 21
6.1260439706
  0
LINE
  5
213
100
AcDbEntity
  8
0
100
AcDbLine
 62
7
  6
CONTINUOUS
 10
4.9716104249
 20
6.5759091991
 11
4.9716104249
 21
5.6759091991
  0
LINE
  5
214
100
AcDbEntity
  8
0
100
AcDbLine
 62
7
  6
CONTINUOUS
 10
4.9866104249
 20
6.5609091991
 11
4.9866104249
 21
5.6909091991
  0
LINE
  5
215
100
AcDbEntity
  8
0
100
AcDbLine
 62
7
  6
CONTINUOUS
 10
5.0066104249
 20
5.6859091991
 11
5.0066104249
 21
6.5659091991
  0
LINE
  5
216
100
AcDbEntity
  8
0
100
AcDbLine
 62
7
  6
CONTINUOUS
 10
5.0166104249
 20
5.6759091991
 11
5.0166104249
 21
6.5759091991
  0
LINE
  5
217
100
AcDbEntity
  8
0
100
AcDbLine
 62
7
  6
CONTINUOUS
 10
5.5566104249
 20
5.6759091991
 11
5.5566104249
 21
5.9433895972
  0
LINE
  5
218
100
AcDbEntity
  8
0
100
AcDbLine
 62
7
  6
CONTINUOUS
 10
5.5566104249
 20
6.3084361512
 11
5.5566104249
 21
6.5759091991
  0
LINE
  5
219
100
AcDbEntity
  8
0
100
AcDbLine
 62
7
  6
CONTINUOUS
 10
5.5666104249
 20
6.5659091989
 11
5.5666104249
 21
6.3043792596
  0
LINE
  5
21A
100
AcDbEntity
  8
0
100
AcDbLine
 62
7
  6
CONTINUOUS
 10
5.5666104249
 20
5.9474391386
 11
5.5666104249
 21
5.6859091992
  0
LINE
  5
21B
100
AcDbEntity
  8
0
100
AcDbLine
 62
7
  6
CONTINUOUS
 10
4.9716104249
 20
5.6759091991
 11
4.3089829566
 21
5.6759091991
  0
LINE
  5
21C
100
AcDbEntity
  8
0
100
AcDbLine
 62
7
  6
CONTINUOUS
 10
5.0166104249
 20
5.6759091991
 11
5.5566104249
 21
5.6759091991
  0
LINE
  5
21D
100
AcDbEntity
  8
0
100
AcDbLine
 62
7
  6
CONTINUOUS
 10
5.0066104249
 20
5.7234091991
 11
4.9866104249
 21
5.7234091991
  0
LINE
  5
21E
100
AcDbEntity
  8
0
100
AcDbLine
 62
7
  6
CONTINUOUS
 10
5.5120513227
 20
5.9924091991
 11
5.4634440122
 21
5.9924091991
  0
LINE
  5
21F
100
AcDbEntity
  8
0
100
AcDbLine
 62
7
  6
CONTINUOUS
 10
5.4512914426
 20
6.0027191411
 11
5.4750296833
 21
6.0027193002
  0
LINE
  5
220
100
AcDbEntity
  8
0
100
AcDbLine
 62
7
  6
CONTINUOUS
 10
5.4512915655
 20
6.2490993601
 11
5.4750308011
 21
6.2490993988
  0
LINE
  5
221
100
AcDbEntity
  8
0
100
AcDbLine
 62
7
  6
CONTINUOUS
 10
5.4634440165
 20
6.2594091991
 11
5.5120513227
 21
6.2594091991
  0
LINE
  5
222
100
AcDbEntity
  8
0
100
AcDbLine
 62
7
  6
CONTINUOUS
 10
5.0066104249
 20
6.5284091991
 11
4.9866104249
 21
6.5284091991
  0
LWPOLYLINE
  5
223
100
AcDbEntity
  8
0
100
AcDbPolyline
 62
7
  6
CONTINUOUS
 90
3
 70
0
 10
4.1723189621
 20
6.5773402458
 10
4.1705042945
 20
6.5778207057
 10
4.1689606797
 20
6.5782876436
  0
LINE
  5
224
100
AcDbEntity
  8
0
100
AcDbLine
 62
7
  6
CONTINUOUS
 10
5.0166104249
 20
6.5759091991
 11
5.5566104249
 21
6.5759091991
  0
LWPOLYLINE
  5
225
100
AcDbEntity
  8
0
100
AcDbPolyline
 62
7
  6
CONTINUOUS
 90
8
 70
0
 10
4.9716104249
 20
6.5759091991
 10
4.1839309277
 20
6.5759082472
 10
4.1819217107
 20
6.5759594352
 10
4.179938346
 20
6.576089481
 10
4.1779838835
 20
6.5762955198
 10
4.1760609871
 20
6.5765746266
 10
4.1741719325
 20
6.5769238648
 10
4.1723189621
 20
6.5773402458
  0
ARC
  5
226
100
AcDbEntity
  8
0
100
AcDbCircle
 62
7
  6
CONTINUOUS
 10
4.0257088192
 20
2.6259059472
 40
0.2832741374
100
AcDbArc
 50
354.6929464624
 51
0.0006577266
  0
ARC
  5
227
100
AcDbEntity
  8
0
100
AcDbCircle
 62
7
  6
CONTINUOUS
 10
4.0176833062
 20
2.5948976088
 40
0.2785728973
100
AcDbArc
 50
178.3158202661
 51
179.4545806048
  0
ARC
  5
228
100
AcDbEntity
  8
0
100
AcDbCircle
 62
7
  6
CONTINUOUS
 10
4.0305375447
 20
2.5948976088
 40
0.2785728963
100
AcDbArc
 50
0.5454193966
 51
1.6841779797
  0
ARC
  5
229
100
AcDbEntity
  8
0
100
AcDbCircle
 62
7
  6
CONTINUOUS
 10
4.0174156847
 20
2.5949005609
 40
0.2783052598
100
AcDbArc
 50
179.4546638567
 51
179.999964993
  0
ARC
  5
22A
100
AcDbEntity
  8
0
100
AcDbCircle
 62
7
  6
CONTINUOUS
 10
4.0308051659
 20
2.5949005609
 40
0.278305259
100
AcDbArc
 50
0.0000350069
 51
0.5453361449
  0
ARC
  5
22B
100
AcDbEntity
  8
0
100
AcDbCircle
 62
7
  6
CONTINUOUS
 10
4.0241104249
 20
6.1259091991
 40
0.475
100
AcDbArc
 50
306.8398351217
 51
233.143245571
  0
ARC
  5
22C
100
AcDbEntity
  8
0
100
AcDbCircle
 62
7
  6
CONTINUOUS
 10
4.0241104249
 20
6.1259091991
 40
0.46
100
AcDbArc
 50
308.2687343548
 51
231.7312656498
  0
ARC
  5
22D
100
AcDbEntity
  8
0
100
AcDbCircle
 62
7
  6
CONTINUOUS
 10
4.0190982382
 20
6.1259128595
 40
0.2898847168
100
AcDbArc
 50
0.0259143331
 51
5.2530190316
  0
ARC
  5
22E
100
AcDbEntity
  8
0
100
AcDbCircle
 62
7
  6
CONTINUOUS
 10
4.0240436778
 20
6.1318191751
 40
0.279090032
100
AcDbArc
 50
85.2184296677
 51
89.9862971404
  0
ARC
  5
22F
100
AcDbEntity
  8
0
100
AcDbCircle
 62
7
  6
CONTINUOUS
 10
4.0241771721
 20
6.1318191751
 40
0.279090032
100
AcDbArc
 50
90.0137028596
 51
94.7815703323
  0
ARC
  5
230
100
AcDbEntity
  8
0
100
AcDbCircle
 62
7
  6
CONTINUOUS
 10
5.5666104249
 20
6.1259091991
 40
0.16875
100
AcDbArc
 50
93.2070320259
 51
266.7929679615
  0
CIRCLE
  5
231
100
AcDbEntity
  8
0
100
AcDbCircle
 62
7
  6
CONTINUOUS
 10
5.5586104249
 20
6.1259091991
 40
0.14
  0
CIRCLE
  5
232
100
AcDbEntity
  8
0
100
AcDbCircle
 62
7
  6
CONTINUOUS
 10
5.5586104249
 20
6.1259091991
 40
0.13
  0
ARC
  5
233
100
AcDbEntity
  8
0
100
AcDbCircle
 62
7
  6
CONTINUOUS
 10
5.5120513227
 20
6.2894091991
 40
0.03
100
AcDbArc
 50
270.0
 51
285.8951061616
  0
ARC
  5
234
100
AcDbEntity
  8
0
100
AcDbCircle
 62
7
  6
CONTINUOUS
 10
5.5120513227
 20
5.9624091991
 40
0.03
100
AcDbArc
 50
74.1048938384
 51
90.0
  0
ARC
  5
235
100
AcDbEntity
  8
0
100
AcDbCircle
 62
7
  6
CONTINUOUS
 10
4.9716104249
 20
6.5609091991
 40
0.015
100
AcDbArc
 50
0.0
 51
90.0
  0
ARC
  5
236
100
AcDbEntity
  8
0
100
AcDbCircle
 62
7
  6
CONTINUOUS
 10
4.9716104249
 20
5.6909091991
 40
0.015
100
AcDbArc
 50
270.0
 51
360.0
  0
ARC
  5
237
100
AcDbEntity
  8
0
100
AcDbCircle
 62
7
  6
CONTINUOUS
 10
5.5566104249
 20
6.5659091991
 40
0.01
100
AcDbArc
 50
0.0
 51
90.0
  0
ARC
  5
238
100
AcDbEntity
  8
0
100
AcDbCircle
 62
7
  6
CONTINUOUS
 10
5.5566104249
 20
5.6859091991
 40
0.01
100
AcDbArc
 50
270.0
 51
360.0
  0
ARC
  5
239
100
AcDbEntity
  8
0
100
AcDbCircle
 62
7
  6
CONTINUOUS
 10
5.0166104249
 20
6.5659091991
 40
0.01
100
AcDbArc
 50
90.0
 51
180.0
  0
ARC
  5
23A
100
AcDbEntity
  8
0
100
AcDbCircle
 62
7
  6
CONTINUOUS
 10
5.0166104249
 20
5.6859091991
 40
0.01
100
AcDbArc
 50
180.0
 51
270.0
  0
ARC
  5
23B
100
AcDbEntity
  8
0
100
AcDbCircle
 62
7
  6
CONTINUOUS
 10
5.5566104249
 20
5.9474391386
 40
0.01
100
AcDbArc
 50
0.0
 51
86.7929673581
  0
ARC
  5
23C
100
AcDbEntity
  8
0
100
AcDbCircle
 62
7
  6
CONTINUOUS
 10
5.5566104249
 20
6.3043792596
 40
0.01
100
AcDbArc
 50
273.2070326419
 51
360.0
  0
SPLINE
  5
23D
100
AcDbEntity
  8
0
100
AcDbSpline
 62
7
  6
CONTINUOUS
 70
0
 71
3
 72
29
 73
25
 74
0
 42
0.0000001
 43
0.0000001
 44
0.0000000001
 40
0.0
 40
0.0
 40
0.0
 40
0.0
 40
0.0621646233
 40
0.1243162245
 40
0.1553972003
 40
0.1864793615
 40
0.2175690773
 40
0.248674186
 40
0.2797999784
 40
0.3109489051
 40
0.373296719
 40
0.4357208636
 40
0.4981964131
 40
0.5294570201
 40
0.5607263162
 40
0.5920066647
 40
0.6233031111
 40
0.6546211457
 40
0.6859633349
 40
0.748699279
 40
0.811506722
 40
0.874346818
 40
0.9371831987
 40
1.0
 40
1.0
 40
1.0
 40
1.0
 10
4.3089829566
 20
2.5975477953
 30
0.0
 10
4.3089829566
 20
2.5883293382
 30
0.0
 10
4.308083596
 20
2.5698825439
 30
0.0
 10
4.3047083566
 20
2.5470475715
 30
0.0
 10
4.300659418
 20
2.5290562031
 30
0.0
 10
4.2969475138
 20
2.5157287509
 30
0.0
 10
4.2925587801
 20
2.5026049888
 30
0.0
 10
4.2875060143
 20
2.48971554
 30
0.0
 10
4.2818109576
 20
2.4770869193
 30
0.0
 10
4.2733867735
 20
2.4606313607
 30
0.0
 10
4.2613459242
 20
2.4408452399
 30
0.0
 10
4.2446600004
 20
2.4185994642
 30
0.0
 10
4.2290130943
 20
2.4014738431
 30
0.0
 10
4.2155369064
 20
2.3887362669
 30
0.0
 10
4.2049640738
 20
2.3796862647
 30
0.0
 10
4.1939498677
 20
2.3711704619
 30
0.0
 10
4.1825135318
 20
2.3632178185
 30
0.0
 10
4.1706860427
 20
2.3558419493
 30
0.0
 10
4.1544368604
 20
2.3467881337
 30
0.0
 10
4.1333054475
 20
2.3369618606
 30
0.0
 10
4.1069242825
 20
2.3276486435
 30
0.0
 10
4.0797590665
 20
2.3208875298
 30
0.0
 10
4.0520714986
 20
2.3167627744
 30
0.0
 10
4.0334255942
 20
2.3158270376
 30
0.0
 10
4.0241104249
 20
2.3158270376
 30
0.0
  0
SPLINE
  5
23E
100
AcDbEntity
  8
0
100
AcDbSpline
 62
7
  6
CONTINUOUS
 70
0
 71
3
 72
28
 73
24
 74
0
 42
0.0000001
 43
0.0000001
 44
0.0000000001
 40
0.0
 40
0.0
 40
0.0
 40
0.0
 40
0.0625263977
 40
0.1250259749
 40
0.1562713816
 40
0.1875094842
 40
0.2187450219
 40
0.2499844018
 40
0.3124695084
 40
0.3749879659
 40
0.4375180351
 40
0.5000308465
 40
0.5312836382
 40
0.5625273795
 40
0.5937645082
 40
0.6250003289
 40
0.656241036
 40
0.6874901504
 40
0.7499968096
 40
0.812525684
 40
0.8750486117
 40
0.9375410385
 40
1.0
 40
1.0
 40
1.0
 40
1.0
 10
4.3089829253
 20
6.1260440182
 30
0.0
 10
4.3089785943
 20
6.1353667079
 30
0.0
 10
4.3080713327
 20
6.1540193378
 30
0.0
 10
4.3046877231
 20
6.1771114377
 30
0.0
 10
4.3006323495
 20
6.1953065037
 30
0.0
 10
4.2969164105
 20
6.2087831246
 30
0.0
 10
4.2925239258
 20
6.2220538868
 30
0.0
 10
4.2857835471
 20
6.2394303959
 30
0.0
 10
4.2757492725
 20
6.2604997607
 30
0.0
 10
4.2613073068
 20
6.2844926026
 30
0.0
 10
4.2446212997
 20
6.3069874211
 30
0.0
 10
4.2289717666
 20
6.324308389
 30
0.0
 10
4.2154930738
 20
6.3371911025
 30
0.0
 10
4.2049215765
 20
6.3463415399
 30
0.0
 10
4.193909011
 20
6.3549518079
 30
0.0
 10
4.1824745579
 20
6.3629926698
 30
0.0
 10
4.1706492423
 20
6.3704503866
 30
0.0
 10
4.154407102
 20
6.3796025499
 30
0.0
 10
4.1332843165
 20
6.3895368418
 30
0.0
 10
4.1069082538
 20
6.3989546296
 30
0.0
 10
4.0797483737
 20
6.4057917308
 30
0.0
 10
4.0520662656
 20
6.4099628898
 30
0.0
 10
4.0334230609
 20
6.4109091991
 30
0.0
 10
4.0241104249
 20
6.4109091991
 30
0.0
  0
SPLINE
  5
23F
100
AcDbEntity
  8
0
100
AcDbSpline
 62
7
  6
CONTINUOUS
 70
0
 71
3
 72
29
 73
25
 74
0
 42
0.0000001
 43
0.0000001
 44
0.0000000001
 40
0.0
 40
0.0
 40
0.0
 40
0.0
 40
0.0628168013
 40
0.125653182
 40
0.188493278
 40
0.251300721
 40
0.3140366651
 40
0.3453788543
 40
0.3766968889
 40
0.4079933353
 40
0.4392736838
 40
0.4705429799
 40
0.5018035869
 40
0.5642791364
 40
0.626703281
 40
0.6890510949
 40
0.7202000216
 40
0.751325814
 40
0.7824309227
 40
0.8135206385
 40
0.8446027997
 40
0.8756837755
 40
0.9378353767
 40
1.0
 40
1.0
 40
1.0
 40
1.0
 10
4.0241104249
 20
2.3158270376
 30
0.0
 10
4.0147952557
 20
2.3158270376
 30
0.0
 10
3.9961493513
 20
2.3167627744
 30
0.0
 10
3.9684617834
 20
2.3208875298
 30
0.0
 10
3.9412965674
 20
2.3276486435
 30
0.0
 10
3.9149154024
 20
2.3369618606
 30
0.0
 10
3.8937839895
 20
2.3467881337
 30
0.0
 10
3.8775348072
 20
2.3558419493
 30
0.0
 10
3.8657073181
 20
2.3632178185
 30
0.0
 10
3.8542709821
 20
2.3711704619
 30
0.0
 10
3.8432567761
 20
2.3796862647
 30
0.0
 10
3.8326839434
 20
2.3887362669
 30
0.0
 10
3.8192077556
 20
2.4014738431
 30
0.0
 10
3.8035608494
 20
2.4185994642
 30
0.0
 10
3.7868749256
 20
2.4408452399
 30
0.0
 10
3.7748340763
 20
2.4606313607
 30
0.0
 10
3.7664098923
 20
2.4770869193
 30
0.0
 10
3.7607148355
 20
2.48971554
 30
0.0
 10
3.7556620698
 20
2.5026049888
 30
0.0
 10
3.7512733361
 20
2.5157287509
 30
0.0
 10
3.7475614319
 20
2.5290562031
 30
0.0
 10
3.7435124932
 20
2.5470475715
 30
0.0
 10
3.7401372538
 20
2.5698825439
 30
0.0
 10
3.7392378933
 20
2.5883293382
 30
0.0
 10
3.7392378933
 20
2.5975477953
 30
0.0
  0
SPLINE
  5
240
100
AcDbEntity
  8
0
100
AcDbSpline
 62
7
  6
CONTINUOUS
 70
0
 71
3
 72
29
 73
25
 74
0
 42
0.0000001
 43
0.0000001
 44
0.0000000001
 40
0.0
 40
0.0
 40
0.0
 40
0.0
 40
0.0624577776
 40
0.124949026
 40
0.1874707739
 40
0.2499984568
 40
0.3125039081
 40
0.3437524181
 40
0.3749925232
 40
0.4062277499
 40
0.437464297
 40
0.4687074649
 40
0.4999596869
 40
0.5624713473
 40
0.6250002336
 40
0.6875174665
 40
0.718773499
 40
0.7500201967
 40
0.781258964
 40
0.8124939086
 40
0.8437314416
 40
0.8749762919
 40
0.9374747563
 40
1.0
 40
1.0
 40
1.0
 40
1.0
 10
4.0241104249
 20
6.4109091991
 30
0.0
 10
4.0147964619
 20
6.4109091991
 30
0.0
 10
3.9961505961
 20
6.4099626198
 30
0.0
 10
3.9684646176
 20
6.4057902834
 30
0.0
 10
3.9413010899
 20
6.3989512693
 30
0.0
 10
3.9149217134
 20
6.3895308688
 30
0.0
 10
3.8937965312
 20
6.379593843
 30
0.0
 10
3.8775527558
 20
6.3704391795
 30
0.0
 10
3.865726365
 20
6.3629794359
 30
0.0
 10
3.8542910081
 20
6.3549363925
 30
0.0
 10
3.8432777042
 20
6.3463238298
 30
0.0
 10
3.8327056282
 20
6.33717099
 30
0.0
 10
3.8192264221
 20
6.324285011
 30
0.0
 10
3.8035765372
 20
6.306959407
 30
0.0
 10
3.7868916779
 20
6.2844605008
 30
0.0
 10
3.7748539461
 20
6.2644543695
 30
0.0
 10
3.7664305021
 20
6.2478154753
 30
0.0
 10
3.7607342241
 20
6.2350430716
 30
0.0
 10
3.7556799525
 20
6.2220068245
 30
0.0
 10
3.7512894077
 20
6.2087335779
 30
0.0
 10
3.7475754587
 20
6.1952542653
 30
0.0
 10
3.7435230442
 20
6.1770558188
 30
0.0
 10
3.7401435979
 20
6.1539597084
 30
0.0
 10
3.7392401826
 20
6.1353042059
 30
0.0
 10
3.739237902
 20
6.1259801823
 30
0.0
  0
SPLINE
  5
241
100
AcDbEntity
  8
0
100
AcDbSpline
 62
7
  6
CONTINUOUS
 70
0
 71
3
 72
28
 73
24
 74
0
 42
0.0000001
 43
0.0000001
 44
0.0000000001
 40
0.0
 40
0.0
 40
0.0
 40
0.0
 40
0.0621341668
 40
0.0932050843
 40
0.1242759088
 40
0.1553514669
 40
0.1864387027
 40
0.2175434912
 40
0.2486691562
 40
0.3109697178
 40
0.3733491657
 40
0.4357864331
 40
0.4982617668
 40
0.5295198161
 40
0.5607878765
 40
0.5920700986
 40
0.6233716713
 40
0.686025768
 40
0.748765198
 40
0.811563958
 40
0.8743866507
 40
0.9372026066
 40
1.0
 40
1.0
 40
1.0
 40
1.0
 10
4.3077686508
 20
2.5997050249
 30
0.0
 10
4.3069661335
 20
2.5910715096
 30
0.0
 10
4.3051638079
 20
2.5781654233
 30
0.0
 10
4.3015676499
 20
2.5611954322
 30
0.0
 10
4.2982728081
 20
2.5486058156
 30
0.0
 10
4.2943799322
 20
2.5361860768
 30
0.0
 10
4.2898921878
 20
2.5239636276
 30
0.0
 10
4.2848278639
 20
2.5119609272
 30
0.0
 10
4.2773277533
 20
2.4962788166
 30
0.0
 10
4.2665902263
 20
2.4773342382
 30
0.0
 10
4.2516746395
 20
2.4558584582
 30
0.0
 10
4.2348548343
 20
2.4358071339
 30
0.0
 10
4.2193597217
 20
2.4204345544
 30
0.0
 10
4.2061492859
 20
2.4090349264
 30
0.0
 10
4.1958454983
 20
2.4009520557
 30
0.0
 10
4.1851648063
 20
2.393363598
 30
0.0
 10
4.1704512195
 20
2.3839225047
 30
0.0
 10
4.1512393405
 20
2.3734092413
 30
0.0
 10
4.1271175871
 20
2.3629370716
 30
0.0
 10
4.1021293349
 20
2.354667904
 30
0.0
 10
4.0764890876
 20
2.3486712499
 30
0.0
 10
4.0504134409
 20
2.3450164795
 30
0.0
 10
4.0328737108
 20
2.3441884414
 30
0.0
 10
4.0241104249
 20
2.3441884414
 30
0.0
  0
SPLINE
  5
242
100
AcDbEntity
  8
0
100
AcDbSpline
 62
7
  6
CONTINUOUS
 70
0
 71
3
 72
15
 73
11
 74
0
 42
0.0000001
 43
0.0000001
 44
0.0000000001
 40
0.0
 40
0.0
 40
0.0
 40
0.0
 40
0.1470491611
 40
0.2868650257
 40
0.4194286601
 40
0.5451856586
 40
0.6648720227
 40
0.7795672526
 40
0.8907361206
 40
1.0
 40
1.0
 40
1.0
 40
1.0
 10
5.4750306739
 20
6.2490993475
 30
0.0
 10
5.4756929602
 20
6.2487308554
 30
0.0
 10
5.4770157305
 20
6.2480652278
 30
0.0
 10
5.4790322967
 20
6.2472770342
 30
0.0
 10
5.4810148596
 20
6.2467317824
 30
0.0
 10
5.4829453355
 20
6.246435346
 30
0.0
 10
5.4848065986
 20
6.2463910476
 30
0.0
 10
5.4865817463
 20
6.2466013343
 30
0.0
 10
5.4882524946
 20
6.247065602
 30
0.0
 10
5.4892896542
 20
6.247543683
 30
0.0
 10
5.4897800436
 20
6.2478205537
 30
0.0
  0
SPLINE
  5
243
100
AcDbEntity
  8
0
100
AcDbSpline
 62
7
  6
CONTINUOUS
 70
0
 71
3
 72
15
 73
11
 74
0
 42
0.0000001
 43
0.0000001
 44
0.0000000001
 40
0.0
 40
0.0
 40
0.0
 40
0.0
 40
0.1470491537
 40
0.2868650133
 40
0.4194286318
 40
0.5451856242
 40
0.6648720005
 40
0.7795672487
 40
0.8907361271
 40
1.0
 40
1.0
 40
1.0
 40
1.0
 10
5.4750304127
 20
6.0027190458
 30
0.0
 10
5.475692702
 20
6.0030875376
 30
0.0
 10
5.4770154781
 20
6.003753164
 30
0.0
 10
5.4790320527
 20
6.0045413547
 30
0.0
 10
5.4810146233
 20
6.0050866025
 30
0.0
 10
5.4829451062
 20
6.0053830342
 30
0.0
 10
5.4848063755
 20
6.0054273277
 30
0.0
 10
5.4865815285
 20
6.005217036
 30
0.0
 10
5.4882522813
 20
6.0047527636
 30
0.0
 10
5.4892894436
 20
6.0042746796
 30
0.0
 10
5.4897798341
 20
6.0039978074
 30
0.0
  0
SPLINE
  5
244
100
AcDbEntity
  8
0
100
AcDbSpline
 62
7
  6
CONTINUOUS
 70
0
 71
3
 72
13
 73
9
 74
0
 42
0.0000001
 43
0.0000001
 44
0.0000000001
 40
0.0
 40
0.0
 40
0.0
 40
0.0
 40
0.1225560452
 40
0.2452618749
 40
0.4921906479
 40
0.7430679726
 40
0.8706766001
 40
1.0
 40
1.0
 40
1.0
 40
1.0
 10
5.4750296833
 20
6.0027193002
 30
0.0
 10
5.4723138472
 20
6.0039951764
 30
0.0
 10
5.4669407584
 20
6.006683314
 30
0.0
 10
5.456448375
 20
6.0126183286
 30
0.0
 10
5.4438254179
 20
6.0211273962
 30
0.0
 10
5.432137932
 20
6.0310789438
 30
0.0
 10
5.4234371108
 20
6.0399691921
 30
0.0
 10
5.4193296745
 20
6.0447410156
 30
0.0
 10
5.4173449674
 20
6.0472080682
 30
0.0
  0
SPLINE
  5
245
100
AcDbEntity
  8
0
100
AcDbSpline
 62
7
  6
CONTINUOUS
 70
0
 71
3
 72
13
 73
9
 74
0
 42
0.0000001
 43
0.0000001
 44
0.0000000001
 40
0.0
 40
0.0
 40
0.0
 40
0.0
 40
0.1293213613
 40
0.2569296014
 40
0.5078059512
 40
0.7547373101
 40
0.877446123
 40
1.0
 40
1.0
 40
1.0
 40
1.0
 10
5.4173513707
 20
6.2046180349
 30
0.0
 10
5.4193359352
 20
6.2070846462
 30
0.0
 10
5.4234430994
 20
6.2118556173
 30
0.0
 10
5.4321431599
 20
6.2207443863
 30
0.0
 10
5.4438297017
 20
6.2306942091
 30
0.0
 10
5.4564514401
 20
6.2392019978
 30
0.0
 10
5.4669429546
 20
6.2451357577
 30
0.0
 10
5.4723154146
 20
6.2478235449
 30
0.0
 10
5.4750308011
 20
6.2490993988
 30
0.0
  0
SPLINE
  5
246
100
AcDbEntity
  8
0
100
AcDbSpline
 62
7
  6
CONTINUOUS
 70
0
 71
3
 72
29
 73
25
 74
0
 42
0.0000001
 43
0.0000001
 44
0.0000000001
 40
0.0
 40
0.0
 40
0.0
 40
0.0
 40
0.0628168013
 40
0.125653182
 40
0.188493278
 40
0.251300721
 40
0.3140366651
 40
0.3453788543
 40
0.3766968889
 40
0.4079933353
 40
0.4392736838
 40
0.4705429799
 40
0.5018035869
 40
0.5642791364
 40
0.626703281
 40
0.6890510949
 40
0.7202000216
 40
0.751325814
 40
0.7824309227
 40
0.8135206385
 40
0.8446027997
 40
0.8756837755
 40
0.9378353767
 40
1.0
 40
1.0
 40
1.0
 40
1.0
 10
4.0241104249
 20
2.3441884414
 30
0.0
 10
4.0147952557
 20
2.3441884414
 30
0.0
 10
3.9961493513
 20
2.3451241782
 30
0.0
 10
3.9684617834
 20
2.3492489336
 30
0.0
 10
3.9412965674
 20
2.3560100473
 30
0.0
 10
3.9149154024
 20
2.3653232644
 30
0.0
 10
3.8937839895
 20
2.3751495375
 30
0.0
 10
3.8775348072
 20
2.3842033531
 30
0.0
 10
3.8657073181
 20
2.3915792223
 30
0.0
 10
3.8542709821
 20
2.3995318657
 30
0.0
 10
3.8432567761
 20
2.4080476685
 30
0.0
 10
3.8326839434
 20
2.4170976707
 30
0.0
 10
3.8192077556
 20
2.4298352469
 30
0.0
 10
3.8035608494
 20
2.446960868
 30
0.0
 10
3.7868749256
 20
2.4692066437
 30
0.0
 10
3.7748340763
 20
2.4889927645
 30
0.0
 10
3.7664098923
 20
2.5054483231
 30
0.0
 10
3.7607148355
 20
2.5180769438
 30
0.0
 10
3.7556620698
 20
2.5309663926
 30
0.0
 10
3.7512733361
 20
2.5440901547
 30
0.0
 10
3.7475614319
 20
2.5574176069
 30
0.0
 10
3.7435124932
 20
2.5754089753
 30
0.0
 10
3.7401372538
 20
2.5982439477
 30
0.0
 10
3.7392378933
 20
2.616690742
 30
0.0
 10
3.7392378933
 20
2.6259091991
 30
0.0
  0
SPLINE
  5
247
100
AcDbEntity
  8
0
100
AcDbSpline
 62
7
  6
CONTINUOUS
 70
0
 71
3
 72
45
 73
41
 74
0
 42
0.0000001
 43
0.0000001
 44
0.0000000001
 40
0.0
 40
0.0
 40
0.0
 40
0.0
 40
0.0310681741
 40
0.0466093741
 40
0.0621524909
 40
0.0932411968
 40
0.1243495592
 40
0.1399176628
 40
0.1554926466
 40
0.1710750324
 40
0.1866652611
 40
0.2178612051
 40
0.2490919507
 40
0.2803581412
 40
0.3116590564
 40
0.3429926468
 40
0.3743556152
 40
0.4057435462
 40
0.4371510764
 40
0.4685720999
 40
0.5
 40
0.5314279001
 40
0.5628489236
 40
0.5942564538
 40
0.6256443848
 40
0.6570073532
 40
0.6883409436
 40
0.7196418588
 40
0.7509080493
 40
0.7821387949
 40
0.8133347389
 40
0.8289249676
 40
0.8445073534
 40
0.8600823372
 40
0.8756504408
 40
0.9067588032
 40
0.9378475091
 40
0.9533906259
 40
0.9689318259
 40
1.0
 40
1.0
 40
1.0
 40
1.0
 10
4.3091104249
 20
2.5949007309
 30
0.0
 10
4.3091104249
 20
2.585684837
 30
0.0
 10
4.3084225559
 20
2.5718460282
 30
0.0
 10
4.3061387244
 20
2.5535460366
 30
0.0
 10
4.3029490461
 20
2.5353742502
 30
0.0
 10
4.2972746166
 20
2.5129815692
 30
0.0
 10
4.289408201
 20
2.4912536001
 30
0.0
 10
4.2818495738
 20
2.474398628
 30
0.0
 10
4.2755573521
 20
2.4620422583
 30
0.0
 10
4.2686593266
 20
2.4500059956
 30
0.0
 10
4.258676255
 20
2.4344226252
 30
0.0
 10
4.2447621852
 20
2.415878956
 30
0.0
 10
4.2259486589
 20
2.3953629222
 30
0.0
 10
4.2051910578
 20
2.3767677553
 30
0.0
 10
4.1826902805
 20
2.3602739273
 30
0.0
 10
4.1586628369
 20
2.3460397019
 30
0.0
 10
4.1333401919
 20
2.3342020977
 30
0.0
 10
4.1069661517
 20
2.3248749193
 30
0.0
 10
4.0797946246
 20
2.318147854
 30
0.0
 10
4.0520871552
 20
2.3140855718
 30
0.0
 10
4.0241104249
 20
2.3127271244
 30
0.0
 10
3.9961336947
 20
2.3140855718
 30
0.0
 10
3.9684262253
 20
2.318147854
 30
0.0
 10
3.9412546981
 20
2.3248749193
 30
0.0
 10
3.914880658
 20
2.3342020977
 30
0.0
 10
3.8895580129
 20
2.3460397019
 30
0.0
 10
3.8655305694
 20
2.3602739273
 30
0.0
 10
3.8430297921
 20
2.3767677553
 30
0.0
 10
3.8222721909
 20
2.3953629222
 30
0.0
 10
3.8034586647
 20
2.415878956
 30
0.0
 10
3.7895445949
 20
2.4344226252
 30
0.0
 10
3.7795615233
 20
2.4500059956
 30
0.0
 10
3.7726634978
 20
2.4620422583
 30
0.0
 10
3.7663712761
 20
2.474398628
 30
0.0
 10
3.7588126489
 20
2.4912536001
 30
0.0
 10
3.7509462332
 20
2.5129815692
 30
0.0
 10
3.7452718038
 20
2.5353742502
 30
0.0
 10
3.7420821255
 20
2.5535460366
 30
0.0
 10
3.739798294
 20
2.5718460282
 30
0.0
 10
3.7391104249
 20
2.585684837
 30
0.0
 10
3.7391104249
 20
2.5949007309
 30
0.0
  0
SPLINE
  5
248
100
AcDbEntity
  8
0
100
AcDbSpline
 62
7
  6
CONTINUOUS
 70
0
 71
3
 72
45
 73
41
 74
0
 42
0.0000001
 43
0.0000001
 44
0.0000000001
 40
0.0
 40
0.0
 40
0.0
 40
0.0
 40
0.0310681741
 40
0.0466093741
 40
0.0621524909
 40
0.0932411968
 40
0.1243495592
 40
0.1399176628
 40
0.1554926466
 40
0.1710750324
 40
0.1866652611
 40
0.2178612051
 40
0.2490919507
 40
0.2803581412
 40
0.3116590564
 40
0.3429926468
 40
0.3743556152
 40
0.4057435462
 40
0.4371510764
 40
0.4685720999
 40
0.5
 40
0.5314279001
 40
0.5628489236
 40
0.5942564538
 40
0.6256443848
 40
0.6570073532
 40
0.6883409436
 40
0.7196418588
 40
0.7509080493
 40
0.7821387949
 40
0.8133347389
 40
0.8289249676
 40
0.8445073534
 40
0.8600823372
 40
0.8756504408
 40
0.9067588032
 40
0.9378475091
 40
0.9533906259
 40
0.9689318259
 40
1.0
 40
1.0
 40
1.0
 40
1.0
 10
4.3091104249
 20
2.423597852
 30
0.0
 10
4.3091104249
 20
2.4143819581
 30
0.0
 10
4.3084225559
 20
2.4005431493
 30
0.0
 10
4.3061387244
 20
2.3822431577
 30
0.0
 10
4.3029490461
 20
2.3640713713
 30
0.0
 10
4.2972746166
 20
2.3416786902
 30
0.0
 10
4.289408201
 20
2.3199507212
 30
0.0
 10
4.2818495738
 20
2.3030957491
 30
0.0
 10
4.2755573521
 20
2.2907393794
 30
0.0
 10
4.2686593266
 20
2.2787031167
 30
0.0
 10
4.258676255
 20
2.2631197462
 30
0.0
 10
4.2447621852
 20
2.244576077
 30
0.0
 10
4.2259486589
 20
2.2240600433
 30
0.0
 10
4.2051910578
 20
2.2054648764
 30
0.0
 10
4.1826902805
 20
2.1889710484
 30
0.0
 10
4.1586628369
 20
2.174736823
 30
0.0
 10
4.1333401919
 20
2.1628992187
 30
0.0
 10
4.1069661517
 20
2.1535720404
 30
0.0
 10
4.0797946246
 20
2.1468449751
 30
0.0
 10
4.0520871552
 20
2.1427826928
 30
0.0
 10
4.0241104249
 20
2.1414242454
 30
0.0
 10
3.9961336947
 20
2.1427826928
 30
0.0
 10
3.9684262253
 20
2.1468449751
 30
0.0
 10
3.9412546981
 20
2.1535720404
 30
0.0
 10
3.914880658
 20
2.1628992187
 30
0.0
 10
3.8895580129
 20
2.174736823
 30
0.0
 10
3.8655305694
 20
2.1889710484
 30
0.0
 10
3.8430297921
 20
2.2054648764
 30
0.0
 10
3.8222721909
 20
2.2240600433
 30
0.0
 10
3.8034586647
 20
2.244576077
 30
0.0
 10
3.7895445949
 20
2.2631197462
 30
0.0
 10
3.7795615233
 20
2.2787031167
 30
0.0
 10
3.7726634978
 20
2.2907393794
 30
0.0
 10
3.7663712761
 20
2.3030957491
 30
0.0
 10
3.7588126489
 20
2.3199507212
 30
0.0
 10
3.7509462332
 20
2.3416786902
 30
0.0
 10
3.7452718038
 20
2.3640713713
 30
0.0
 10
3.7420821255
 20
2.3822431577
 30
0.0
 10
3.739798294
 20
2.4005431493
 30
0.0
 10
3.7391104249
 20
2.4143819581
 30
0.0
 10
3.7391104249
 20
2.423597852
 30
0.0
  0
SPLINE
  5
249
100
AcDbEntity
  8
0
100
AcDbSpline
 62
7
  6
CONTINUOUS
 70
0
 71
3
 72
27
 73
23
 74
0
 42
0.0000001
 43
0.0000001
 44
0.0000000001
 40
0.0
 40
0.0
 40
0.0
 40
0.0
 40
0.0006334281
 40
0.0017932922
 40
0.0060395567
 40
0.0129477478
 40
0.0225265537
 40
0.0347581948
 40
0.0495920227
 40
0.0669683522
 40
0.0868264733
 40
0.1090989527
 40
0.1336932866
 40
0.1894516982
 40
0.2532676341
 40
0.3241389972
 40
0.4009915564
 40
0.4826313253
 40
0.5678126228
 40
0.6552031106
 40
0.8312616376
 40
1.0
 40
1.0
 40
1.0
 40
1.0
 10
5.5571698655
 20
5.9574234776
 30
0.0
 10
5.5571728301
 20
5.9574233115
 30
0.0
 10
5.5571795365
 20
5.9574162367
 30
0.0
 10
5.5571884123
 20
5.9573900208
 30
0.0
 10
5.5571980358
 20
5.9573321798
 30
0.0
 10
5.5572062486
 20
5.9572357544
 30
0.0
 10
5.5572129005
 20
5.957101085
 30
0.0
 10
5.5572173129
 20
5.956929433
 30
0.0
 10
5.5572195748
 20
5.956721088
 30
0.0
 10
5.5572195679
 20
5.9564770181
 30
0.0
 10
5.5572172863
 20
5.9561980773
 30
0.0
 10
5.5572127099
 20
5.95588533
 30
0.0
 10
5.5572031616
 20
5.9554043565
 30
0.0
 10
5.5571852439
 20
5.9547287816
 30
0.0
 10
5.5571559611
 20
5.9538365242
 30
0.0
 10
5.5571184799
 20
5.9528456146
 30
0.0
 10
5.5570733215
 20
5.9517713949
 30
0.0
 10
5.5570211954
 20
5.9506303377
 30
0.0
 10
5.5569628733
 20
5.9494401211
 30
0.0
 10
5.5568778708
 20
5.9478080907
 30
0.0
 10
5.5567635025
 20
5.9457853878
 30
0.0
 10
5.5566627717
 20
5.9441722451
 30
0.0
 10
5.5566104249
 20
5.9433830008
 30
0.0
  0
SPLINE
  5
24A
100
AcDbEntity
  8
0
100
AcDbSpline
 62
7
  6
CONTINUOUS
 70
0
 71
3
 72
19
 73
15
 74
0
 42
0.0000001
 43
0.0000001
 44
0.0000000001
 40
0.0
 40
0.0
 40
0.0
 40
0.0
 40
0.1692443367
 40
0.3331060859
 40
0.486495146
 40
0.6250126527
 40
0.6876400856
 40
0.7454289391
 40
0.7982685237
 40
0.8462022565
 40
0.8895452905
 40
0.9289187304
 40
0.9652982098
 40
1.0
 40
1.0
 40
1.0
 40
1.0
 10
5.5566104249
 20
5.9433830008
 30
0.0
 10
5.5572610109
 20
5.9433830008
 30
0.0
 10
5.5585420855
 20
5.943433351
 30
0.0
 10
5.5604008612
 20
5.9436580707
 30
0.0
 10
5.5621169532
 20
5.9440229474
 30
0.0
 10
5.5634166744
 20
5.9444450376
 30
0.0
 10
5.5643272192
 20
5.9448491529
 30
0.0
 10
5.5649133695
 20
5.9451670816
 30
0.0
 10
5.5654207714
 20
5.9455066975
 30
0.0
 10
5.5658446579
 20
5.9458655871
 30
0.0
 10
5.5661811622
 20
5.9462409811
 30
0.0
 10
5.5664264326
 20
5.9466307394
 30
0.0
 10
5.5665761826
 20
5.9470315035
 30
0.0
 10
5.5666104249
 20
5.9473057427
 30
0.0
 10
5.5666104249
 20
5.9474391386
 30
0.0
  0
SPLINE
  5
24B
100
AcDbEntity
  8
0
100
AcDbSpline
 62
7
  6
CONTINUOUS
 70
0
 71
3
 72
30
 73
26
 74
0
 42
0.0000001
 43
0.0000001
 44
0.0000000001
 40
0.0
 40
0.0
 40
0.0
 40
0.0
 40
0.0827199388
 40
0.1687425968
 40
0.2565522353
 40
0.3448079381
 40
0.4321999415
 40
0.5173830325
 40
0.5990240012
 40
0.6758773609
 40
0.7467478953
 40
0.8105616236
 40
0.8663163989
 40
0.8909093101
 40
0.9131830594
 40
0.9330455133
 40
0.950426947
 40
0.9652643632
 40
0.9774938097
 40
0.9870581123
 40
0.9908347662
 40
0.9939419585
 40
0.9963838727
 40
0.9981729714
 40
1.0
 40
1.0
 40
1.0
 40
1.0
 10
5.5566104249
 20
6.3084353973
 30
0.0
 10
5.5566291064
 20
6.3080480895
 30
0.0
 10
5.5566780778
 20
6.3072585605
 30
0.0
 10
5.5567608407
 20
6.3060588058
 30
0.0
 10
5.5568328792
 20
6.3048323325
 30
0.0
 10
5.5568984504
 20
6.3035990929
 30
0.0
 10
5.5569619869
 20
6.3023780732
 30
0.0
 10
5.5570207805
 20
6.3011878579
 30
0.0
 10
5.5570718639
 20
6.300046734
 30
0.0
 10
5.5571159341
 20
6.2989724652
 30
0.0
 10
5.5571540342
 20
6.2979815914
 30
0.0
 10
5.5571849177
 20
6.2970894218
 30
0.0
 10
5.5572044888
 20
6.2964139247
 30
0.0
 10
5.5572143924
 20
6.2959329755
 30
0.0
 10
5.5572185189
 20
6.2956201984
 30
0.0
 10
5.5572193103
 20
6.2953412006
 30
0.0
 10
5.5572174296
 20
6.2950970625
 30
0.0
 10
5.5572137845
 20
6.2948887492
 30
0.0
 10
5.5572090148
 20
6.2947170605
 30
0.0
 10
5.5572048868
 20
6.2945973605
 30
0.0
 10
5.5572004421
 20
6.294520226
 30
0.0
 10
5.5571969004
 20
6.2944769784
 30
0.0
 10
5.5571922339
 20
6.2944419941
 30
0.0
 10
5.5571869667
 20
6.2944164223
 30
0.0
 10
5.5571784165
 20
6.2943953997
 30
0.0
 10
5.5571698655
 20
6.2943949206
 30
0.0
  0
SPLINE
  5
24C
100
AcDbEntity
  8
0
100
AcDbSpline
 62
7
  6
CONTINUOUS
 70
0
 71
3
 72
19
 73
15
 74
0
 42
0.0000001
 43
0.0000001
 44
0.0000000001
 40
0.0
 40
0.0
 40
0.0
 40
0.0
 40
0.0346918122
 40
0.0710457769
 40
0.1103928003
 40
0.1537133986
 40
0.2016351056
 40
0.2544513811
 40
0.3122215376
 40
0.3748271479
 40
0.513328339
 40
0.6667300498
 40
0.8306921814
 40
1.0
 40
1.0
 40
1.0
 40
1.0
 10
5.5666104249
 20
6.3043792596
 30
0.0
 10
5.5666104249
 20
6.3045126173
 30
0.0
 10
5.5665763117
 20
6.3047867286
 30
0.0
 10
5.5664266871
 20
6.3051873011
 30
0.0
 10
5.5661815332
 20
6.3055767816
 30
0.0
 10
5.5658453748
 20
6.3059521677
 30
0.0
 10
5.5654216656
 20
6.3063109291
 30
0.0
 10
5.5649146048
 20
6.3066506764
 30
0.0
 10
5.5643286629
 20
6.306968489
 30
0.0
 10
5.5634184268
 20
6.3073727528
 30
0.0
 10
5.562118812
 20
6.3077948903
 30
0.0
 10
5.5604024152
 20
6.3081601176
 30
0.0
 10
5.5585429591
 20
6.3083849531
 30
0.0
 10
5.557261256
 20
6.3084353973
 30
0.0
 10
5.5566104249
 20
6.3084353973
 30
0.0
  0
SPLINE
  5
24D
100
AcDbEntity
  8
0
100
AcDbSpline
 62
7
  6
CONTINUOUS
 70
0
 71
3
 72
24
 73
20
 74
0
 42
0.0000001
 43
0.0000001
 44
0.0000000001
 40
0.0
 40
0.0
 40
0.0
 40
0.0
 40
0.0711375985
 40
0.1065860699
 40
0.1418806818
 40
0.2118330007
 40
0.2807149997
 40
0.3146918722
 40
0.3483298659
 40
0.3816161276
 40
0.4145403156
 40
0.4792805882
 40
0.5425552483
 40
0.6043901901
 40
0.6648317214
 40
0.7239291729
 40
0.7817263216
 40
0.8934746512
 40
1.0
 40
1.0
 40
1.0
 40
1.0
 10
4.5491104249
 20
6.1259091991
 30
0.0
 10
4.5491089065
 20
6.1143914984
 30
0.0
 10
4.548404296
 20
6.0971238717
 30
0.0
 10
4.5460789766
 20
6.0742659623
 30
0.0
 10
4.5428648209
 20
6.0517085302
 30
0.0
 10
4.537218427
 20
6.0240550408
 30
0.0
 10
4.5294934258
 20
5.9971327182
 30
0.0
 10
4.5221944544
 20
5.9762684099
 30
0.0
 10
4.5162273297
 20
5.9610564069
 30
0.0
 10
4.5097752429
 20
5.946229569
 30
0.0
 10
4.5006192522
 20
5.927102462
 30
0.0
 10
4.488136974
 20
5.904203534
 30
0.0
 10
4.4716181375
 20
5.8782553157
 30
0.0
 10
4.453859173
 20
5.853998759
 30
0.0
 10
4.435055856
 20
5.8314189423
 30
0.0
 10
4.4153823091
 20
5.8104830599
 30
0.0
 10
4.3885115842
 20
5.7849953942
 30
0.0
 10
4.3536026841
 20
5.7569371773
 30
0.0
 10
4.3238907728
 20
5.7376847916
 30
0.0
 10
4.3089801678
 20
5.7290163961
 30
0.0
  0
SPLINE
  5
24E
100
AcDbEntity
  8
0
100
AcDbSpline
 62
7
  6
CONTINUOUS
 70
0
 71
3
 72
26
 73
22
 74
0
 42
0.0000001
 43
0.0000001
 44
0.0000000001
 40
0.0
 40
0.0
 40
0.0
 40
0.0
 40
0.0631602282
 40
0.094693594
 40
0.1261683522
 40
0.1889055673
 40
0.2513672118
 40
0.3135675073
 40
0.3755602646
 40
0.4374253027
 40
0.4992563554
 40
0.5611473533
 40
0.6231818131
 40
0.6854240141
 40
0.716644277
 40
0.7479279513
 40
0.8106668091
 40
0.8736276204
 40
0.9051849474
 40
0.9367801829
 40
1.0
 40
1.0
 40
1.0
 40
1.0
 10
5.5566104249
 20
5.9433895972
 30
0.0
 10
5.5508536458
 20
5.9437194871
 30
0.0
 10
5.5422388365
 20
5.9446370863
 30
0.0
 10
5.5309043779
 20
5.9467074689
 30
0.0
 10
5.5197231499
 20
5.9493276556
 30
0.0
 10
5.5060504966
 20
5.953612049
 30
0.0
 10
5.4902746765
 20
5.9602998606
 30
0.0
 10
5.4752767145
 20
5.968445166
 30
0.0
 10
5.4611705772
 20
5.9779540484
 30
0.0
 10
5.4480544093
 20
5.9887340905
 30
0.0
 10
5.4360159831
 20
6.0006919129
 30
0.0
 10
5.4251369904
 20
6.0137335448
 30
0.0
 10
5.4154965274
 20
6.0277601616
 30
0.0
 10
5.4085638467
 20
6.0401737026
 30
0.0
 10
5.403712497
 20
6.0504813093
 30
0.0
 10
5.3993255815
 20
6.0610442158
 30
0.0
 10
5.3947543931
 20
6.0746504807
 30
0.0
 10
5.3914548753
 20
6.0886453006
 30
0.0
 10
5.3895956676
 20
6.1000115578
 30
0.0
 10
5.388262216
 20
6.1114743781
 30
0.0
 10
5.3878604729
 20
6.1201375354
 30
0.0
 10
5.3878604249
 20
6.1259091991
 30
0.0
  0
SPLINE
  5
24F
100
AcDbEntity
  8
0
100
AcDbSpline
 62
7
  6
CONTINUOUS
 70
0
 71
3
 72
62
 73
58
 74
0
 42
0.0000001
 43
0.0000001
 44
0.0000000001
 40
0.0
 40
0.0
 40
0.0
 40
0.0
 40
0.0000041645
 40
0.0000163559
 40
0.0000365668
 40
0.0000647897
 40
0.0001010171
 40
0.0001452415
 40
0.0002576511
 40
0.0004019585
 40
0.0005781037
 40
0.0007860266
 40
0.0010256671
 40
0.0015998607
 40
0.0023000767
 40
0.0031237893
 40
0.0040669927
 40
0.0051256436
 40
0.0062957002
 40
0.0089538847
 40
0.0120106429
 40
0.0154376632
 40
0.0192069326
 40
0.0232906224
 40
0.0276620093
 40
0.0322948471
 40
0.0371629378
 40
0.0422415636
 40
0.0529633009
 40
0.064338054
 40
0.0762599564
 40
0.0886493509
 40
0.1014328331
 40
0.1145593932
 40
0.1279888705
 40
0.1556204414
 40
0.1841308585
 40
0.2133850643
 40
0.2432945296
 40
0.2738023416
 40
0.3048721544
 40
0.3364835645
 40
0.401289397
 40
0.4682419916
 40
0.537431073
 40
0.6089755074
 40
0.6456728747
 40
0.6829890094
 40
0.7209168871
 40
0.7594405843
 40
0.7985278886
 40
0.8381284507
 40
0.8581031196
 40
0.8781777389
 40
0.918575928
 40
0.9592273913
 40
1.0
 40
1.0
 40
1.0
 40
1.0
 10
4.184198793
 20
6.575909194
 30
0.0
 10
4.1841995346
 20
6.5759087526
 30
0.0
 10
4.1842029796
 20
6.5759082243
 30
0.0
 10
4.1842100586
 20
6.5759056553
 30
0.0
 10
4.1842222159
 20
6.5759023416
 30
0.0
 10
4.1842390009
 20
6.5758972872
 30
0.0
 10
4.1842606272
 20
6.5758909819
 30
0.0
 10
4.1842989693
 20
6.5758797116
 30
0.0
 10
4.1843588236
 20
6.5758621894
 30
0.0
 10
4.1844449134
 20
6.5758369906
 30
0.0
 10
4.1845500121
 20
6.5758062704
 30
0.0
 10
4.1846740814
 20
6.5757700366
 30
0.0
 10
4.1848773465
 20
6.5757107302
 30
0.0
 10
4.1851785776
 20
6.575622955
 30
0.0
 10
4.1855960758
 20
6.5755015308
 30
0.0
 10
4.1860869919
 20
6.5753587165
 30
0.0
 10
4.1866491148
 20
6.5751947565
 30
0.0
 10
4.1872799422
 20
6.5750100224
 30
0.0
 10
4.188251457
 20
6.5747240893
 30
0.0
 10
4.1896191773
 20
6.5743177918
 30
0.0
 10
4.1914332233
 20
6.5737715353
 30
0.0
 10
4.1934654671
 20
6.5731513817
 30
0.0
 10
4.1956986252
 20
6.5724605449
 30
0.0
 10
4.1981157488
 20
6.5717022514
 30
0.0
 10
4.2007000357
 20
6.5708790262
 30
0.0
 10
4.203434957
 20
6.5699932254
 30
0.0
 10
4.2063043665
 20
6.5690471253
 30
0.0
 10
4.2103643425
 20
6.5676825038
 30
0.0
 10
4.2156863964
 20
6.5658408673
 30
0.0
 10
4.2223202286
 20
6.5634548973
 30
0.0
 10
4.2292466116
 20
6.5608628989
 30
0.0
 10
4.2364097984
 20
6.5580726129
 30
0.0
 10
4.2437639707
 20
6.5550869637
 30
0.0
 10
4.2512723769
 20
6.5519104317
 30
0.0
 10
4.2615482201
 20
6.5473812024
 30
0.0
 10
4.2746044336
 20
6.5412598631
 30
0.0
 10
4.2903825676
 20
6.5332389543
 30
0.0
 10
4.3062997779
 20
6.5244711024
 30
0.0
 10
4.3222625533
 20
6.5149501135
 30
0.0
 10
4.3381946263
 20
6.5046658732
 30
0.0
 10
4.3540309013
 20
6.4936053952
 30
0.0
 10
4.3751114569
 20
6.4776723283
 30
0.0
 10
4.4009113492
 20
6.4556912883
 30
0.0
 10
4.4303274786
 20
6.4261469075
 30
0.0
 10
4.4579688294
 20
6.3930840322
 30
0.0
 10
4.4788850364
 20
6.362769319
 30
0.0
 10
4.4941657169
 20
6.336749952
 30
0.0
 10
4.5048931683
 20
6.3161695978
 30
0.0
 10
4.5146928834
 20
6.2947146374
 30
0.0
 10
4.5234664824
 20
6.2724239919
 30
0.0
 10
4.5311133823
 20
6.2493563396
 30
0.0
 10
4.536451587
 20
6.2296071179
 30
0.0
 10
4.5400713548
 20
6.2135009157
 30
0.0
 10
4.5432560647
 20
6.1971346417
 30
0.0
 10
4.5463523029
 20
6.1763950444
 30
0.0
 10
4.5486032102
 20
6.1512364857
 30
0.0
 10
4.5491092898
 20
6.1343585703
 30
0.0
 10
4.5491104249
 20
6.1259091991
 30
0.0
  0
SPLINE
  5
250
100
AcDbEntity
  8
0
100
AcDbSpline
 62
7
  6
CONTINUOUS
 70
0
 71
3
 72
26
 73
22
 74
0
 42
0.0000001
 43
0.0000001
 44
0.0000000001
 40
0.0
 40
0.0
 40
0.0
 40
0.0
 40
0.06321986
 40
0.1263554897
 40
0.1893162668
 40
0.2520550746
 40
0.2833387243
 40
0.3145589616
 40
0.3768011139
 40
0.4388355244
 40
0.5007264736
 40
0.5625574726
 40
0.6244224696
 40
0.6864152103
 40
0.7174940402
 40
0.7486332816
 40
0.8110952026
 40
0.8738318633
 40
0.9053064467
 40
0.9368402408
 40
1.0
 40
1.0
 40
1.0
 40
1.0
 10
5.3878604249
 20
6.1259091991
 30
0.0
 10
5.387860457
 20
6.1316808884
 30
0.0
 10
5.388395439
 20
6.1432236785
 30
0.0
 10
5.3907924999
 20
6.1603643012
 30
0.0
 10
5.3947544577
 20
6.1771677365
 30
0.0
 10
5.3993256602
 20
6.1907744626
 30
0.0
 10
5.4037125867
 20
6.2013373467
 30
0.0
 10
5.4085639713
 20
6.2116449885
 30
0.0
 10
5.4154967264
 20
6.2240585266
 30
0.0
 10
5.4251372479
 20
6.238085178
 30
0.0
 10
5.4360162512
 20
6.251126812
 30
0.0
 10
5.4480549006
 20
6.2630847116
 30
0.0
 10
5.4611706137
 20
6.2738644233
 30
0.0
 10
5.4729189625
 20
6.2817837841
 30
0.0
 10
5.4827549318
 20
6.2874346081
 30
0.0
 10
5.4928889291
 20
6.292626529
 30
0.0
 10
5.5060514096
 20
6.2982072408
 30
0.0
 10
5.5197238629
 20
6.3024907374
 30
0.0
 10
5.5309054829
 20
6.3051095761
 30
0.0
 10
5.5422393901
 20
6.3071822668
 30
0.0
 10
5.5508536689
 20
6.3081062273
 30
0.0
 10
5.5566104249
 20
6.3084361512
 30
0.0
  0
SPLINE
  5
251
100
AcDbEntity
  8
0
100
AcDbSpline
 62
7
  6
CONTINUOUS
 70
0
 71
3
 72
33
 73
29
 74
0
 42
0.0000001
 43
0.0000001
 44
0.0000000001
 40
0.0
 40
0.0
 40
0.0
 40
0.0
 40
0.0002004463
 40
0.0007979929
 40
0.0017858508
 40
0.0031572314
 40
0.0049053463
 40
0.0070231368
 40
0.0123189073
 40
0.0189293004
 40
0.0267352931
 40
0.0356207186
 40
0.0454743107
 40
0.0676473063
 40
0.0925110238
 40
0.119490613
 40
0.1481418368
 40
0.1781428744
 40
0.2092305618
 40
0.2739723714
 40
0.3412892167
 40
0.4105050144
 40
0.4811850974
 40
0.5530302907
 40
0.6258275863
 40
0.69942916
 40
0.8486180401
 40
1.0
 40
1.0
 40
1.0
 40
1.0
 10
5.5120513227
 20
6.2594091991
 30
0.0
 10
5.512053888
 20
6.2594093683
 30
0.0
 10
5.5120314822
 20
6.2594058886
 30
0.0
 10
5.5120208351
 20
6.2594031283
 30
0.0
 10
5.511976883
 20
6.259395196
 30
0.0
 10
5.5119280603
 20
6.2593857216
 30
0.0
 10
5.5118609563
 20
6.2593730047
 30
0.0
 10
5.5117460612
 20
6.2593510445
 30
0.0
 10
5.5115690692
 20
6.2593171839
 30
0.0
 10
5.5113209493
 20
6.2592694206
 30
0.0
 10
5.5110274962
 20
6.2592125883
 30
0.0
 10
5.5106933577
 20
6.2591474083
 30
0.0
 10
5.5101784921
 20
6.2590461815
 30
0.0
 10
5.5094629242
 20
6.2589035577
 30
0.0
 10
5.5085326526
 20
6.2587144526
 30
0.0
 10
5.5075218354
 20
6.2585045402
 30
0.0
 10
5.5064475327
 20
6.2582763371
 30
0.0
 10
5.5053228434
 20
6.258031823
 30
0.0
 10
5.503747589
 20
6.2576810276
 30
0.0
 10
5.5017087891
 20
6.2572101429
 30
0.0
 10
5.4992000375
 20
6.2566016452
 30
0.0
 10
5.4966246104
 20
6.2559456445
 30
0.0
 10
5.4940010168
 20
6.2552442011
 30
0.0
 10
5.4913419329
 20
6.254498438
 30
0.0
 10
5.4886564334
 20
6.2537088862
 30
0.0
 10
5.4850332205
 20
6.2525930553
 30
0.0
 10
5.4804750667
 20
6.2510901716
 30
0.0
 10
5.4768477326
 20
6.2497833853
 30
0.0
 10
5.4750306488
 20
6.2490994247
 30
0.0
  0
SPLINE
  5
252
100
AcDbEntity
  8
0
100
AcDbSpline
 62
7
  6
CONTINUOUS
 70
0
 71
3
 72
33
 73
29
 74
0
 42
0.0000001
 43
0.0000001
 44
0.0000000001
 40
0.0
 40
0.0
 40
0.0
 40
0.0
 40
0.1513805256
 40
0.3005691503
 40
0.3741707834
 40
0.4469680287
 40
0.5188132571
 40
0.5894935963
 40
0.6587097546
 40
0.7260266529
 40
0.7907681704
 40
0.8218557132
 40
0.8518567115
 40
0.8805080914
 40
0.9074880212
 40
0.9323521419
 40
0.9545252583
 40
0.9643788206
 40
0.9732642523
 40
0.9810703508
 40
0.9876809099
 40
0.9929768164
 40
0.9950946373
 40
0.9968427656
 40
0.9982141503
 40
0.9992020071
 40
0.9997995518
 40
1.0
 40
1.0
 40
1.0
 40
1.0
 10
5.4750299778
 20
6.0027193002
 30
0.0
 10
5.476847083
 20
6.0020353423
 30
0.0
 10
5.4804744141
 20
6.0007283934
 30
0.0
 10
5.4850326441
 20
5.9992255062
 30
0.0
 10
5.4886559238
 20
5.9981096552
 30
0.0
 10
5.4913414731
 20
5.9973200791
 30
0.0
 10
5.4940006107
 20
5.996574298
 30
0.0
 10
5.4966242642
 20
5.9958728433
 30
0.0
 10
5.4991997513
 20
5.9952168355
 30
0.0
 10
5.5017085517
 20
5.9946083212
 30
0.0
 10
5.5037473838
 20
5.9941374182
 30
0.0
 10
5.5053226612
 20
5.9937866105
 30
0.0
 10
5.5064473713
 20
5.9935420893
 30
0.0
 10
5.5075217005
 20
5.9933138809
 30
0.0
 10
5.5085325491
 20
5.9931039646
 30
0.0
 10
5.5094628503
 20
5.9929148571
 30
0.0
 10
5.5101784381
 20
5.9927722289
 30
0.0
 10
5.5106933145
 20
5.9926709983
 30
0.0
 10
5.5110274603
 20
5.9926058159
 30
0.0
 10
5.5113209226
 20
5.9925489818
 30
0.0
 10
5.5115690526
 20
5.9925012171
 30
0.0
 10
5.5117460523
 20
5.992467356
 30
0.0
 10
5.5118609519
 20
5.9924453948
 30
0.0
 10
5.5119280578
 20
5.9924326781
 30
0.0
 10
5.5119768815
 20
5.9924232017
 30
0.0
 10
5.5120208347
 20
5.9924152729
 30
0.0
 10
5.5120314816
 20
5.9924125056
 30
0.0
 10
5.5120538882
 20
5.9924090329
 30
0.0
 10
5.5120513227
 20
5.9924091991
 30
0.0
  0
ENDSEC
  0
SECTION
  2
OBJECTS
  0
DICTIONARY
  5
C
100
AcDbDictionary
280
0
281
1
  3
ACAD_GROUP
350
D
  3
ACAD_MLINESTYLE
350
17
  3
ACAD_LAYOUT
350
1A
  3
ACAD_PLOTSETTINGS
350
19
  3
ACAD_PLOTSTYLENAME
350
E
  0
DICTIONARY
  5
D
102
{ACAD_REACTORS
330
C
102
}
100
AcDbDictionary
280
0
281
1
  0
ACDBDICTIONARYWDFLT
  5
E
102
{ACAD_REACTORS
330
C
102
}
100
AcDbDictionary
281
1
  3
Normal
350
F
100
AcDbDictionaryWithDefault
340
F
  0
DICTIONARY
  5
17
102
{ACAD_REACTORS
330
C
102
}
100
AcDbDictionary
280
0
281
1
  3
Standard
350
18
  0
DICTIONARY
  5
19
102
{ACAD_REACTORS
330
C
102
}
100
AcDbDictionary
281
1
  0
DICTIONARY
  5
1A
102
{ACAD_REACTORS
330
C
102
}
100
AcDbDictionary
281
1
  3
Model
350
253
  3
Layout1
350
254
  0
ACDBPLACEHOLDER
  5
F
102
{ACAD_REACTORS
330
E
102
}
  0
MLINESTYLE
  5
18
102
{ACAD_REACTORS
330
17
102
}
100
AcDbMlineStyle
  2
STANDARD
 70
0
  3

 62
256
 51
90.0
 52
90.0
 71
2
 49
0.5
 62
256
  6
BYLAYER
 49
-0.5
 62
256
  6
BYLAYER
  0
LAYOUT
  5
253
102
{ACAD_REACTORS
330
1A
102
}
100
AcDbPlotSettings
  1

  2
none_device
  4
ANSI_A_(11.00_x_8.50_Inches)
  6

 40
0.0
 41
0.0
 42
0.0
 43
0.0
 44
279.4
 45
215.9
 46
0.0
 47
0.0
 48
0.0
 49
0.0
140
0.0
141
0.0
142
1.0
143
1.0
 70
1024
 72
0
 73
0
 74
0
  7

 75
0
147
1.0
148
0.0
149
0.0
100
AcDbLayout
  1
Model
 70
0
 71
0
 10
0.0
 20
0.0
 11
11.0
 21
8.5
 12
0.0
 22
0.0
 32
0.0
 14
0.0
 24
0.0
 34
0.0
 15
0.0
 25
0.0
 35
0.0
146
0.0
 13
0.0
 23
0.0
 33
0.0
 16
1.0
 26
0.0
 36
0.0
 17
0.0
 27
1.0
 37
0.0
 76
0
330
202
345
0
346
0
  0
LAYOUT
  5
254
102
{ACAD_REACTORS
330
1A
102
}
100
AcDbPlotSettings
  1

  2
none_device
  4
ANSI_A_(11.00_x_8.50_Inches)
  6

 40
0.0
 41
0.0
 42
0.0
 43
0.0
 44
279.4
 45
215.9
 46
0.0
 47
0.0
 48
0.0
 49
0.0
140
0.0
141
0.0
142
1.0
143
1.0
 70
0
 72
0
 73
0
 74
0
  7

 75
0
147
1.0
148
0.0
149
0.0
100
AcDbLayout
  1
Layout1
 70
0
 71
1
 10
0.0
 20
0.0
 11
11.0
 21
8.5
 12
0.0
 22
0.0
 32
0.0
 14
0.0
 24
0.0
 34
0.0
 15
0.0
 25
0.0
 35
0.0
146
0.0
 13
0.0
 23
0.0
 33
0.0
 16
1.0
 26
0.0
 36
0.0
 17
0.0
 27
1.0
 37
0.0
 76
0
330
203
345
0
346
0
  0
ENDSEC
  0
EOF
