999
DXF file: 1500-5402_top.dxf
999
Pro/ENGINEER 2018400 by Parametric Technology Corporation
  0
SECTION
  2
HEADER
  9
$ACADVER
  1
AC1027
  9
$DWGCODEPAGE
  3
ANSI_1252
  9
$EXTMAX
 10
11.0
 20
8.5
 30
0.0
  9
$EXTMIN
 10
0.0
 20
0.0
 30
0.0
  9
$LIMMIN
 10
0.0
 20
0.0
  9
$LIMMAX
 10
11.0
 20
8.5
  9
$VIEWCTR
 10
5.5
 20
4.25
  9
$VIEWSIZE
 40
8.5
  9
$CLAYER
  8
0
  9
$LTSCALE
 40
0.605
  9
$CELTYPE
  6
BYLAYER
  9
$DIMSCALE
 40
1.0
  9
$DIMASZ
 40
0.1
  9
$DIMEXO
 40
0.0625
  9
$DIMDLI
 40
0.418
  9
$DIMEXE
 40
0.125
  9
$DIMCEN
 40
0.099
  9
$DIMLFAC
 40
1.0
  9
$DIMBLK
  1
_FILLED
  9
$DIMALT
 70
1
  9
$DIMALTD
 70
1
  9
$DIMALTTD
 70
2
  9
$DIMALTF
 40
25.4
  9
$DIMTXT
 40
0.08
  9
$DIMTOL
 70
1
  9
$DIMLIM
 70
0
  9
$DIMTFAC
 40
1.0
  9
$DIMTP
 40
0.01
  9
$DIMTM
 40
0.01
  9
$DIMGAP
 40
0.09
  9
$DIMDSEP
 70
46
  9
$AUNITS
 70
0
  9
$PDMODE
 70
3
  9
$PDSIZE
 40
0.3125
  9
$HANDSEED
  5
258
  9
$TILEMODE
 70
1
  9
$MEASUREMENT
 70
0
  9
$INSUNITS
 70
1
  0
ENDSEC
  0
SECTION
  2
CLASSES
  0
CLASS
  1
ACDBDICTIONARYWDFLT
  2
AcDbDictionaryWithDefault
  3
AutoCAD 2000
 90
0
 91
1
280
0
281
0
  0
CLASS
  1
ACDBPLACEHOLDER
  2
AcDbPlaceHolder
  3
AutoCAD 2000
 90
0
 91
1
280
0
281
0
  0
CLASS
  1
LAYOUT
  2
AcDbLayout
  3
AutoCAD 2000
 90
0
 91
0
280
0
281
0
  0
ENDSEC
  0
SECTION
  2
TABLES
  0
TABLE
  2
VPORT
  5
8
100
AcDbSymbolTable
 70
2
  0
VPORT
  5
1F4
100
AcDbSymbolTableRecord
100
AcDbViewportTableRecord
  2
*ACTIVE
 70
0
 10
0.0
 20
0.0
 11
1.0
 21
1.0
 12
5.5
 22
4.25
 13
0.0
 23
0.0
 14
1.0
 24
1.0
 15
0.0
 25
0.0
 16
0.0
 26
0.0
 36
1.0
 17
0.0
 27
0.0
 37
0.0
 40
8.5
 41
1.2941176471
 42
50.0
 43
0.0
 44
0.0
 50
0.0
 51
0.0
 71
0
 72
100
 73
1
 74
1
 75
0
 76
0
 77
0
 78
0
  0
ENDTAB
  0
TABLE
  2
LTYPE
  5
5
100
AcDbSymbolTable
 70
6
  0
LTYPE
  5
14
100
AcDbSymbolTableRecord
100
AcDbLinetypeTableRecord
  2
BYBLOCK
 70
0
  3

 72
65
 73
0
 40
0.0
  0
LTYPE
  5
15
100
AcDbSymbolTableRecord
100
AcDbLinetypeTableRecord
  2
BYLAYER
 70
0
  3

 72
65
 73
0
 40
0.0
  0
LTYPE
  5
16
100
AcDbSymbolTableRecord
100
AcDbLinetypeTableRecord
  2
CONTINUOUS
 70
64
  3
Solid line
 72
65
 73
0
 40
0.0
  0
LTYPE
  5
1F5
100
AcDbSymbolTableRecord
100
AcDbLinetypeTableRecord
  2
CENTER
 70
64
  3
____ _ ____ _ ____ _ ____ _ ____ _ ____ _ ____
 72
65
 73
4
 40
0.6
 49
0.375
 74
0
 49
-0.075
 74
0
 49
0.075
 74
0
 49
-0.075
 74
0
  0
LTYPE
  5
1F6
100
AcDbSymbolTableRecord
100
AcDbLinetypeTableRecord
  2
HIDDEN
 70
64
  3
- - - - - - - - - - - - - - - - - - - -
 72
65
 73
2
 40
0.2
 49
0.1
 74
0
 49
-0.1
 74
0
  0
LTYPE
  5
1F7
100
AcDbSymbolTableRecord
100
AcDbLinetypeTableRecord
  2
PHANTOM
 70
64
  3
_____ _ _ _____ _ _ _____ _ _ _____
 72
65
 73
6
 40
0.8
 49
0.45
 74
0
 49
-0.05
 74
0
 49
0.1
 74
0
 49
-0.05
 74
0
 49
0.1
 74
0
 49
-0.05
 74
0
  0
LTYPE
  5
1F8
100
AcDbSymbolTableRecord
100
AcDbLinetypeTableRecord
  2
DOT
 70
64
  3
. . . . . . . . . . . . . . . . . . . .
 72
65
 73
2
 40
0.2
 49
0.1
 74
0
 49
-0.1
 74
0
  0
LTYPE
  5
1F9
100
AcDbSymbolTableRecord
100
AcDbLinetypeTableRecord
  2
DASHED
 70
64
  3
- - - - - - - - - - - - - - - - - - - -
 72
65
 73
2
 40
0.2
 49
0.1
 74
0
 49
-0.1
 74
0
  0
ENDTAB
  0
TABLE
  2
LAYER
  5
2
100
AcDbSymbolTable
 70
36
  0
LAYER
  5
10
100
AcDbSymbolTableRecord
100
AcDbLayerTableRecord
  2
0
 70
0
 62
7
  6
CONTINUOUS
370
-3
390
F
  0
LAYER
  5
1FA
100
AcDbSymbolTableRecord
100
AcDbLayerTableRecord
  2
DEFAULT_1
 70
0
 62
7
  6
CENTER
370
-3
390
F
  0
LAYER
  5
1FB
100
AcDbSymbolTableRecord
100
AcDbLayerTableRecord
  2
DEFAULT_2
 70
0
 62
8
  6
HIDDEN
370
-3
390
F
  0
LAYER
  5
1FC
100
AcDbSymbolTableRecord
100
AcDbLayerTableRecord
  2
DEFAULT_3
 70
0
 62
7
  6
PHANTOM
370
-3
390
F
  0
LAYER
  5
1FD
100
AcDbSymbolTableRecord
100
AcDbLayerTableRecord
  2
DEFAULT_COORDINATE_SYSTEM
 70
0
 62
7
  6
CONTINUOUS
370
-3
390
F
  0
LAYER
  5
1FE
100
AcDbSymbolTableRecord
100
AcDbLayerTableRecord
  2
DEFAULT_DATUM_AXES
 70
0
 62
7
  6
CONTINUOUS
370
-3
390
F
  0
LAYER
  5
1FF
100
AcDbSymbolTableRecord
100
AcDbLayerTableRecord
  2
DEFAULT_DATUM_PLANES
 70
0
 62
7
  6
CONTINUOUS
370
-3
390
F
  0
ENDTAB
  0
TABLE
  2
STYLE
  5
3
100
AcDbSymbolTable
 70
1
  0
STYLE
  5
11
100
AcDbSymbolTableRecord
100
AcDbTextStyleTableRecord
  2
STANDARD
 70
0
 40
0.0
 41
0.8
 50
0.0
 71
0
 42
0.2
  3
txt
  4

  0
STYLE
  5
200
100
AcDbSymbolTableRecord
100
AcDbTextStyleTableRecord
  2
TEXTSTYLE_1
 70
0
 40
0.0
 41
0.8
 50
0.0
 71
0
 42
0.2
  3
gdt
  4

  0
ENDTAB
  0
TABLE
  2
VIEW
  5
6
100
AcDbSymbolTable
 70
0
  0
ENDTAB
  0
TABLE
  2
UCS
  5
7
100
AcDbSymbolTable
 70
0
  0
ENDTAB
  0
TABLE
  2
APPID
  5
9
100
AcDbSymbolTable
 70
1
  0
APPID
  5
201
100
AcDbSymbolTableRecord
100
AcDbRegAppTableRecord
  2
ACAD
 70
0
  0
ENDTAB
  0
TABLE
  2
BLOCK_RECORD
  5
1
100
AcDbSymbolTable
 70
0
  0
BLOCK_RECORD
  5
202
100
AcDbSymbolTableRecord
100
AcDbBlockTableRecord
  2
*Model_Space
  0
BLOCK_RECORD
  5
203
100
AcDbSymbolTableRecord
100
AcDbBlockTableRecord
  2
*Paper_Space
  0
BLOCK_RECORD
  5
204
100
AcDbSymbolTableRecord
100
AcDbBlockTableRecord
  2
_FILLED
  0
ENDTAB
  0
TABLE
  2
DIMSTYLE
  5
A
100
AcDbSymbolTable
 70
1
100
AcDbDimStyleTable
 71
0
  0
DIMSTYLE
105
205
100
AcDbSymbolTableRecord
100
AcDbDimStyleTableRecord
  2
STANDARD
 70
0
  3

  4

 40
1.0
 41
0.1
 42
0.0625
 43
0.38
 44
0.125
 45
0.0
 46
0.0
 47
0.01
 48
0.01
140
0.08
141
0.09
142
0.0
143
25.4
144
1.0
145
0.0
146
1.0
147
0.09
 71
1.0
 72
0.0
 73
1
 74
1
 75
0
 76
0
 77
0
 78
4
 79
1
170
1
171
1
172
0
173
0
174
0
175
0
176
0
177
0
178
0
270
2
179
2
271
2
272
2
273
2
274
2
275
0
280
0
281
0
282
0
283
1
284
4
285
0
286
0
287
3
288
0
340
11
278
46
341
204
342
204
343
204
344
204
  0
ENDTAB
  0
ENDSEC
  0
SECTION
  2
BLOCKS
  0
BLOCK
  5
20
100
AcDbEntity
  8
0
100
AcDbBlockBegin
  2
*Model_Space
 70
0
 10
0.0
 20
0.0
 30
0.0
  3
*Model_Space
  1

  0
ENDBLK
  5
21
100
AcDbEntity
  8
0
100
AcDbBlockEnd
  0
BLOCK
  5
1C
100
AcDbEntity
  8
0
100
AcDbBlockBegin
  2
*Paper_Space
 70
0
 10
0.0
 20
0.0
 30
0.0
  3
*Paper_Space
  1

  0
ENDBLK
  5
1D
100
AcDbEntity
  8
0
100
AcDbBlockEnd
  0
BLOCK
  5
206
100
AcDbEntity
  8
0
100
AcDbBlockBegin
  2
_FILLED
 70
64
 10
0.0
 20
0.0
  3
_FILLED
  1

  0
SOLID
  5
207
100
AcDbEntity
  8
0
  6
BYBLOCK
 62
0
100
AcDbTrace
 10
0.0
 20
0.0
 11
-1.0
 21
0.2
 12
-1.0
 22
-0.2
 13
-1.0
 23
-0.2
  0
ENDBLK
  5
208
100
AcDbEntity
  8
0
  6
BYBLOCK
 62
0
100
AcDbBlockEnd
  0
ENDSEC
  0
SECTION
  2
ENTITIES
  0
MTEXT
  5
209
100
AcDbEntity
  8
0
100
AcDbMText
 62
2
  6
CONTINUOUS
  7
STANDARD
 71
3
 72
1
 10
5.2578804348
 20
1.8579211957
 30
0.0
 11
1.0
 21
0.0
 31
0.0
 73
2
 44
0.9
  1
SCALE  .375
 40
0.08
 41
0.704
  0
LINE
  5
20A
100
AcDbEntity
  8
0
100
AcDbLine
 62
7
  6
CONTINUOUS
 10
0.0
 20
0.0
 11
0.0
 21
8.5
  0
LINE
  5
20B
100
AcDbEntity
  8
0
100
AcDbLine
 62
7
  6
CONTINUOUS
 10
0.0
 20
0.0
 11
11.0
 21
0.0
  0
LINE
  5
20C
100
AcDbEntity
  8
0
100
AcDbLine
 62
7
  6
CONTINUOUS
 10
0.0
 20
8.5
 11
11.0
 21
8.5
  0
LINE
  5
20D
100
AcDbEntity
  8
0
100
AcDbLine
 62
7
  6
CONTINUOUS
 10
11.0
 20
0.0
 11
11.0
 21
8.5
  0
LINE
  5
20E
100
AcDbEntity
  8
0
100
AcDbLine
 62
7
  6
CONTINUOUS
 10
3.2422554348
 20
5.7113586957
 11
3.2422554348
 21
5.5444836957
  0
LINE
  5
20F
100
AcDbEntity
  8
0
100
AcDbLine
 62
7
  6
CONTINUOUS
 10
3.6744429348
 20
6.1435461957
 11
3.6744429348
 21
5.7411136842
  0
LINE
  5
210
100
AcDbEntity
  8
0
100
AcDbLine
 62
7
  6
CONTINUOUS
 10
3.6744429348
 20
5.1122961957
 11
3.6744429348
 21
5.5147287071
  0
LINE
  5
211
100
AcDbEntity
  8
0
100
AcDbLine
 62
7
  6
CONTINUOUS
 10
3.8413179348
 20
6.1435461957
 11
3.8413179348
 21
5.7411136842
  0
LINE
  5
212
100
AcDbEntity
  8
0
100
AcDbLine
 62
7
  6
CONTINUOUS
 10
3.8413179348
 20
5.1122961957
 11
3.8413179348
 21
5.5147287071
  0
LINE
  5
213
100
AcDbEntity
  8
0
100
AcDbLine
 62
7
  6
CONTINUOUS
 10
4.2735054348
 20
5.7113586957
 11
4.2735054348
 21
5.5444836957
  0
LINE
  5
214
100
AcDbEntity
  8
0
100
AcDbLine
 62
7
  6
CONTINUOUS
 10
5.0703804348
 20
2.1404211957
 11
5.0703804348
 21
5.6279211957
  0
LINE
  5
215
100
AcDbEntity
  8
0
100
AcDbLine
 62
7
  6
CONTINUOUS
 10
5.4453804348
 20
2.1404211957
 11
5.4453804348
 21
5.6279211957
  0
LINE
  5
216
100
AcDbEntity
  8
0
100
AcDbLine
 62
7
  6
CONTINUOUS
 10
6.2422554348
 20
5.5444836957
 11
6.2422554348
 21
5.7113586957
  0
LINE
  5
217
100
AcDbEntity
  8
0
100
AcDbLine
 62
7
  6
CONTINUOUS
 10
3.6744429348
 20
5.1122961957
 11
3.8413179348
 21
5.1122961957
  0
LINE
  5
218
100
AcDbEntity
  8
0
100
AcDbLine
 62
7
  6
CONTINUOUS
 10
6.6744429348
 20
5.1122961957
 11
6.8413179348
 21
5.1122961957
  0
LINE
  5
219
100
AcDbEntity
  8
0
100
AcDbLine
 62
7
  6
CONTINUOUS
 10
3.8413179348
 20
5.3935461957
 11
5.0703804348
 21
5.3935461957
  0
LINE
  5
21A
100
AcDbEntity
  8
0
100
AcDbLine
 62
7
  6
CONTINUOUS
 10
5.4453804348
 20
5.3935461957
 11
6.6744429348
 21
5.3935461957
  0
LINE
  5
21B
100
AcDbEntity
  8
0
100
AcDbLine
 62
7
  6
CONTINUOUS
 10
6.6744429348
 20
6.1435461957
 11
6.6744429348
 21
5.7411136842
  0
LINE
  5
21C
100
AcDbEntity
  8
0
100
AcDbLine
 62
7
  6
CONTINUOUS
 10
6.6744429348
 20
5.1122961957
 11
6.6744429348
 21
5.5147287071
  0
LINE
  5
21D
100
AcDbEntity
  8
0
100
AcDbLine
 62
7
  6
CONTINUOUS
 10
6.6446833756
 20
5.5444836957
 11
6.2422554348
 21
5.5444836957
  0
LINE
  5
21E
100
AcDbEntity
  8
0
100
AcDbLine
 62
7
  6
CONTINUOUS
 10
3.6446833756
 20
5.5444836957
 11
3.2422554348
 21
5.5444836957
  0
LINE
  5
21F
100
AcDbEntity
  8
0
100
AcDbLine
 62
7
  6
CONTINUOUS
 10
3.871077494
 20
5.5444836957
 11
4.2735054348
 21
5.5444836957
  0
LINE
  5
220
100
AcDbEntity
  8
0
100
AcDbLine
 62
7
  6
CONTINUOUS
 10
6.871077494
 20
5.5444836957
 11
7.2735054348
 21
5.5444836957
  0
LINE
  5
221
100
AcDbEntity
  8
0
100
AcDbLine
 62
7
  6
CONTINUOUS
 10
6.8413179348
 20
6.1435461957
 11
6.8413179348
 21
5.7411136842
  0
LINE
  5
222
100
AcDbEntity
  8
0
100
AcDbLine
 62
7
  6
CONTINUOUS
 10
6.8413179348
 20
5.1122961957
 11
6.8413179348
 21
5.5147287071
  0
LINE
  5
223
100
AcDbEntity
  8
0
100
AcDbLine
 62
7
  6
CONTINUOUS
 10
6.6446833756
 20
5.7113586957
 11
6.2422554348
 21
5.7113586957
  0
LINE
  5
224
100
AcDbEntity
  8
0
100
AcDbLine
 62
7
  6
CONTINUOUS
 10
3.6446833756
 20
5.7113586957
 11
3.2422554348
 21
5.7113586957
  0
LINE
  5
225
100
AcDbEntity
  8
0
100
AcDbLine
 62
7
  6
CONTINUOUS
 10
3.871077494
 20
5.7113586957
 11
4.2735054348
 21
5.7113586957
  0
LINE
  5
226
100
AcDbEntity
  8
0
100
AcDbLine
 62
7
  6
CONTINUOUS
 10
6.871077494
 20
5.7113586957
 11
7.2735054348
 21
5.7113586957
  0
LINE
  5
227
100
AcDbEntity
  8
0
100
AcDbLine
 62
7
  6
CONTINUOUS
 10
3.8413179348
 20
5.8622961957
 11
6.6744429348
 21
5.8622961957
  0
LINE
  5
228
100
AcDbEntity
  8
0
100
AcDbLine
 62
7
  6
CONTINUOUS
 10
7.2735054348
 20
5.5444836957
 11
7.2735054348
 21
5.7113586957
  0
LINE
  5
229
100
AcDbEntity
  8
0
100
AcDbLine
 62
7
  6
CONTINUOUS
 10
3.6744429348
 20
6.1435461957
 11
3.8413179348
 21
6.1435461957
  0
LINE
  5
22A
100
AcDbEntity
  8
0
100
AcDbLine
 62
7
  6
CONTINUOUS
 10
6.6744429348
 20
6.1435461957
 11
6.8413179348
 21
6.1435461957
  0
ARC
  5
22B
100
AcDbEntity
  8
0
100
AcDbCircle
 62
7
  6
CONTINUOUS
 10
3.7578804348
 20
5.6279211957
 40
0.37125
100
AcDbArc
 50
102.9883405445
 51
167.0116594555
  0
ARC
  5
22C
100
AcDbEntity
  8
0
100
AcDbCircle
 62
7
  6
CONTINUOUS
 10
3.7578804348
 20
5.6279211957
 40
0.37125
100
AcDbArc
 50
192.9883405445
 51
257.0116594555
  0
ARC
  5
22D
100
AcDbEntity
  8
0
100
AcDbCircle
 62
7
  6
CONTINUOUS
 10
3.7578804348
 20
5.6279211957
 40
0.37125
100
AcDbArc
 50
282.9883405445
 51
320.8518585763
  0
ARC
  5
22E
100
AcDbEntity
  8
0
100
AcDbCircle
 62
7
  6
CONTINUOUS
 10
3.7578804348
 20
5.6279211957
 40
0.37125
100
AcDbArc
 50
39.1481414237
 51
77.0116594555
  0
ARC
  5
22F
100
AcDbEntity
  8
0
100
AcDbCircle
 62
7
  6
CONTINUOUS
 10
3.7578804348
 20
5.6279211957
 40
0.36
100
AcDbArc
 50
283.4015820266
 51
319.3788884744
  0
ARC
  5
230
100
AcDbEntity
  8
0
100
AcDbCircle
 62
7
  6
CONTINUOUS
 10
3.7578804348
 20
5.6279211957
 40
0.36
100
AcDbArc
 50
40.6211115247
 51
76.5984179738
  0
ARC
  5
231
100
AcDbEntity
  8
0
100
AcDbCircle
 62
7
  6
CONTINUOUS
 10
3.7578804348
 20
5.6279211957
 40
0.36
100
AcDbArc
 50
103.4015820266
 51
166.5984308423
  0
ARC
  5
232
100
AcDbEntity
  8
0
100
AcDbCircle
 62
7
  6
CONTINUOUS
 10
3.7578804348
 20
5.6279211957
 40
0.36
100
AcDbArc
 50
193.4015691574
 51
256.5984179738
  0
ARC
  5
233
100
AcDbEntity
  8
0
100
AcDbCircle
 62
7
  6
CONTINUOUS
 10
3.7578804348
 20
5.6279211957
 40
0.234375
100
AcDbArc
 50
200.855294861
 51
249.1448140445
  0
ARC
  5
234
100
AcDbEntity
  8
0
100
AcDbCircle
 62
7
  6
CONTINUOUS
 10
3.7578804348
 20
5.6279211957
 40
0.234375
100
AcDbArc
 50
290.8551859555
 51
339.144705139
  0
ARC
  5
235
100
AcDbEntity
  8
0
100
AcDbCircle
 62
7
  6
CONTINUOUS
 10
3.7578804348
 20
5.6279211957
 40
0.234375
100
AcDbArc
 50
20.855294861
 51
69.1448140445
  0
ARC
  5
236
100
AcDbEntity
  8
0
100
AcDbCircle
 62
7
  6
CONTINUOUS
 10
3.7578804348
 20
5.6279211957
 40
0.234375
100
AcDbArc
 50
110.8551859555
 51
159.144705139
  0
ARC
  5
237
100
AcDbEntity
  8
0
100
AcDbCircle
 62
7
  6
CONTINUOUS
 10
3.7578804348
 20
5.6279211957
 40
0.223125
100
AcDbArc
 50
201.960061815
 51
248.0405587896
  0
ARC
  5
238
100
AcDbEntity
  8
0
100
AcDbCircle
 62
7
  6
CONTINUOUS
 10
3.7578804348
 20
5.6279211957
 40
0.223125
100
AcDbArc
 50
291.9594412114
 51
338.0399381851
  0
ARC
  5
239
100
AcDbEntity
  8
0
100
AcDbCircle
 62
7
  6
CONTINUOUS
 10
3.7578804348
 20
5.6279211957
 40
0.223125
100
AcDbArc
 50
21.960061815
 51
68.0405587896
  0
ARC
  5
23A
100
AcDbEntity
  8
0
100
AcDbCircle
 62
7
  6
CONTINUOUS
 10
3.7578804348
 20
5.6279211957
 40
0.223125
100
AcDbArc
 50
111.9594412114
 51
158.0399381851
  0
CIRCLE
  5
23B
100
AcDbEntity
  8
0
100
AcDbCircle
 62
7
  6
CONTINUOUS
 10
3.7578804348
 20
5.6279211957
 40
0.140625
  0
ARC
  5
23C
100
AcDbEntity
  8
0
100
AcDbCircle
 62
7
  6
CONTINUOUS
 10
5.2578804348
 20
2.1404211957
 40
0.1875
100
AcDbArc
 50
180.0
 51
360.0
  0
ARC
  5
23D
100
AcDbEntity
  8
0
100
AcDbCircle
 62
7
  6
CONTINUOUS
 10
6.7578804348
 20
5.6279211957
 40
0.37125
100
AcDbArc
 50
102.9883405445
 51
140.8518585763
  0
ARC
  5
23E
100
AcDbEntity
  8
0
100
AcDbCircle
 62
7
  6
CONTINUOUS
 10
6.7578804348
 20
5.6279211957
 40
0.37125
100
AcDbArc
 50
219.1481414237
 51
257.0116594555
  0
ARC
  5
23F
100
AcDbEntity
  8
0
100
AcDbCircle
 62
7
  6
CONTINUOUS
 10
6.7578804348
 20
5.6279211957
 40
0.37125
100
AcDbArc
 50
282.9883405445
 51
347.0116594555
  0
ARC
  5
240
100
AcDbEntity
  8
0
100
AcDbCircle
 62
7
  6
CONTINUOUS
 10
6.7578804348
 20
5.6279211957
 40
0.37125
100
AcDbArc
 50
12.9883405445
 51
77.0116594555
  0
ARC
  5
241
100
AcDbEntity
  8
0
100
AcDbCircle
 62
7
  6
CONTINUOUS
 10
6.7578804348
 20
5.6279211957
 40
0.36
100
AcDbArc
 50
283.4015820266
 51
346.5984308423
  0
ARC
  5
242
100
AcDbEntity
  8
0
100
AcDbCircle
 62
7
  6
CONTINUOUS
 10
6.7578804348
 20
5.6279211957
 40
0.36
100
AcDbArc
 50
13.4015691574
 51
76.5984179738
  0
ARC
  5
243
100
AcDbEntity
  8
0
100
AcDbCircle
 62
7
  6
CONTINUOUS
 10
6.7578804348
 20
5.6279211957
 40
0.36
100
AcDbArc
 50
103.4015820266
 51
139.3788884744
  0
ARC
  5
244
100
AcDbEntity
  8
0
100
AcDbCircle
 62
7
  6
CONTINUOUS
 10
6.7578804348
 20
5.6279211957
 40
0.36
100
AcDbArc
 50
220.6211115247
 51
256.5984179738
  0
ARC
  5
245
100
AcDbEntity
  8
0
100
AcDbCircle
 62
7
  6
CONTINUOUS
 10
6.7578804348
 20
5.6279211957
 40
0.234375
100
AcDbArc
 50
20.855294861
 51
69.1448140445
  0
ARC
  5
246
100
AcDbEntity
  8
0
100
AcDbCircle
 62
7
  6
CONTINUOUS
 10
6.7578804348
 20
5.6279211957
 40
0.234375
100
AcDbArc
 50
110.8551859555
 51
159.144705139
  0
ARC
  5
247
100
AcDbEntity
  8
0
100
AcDbCircle
 62
7
  6
CONTINUOUS
 10
6.7578804348
 20
5.6279211957
 40
0.234375
100
AcDbArc
 50
200.855294861
 51
249.1448140445
  0
ARC
  5
248
100
AcDbEntity
  8
0
100
AcDbCircle
 62
7
  6
CONTINUOUS
 10
6.7578804348
 20
5.6279211957
 40
0.234375
100
AcDbArc
 50
290.8551859555
 51
339.144705139
  0
ARC
  5
249
100
AcDbEntity
  8
0
100
AcDbCircle
 62
7
  6
CONTINUOUS
 10
6.7578804348
 20
5.6279211957
 40
0.223125
100
AcDbArc
 50
21.9598177266
 51
68.0402603847
  0
ARC
  5
24A
100
AcDbEntity
  8
0
100
AcDbCircle
 62
7
  6
CONTINUOUS
 10
6.7578804348
 20
5.6279211957
 40
0.223125
100
AcDbArc
 50
111.959739616
 51
158.0401822741
  0
ARC
  5
24B
100
AcDbEntity
  8
0
100
AcDbCircle
 62
7
  6
CONTINUOUS
 10
6.7578804348
 20
5.6279211957
 40
0.223125
100
AcDbArc
 50
201.9598177266
 51
248.0402603847
  0
ARC
  5
24C
100
AcDbEntity
  8
0
100
AcDbCircle
 62
7
  6
CONTINUOUS
 10
6.7578804348
 20
5.6279211957
 40
0.223125
100
AcDbArc
 50
291.959739616
 51
338.0401822741
  0
ARC
  5
24D
100
AcDbEntity
  8
0
100
AcDbCircle
 62
7
  6
CONTINUOUS
 10
5.2578804348
 20
5.6279211957
 40
0.1875
100
AcDbArc
 50
0.0
 51
180.0
  0
CIRCLE
  5
24E
100
AcDbEntity
  8
0
100
AcDbCircle
 62
7
  6
CONTINUOUS
 10
6.7578804348
 20
5.6279211957
 40
0.140625
  0
SPLINE
  5
24F
100
AcDbEntity
  8
0
100
AcDbSpline
 62
7
  6
CONTINUOUS
 70
0
 71
3
 72
21
 73
17
 74
0
 42
0.0000001
 43
0.0000001
 44
0.0000000001
 40
0.0
 40
0.0
 40
0.0
 40
0.0
 40
0.070091546
 40
0.1388683268
 40
0.206351181
 40
0.2725924844
 40
0.3376654009
 40
0.4016536181
 40
0.4646456581
 40
0.5267293833
 40
0.5879909504
 40
0.6485116019
 40
0.7083685725
 40
0.7676340064
 40
0.8846231511
 40
1.0
 40
1.0
 40
1.0
 40
1.0
 10
6.5073234487
 20
5.5444798568
 30
0.0
 10
6.5094209157
 20
5.5396679928
 30
0.0
 10
6.5139236215
 20
5.5302816884
 30
0.0
 10
6.5215770035
 20
5.5168430123
 30
0.0
 10
6.5299620563
 20
5.5041932557
 30
0.0
 10
6.5389793358
 20
5.4923343938
 30
0.0
 10
6.548544329
 20
5.4812574194
 30
0.0
 10
6.5585819864
 20
5.4709450051
 30
0.0
 10
6.5690286504
 20
5.4613766111
 30
0.0
 10
6.5798285569
 20
5.452528597
 30
0.0
 10
6.590934684
 20
5.4443780683
 30
0.0
 10
6.602305647
 20
5.4369016404
 30
0.0
 10
6.6139064673
 20
5.4300776964
 30
0.0
 10
6.6295691972
 20
5.4218588836
 30
0.0
 10
6.6496050861
 20
5.4130850355
 30
0.0
 10
6.6661343601
 20
5.4075615634
 30
0.0
 10
6.6744412925
 20
5.4051838074
 30
0.0
  0
SPLINE
  5
250
100
AcDbEntity
  8
0
100
AcDbSpline
 62
7
  6
CONTINUOUS
 70
0
 71
3
 72
21
 73
17
 74
0
 42
0.0000001
 43
0.0000001
 44
0.0000000001
 40
0.0
 40
0.0
 40
0.0
 40
0.0
 40
0.1153769179
 40
0.2323660583
 40
0.2916314615
 40
0.351488471
 40
0.4120091049
 40
0.4732706381
 40
0.5353544556
 40
0.5983464119
 40
0.6623346564
 40
0.7274075275
 40
0.7936487747
 40
0.8611314986
 40
0.929908479
 40
1.0
 40
1.0
 40
1.0
 40
1.0
 10
6.6744413999
 20
5.8506586084
 30
0.0
 10
6.6661344734
 20
5.8482808551
 30
0.0
 10
6.6496052109
 20
5.8427574102
 30
0.0
 10
6.6295693395
 20
5.8339835856
 30
0.0
 10
6.6139066377
 20
5.8257647709
 30
0.0
 10
6.6023058162
 20
5.8189408674
 30
0.0
 10
6.5909348641
 20
5.8114644549
 30
0.0
 10
6.5798287782
 20
5.803313901
 30
0.0
 10
6.5690287918
 20
5.7944660144
 30
0.0
 10
6.5585822217
 20
5.7848975423
 30
0.0
 10
6.5485444924
 20
5.7745852365
 30
0.0
 10
6.5389795663
 20
5.7635082394
 30
0.0
 10
6.5299622287
 20
5.7516494587
 30
0.0
 10
6.521577581
 20
5.7389994643
 30
0.0
 10
6.5139235824
 20
5.7255611912
 30
0.0
 10
6.509420537
 20
5.7161750154
 30
0.0
 10
6.5073233391
 20
5.711363044
 30
0.0
  0
SPLINE
  5
251
100
AcDbEntity
  8
0
100
AcDbSpline
 62
7
  6
CONTINUOUS
 70
0
 71
3
 72
21
 73
17
 74
0
 42
0.0000001
 43
0.0000001
 44
0.0000000001
 40
0.0
 40
0.0
 40
0.0
 40
0.0
 40
0.1153769191
 40
0.2323660586
 40
0.291631464
 40
0.3514884691
 40
0.412009104
 40
0.4732706391
 40
0.5353544529
 40
0.5983464128
 40
0.6623346553
 40
0.7274075277
 40
0.7936487744
 40
0.8611314988
 40
0.9299084789
 40
1.0
 40
1.0
 40
1.0
 40
1.0
 10
3.8413194687
 20
5.4051837826
 30
0.0
 10
3.8496263954
 20
5.4075615356
 30
0.0
 10
3.8661556582
 20
5.4130849803
 30
0.0
 10
3.8861915292
 20
5.4218588061
 30
0.0
 10
3.9018542319
 20
5.4300776187
 30
0.0
 10
3.913455052
 20
5.4369015247
 30
0.0
 10
3.9248260043
 20
5.4443779365
 30
0.0
 10
3.9359320919
 20
5.4525284883
 30
0.0
 10
3.9467320748
 20
5.4613763793
 30
0.0
 10
3.9571786492
 20
5.4709448466
 30
0.0
 10
3.9672163749
 20
5.4812571563
 30
0.0
 10
3.9767813041
 20
5.4923341506
 30
0.0
 10
3.9857986397
 20
5.5041929331
 30
0.0
 10
3.9941832895
 20
5.5168429262
 30
0.0
 10
4.0018372861
 20
5.5302812004
 30
0.0
 10
4.0063403329
 20
5.5396673756
 30
0.0
 10
4.0084375307
 20
5.5444793471
 30
0.0
  0
SPLINE
  5
252
100
AcDbEntity
  8
0
100
AcDbSpline
 62
7
  6
CONTINUOUS
 70
0
 71
3
 72
95
 73
91
 74
0
 42
0.0000001
 43
0.0000001
 44
0.0000000001
 40
0.0
 40
0.0
 40
0.0
 40
0.0
 40
0.0165153135
 40
0.032996166
 40
0.0494107726
 40
0.0575851822
 40
0.0657329375
 40
0.0819363002
 40
0.098006396
 40
0.1139331701
 40
0.1297125798
 40
0.1453455995
 40
0.1608375947
 40
0.1761976176
 40
0.1914380757
 40
0.2065735606
 40
0.2216199707
 40
0.2291156374
 40
0.2365955395
 40
0.2440622885
 40
0.2515185209
 40
0.2664089485
 40
0.2812883145
 40
0.288730845
 40
0.2961785843
 40
0.3036347727
 40
0.3111027509
 40
0.3260852376
 40
0.3411490937
 40
0.3487195648
 40
0.3563197995
 40
0.3639530348
 40
0.3716225258
 40
0.3793307585
 40
0.3870795113
 40
0.4027054386
 40
0.4185166563
 40
0.4345178593
 40
0.4506981257
 40
0.458848437
 40
0.4670332087
 40
0.4752474003
 40
0.4834846335
 40
0.4917375835
 40
0.4999980476
 40
0.5082585094
 40
0.5165114146
 40
0.5247487146
 40
0.5329630463
 40
0.5411477321
 40
0.5492977973
 40
0.5654777039
 40
0.5814800881
 40
0.5972928071
 40
0.6129180162
 40
0.6206654336
 40
0.628372567
 40
0.6360422047
 40
0.6436766936
 40
0.651278127
 40
0.6588489484
 40
0.6663925052
 40
0.6739122695
 40
0.6814116088
 40
0.6888938201
 40
0.6963621253
 40
0.7038192275
 40
0.7112676696
 40
0.7187101778
 40
0.7335884941
 40
0.7484784376
 40
0.7634010715
 40
0.7783758021
 40
0.7934218489
 40
0.8085572004
 40
0.8237978109
 40
0.8391580644
 40
0.8546501555
 40
0.870283134
 40
0.8860624831
 40
0.9019893231
 40
0.9180594308
 40
0.9342627749
 40
0.9424105203
 40
0.9505849504
 40
0.9587830953
 40
0.9670016333
 40
0.9752367283
 40
0.9834845909
 40
1.0
 40
1.0
 40
1.0
 40
1.0
 10
5.0366304348
 20
5.6279211957
 30
0.0
 10
5.0366306422
 20
5.6315106122
 30
0.0
 10
5.0368622749
 20
5.6386840272
 30
0.0
 10
5.0378867226
 20
5.6493804788
 30
0.0
 10
5.0392933244
 20
5.6582015549
 30
0.0
 10
5.0407437722
 20
5.665168126
 30
0.0
 10
5.0423999615
 20
5.6720414475
 30
0.0
 10
5.0448495357
 20
5.6804842279
 30
0.0
 10
5.0483679858
 20
5.6903578339
 30
0.0
 10
5.0524250609
 20
5.6999225223
 30
0.0
 10
5.0569844815
 20
5.7091519105
 30
0.0
 10
5.062005881
 20
5.7180294887
 30
0.0
 10
5.0674526828
 20
5.726544207
 30
0.0
 10
5.0732915235
 20
5.7346899424
 30
0.0
 10
5.079495315
 20
5.742462143
 30
0.0
 10
5.0860376977
 20
5.749860301
 30
0.0
 10
5.0917582483
 20
5.7557244301
 30
0.0
 10
5.0964786414
 20
5.7602298784
 30
0.0
 10
5.1000852819
 20
5.7635143076
 30
0.0
 10
5.1037610156
 20
5.766708155
 30
0.0
 10
5.1087497215
 20
5.7708439073
 30
0.0
 10
5.1151547819
 20
5.7757918428
 30
0.0
 10
5.1217724085
 20
5.780446164
 30
0.0
 10
5.1271841775
 20
5.7839930362
 30
0.0
 10
5.1313031644
 20
5.7865670943
 30
0.0
 10
5.1354817089
 20
5.7890541307
 30
0.0
 10
5.1411382892
 20
5.7922568015
 30
0.0
 10
5.1483621402
 20
5.7960430122
 30
0.0
 10
5.1557585794
 20
5.7995321671
 30
0.0
 10
5.1617868273
 20
5.8021485294
 30
0.0
 10
5.1663738317
 20
5.8040265162
 30
0.0
 10
5.1710192973
 20
5.8058155865
 30
0.0
 10
5.1757235347
 20
5.8075142726
 30
0.0
 10
5.1804861472
 20
5.8091220089
 30
0.0
 10
5.1869304142
 20
5.8111502259
 30
0.0
 10
5.1951316665
 20
5.8134561403
 30
0.0
 10
5.2051680276
 20
5.8158296274
 30
0.0
 10
5.2154140204
 20
5.8177998835
 30
0.0
 10
5.2240865653
 20
5.8190930257
 30
0.0
 10
5.2311055763
 20
5.8199174344
 30
0.0
 10
5.2364169913
 20
5.8204282688
 30
0.0
 10
5.241756911
 20
5.820827326
 30
0.0
 10
5.2471190969
 20
5.821110318
 30
0.0
 10
5.2524961736
 20
5.8212775235
 30
0.0
 10
5.2578805953
 20
5.8213327922
 30
0.0
 10
5.2632649962
 20
5.8212767719
 30
0.0
 10
5.2686420701
 20
5.8211094468
 30
0.0
 10
5.2740043006
 20
5.8208267234
 30
0.0
 10
5.2793443096
 20
5.8204284784
 30
0.0
 10
5.2846556652
 20
5.8199173846
 30
0.0
 10
5.2916743924
 20
5.8190917989
 30
0.0
 10
5.3003468233
 20
5.817797286
 30
0.0
 10
5.3105938214
 20
5.8158298837
 30
0.0
 10
5.3206315104
 20
5.8134599977
 30
0.0
 10
5.328832435
 20
5.8111531024
 30
0.0
 10
5.3352751132
 20
5.809122107
 30
0.0
 10
5.3400365234
 20
5.8075123917
 30
0.0
 10
5.3447408528
 20
5.8058138306
 30
0.0
 10
5.3493877427
 20
5.8040269032
 30
0.0
 10
5.3539762601
 20
5.8021510249
 30
0.0
 10
5.3585057202
 20
5.8001858576
 30
0.0
 10
5.3629763515
 20
5.7981324869
 30
0.0
 10
5.3673886406
 20
5.795991944
 30
0.0
 10
5.3717429509
 20
5.7937649252
 30
0.0
 10
5.3760393509
 20
5.7914516392
 30
0.0
 10
5.3802779387
 20
5.7890526269
 30
0.0
 10
5.384457948
 20
5.786567267
 30
0.0
 10
5.3885782473
 20
5.7839946253
 30
0.0
 10
5.3939898611
 20
5.7804476468
 30
0.0
 10
5.4006054792
 20
5.7757908917
 30
0.0
 10
5.4082935958
 20
5.769849644
 30
0.0
 10
5.4157197098
 20
5.7635511097
 30
0.0
 10
5.4228679828
 20
5.7568888189
 30
0.0
 10
5.4297221169
 20
5.7498593456
 30
0.0
 10
5.436263963
 20
5.7424607401
 30
0.0
 10
5.4424683667
 20
5.7346890174
 30
0.0
 10
5.4483086654
 20
5.726544192
 30
0.0
 10
5.4537562358
 20
5.7180298676
 30
0.0
 10
5.4587770902
 20
5.7091519361
 30
0.0
 10
5.463334854
 20
5.6999217777
 30
0.0
 10
5.4673935961
 20
5.6903578376
 30
0.0
 10
5.4709128702
 20
5.6804844613
 30
0.0
 10
5.4733612264
 20
5.6720412848
 30
0.0
 10
5.4750166902
 20
5.6651678563
 30
0.0
 10
5.4761035562
 20
5.659949731
 30
0.0
 10
5.4770297632
 20
5.6546851187
 30
0.0
 10
5.4777925436
 20
5.6493810379
 30
0.0
 10
5.478388774
 20
5.6440446717
 30
0.0
 10
5.4789583932
 20
5.6368947066
 30
0.0
 10
5.4791303909
 20
5.631510633
 30
0.0
 10
5.4791304348
 20
5.6279211957
 30
0.0
  0
SPLINE
  5
253
100
AcDbEntity
  8
0
100
AcDbSpline
 62
7
  6
CONTINUOUS
 70
0
 71
3
 72
21
 73
17
 74
0
 42
0.0000001
 43
0.0000001
 44
0.0000000001
 40
0.0
 40
0.0
 40
0.0
 40
0.0
 40
0.0700915381
 40
0.1388683213
 40
0.2063511778
 40
0.272592478
 40
0.3376653967
 40
0.4016536134
 40
0.4646456552
 40
0.5267293805
 40
0.5879909451
 40
0.6485116018
 40
0.7083685696
 40
0.7676340028
 40
0.8846231523
 40
1.0
 40
1.0
 40
1.0
 40
1.0
 10
4.0084373953
 20
5.7113625399
 30
0.0
 10
4.006339933
 20
5.7161744048
 30
0.0
 10
4.0018372614
 20
5.725560725
 30
0.0
 10
3.9941838574
 20
5.7389993885
 30
0.0
 10
3.9857988031
 20
5.7516491421
 30
0.0
 10
3.9767815302
 20
5.7635080083
 30
0.0
 10
3.9672165325
 20
5.7745849775
 30
0.0
 10
3.9571788774
 20
5.7848973931
 30
0.0
 10
3.9467322121
 20
5.7944657846
 30
0.0
 10
3.9359323061
 20
5.8033137979
 30
0.0
 10
3.9248261812
 20
5.8114643287
 30
0.0
 10
3.9134552163
 20
5.8189407522
 30
0.0
 10
3.901854398
 20
5.825764698
 30
0.0
 10
3.8861916688
 20
5.8339835104
 30
0.0
 10
3.8661557802
 20
5.8427573561
 30
0.0
 10
3.8496265073
 20
5.8482808287
 30
0.0
 10
3.8413195754
 20
5.8506585846
 30
0.0
  0
SPLINE
  5
254
100
AcDbEntity
  8
0
100
AcDbSpline
 62
7
  6
CONTINUOUS
 70
0
 71
3
 72
19
 73
15
 74
0
 42
0.0000001
 43
0.0000001
 44
0.0000000001
 40
0.0
 40
0.0
 40
0.0
 40
0.0
 40
0.1285685229
 40
0.1927226265
 40
0.2567099226
 40
0.3204806439
 40
0.3839919885
 40
0.447207246
 40
0.5100964132
 40
0.634788062
 40
0.6965884851
 40
0.7580115035
 40
0.8797174117
 40
1.0
 40
1.0
 40
1.0
 40
1.0
 10
5.4791304348
 20
5.6279211957
 30
0.0
 10
5.4791301639
 20
5.6232144568
 30
0.0
 10
5.478831499
 20
5.6161545798
 30
0.0
 10
5.4778533903
 20
5.6068060438
 30
0.0
 10
5.4768353528
 20
5.5998523362
 30
0.0
 10
5.4755366203
 20
5.5929697143
 30
0.0
 10
5.4739623686
 20
5.5861738736
 30
0.0
 10
5.4721239234
 20
5.5794781138
 30
0.0
 10
5.4693432418
 20
5.5707260837
 30
0.0
 10
5.4660707043
 20
5.5621915528
 30
0.0
 10
5.462339007
 20
5.5539165154
 30
0.0
 10
5.4583477345
 20
5.545885105
 30
0.0
 10
5.4528595965
 20
5.5362165101
 30
0.0
 10
5.4479472369
 20
5.5288344894
 30
0.0
 10
5.4453830448
 20
5.5252547048
 30
0.0
  0
SPLINE
  5
255
100
AcDbEntity
  8
0
100
AcDbSpline
 62
7
  6
CONTINUOUS
 70
0
 71
3
 72
21
 73
17
 74
0
 42
0.0000001
 43
0.0000001
 44
0.0000000001
 40
0.0
 40
0.0
 40
0.0
 40
0.0
 40
0.1202775335
 40
0.2419767931
 40
0.3033962923
 40
0.3651936454
 40
0.4273653795
 40
0.4899022351
 40
0.5527880152
 40
0.6159997985
 40
0.6795077043
 40
0.7432750991
 40
0.8072591693
 40
0.8714098563
 40
0.935677028
 40
1.0
 40
1.0
 40
1.0
 40
1.0
 10
5.070375382
 20
5.525259003
 30
0.0
 10
5.067810825
 20
5.5288383579
 30
0.0
 10
5.062897718
 20
5.5362194975
 30
0.0
 10
5.0574106426
 20
5.5458883394
 30
0.0
 10
5.0534209427
 20
5.5539199336
 30
0.0
 10
5.0506302707
 20
5.560108403
 30
0.0
 10
5.0480616148
 20
5.5664364393
 30
0.0
 10
5.0457265723
 20
5.5728968279
 30
0.0
 10
5.0436353457
 20
5.5794802176
 30
0.0
 10
5.041798025
 20
5.5861758629
 30
0.0
 10
5.0402244684
 20
5.5929715556
 30
0.0
 10
5.038924326
 20
5.5998536324
 30
0.0
 10
5.0379040431
 20
5.6068065373
 30
0.0
 10
5.0371707802
 20
5.6138140186
 30
0.0
 10
5.0367292262
 20
5.620858218
 30
0.0
 10
5.0366304639
 20
5.6255663832
 30
0.0
 10
5.0366304348
 20
5.6279211957
 30
0.0
  0
ENDSEC
  0
SECTION
  2
OBJECTS
  0
DICTIONARY
  5
C
100
AcDbDictionary
280
0
281
1
  3
ACAD_GROUP
350
D
  3
ACAD_MLINESTYLE
350
17
  3
ACAD_LAYOUT
350
1A
  3
ACAD_PLOTSETTINGS
350
19
  3
ACAD_PLOTSTYLENAME
350
E
  0
DICTIONARY
  5
D
102
{ACAD_REACTORS
330
C
102
}
100
AcDbDictionary
280
0
281
1
  0
ACDBDICTIONARYWDFLT
  5
E
102
{ACAD_REACTORS
330
C
102
}
100
AcDbDictionary
281
1
  3
Normal
350
F
100
AcDbDictionaryWithDefault
340
F
  0
DICTIONARY
  5
17
102
{ACAD_REACTORS
330
C
102
}
100
AcDbDictionary
280
0
281
1
  3
Standard
350
18
  0
DICTIONARY
  5
19
102
{ACAD_REACTORS
330
C
102
}
100
AcDbDictionary
281
1
  0
DICTIONARY
  5
1A
102
{ACAD_REACTORS
330
C
102
}
100
AcDbDictionary
281
1
  3
Model
350
256
  3
Layout1
350
257
  0
ACDBPLACEHOLDER
  5
F
102
{ACAD_REACTORS
330
E
102
}
  0
MLINESTYLE
  5
18
102
{ACAD_REACTORS
330
17
102
}
100
AcDbMlineStyle
  2
STANDARD
 70
0
  3

 62
256
 51
90.0
 52
90.0
 71
2
 49
0.5
 62
256
  6
BYLAYER
 49
-0.5
 62
256
  6
BYLAYER
  0
LAYOUT
  5
256
102
{ACAD_REACTORS
330
1A
102
}
100
AcDbPlotSettings
  1

  2
none_device
  4
ANSI_A_(11.00_x_8.50_Inches)
  6

 40
0.0
 41
0.0
 42
0.0
 43
0.0
 44
279.4
 45
215.9
 46
0.0
 47
0.0
 48
0.0
 49
0.0
140
0.0
141
0.0
142
1.0
143
1.0
 70
1024
 72
0
 73
0
 74
0
  7

 75
0
147
1.0
148
0.0
149
0.0
100
AcDbLayout
  1
Model
 70
0
 71
0
 10
0.0
 20
0.0
 11
11.0
 21
8.5
 12
0.0
 22
0.0
 32
0.0
 14
0.0
 24
0.0
 34
0.0
 15
0.0
 25
0.0
 35
0.0
146
0.0
 13
0.0
 23
0.0
 33
0.0
 16
1.0
 26
0.0
 36
0.0
 17
0.0
 27
1.0
 37
0.0
 76
0
330
202
345
0
346
0
  0
LAYOUT
  5
257
102
{ACAD_REACTORS
330
1A
102
}
100
AcDbPlotSettings
  1

  2
none_device
  4
ANSI_A_(11.00_x_8.50_Inches)
  6

 40
0.0
 41
0.0
 42
0.0
 43
0.0
 44
279.4
 45
215.9
 46
0.0
 47
0.0
 48
0.0
 49
0.0
140
0.0
141
0.0
142
1.0
143
1.0
 70
0
 72
0
 73
0
 74
0
  7

 75
0
147
1.0
148
0.0
149
0.0
100
AcDbLayout
  1
Layout1
 70
0
 71
1
 10
0.0
 20
0.0
 11
11.0
 21
8.5
 12
0.0
 22
0.0
 32
0.0
 14
0.0
 24
0.0
 34
0.0
 15
0.0
 25
0.0
 35
0.0
146
0.0
 13
0.0
 23
0.0
 33
0.0
 16
1.0
 26
0.0
 36
0.0
 17
0.0
 27
1.0
 37
0.0
 76
0
330
203
345
0
346
0
  0
ENDSEC
  0
EOF
