999
DXF file: 1500-5403_front.dxf
999
Pro/ENGINEER 2018400 by Parametric Technology Corporation
  0
SECTION
  2
HEADER
  9
$ACADVER
  1
AC1027
  9
$DWGCODEPAGE
  3
ANSI_1252
  9
$EXTMAX
 10
11.0
 20
8.5
 30
0.0
  9
$EXTMIN
 10
0.0
 20
0.0
 30
0.0
  9
$LIMMIN
 10
0.0
 20
0.0
  9
$LIMMAX
 10
11.0
 20
8.5
  9
$VIEWCTR
 10
5.5
 20
4.25
  9
$VIEWSIZE
 40
8.5
  9
$CLAYER
  8
0
  9
$LTSCALE
 40
0.605
  9
$CELTYPE
  6
BYLAYER
  9
$DIMSCALE
 40
1.0
  9
$DIMASZ
 40
0.1
  9
$DIMEXO
 40
0.0625
  9
$DIMDLI
 40
0.418
  9
$DIMEXE
 40
0.125
  9
$DIMCEN
 40
0.099
  9
$DIMLFAC
 40
1.0
  9
$DIMBLK
  1
_FILLED
  9
$DIMALT
 70
1
  9
$DIMALTD
 70
1
  9
$DIMALTTD
 70
2
  9
$DIMALTF
 40
25.4
  9
$DIMTXT
 40
0.08
  9
$DIMTOL
 70
1
  9
$DIMLIM
 70
0
  9
$DIMTFAC
 40
1.0
  9
$DIMTP
 40
0.01
  9
$DIMTM
 40
0.01
  9
$DIMGAP
 40
0.09
  9
$DIMDSEP
 70
46
  9
$AUNITS
 70
0
  9
$PDMODE
 70
3
  9
$PDSIZE
 40
0.3125
  9
$HANDSEED
  5
2CA
  9
$TILEMODE
 70
1
  9
$MEASUREMENT
 70
0
  9
$INSUNITS
 70
1
  0
ENDSEC
  0
SECTION
  2
CLASSES
  0
CLASS
  1
ACDBDICTIONARYWDFLT
  2
AcDbDictionaryWithDefault
  3
AutoCAD 2000
 90
0
 91
1
280
0
281
0
  0
CLASS
  1
ACDBPLACEHOLDER
  2
AcDbPlaceHolder
  3
AutoCAD 2000
 90
0
 91
1
280
0
281
0
  0
CLASS
  1
LAYOUT
  2
AcDbLayout
  3
AutoCAD 2000
 90
0
 91
0
280
0
281
0
  0
ENDSEC
  0
SECTION
  2
TABLES
  0
TABLE
  2
VPORT
  5
8
100
AcDbSymbolTable
 70
2
  0
VPORT
  5
1F4
100
AcDbSymbolTableRecord
100
AcDbViewportTableRecord
  2
*ACTIVE
 70
0
 10
0.0
 20
0.0
 11
1.0
 21
1.0
 12
5.5
 22
4.25
 13
0.0
 23
0.0
 14
1.0
 24
1.0
 15
0.0
 25
0.0
 16
0.0
 26
0.0
 36
1.0
 17
0.0
 27
0.0
 37
0.0
 40
8.5
 41
1.2941176471
 42
50.0
 43
0.0
 44
0.0
 50
0.0
 51
0.0
 71
0
 72
100
 73
1
 74
1
 75
0
 76
0
 77
0
 78
0
  0
ENDTAB
  0
TABLE
  2
LTYPE
  5
5
100
AcDbSymbolTable
 70
6
  0
LTYPE
  5
14
100
AcDbSymbolTableRecord
100
AcDbLinetypeTableRecord
  2
BYBLOCK
 70
0
  3

 72
65
 73
0
 40
0.0
  0
LTYPE
  5
15
100
AcDbSymbolTableRecord
100
AcDbLinetypeTableRecord
  2
BYLAYER
 70
0
  3

 72
65
 73
0
 40
0.0
  0
LTYPE
  5
16
100
AcDbSymbolTableRecord
100
AcDbLinetypeTableRecord
  2
CONTINUOUS
 70
64
  3
Solid line
 72
65
 73
0
 40
0.0
  0
LTYPE
  5
1F5
100
AcDbSymbolTableRecord
100
AcDbLinetypeTableRecord
  2
CENTER
 70
64
  3
____ _ ____ _ ____ _ ____ _ ____ _ ____ _ ____
 72
65
 73
4
 40
0.6
 49
0.375
 74
0
 49
-0.075
 74
0
 49
0.075
 74
0
 49
-0.075
 74
0
  0
LTYPE
  5
1F6
100
AcDbSymbolTableRecord
100
AcDbLinetypeTableRecord
  2
HIDDEN
 70
64
  3
- - - - - - - - - - - - - - - - - - - -
 72
65
 73
2
 40
0.2
 49
0.1
 74
0
 49
-0.1
 74
0
  0
LTYPE
  5
1F7
100
AcDbSymbolTableRecord
100
AcDbLinetypeTableRecord
  2
PHANTOM
 70
64
  3
_____ _ _ _____ _ _ _____ _ _ _____
 72
65
 73
6
 40
0.8
 49
0.45
 74
0
 49
-0.05
 74
0
 49
0.1
 74
0
 49
-0.05
 74
0
 49
0.1
 74
0
 49
-0.05
 74
0
  0
LTYPE
  5
1F8
100
AcDbSymbolTableRecord
100
AcDbLinetypeTableRecord
  2
DOT
 70
64
  3
. . . . . . . . . . . . . . . . . . . .
 72
65
 73
2
 40
0.2
 49
0.1
 74
0
 49
-0.1
 74
0
  0
LTYPE
  5
1F9
100
AcDbSymbolTableRecord
100
AcDbLinetypeTableRecord
  2
DASHED
 70
64
  3
- - - - - - - - - - - - - - - - - - - -
 72
65
 73
2
 40
0.2
 49
0.1
 74
0
 49
-0.1
 74
0
  0
ENDTAB
  0
TABLE
  2
LAYER
  5
2
100
AcDbSymbolTable
 70
36
  0
LAYER
  5
10
100
AcDbSymbolTableRecord
100
AcDbLayerTableRecord
  2
0
 70
0
 62
7
  6
CONTINUOUS
370
-3
390
F
  0
LAYER
  5
1FA
100
AcDbSymbolTableRecord
100
AcDbLayerTableRecord
  2
DEFAULT_1
 70
0
 62
7
  6
CENTER
370
-3
390
F
  0
LAYER
  5
1FB
100
AcDbSymbolTableRecord
100
AcDbLayerTableRecord
  2
DEFAULT_2
 70
0
 62
8
  6
HIDDEN
370
-3
390
F
  0
LAYER
  5
1FC
100
AcDbSymbolTableRecord
100
AcDbLayerTableRecord
  2
DEFAULT_3
 70
0
 62
7
  6
PHANTOM
370
-3
390
F
  0
LAYER
  5
1FD
100
AcDbSymbolTableRecord
100
AcDbLayerTableRecord
  2
DEFAULT_COORDINATE_SYSTEM
 70
0
 62
7
  6
CONTINUOUS
370
-3
390
F
  0
LAYER
  5
1FE
100
AcDbSymbolTableRecord
100
AcDbLayerTableRecord
  2
DEFAULT_DATUM_AXES
 70
0
 62
7
  6
CONTINUOUS
370
-3
390
F
  0
LAYER
  5
1FF
100
AcDbSymbolTableRecord
100
AcDbLayerTableRecord
  2
DEFAULT_DATUM_PLANES
 70
0
 62
7
  6
CONTINUOUS
370
-3
390
F
  0
ENDTAB
  0
TABLE
  2
STYLE
  5
3
100
AcDbSymbolTable
 70
1
  0
STYLE
  5
11
100
AcDbSymbolTableRecord
100
AcDbTextStyleTableRecord
  2
STANDARD
 70
0
 40
0.0
 41
0.8
 50
0.0
 71
0
 42
0.2
  3
txt
  4

  0
STYLE
  5
200
100
AcDbSymbolTableRecord
100
AcDbTextStyleTableRecord
  2
TEXTSTYLE_1
 70
0
 40
0.0
 41
0.8
 50
0.0
 71
0
 42
0.2
  3
gdt
  4

  0
ENDTAB
  0
TABLE
  2
VIEW
  5
6
100
AcDbSymbolTable
 70
0
  0
ENDTAB
  0
TABLE
  2
UCS
  5
7
100
AcDbSymbolTable
 70
0
  0
ENDTAB
  0
TABLE
  2
APPID
  5
9
100
AcDbSymbolTable
 70
1
  0
APPID
  5
201
100
AcDbSymbolTableRecord
100
AcDbRegAppTableRecord
  2
ACAD
 70
0
  0
ENDTAB
  0
TABLE
  2
BLOCK_RECORD
  5
1
100
AcDbSymbolTable
 70
0
  0
BLOCK_RECORD
  5
202
100
AcDbSymbolTableRecord
100
AcDbBlockTableRecord
  2
*Model_Space
  0
BLOCK_RECORD
  5
203
100
AcDbSymbolTableRecord
100
AcDbBlockTableRecord
  2
*Paper_Space
  0
BLOCK_RECORD
  5
204
100
AcDbSymbolTableRecord
100
AcDbBlockTableRecord
  2
_FILLED
  0
ENDTAB
  0
TABLE
  2
DIMSTYLE
  5
A
100
AcDbSymbolTable
 70
1
100
AcDbDimStyleTable
 71
0
  0
DIMSTYLE
105
205
100
AcDbSymbolTableRecord
100
AcDbDimStyleTableRecord
  2
STANDARD
 70
0
  3

  4

 40
1.0
 41
0.1
 42
0.0625
 43
0.38
 44
0.125
 45
0.0
 46
0.0
 47
0.01
 48
0.01
140
0.08
141
0.09
142
0.0
143
25.4
144
1.0
145
0.0
146
1.0
147
0.09
 71
1.0
 72
0.0
 73
1
 74
1
 75
0
 76
0
 77
0
 78
4
 79
1
170
1
171
1
172
0
173
0
174
0
175
0
176
0
177
0
178
0
270
2
179
2
271
2
272
2
273
2
274
2
275
0
280
0
281
0
282
0
283
1
284
4
285
0
286
0
287
3
288
0
340
11
278
46
341
204
342
204
343
204
344
204
  0
ENDTAB
  0
ENDSEC
  0
SECTION
  2
BLOCKS
  0
BLOCK
  5
20
100
AcDbEntity
  8
0
100
AcDbBlockBegin
  2
*Model_Space
 70
0
 10
0.0
 20
0.0
 30
0.0
  3
*Model_Space
  1

  0
ENDBLK
  5
21
100
AcDbEntity
  8
0
100
AcDbBlockEnd
  0
BLOCK
  5
1C
100
AcDbEntity
  8
0
100
AcDbBlockBegin
  2
*Paper_Space
 70
0
 10
0.0
 20
0.0
 30
0.0
  3
*Paper_Space
  1

  0
ENDBLK
  5
1D
100
AcDbEntity
  8
0
100
AcDbBlockEnd
  0
BLOCK
  5
206
100
AcDbEntity
  8
0
100
AcDbBlockBegin
  2
_FILLED
 70
64
 10
0.0
 20
0.0
  3
_FILLED
  1

  0
SOLID
  5
207
100
AcDbEntity
  8
0
  6
BYBLOCK
 62
0
100
AcDbTrace
 10
0.0
 20
0.0
 11
-1.0
 21
0.2
 12
-1.0
 22
-0.2
 13
-1.0
 23
-0.2
  0
ENDBLK
  5
208
100
AcDbEntity
  8
0
  6
BYBLOCK
 62
0
100
AcDbBlockEnd
  0
ENDSEC
  0
SECTION
  2
ENTITIES
  0
MTEXT
  5
209
100
AcDbEntity
  8
0
100
AcDbMText
 62
2
  6
CONTINUOUS
  7
STANDARD
 71
3
 72
1
 10
5.4884704969
 20
1.1877312112
 30
0.0
 11
1.0
 21
0.0
 31
0.0
 73
2
 44
0.9
  1
SCALE  .375
 40
0.08
 41
0.704
  0
LINE
  5
20A
100
AcDbEntity
  8
0
100
AcDbLine
 62
7
  6
CONTINUOUS
 10
0.0
 20
0.0
 11
0.0
 21
8.5
  0
LINE
  5
20B
100
AcDbEntity
  8
0
100
AcDbLine
 62
7
  6
CONTINUOUS
 10
0.0
 20
0.0
 11
11.0
 21
0.0
  0
LINE
  5
20C
100
AcDbEntity
  8
0
100
AcDbLine
 62
7
  6
CONTINUOUS
 10
0.0
 20
8.5
 11
11.0
 21
8.5
  0
LINE
  5
20D
100
AcDbEntity
  8
0
100
AcDbLine
 62
7
  6
CONTINUOUS
 10
11.0
 20
0.0
 11
11.0
 21
8.5
  0
LINE
  5
20E
100
AcDbEntity
  8
0
100
AcDbLine
 62
7
  6
CONTINUOUS
 10
3.2828650007
 20
1.4095557453
 11
4.0253648129
 21
1.4095557453
  0
LINE
  5
20F
100
AcDbEntity
  8
0
100
AcDbLine
 62
7
  6
CONTINUOUS
 10
6.2828650007
 20
1.4095557453
 11
7.0253648129
 21
1.4095557453
  0
LINE
  5
210
100
AcDbEntity
  8
0
100
AcDbLine
 62
7
  6
CONTINUOUS
 10
2.5332399068
 20
3.5247431823
 11
2.5332399068
 21
3.7441183084
  0
LINE
  5
211
100
AcDbEntity
  8
0
100
AcDbLine
 62
7
  6
CONTINUOUS
 10
2.5407399068
 20
3.5172432453
 11
2.5407399068
 21
3.7516182453
  0
LINE
  5
212
100
AcDbEntity
  8
0
100
AcDbLine
 62
7
  6
CONTINUOUS
 10
3.2828649068
 20
1.5576807453
 11
4.0253649068
 21
1.5576807453
  0
LINE
  5
213
100
AcDbEntity
  8
0
100
AcDbLine
 62
7
  6
CONTINUOUS
 10
6.2828649068
 20
1.5576807453
 11
7.0253649068
 21
1.5576807453
  0
LINE
  5
214
100
AcDbEntity
  8
0
100
AcDbLine
 62
7
  6
CONTINUOUS
 10
3.2941149068
 20
1.5689307453
 11
4.0141149068
 21
1.5689307453
  0
LINE
  5
215
100
AcDbEntity
  8
0
100
AcDbLine
 62
7
  6
CONTINUOUS
 10
6.2941149068
 20
1.5689307453
 11
7.0141149068
 21
1.5689307453
  0
LINE
  5
216
100
AcDbEntity
  8
0
100
AcDbLine
 62
7
  6
CONTINUOUS
 10
3.9222399068
 20
2.1033057453
 11
3.6541149068
 21
2.3376807453
  0
LINE
  5
217
100
AcDbEntity
  8
0
100
AcDbLine
 62
7
  6
CONTINUOUS
 10
3.9222399068
 20
2.1033057453
 11
3.9221843971
 21
2.1033553565
  0
LINE
  5
218
100
AcDbEntity
  8
0
100
AcDbLine
 62
7
  6
CONTINUOUS
 10
2.5332399068
 20
3.5247432453
 11
2.5407399068
 21
3.5172432453
  0
LINE
  5
219
100
AcDbEntity
  8
0
100
AcDbLine
 62
7
  6
CONTINUOUS
 10
3.4197399068
 20
2.6684307453
 11
3.4309899068
 21
2.6571807453
  0
LINE
  5
21A
100
AcDbEntity
  8
0
100
AcDbLine
 62
7
  6
CONTINUOUS
 10
3.8884899068
 20
2.0695557453
 11
3.8884402643
 21
2.0696111531
  0
LINE
  5
21B
100
AcDbEntity
  8
0
100
AcDbLine
 62
7
  6
CONTINUOUS
 10
3.8884899068
 20
2.0695557453
 11
3.6541149068
 21
2.3376807453
  0
LINE
  5
21C
100
AcDbEntity
  8
0
100
AcDbLine
 62
7
  6
CONTINUOUS
 10
3.8882903386
 20
2.0697841001
 11
3.8880386603
 21
2.0700745862
  0
LINE
  5
21D
100
AcDbEntity
  8
0
100
AcDbLine
 62
7
  6
CONTINUOUS
 10
6.3859899068
 20
2.1033057453
 11
3.9222399068
 21
2.1033057453
  0
LINE
  5
21E
100
AcDbEntity
  8
0
100
AcDbLine
 62
7
  6
CONTINUOUS
 10
3.2828649068
 20
1.5576807453
 11
3.2828649068
 21
1.4095557453
  0
LINE
  5
21F
100
AcDbEntity
  8
0
100
AcDbLine
 62
7
  6
CONTINUOUS
 10
3.8772399068
 20
2.6571807453
 11
3.8884899066
 21
2.6459307456
  0
LINE
  5
220
100
AcDbEntity
  8
0
100
AcDbLine
 62
7
  6
CONTINUOUS
 10
3.4197399068
 20
1.5689307453
 11
3.4197399068
 21
2.6459307453
  0
LINE
  5
221
100
AcDbEntity
  8
0
100
AcDbLine
 62
7
  6
CONTINUOUS
 10
3.4197399068
 20
2.6684307453
 11
3.4197399068
 21
3.2328057453
  0
LINE
  5
222
100
AcDbEntity
  8
0
100
AcDbLine
 62
7
  6
CONTINUOUS
 10
3.5369274068
 20
3.4834932453
 11
3.5369274068
 21
3.2556807453
  0
LINE
  5
223
100
AcDbEntity
  8
0
100
AcDbLine
 62
7
  6
CONTINUOUS
 10
2.5332399068
 20
3.7441182453
 11
2.5407399068
 21
3.7516182453
  0
LINE
  5
224
100
AcDbEntity
  8
0
100
AcDbLine
 62
7
  6
CONTINUOUS
 10
6.3859899068
 20
2.5720557453
 11
5.3753649068
 21
2.5720557453
  0
LINE
  5
225
100
AcDbEntity
  8
0
100
AcDbLine
 62
7
  6
CONTINUOUS
 10
4.9328649068
 20
2.5720557453
 11
3.9222399068
 21
2.5720557453
  0
LINE
  5
226
100
AcDbEntity
  8
0
100
AcDbLine
 62
7
  6
CONTINUOUS
 10
3.4197399068
 20
2.6459307453
 11
3.8884899068
 21
2.6459307453
  0
LINE
  5
227
100
AcDbEntity
  8
0
100
AcDbLine
 62
7
  6
CONTINUOUS
 10
6.4197399068
 20
2.6459307453
 11
6.8884899068
 21
2.6459307453
  0
LINE
  5
228
100
AcDbEntity
  8
0
100
AcDbLine
 62
7
  6
CONTINUOUS
 10
3.4309899068
 20
2.6571807453
 11
3.8772399068
 21
2.6571807453
  0
LINE
  5
229
100
AcDbEntity
  8
0
100
AcDbLine
 62
7
  6
CONTINUOUS
 10
6.4309899068
 20
2.6571807453
 11
6.8772399068
 21
2.6571807453
  0
LINE
  5
22A
100
AcDbEntity
  8
0
100
AcDbLine
 62
7
  6
CONTINUOUS
 10
3.4197399068
 20
2.6684307453
 11
3.8884899068
 21
2.6684307453
  0
LINE
  5
22B
100
AcDbEntity
  8
0
100
AcDbLine
 62
7
  6
CONTINUOUS
 10
6.4197399068
 20
2.6684307453
 11
6.8884899068
 21
2.6684307453
  0
LINE
  5
22C
100
AcDbEntity
  8
0
100
AcDbLine
 62
7
  6
CONTINUOUS
 10
3.7713024068
 20
3.4834932453
 11
3.7712821597
 21
3.4835185733
  0
LINE
  5
22D
100
AcDbEntity
  8
0
100
AcDbLine
 62
7
  6
CONTINUOUS
 10
3.7713024068
 20
3.4834932453
 11
3.6541149068
 21
3.6344307453
  0
LINE
  5
22E
100
AcDbEntity
  8
0
100
AcDbLine
 62
7
  6
CONTINUOUS
 10
3.7712821597
 20
3.4835185733
 11
3.7711181468
 21
3.4837319087
  0
LINE
  5
22F
100
AcDbEntity
  8
0
100
AcDbLine
 62
7
  6
CONTINUOUS
 10
3.7713024068
 20
3.4834932453
 11
3.7713024068
 21
3.2556807453
  0
LINE
  5
230
100
AcDbEntity
  8
0
100
AcDbLine
 62
7
  6
CONTINUOUS
 10
3.8884899068
 20
1.5689307453
 11
3.8884899068
 21
2.0695557453
  0
LINE
  5
231
100
AcDbEntity
  8
0
100
AcDbLine
 62
7
  6
CONTINUOUS
 10
3.8884899068
 20
2.6058057453
 11
3.8884899068
 21
2.6459307453
  0
LINE
  5
232
100
AcDbEntity
  8
0
100
AcDbLine
 62
7
  6
CONTINUOUS
 10
3.8884899068
 20
2.6684307453
 11
3.8884899068
 21
3.2328057453
  0
LINE
  5
233
100
AcDbEntity
  8
0
100
AcDbLine
 62
7
  6
CONTINUOUS
 10
5.3416149068
 20
2.7314307453
 11
4.9666149068
 21
2.7314307453
  0
LINE
  5
234
100
AcDbEntity
  8
0
100
AcDbLine
 62
7
  6
CONTINUOUS
 10
5.3416152295
 20
2.7433557453
 11
4.9666145841
 21
2.7433557453
  0
LINE
  5
235
100
AcDbEntity
  8
0
100
AcDbLine
 62
7
  6
CONTINUOUS
 10
3.8050270475
 20
3.5172634719
 11
3.804627944
 21
3.5175717072
  0
LINE
  5
236
100
AcDbEntity
  8
0
100
AcDbLine
 62
7
  6
CONTINUOUS
 10
3.8050524068
 20
3.5172432453
 11
3.6541149068
 21
3.6344307453
  0
LINE
  5
237
100
AcDbEntity
  8
0
100
AcDbLine
 62
7
  6
CONTINUOUS
 10
3.8050524068
 20
3.5172432453
 11
3.8050270475
 21
3.5172634719
  0
LINE
  5
238
100
AcDbEntity
  8
0
100
AcDbLine
 62
7
  6
CONTINUOUS
 10
3.9788649068
 20
3.7516182453
 11
3.9788649068
 21
3.5172432453
  0
LINE
  5
239
100
AcDbEntity
  8
0
100
AcDbLine
 62
7
  6
CONTINUOUS
 10
3.9863649068
 20
3.7441183084
 11
3.9863649068
 21
3.5247431823
  0
LINE
  5
23A
100
AcDbEntity
  8
0
100
AcDbLine
 62
7
  6
CONTINUOUS
 10
4.0253649068
 20
1.5576807453
 11
4.0253649068
 21
1.4095557453
  0
LINE
  5
23B
100
AcDbEntity
  8
0
100
AcDbLine
 62
7
  6
CONTINUOUS
 10
3.4197399068
 20
3.2328057453
 11
3.8884899068
 21
3.2328057453
  0
LINE
  5
23C
100
AcDbEntity
  8
0
100
AcDbLine
 62
7
  6
CONTINUOUS
 10
6.4197399068
 20
3.2328057453
 11
6.8884899068
 21
3.2328057453
  0
LINE
  5
23D
100
AcDbEntity
  8
0
100
AcDbLine
 62
7
  6
CONTINUOUS
 10
3.9863649068
 20
3.7441182453
 11
3.9788649068
 21
3.7516182453
  0
LWPOLYLINE
  5
23E
100
AcDbEntity
  8
0
100
AcDbPolyline
 62
7
  6
CONTINUOUS
 90
3
 70
0
 10
3.5371116189
 20
3.4837318603
 10
3.5369476487
 20
3.4835185732
 10
3.5369274068
 20
3.4834932453
  0
LINE
  5
23F
100
AcDbEntity
  8
0
100
AcDbLine
 62
7
  6
CONTINUOUS
 10
3.6541149068
 20
3.6344307453
 11
3.5369274068
 21
3.4834932452
  0
LINE
  5
240
100
AcDbEntity
  8
0
100
AcDbLine
 62
7
  6
CONTINUOUS
 10
3.587704565
 20
3.5488940848
 11
3.5848088595
 21
3.5451649101
  0
LINE
  5
241
100
AcDbEntity
  8
0
100
AcDbLine
 62
7
  6
CONTINUOUS
 10
3.5970045208
 20
3.5608724619
 11
3.5938046349
 21
3.5567520064
  0
LINE
  5
242
100
AcDbEntity
  8
0
100
AcDbLine
 62
7
  6
CONTINUOUS
 10
3.5767411847
 20
3.5347733163
 11
3.5742583014
 21
3.5315761511
  0
LWPOLYLINE
  5
243
100
AcDbEntity
  8
0
100
AcDbPolyline
 62
7
  6
CONTINUOUS
 90
3
 70
0
 10
3.6377587084
 20
3.6133663801
 10
3.6297521924
 20
3.6030515376
 10
3.6071815118
 20
3.5739804698
  0
LINE
  5
244
100
AcDbEntity
  8
0
100
AcDbLine
 62
7
  6
CONTINUOUS
 10
3.6418162155
 20
3.618590042
 11
3.6377587084
 21
3.6133663801
  0
LINE
  5
245
100
AcDbEntity
  8
0
100
AcDbLine
 62
7
  6
CONTINUOUS
 10
3.5579331454
 20
3.5105475828
 11
3.5371116189
 21
3.4837318603
  0
LINE
  5
246
100
AcDbEntity
  8
0
100
AcDbLine
 62
7
  6
CONTINUOUS
 10
3.4309899068
 20
3.2440557453
 11
3.8772399068
 21
3.2440557453
  0
LINE
  5
247
100
AcDbEntity
  8
0
100
AcDbLine
 62
7
  6
CONTINUOUS
 10
6.4309899068
 20
3.2440557453
 11
6.8772399068
 21
3.2440557453
  0
LINE
  5
248
100
AcDbEntity
  8
0
100
AcDbLine
 62
7
  6
CONTINUOUS
 10
6.7713024068
 20
3.2556807453
 11
6.5369274068
 21
3.2556807453
  0
LINE
  5
249
100
AcDbEntity
  8
0
100
AcDbLine
 62
7
  6
CONTINUOUS
 10
3.7713024068
 20
3.2556807453
 11
3.5369274068
 21
3.2556807453
  0
LINE
  5
24A
100
AcDbEntity
  8
0
100
AcDbLine
 62
7
  6
CONTINUOUS
 10
7.7674899068
 20
3.5172432453
 11
6.8050524068
 21
3.5172432453
  0
LINE
  5
24B
100
AcDbEntity
  8
0
100
AcDbLine
 62
7
  6
CONTINUOUS
 10
6.5031774068
 20
3.5172432453
 11
6.3293649068
 21
3.5172432453
  0
LINE
  5
24C
100
AcDbEntity
  8
0
100
AcDbLine
 62
7
  6
CONTINUOUS
 10
2.5407399068
 20
3.5172432453
 11
3.5031774068
 21
3.5172432453
  0
LINE
  5
24D
100
AcDbEntity
  8
0
100
AcDbLine
 62
7
  6
CONTINUOUS
 10
3.8050524068
 20
3.5172432453
 11
3.9788649068
 21
3.5172432453
  0
LINE
  5
24E
100
AcDbEntity
  8
0
100
AcDbLine
 62
7
  6
CONTINUOUS
 10
7.7674899068
 20
3.7516182453
 11
6.3293649068
 21
3.7516182453
  0
LINE
  5
24F
100
AcDbEntity
  8
0
100
AcDbLine
 62
7
  6
CONTINUOUS
 10
2.5407399068
 20
3.7516182453
 11
3.9788649068
 21
3.7516182453
  0
LINE
  5
250
100
AcDbEntity
  8
0
100
AcDbLine
 62
7
  6
CONTINUOUS
 10
3.9863649068
 20
3.5247432453
 11
3.9788649068
 21
3.5172432453
  0
LINE
  5
251
100
AcDbEntity
  8
0
100
AcDbLine
 62
7
  6
CONTINUOUS
 10
3.5032027662
 20
3.5172634668
 11
3.5031774068
 21
3.5172432453
  0
LINE
  5
252
100
AcDbEntity
  8
0
100
AcDbLine
 62
7
  6
CONTINUOUS
 10
3.6541149068
 20
3.6344307453
 11
3.5031774067
 21
3.5172432453
  0
LINE
  5
253
100
AcDbEntity
  8
0
100
AcDbLine
 62
7
  6
CONTINUOUS
 10
3.5763896507
 20
3.5740843025
 11
3.5685292918
 21
3.5679823409
  0
LINE
  5
254
100
AcDbEntity
  8
0
100
AcDbLine
 62
7
  6
CONTINUOUS
 10
3.5612012732
 20
3.5622923695
 11
3.5577363864
 21
3.5596027705
  0
LINE
  5
255
100
AcDbEntity
  8
0
100
AcDbLine
 62
7
  6
CONTINUOUS
 10
3.5104747678
 20
3.5229086777
 11
3.5095438547
 21
3.5221860984
  0
LWPOLYLINE
  5
256
100
AcDbEntity
  8
0
100
AcDbPolyline
 62
7
  6
CONTINUOUS
 90
3
 70
0
 10
3.5512086311
 20
3.5545340317
 10
3.5481408633
 20
3.552152846
 10
3.5452036925
 20
3.5498726535
  0
LINE
  5
257
100
AcDbEntity
  8
0
100
AcDbLine
 62
7
  6
CONTINUOUS
 10
3.5397116372
 20
3.5456083028
 11
3.5371509788
 21
3.5436207302
  0
LINE
  5
258
100
AcDbEntity
  8
0
100
AcDbLine
 62
7
  6
CONTINUOUS
 10
3.5176736202
 20
3.5284975029
 11
3.516267346
 21
3.5274059684
  0
LINE
  5
259
100
AcDbEntity
  8
0
100
AcDbLine
 62
7
  6
CONTINUOUS
 10
3.5078923259
 20
3.5209031743
 11
3.5071671037
 21
3.520340271
  0
LINE
  5
25A
100
AcDbEntity
  8
0
100
AcDbLine
 62
7
  6
CONTINUOUS
 10
3.5034154712
 20
3.5174270935
 11
3.503282121
 21
3.5173245452
  0
LINE
  5
25B
100
AcDbEntity
  8
0
100
AcDbLine
 62
7
  6
CONTINUOUS
 10
6.4807451065
 20
2.489227695
 11
6.4869983265
 21
2.4837624801
  0
LINE
  5
25C
100
AcDbEntity
  8
0
100
AcDbLine
 62
7
  6
CONTINUOUS
 10
6.3860454174
 20
2.5720061363
 11
6.3869131079
 21
2.571251047
  0
LINE
  5
25D
100
AcDbEntity
  8
0
100
AcDbLine
 62
7
  6
CONTINUOUS
 10
6.3859899068
 20
2.5720557453
 11
6.6541149068
 21
2.3376807453
  0
LINE
  5
25E
100
AcDbEntity
  8
0
100
AcDbLine
 62
7
  6
CONTINUOUS
 10
6.5454441845
 20
2.4326726066
 11
6.5537290546
 21
2.425429878
  0
LINE
  5
25F
100
AcDbEntity
  8
0
100
AcDbLine
 62
7
  6
CONTINUOUS
 10
6.4934907626
 20
2.4780872966
 11
6.5002197945
 21
2.472204361
  0
LINE
  5
260
100
AcDbEntity
  8
0
100
AcDbLine
 62
7
  6
CONTINUOUS
 10
6.3859899068
 20
2.5720557453
 11
6.3860454174
 21
2.5720061363
  0
LINE
  5
261
100
AcDbEntity
  8
0
100
AcDbLine
 62
7
  6
CONTINUOUS
 10
4.9666149068
 20
2.6058057453
 11
4.9666149068
 21
2.7314307453
  0
LINE
  5
262
100
AcDbEntity
  8
0
100
AcDbLine
 62
7
  6
CONTINUOUS
 10
4.9666149068
 20
2.7433557453
 11
4.9666149068
 21
6.8683557453
  0
LINE
  5
263
100
AcDbEntity
  8
0
100
AcDbLine
 62
7
  6
CONTINUOUS
 10
3.4309899068
 20
2.6571807453
 11
3.419739907
 21
2.6459307456
  0
LINE
  5
264
100
AcDbEntity
  8
0
100
AcDbLine
 62
7
  6
CONTINUOUS
 10
6.4197399068
 20
2.6684307453
 11
6.4309899068
 21
2.6571807453
  0
LINE
  5
265
100
AcDbEntity
  8
0
100
AcDbLine
 62
7
  6
CONTINUOUS
 10
6.4197399068
 20
2.6058057453
 11
6.4197895471
 21
2.6057503372
  0
LINE
  5
266
100
AcDbEntity
  8
0
100
AcDbLine
 62
7
  6
CONTINUOUS
 10
6.4197399068
 20
2.6058057453
 11
6.6541149068
 21
2.3376807453
  0
LINE
  5
267
100
AcDbEntity
  8
0
100
AcDbLine
 62
7
  6
CONTINUOUS
 10
6.4199394658
 20
2.6055773955
 11
6.4201911329
 21
2.6052869203
  0
LINE
  5
268
100
AcDbEntity
  8
0
100
AcDbLine
 62
7
  6
CONTINUOUS
 10
5.3416149068
 20
2.6058057453
 11
5.3416149068
 21
2.7314307453
  0
LINE
  5
269
100
AcDbEntity
  8
0
100
AcDbLine
 62
7
  6
CONTINUOUS
 10
5.3416149068
 20
2.7433557453
 11
5.3416149068
 21
6.8683557453
  0
LINE
  5
26A
100
AcDbEntity
  8
0
100
AcDbLine
 62
7
  6
CONTINUOUS
 10
3.8000253996
 20
2.5046014941
 11
3.80548906
 21
2.5108529384
  0
LINE
  5
26B
100
AcDbEntity
  8
0
100
AcDbLine
 62
7
  6
CONTINUOUS
 10
3.6541149068
 20
2.3376807453
 11
3.8884899068
 21
2.6058057454
  0
LINE
  5
26C
100
AcDbEntity
  8
0
100
AcDbLine
 62
7
  6
CONTINUOUS
 10
3.7884726129
 20
2.491386136
 11
3.7943524047
 21
2.4981115473
  0
LWPOLYLINE
  5
26D
100
AcDbEntity
  8
0
100
AcDbPolyline
 62
7
  6
CONTINUOUS
 90
3
 70
0
 10
3.7112657348
 20
2.4030570847
 10
3.7267928825
 20
2.420824383
 10
3.7343450054
 20
2.4294603181
  0
LWPOLYLINE
  5
26E
100
AcDbEntity
  8
0
100
AcDbPolyline
 62
7
  6
CONTINUOUS
 90
3
 70
0
 10
3.687148348
 20
2.3754666109
 10
3.7033249921
 20
2.3939771086
 10
3.7112657348
 20
2.4030570847
  0
LINE
  5
26F
100
AcDbEntity
  8
0
100
AcDbLine
 62
7
  6
CONTINUOUS
 10
3.8107431342
 20
2.516863341
 11
3.8379666598
 21
2.5480081187
  0
LINE
  5
270
100
AcDbEntity
  8
0
100
AcDbLine
 62
7
  6
CONTINUOUS
 10
3.7343450054
 20
2.4294603181
 11
3.7696037872
 21
2.4698001518
  0
LINE
  5
271
100
AcDbEntity
  8
0
100
AcDbLine
 62
7
  6
CONTINUOUS
 10
3.8379666598
 20
2.5480081187
 11
3.8553628037
 21
2.5679084138
  0
LINE
  5
272
100
AcDbEntity
  8
0
100
AcDbLine
 62
7
  6
CONTINUOUS
 10
3.8553628037
 20
2.5679084138
 11
3.8637288268
 21
2.5774790029
  0
LINE
  5
273
100
AcDbEntity
  8
0
100
AcDbLine
 62
7
  6
CONTINUOUS
 10
3.8637288268
 20
2.5774790029
 11
3.8779925806
 21
2.5937980276
  0
LINE
  5
274
100
AcDbEntity
  8
0
100
AcDbLine
 62
7
  6
CONTINUOUS
 10
3.8794881748
 20
2.595507161
 11
3.8851616333
 21
2.6019990078
  0
LINE
  5
275
100
AcDbEntity
  8
0
100
AcDbLine
 62
7
  6
CONTINUOUS
 10
3.8779925806
 20
2.5937980276
 11
3.8794881748
 21
2.595507161
  0
LINE
  5
276
100
AcDbEntity
  8
0
100
AcDbLine
 62
7
  6
CONTINUOUS
 10
3.6707114886
 20
2.356682514
 11
3.687148348
 21
2.3754666109
  0
LINE
  5
277
100
AcDbEntity
  8
0
100
AcDbLine
 62
7
  6
CONTINUOUS
 10
3.8851616333
 20
2.6019990078
 11
3.8884393532
 21
2.60574968
  0
LINE
  5
278
100
AcDbEntity
  8
0
100
AcDbLine
 62
7
  6
CONTINUOUS
 10
3.8884393532
 20
2.60574968
 11
3.8884899068
 21
2.6058057453
  0
LINE
  5
279
100
AcDbEntity
  8
0
100
AcDbLine
 62
7
  6
CONTINUOUS
 10
3.8884899068
 20
2.6684307453
 11
3.8772399068
 21
2.6571807453
  0
LINE
  5
27A
100
AcDbEntity
  8
0
100
AcDbLine
 62
7
  6
CONTINUOUS
 10
6.8772399068
 20
2.6571807453
 11
6.8884899066
 21
2.6459307456
  0
LINE
  5
27B
100
AcDbEntity
  8
0
100
AcDbLine
 62
7
  6
CONTINUOUS
 10
3.9221837936
 20
2.5720052308
 11
3.9222399068
 21
2.5720557453
  0
LINE
  5
27C
100
AcDbEntity
  8
0
100
AcDbLine
 62
7
  6
CONTINUOUS
 10
3.6541149068
 20
2.3376807453
 11
3.9222399068
 21
2.5720557453
  0
LINE
  5
27D
100
AcDbEntity
  8
0
100
AcDbLine
 62
7
  6
CONTINUOUS
 10
4.9666149068
 20
4.5302307453
 11
5.3416149068
 21
4.5302307453
  0
LINE
  5
27E
100
AcDbEntity
  8
0
100
AcDbLine
 62
7
  6
CONTINUOUS
 10
6.805027048
 20
3.5172634731
 11
6.8046279242
 21
3.5175717275
  0
LINE
  5
27F
100
AcDbEntity
  8
0
100
AcDbLine
 62
7
  6
CONTINUOUS
 10
6.8050524068
 20
3.5172432453
 11
6.6541149068
 21
3.6344307453
  0
LINE
  5
280
100
AcDbEntity
  8
0
100
AcDbLine
 62
7
  6
CONTINUOUS
 10
6.7434229663
 20
3.5650918942
 11
6.7396930575
 21
3.5679881623
  0
LINE
  5
281
100
AcDbEntity
  8
0
100
AcDbLine
 62
7
  6
CONTINUOUS
 10
6.7004663178
 20
3.5984436333
 11
6.6955635555
 21
3.6022508199
  0
LINE
  5
282
100
AcDbEntity
  8
0
100
AcDbLine
 62
7
  6
CONTINUOUS
 10
6.7318326405
 20
3.5740901671
 11
6.7277104365
 21
3.57729141
  0
LINE
  5
283
100
AcDbEntity
  8
0
100
AcDbLine
 62
7
  6
CONTINUOUS
 10
6.8050524068
 20
3.5172432453
 11
6.805027048
 21
3.5172634731
  0
LINE
  5
284
100
AcDbEntity
  8
0
100
AcDbLine
 62
7
  6
CONTINUOUS
 10
6.3218649068
 20
3.5247432453
 11
6.3293649068
 21
3.5172432453
  0
LINE
  5
285
100
AcDbEntity
  8
0
100
AcDbLine
 62
7
  6
CONTINUOUS
 10
6.7713024068
 20
3.4834932453
 11
6.7712821584
 21
3.4835185728
  0
LINE
  5
286
100
AcDbEntity
  8
0
100
AcDbLine
 62
7
  6
CONTINUOUS
 10
4.9666149068
 20
5.1246057453
 11
5.3416149068
 21
5.1246057453
  0
LINE
  5
287
100
AcDbEntity
  8
0
100
AcDbLine
 62
7
  6
CONTINUOUS
 10
6.7713024068
 20
3.4834932453
 11
6.6541149068
 21
3.6344307453
  0
LWPOLYLINE
  5
288
100
AcDbEntity
  8
0
100
AcDbPolyline
 62
7
  6
CONTINUOUS
 90
3
 70
0
 10
6.7386265057
 20
3.5255794563
 10
6.7363461768
 20
3.5285168794
 10
6.7339650466
 20
3.5315845664
  0
LINE
  5
289
100
AcDbEntity
  8
0
100
AcDbLine
 62
7
  6
CONTINUOUS
 10
6.7705533663
 20
3.484458663
 11
6.770276863
 21
3.4848148424
  0
LINE
  5
28A
100
AcDbEntity
  8
0
100
AcDbLine
 62
7
  6
CONTINUOUS
 10
6.7205195947
 20
3.5489013714
 11
6.7144194671
 21
3.5567593643
  0
LINE
  5
28B
100
AcDbEntity
  8
0
100
AcDbLine
 62
7
  6
CONTINUOUS
 10
6.7288969858
 20
3.5381113736
 11
6.7262079757
 21
3.5415754587
  0
LINE
  5
28C
100
AcDbEntity
  8
0
100
AcDbLine
 62
7
  6
CONTINUOUS
 10
6.7611109181
 20
3.4966202166
 11
6.7600179803
 21
3.4980282055
  0
LINE
  5
28D
100
AcDbEntity
  8
0
100
AcDbLine
 62
7
  6
CONTINUOUS
 10
6.7448800904
 20
3.517524405
 11
6.7428917276
 21
3.520086083
  0
LINE
  5
28E
100
AcDbEntity
  8
0
100
AcDbLine
 62
7
  6
CONTINUOUS
 10
6.7712821584
 20
3.4835185728
 11
6.7711181352
 21
3.4837319183
  0
LINE
  5
28F
100
AcDbEntity
  8
0
100
AcDbLine
 62
7
  6
CONTINUOUS
 10
6.2828649068
 20
1.5576807453
 11
6.2828649068
 21
1.4095557453
  0
LINE
  5
290
100
AcDbEntity
  8
0
100
AcDbLine
 62
7
  6
CONTINUOUS
 10
6.3218649068
 20
3.5247431823
 11
6.3218649068
 21
3.7441183084
  0
LINE
  5
291
100
AcDbEntity
  8
0
100
AcDbLine
 62
7
  6
CONTINUOUS
 10
6.3293649068
 20
3.5172432453
 11
6.3293649068
 21
3.7516182453
  0
LINE
  5
292
100
AcDbEntity
  8
0
100
AcDbLine
 62
7
  6
CONTINUOUS
 10
6.4197399068
 20
1.5689307453
 11
6.4197399068
 21
2.0695557453
  0
LINE
  5
293
100
AcDbEntity
  8
0
100
AcDbLine
 62
7
  6
CONTINUOUS
 10
6.4197399068
 20
2.6058057453
 11
6.4197399068
 21
2.6459307453
  0
LINE
  5
294
100
AcDbEntity
  8
0
100
AcDbLine
 62
7
  6
CONTINUOUS
 10
6.4197399068
 20
2.6684307453
 11
6.4197399068
 21
3.2328057453
  0
LINE
  5
295
100
AcDbEntity
  8
0
100
AcDbLine
 62
7
  6
CONTINUOUS
 10
6.3218649068
 20
3.7441182453
 11
6.3293649068
 21
3.7516182453
  0
LINE
  5
296
100
AcDbEntity
  8
0
100
AcDbLine
 62
7
  6
CONTINUOUS
 10
6.5369274068
 20
3.4834932453
 11
6.5369274068
 21
3.2556807453
  0
LWPOLYLINE
  5
297
100
AcDbEntity
  8
0
100
AcDbPolyline
 62
7
  6
CONTINUOUS
 90
3
 70
0
 10
6.5371116204
 20
3.4837318646
 10
6.536947649
 20
3.4835185748
 10
6.5369274068
 20
3.4834932453
  0
LINE
  5
298
100
AcDbEntity
  8
0
100
AcDbLine
 62
7
  6
CONTINUOUS
 10
6.6541149068
 20
3.6344307453
 11
6.5369274068
 21
3.4834932452
  0
LINE
  5
299
100
AcDbEntity
  8
0
100
AcDbLine
 62
7
  6
CONTINUOUS
 10
6.6418162052
 20
3.6185900286
 11
6.6337321485
 21
3.6081762761
  0
LINE
  5
29A
100
AcDbEntity
  8
0
100
AcDbLine
 62
7
  6
CONTINUOUS
 10
6.6297521754
 20
3.6030515156
 11
6.6071815079
 21
3.5739804648
  0
LINE
  5
29B
100
AcDbEntity
  8
0
100
AcDbLine
 62
7
  6
CONTINUOUS
 10
6.5695970774
 20
3.5255714298
 11
6.5674161785
 21
3.5227636755
  0
LINE
  5
29C
100
AcDbEntity
  8
0
100
AcDbLine
 62
7
  6
CONTINUOUS
 10
6.5579332543
 20
3.5105477241
 11
6.5371116204
 21
3.4837318646
  0
LINE
  5
29D
100
AcDbEntity
  8
0
100
AcDbLine
 62
7
  6
CONTINUOUS
 10
6.503202768
 20
3.5172634671
 11
6.5031774068
 21
3.5172432453
  0
LINE
  5
29E
100
AcDbEntity
  8
0
100
AcDbLine
 62
7
  6
CONTINUOUS
 10
6.5612014421
 20
3.5622925017
 11
6.557736568
 21
3.5596029123
  0
LINE
  5
29F
100
AcDbEntity
  8
0
100
AcDbLine
 62
7
  6
CONTINUOUS
 10
6.6541149068
 20
3.6344307453
 11
6.5031774067
 21
3.5172432453
  0
LINE
  5
2A0
100
AcDbEntity
  8
0
100
AcDbLine
 62
7
  6
CONTINUOUS
 10
6.5034154764
 20
3.5174270959
 11
6.5032821245
 21
3.5173245464
  0
LINE
  5
2A1
100
AcDbEntity
  8
0
100
AcDbLine
 62
7
  6
CONTINUOUS
 10
7.7749899068
 20
3.7441182453
 11
7.7674899068
 21
3.7516182453
  0
LINE
  5
2A2
100
AcDbEntity
  8
0
100
AcDbLine
 62
7
  6
CONTINUOUS
 10
6.7713024068
 20
3.4834932453
 11
6.7713024068
 21
3.2556807453
  0
LINE
  5
2A3
100
AcDbEntity
  8
0
100
AcDbLine
 62
7
  6
CONTINUOUS
 10
6.8884899068
 20
1.5689307453
 11
6.8884899068
 21
2.6459307453
  0
LINE
  5
2A4
100
AcDbEntity
  8
0
100
AcDbLine
 62
7
  6
CONTINUOUS
 10
6.8884899068
 20
2.6684307453
 11
6.8884899068
 21
3.2328057453
  0
LINE
  5
2A5
100
AcDbEntity
  8
0
100
AcDbLine
 62
7
  6
CONTINUOUS
 10
7.0253649068
 20
1.5576807453
 11
7.0253649068
 21
1.4095557453
  0
LINE
  5
2A6
100
AcDbEntity
  8
0
100
AcDbLine
 62
7
  6
CONTINUOUS
 10
6.4309899068
 20
2.6571807453
 11
6.419739907
 21
2.6459307456
  0
LINE
  5
2A7
100
AcDbEntity
  8
0
100
AcDbLine
 62
7
  6
CONTINUOUS
 10
6.8884899068
 20
2.6684307453
 11
6.8772399068
 21
2.6571807453
  0
LINE
  5
2A8
100
AcDbEntity
  8
0
100
AcDbLine
 62
7
  6
CONTINUOUS
 10
6.6541149068
 20
2.3376807453
 11
6.4197399068
 21
2.0695557453
  0
LINE
  5
2A9
100
AcDbEntity
  8
0
100
AcDbLine
 62
7
  6
CONTINUOUS
 10
6.4975340676
 20
2.1585525307
 11
6.4703097183
 21
2.1274064106
  0
LINE
  5
2AA
100
AcDbEntity
  8
0
100
AcDbLine
 62
7
  6
CONTINUOUS
 10
6.4703097183
 20
2.1274064106
 11
6.4210337655
 21
2.0710354388
  0
LINE
  5
2AB
100
AcDbEntity
  8
0
100
AcDbLine
 62
7
  6
CONTINUOUS
 10
6.4210337655
 20
2.0710354388
 11
6.4197910067
 21
2.0696123919
  0
LINE
  5
2AC
100
AcDbEntity
  8
0
100
AcDbLine
 62
7
  6
CONTINUOUS
 10
6.6375259501
 20
2.3186877241
 11
6.5321792928
 21
2.1981882345
  0
LINE
  5
2AD
100
AcDbEntity
  8
0
100
AcDbLine
 62
7
  6
CONTINUOUS
 10
6.4197910067
 20
2.0696123919
 11
6.4197399068
 21
2.0695557453
  0
LINE
  5
2AE
100
AcDbEntity
  8
0
100
AcDbLine
 62
7
  6
CONTINUOUS
 10
7.7749899068
 20
3.5247432453
 11
7.7674899068
 21
3.5172432453
  0
LINE
  5
2AF
100
AcDbEntity
  8
0
100
AcDbLine
 62
7
  6
CONTINUOUS
 10
6.3860465275
 20
2.1033568067
 11
6.3859899068
 21
2.1033057453
  0
LINE
  5
2B0
100
AcDbEntity
  8
0
100
AcDbLine
 62
7
  6
CONTINUOUS
 10
6.6541149068
 20
2.3376807453
 11
6.3859899068
 21
2.1033057453
  0
LINE
  5
2B1
100
AcDbEntity
  8
0
100
AcDbLine
 62
7
  6
CONTINUOUS
 10
7.7674899068
 20
3.7516182453
 11
7.7674899068
 21
3.5172432453
  0
LINE
  5
2B2
100
AcDbEntity
  8
0
100
AcDbLine
 62
7
  6
CONTINUOUS
 10
7.7749899068
 20
3.7441183084
 11
7.7749899068
 21
3.5247431823
  0
ARC
  5
2B3
100
AcDbEntity
  8
0
100
AcDbCircle
 62
7
  6
CONTINUOUS
 10
5.1541149068
 20
6.8683557453
 40
0.1875
100
AcDbArc
 50
0.0
 51
180.0
  0
ARC
  5
2B4
100
AcDbEntity
  8
0
100
AcDbCircle
 62
7
  6
CONTINUOUS
 10
4.9328649068
 20
2.6058057453
 40
0.03375
100
AcDbArc
 50
269.9999999986
 51
360.0
  0
ARC
  5
2B5
100
AcDbEntity
  8
0
100
AcDbCircle
 62
7
  6
CONTINUOUS
 10
5.3753649068
 20
2.6058057453
 40
0.03375
100
AcDbArc
 50
179.999999999
 51
270.0000000014
  0
ARC
  5
2B6
100
AcDbEntity
  8
0
100
AcDbCircle
 62
7
  6
CONTINUOUS
 10
3.9222399068
 20
2.6058057453
 40
0.03375
100
AcDbArc
 50
179.9999999986
 51
270.0000000009
  0
ARC
  5
2B7
100
AcDbEntity
  8
0
100
AcDbCircle
 62
7
  6
CONTINUOUS
 10
3.9222399068
 20
2.0695557453
 40
0.03375
100
AcDbArc
 50
89.999999999
 51
180.0000000018
  0
ARC
  5
2B8
100
AcDbEntity
  8
0
100
AcDbCircle
 62
7
  6
CONTINUOUS
 10
6.3859899068
 20
2.6058057453
 40
0.03375
100
AcDbArc
 50
269.9999999989
 51
360.0
  0
ARC
  5
2B9
100
AcDbEntity
  8
0
100
AcDbCircle
 62
7
  6
CONTINUOUS
 10
6.3859899068
 20
2.0695557453
 40
0.03375
100
AcDbArc
 50
0.0
 51
90.000000001
  0
ARC
  5
2BA
100
AcDbEntity
  8
0
100
AcDbCircle
 62
7
  6
CONTINUOUS
 10
6.8050524068
 20
3.4834932453
 40
0.03375
100
AcDbArc
 50
89.9999999994
 51
180.0000000004
  0
ARC
  5
2BB
100
AcDbEntity
  8
0
100
AcDbCircle
 62
7
  6
CONTINUOUS
 10
6.5031774068
 20
3.4834932453
 40
0.03375
100
AcDbArc
 50
0.0
 51
90.0000000006
  0
ARC
  5
2BC
100
AcDbEntity
  8
0
100
AcDbCircle
 62
7
  6
CONTINUOUS
 10
3.5031774068
 20
3.4834932453
 40
0.03375
100
AcDbArc
 50
0.0
 51
90.0000000006
  0
ARC
  5
2BD
100
AcDbEntity
  8
0
100
AcDbCircle
 62
7
  6
CONTINUOUS
 10
3.8050524068
 20
3.4834932453
 40
0.03375
100
AcDbArc
 50
89.9999999994
 51
180.0000000004
  0
ARC
  5
2BE
100
AcDbEntity
  8
0
100
AcDbCircle
 62
7
  6
CONTINUOUS
 10
6.2941149068
 20
1.5576807453
 40
0.01125
100
AcDbArc
 50
90.0
 51
180.0
  0
ARC
  5
2BF
100
AcDbEntity
  8
0
100
AcDbCircle
 62
7
  6
CONTINUOUS
 10
7.0141149068
 20
1.5576807453
 40
0.01125
100
AcDbArc
 50
0.0
 51
90.0
  0
ARC
  5
2C0
100
AcDbEntity
  8
0
100
AcDbCircle
 62
7
  6
CONTINUOUS
 10
3.2941149068
 20
1.5576807453
 40
0.01125
100
AcDbArc
 50
90.0
 51
180.0
  0
ARC
  5
2C1
100
AcDbEntity
  8
0
100
AcDbCircle
 62
7
  6
CONTINUOUS
 10
4.0141149068
 20
1.5576807453
 40
0.01125
100
AcDbArc
 50
0.0
 51
90.0
  0
ARC
  5
2C2
100
AcDbEntity
  8
0
100
AcDbCircle
 62
7
  6
CONTINUOUS
 10
6.8772399068
 20
3.2328057453
 40
0.01125
100
AcDbArc
 50
0.0
 51
90.0
  0
ARC
  5
2C3
100
AcDbEntity
  8
0
100
AcDbCircle
 62
7
  6
CONTINUOUS
 10
6.4309899068
 20
3.2328057453
 40
0.01125
100
AcDbArc
 50
90.0
 51
180.0
  0
ARC
  5
2C4
100
AcDbEntity
  8
0
100
AcDbCircle
 62
7
  6
CONTINUOUS
 10
3.4309899068
 20
3.2328057453
 40
0.01125
100
AcDbArc
 50
90.0
 51
180.0
  0
ARC
  5
2C5
100
AcDbEntity
  8
0
100
AcDbCircle
 62
7
  6
CONTINUOUS
 10
3.8772399068
 20
3.2328057453
 40
0.01125
100
AcDbArc
 50
0.0
 51
90.0
  0
SPLINE
  5
2C6
100
AcDbEntity
  8
0
100
AcDbSpline
 62
7
  6
CONTINUOUS
 70
0
 71
3
 72
109
 73
105
 74
0
 42
0.0000001
 43
0.0000001
 44
0.0000000001
 40
0.0
 40
0.0
 40
0.0
 40
0.0
 40
0.0000136457
 40
0.0000305616
 40
0.0000541949
 40
0.0001215793
 40
0.0002157307
 40
0.000336581
 40
0.0004840619
 40
0.0006581052
 40
0.0008586429
 40
0.0013389287
 40
0.0019243524
 40
0.0026142872
 40
0.0034080958
 40
0.0043051408
 40
0.0053047844
 40
0.0076085053
 40
0.0103107484
 40
0.0134024026
 40
0.0168724752
 40
0.0207081485
 40
0.0248966011
 40
0.0294254592
 40
0.0394553697
 40
0.0506952468
 40
0.0630394036
 40
0.0763868348
 40
0.0906450975
 40
0.1057299205
 40
0.1380675287
 40
0.1728473127
 40
0.2096296176
 40
0.2286592697
 40
0.2480627001
 40
0.2678067201
 40
0.2878612271
 40
0.3081996924
 40
0.3287982918
 40
0.3496317094
 40
0.3706767734
 40
0.3919122606
 40
0.4133139682
 40
0.4348544637
 40
0.4456685696
 40
0.4565062972
 40
0.4673625154
 40
0.4782330408
 40
0.4891138452
 40
0.50000001
 40
0.510886116
 40
0.5217668324
 40
0.5326373815
 40
0.5434937237
 40
0.5651429745
 40
0.5866834743
 40
0.6080863662
 40
0.6187276917
 40
0.6293232029
 40
0.6503679336
 40
0.6712013016
 40
0.6917998138
 40
0.7121378462
 40
0.732192276
 40
0.7519366493
 40
0.7713400913
 40
0.7903687368
 40
0.8089858294
 40
0.8271514667
 40
0.8619318301
 40
0.8784365128
 40
0.8942682421
 40
0.9093536438
 40
0.9236135548
 40
0.9369619418
 40
0.9493054454
 40
0.9605441767
 40
0.9657170732
 40
0.9705749794
 40
0.9751048486
 40
0.9792936253
 40
0.9831285942
 40
0.9865977384
 40
0.9896891963
 40
0.9923923485
 40
0.9935953146
 40
0.994697616
 40
0.9956981236
 40
0.9965959824
 40
0.9973904108
 40
0.9980806269
 40
0.9986658491
 40
0.9991453678
 40
0.9993453663
 40
0.9995188126
 40
0.9996656728
 40
0.9997859132
 40
0.9998794999
 40
0.9999162875
 40
0.9999463991
 40
0.9999698304
 40
0.9999865771
 40
0.999996635
 40
1.0
 40
1.0
 40
1.0
 40
1.0
 10
5.3753649068
 20
2.5720557453
 30
0.0
 10
5.3753628776
 20
2.5720547716
 30
0.0
 10
5.375359069
 20
2.5720513404
 30
0.0
 10
5.3753516332
 20
2.5720464182
 30
0.0
 10
5.375337223
 20
2.5720359372
 30
0.0
 10
5.3753122968
 20
2.5720183075
 30
0.0
 10
5.3752744297
 20
2.5719911782
 30
0.0
 10
5.3752257887
 20
2.5719564162
 30
0.0
 10
5.3751664688
 20
2.5719139285
 30
0.0
 10
5.3750964828
 20
2.5718637622
 30
0.0
 10
5.374981927
 20
2.5717815519
 30
0.0
 10
5.3748123441
 20
2.571659642
 30
0.0
 10
5.3745773742
 20
2.5714903979
 30
0.0
 10
5.3743005135
 20
2.571290833
 30
0.0
 10
5.3739819742
 20
2.5710611893
 30
0.0
 10
5.3736219627
 20
2.5708017199
 30
0.0
 10
5.3730598029
 20
2.5703967871
 30
0.0
 10
5.3722557027
 20
2.5698183033
 30
0.0
 10
5.3711707234
 20
2.5690393889
 30
0.0
 10
5.3699284143
 20
2.5681497515
 30
0.0
 10
5.3685329688
 20
2.5671528655
 30
0.0
 10
5.3669892167
 20
2.5660523678
 30
0.0
 10
5.3653021635
 20
2.5648520405
 30
0.0
 10
5.3627804723
 20
2.5630624627
 30
0.0
 10
5.3593043953
 20
2.5606080858
 30
0.0
 10
5.3547635166
 20
2.5574269369
 30
0.0
 10
5.3497604006
 20
2.553951999
 30
0.0
 10
5.3443316697
 20
2.5502172278
 30
0.0
 10
5.3385096906
 20
2.5462566473
 30
0.0
 10
5.3300619895
 20
2.5405874307
 30
0.0
 10
5.3187233053
 20
2.5331522702
 30
0.0
 10
5.3042300071
 20
2.5240054865
 30
0.0
 10
5.2914161158
 20
2.5163159088
 30
0.0
 10
5.2806431473
 20
2.5101625475
 30
0.0
 10
5.2722335184
 20
2.5055402148
 30
0.0
 10
5.263589203
 20
2.5009971951
 30
0.0
 10
5.2547130001
 20
2.4965681427
 30
0.0
 10
5.2456029382
 20
2.4922981657
 30
0.0
 10
5.2362590762
 20
2.4882328472
 30
0.0
 10
5.2266833162
 20
2.4844201893
 30
0.0
 10
5.2168791009
 20
2.4809133157
 30
0.0
 10
5.2068492091
 20
2.4777827421
 30
0.0
 10
5.1966067966
 20
2.4750940176
 30
0.0
 10
5.1879236773
 20
2.473277556
 30
0.0
 10
5.1808960484
 20
2.4721041011
 30
0.0
 10
5.1755837428
 20
2.4713709824
 30
0.0
 10
5.1702428096
 20
2.4707940108
 30
0.0
 10
5.1648793878
 20
2.4703826063
 30
0.0
 10
5.1595008488
 20
2.4701383016
 30
0.0
 10
5.1541148417
 20
2.4700575201
 30
0.0
 10
5.1487288429
 20
2.4701381666
 30
0.0
 10
5.1433503354
 20
2.4703826616
 30
0.0
 10
5.1379869216
 20
2.4707946806
 30
0.0
 10
5.1308729204
 20
2.4715632798
 30
0.0
 10
5.1220559463
 20
2.4729130502
 30
0.0
 10
5.1116236465
 20
2.4750971967
 30
0.0
 10
5.1030704079
 20
2.4773381411
 30
0.0
 10
5.096332244
 20
2.4793548113
 30
0.0
 10
5.0896963861
 20
2.4815014672
 30
0.0
 10
5.0815455535
 20
2.4844192105
 30
0.0
 10
5.0719700703
 20
2.4882320737
 30
0.0
 10
5.0626260778
 20
2.4922969267
 30
0.0
 10
5.0535164351
 20
2.4965675721
 30
0.0
 10
5.0446405336
 20
2.5009971524
 30
0.0
 10
5.035995861
 20
2.5055395897
 30
0.0
 10
5.0275861779
 20
2.5101615995
 30
0.0
 10
5.0194156518
 20
2.5148297931
 30
0.0
 10
5.0114899826
 20
2.5195128438
 30
0.0
 10
5.0014037123
 20
2.5256445873
 30
0.0
 10
4.9917149762
 20
2.5317578133
 30
0.0
 10
4.9824335942
 20
2.5377917076
 30
0.0
 10
4.9759086121
 20
2.5421051489
 30
0.0
 10
4.9697210553
 20
2.5462572403
 30
0.0
 10
4.9638979552
 20
2.5502170989
 30
0.0
 10
4.9584686123
 20
2.553951553
 30
0.0
 10
4.9534658616
 20
2.5574267743
 30
0.0
 10
4.9495817428
 20
2.5601486495
 30
0.0
 10
4.946714184
 20
2.5621696842
 30
0.0
 10
4.9447532904
 20
2.5635563247
 30
0.0
 10
4.9429268162
 20
2.5648519102
 30
0.0
 10
4.9412395531
 20
2.5660521223
 30
0.0
 10
4.939696168
 20
2.5671527632
 30
0.0
 10
4.9383012361
 20
2.568149849
 30
0.0
 10
4.9370590332
 20
2.5690395733
 30
0.0
 10
4.9361212765
 20
2.569712438
 30
0.0
 10
4.9354503651
 20
2.5701944148
 30
0.0
 10
4.9350076374
 20
2.5705126839
 30
0.0
 10
4.9346058499
 20
2.5708016875
 30
0.0
 10
4.9342453523
 20
2.5710611304
 30
0.0
 10
4.9339264484
 20
2.571290752
 30
0.0
 10
4.9336494322
 20
2.5714902985
 30
0.0
 10
4.9334145887
 20
2.571659524
 30
0.0
 10
4.9332453549
 20
2.5717814931
 30
0.0
 10
4.9331312252
 20
2.571863758
 30
0.0
 10
4.9330616078
 20
2.5719139411
 30
0.0
 10
4.9330026645
 20
2.5719564354
 30
0.0
 10
4.9329544041
 20
2.5719912222
 30
0.0
 10
4.9329208788
 20
2.5720154067
 30
0.0
 10
4.932899399
 20
2.572030872
 30
0.0
 10
4.93288733
 20
2.5720396174
 30
0.0
 10
4.9328778825
 20
2.5720463143
 30
0.0
 10
4.9328712583
 20
2.5720513474
 30
0.0
 10
4.9328670501
 20
2.5720539269
 30
0.0
 10
4.932865431
 20
2.5720555628
 30
0.0
 10
4.9328649068
 20
2.5720557453
 30
0.0
  0
SPLINE
  5
2C7
100
AcDbEntity
  8
0
100
AcDbSpline
 62
7
  6
CONTINUOUS
 70
0
 71
3
 72
117
 73
113
 74
0
 42
0.0000001
 43
0.0000001
 44
0.0000000001
 40
0.0
 40
0.0
 40
0.0
 40
0.0
 40
0.0000033382
 40
0.0000132089
 40
0.0000296048
 40
0.0000525188
 40
0.0000819436
 40
0.0001178719
 40
0.0002092102
 40
0.0003264759
 40
0.0004696109
 40
0.0006385576
 40
0.0008332581
 40
0.0012996892
 40
0.001868426
 40
0.0025388886
 40
0.0033104589
 40
0.0041825183
 40
0.0051544481
 40
0.0062256114
 40
0.007395119
 40
0.0100248695
 40
0.0130350827
 40
0.0164164124
 40
0.0201574281
 40
0.0242463333
 40
0.0286714473
 40
0.0334212752
 40
0.0384843318
 40
0.049501924
 40
0.0616251938
 40
0.0747600657
 40
0.0888179564
 40
0.1037164871
 40
0.1193787
 40
0.1357353882
 40
0.1527227723
 40
0.1702836639
 40
0.1883664485
 40
0.2069265376
 40
0.225922778
 40
0.2453189549
 40
0.2650824861
 40
0.2851858362
 40
0.3056043322
 40
0.3263146638
 40
0.3472975291
 40
0.3578858894
 40
0.3685362347
 40
0.3900089505
 40
0.411697803
 40
0.4226170968
 40
0.433580923
 40
0.4445847014
 40
0.4556238894
 40
0.4666915753
 40
0.4777823806
 40
0.4888887385
 40
0.5000029083
 40
0.5111171091
 40
0.5222235089
 40
0.5333142919
 40
0.5443819814
 40
0.5554212115
 40
0.5664249684
 40
0.5773887766
 40
0.588308059
 40
0.6099967345
 40
0.6314693022
 40
0.6421196527
 40
0.6527079858
 40
0.6736907735
 40
0.6944007206
 40
0.7148188678
 40
0.7546837523
 40
0.7930743838
 40
0.8297170251
 40
0.8642644627
 40
0.8806210128
 40
0.8962833394
 40
0.9111821805
 40
0.9252405061
 40
0.9383758792
 40
0.9504986661
 40
0.9615153669
 40
0.966578804
 40
0.9713294726
 40
0.9757552191
 40
0.9798439683
 40
0.9835842831
 40
0.9869650212
 40
0.9899753778
 40
0.9926060085
 40
0.9937761297
 40
0.9948479716
 40
0.9958206107
 40
0.9966933047
 40
0.9974653185
 40
0.9981359168
 40
0.9987043653
 40
0.9991700699
 40
0.9993642994
 40
0.9995327384
 40
0.9996753551
 40
0.9997921181
 40
0.9998829957
 40
0.9999187176
 40
0.9999479562
 40
0.9999707078
 40
0.9999869682
 40
0.9999967336
 40
1.0
 40
1.0
 40
1.0
 40
1.0
 10
5.3416149068
 20
2.6058057453
 30
0.0
 10
5.3416146884
 20
2.6058052928
 30
0.0
 10
5.3416129558
 20
2.6058041177
 30
0.0
 10
5.3416101
 20
2.6058007632
 30
0.0
 10
5.3416046603
 20
2.6057956816
 30
0.0
 10
5.341597376
 20
2.6057883571
 30
0.0
 10
5.3415878872
 20
2.6057790475
 30
0.0
 10
5.3415711025
 20
2.6057624813
 30
0.0
 10
5.3415448594
 20
2.605736668
 30
0.0
 10
5.3415071009
 20
2.6056995535
 30
0.0
 10
5.3414609725
 20
2.6056542874
 30
0.0
 10
5.3414064898
 20
2.6056008937
 30
0.0
 10
5.3413171893
 20
2.6055135
 30
0.0
 10
5.3411847411
 20
2.6053841562
 30
0.0
 10
5.3410008159
 20
2.6052050238
 30
0.0
 10
5.340783796
 20
2.6049940401
 30
0.0
 10
5.3405338907
 20
2.6047513823
 30
0.0
 10
5.3402513129
 20
2.604477232
 30
0.0
 10
5.3399362776
 20
2.604171773
 30
0.0
 10
5.3395890332
 20
2.6038352129
 30
0.0
 10
5.3390625033
 20
2.6033250729
 30
0.0
 10
5.3383261047
 20
2.6026120823
 30
0.0
 10
5.3373500547
 20
2.6016679742
 30
0.0
 10
5.3362531453
 20
2.6006082172
 30
0.0
 10
5.3350382217
 20
2.5994369245
 30
0.0
 10
5.3337084014
 20
2.5981584368
 30
0.0
 10
5.3322669543
 20
2.596776955
 30
0.0
 10
5.3307174571
 20
2.595296294
 30
0.0
 10
5.3284474349
 20
2.5931332824
 30
0.0
 10
5.3253669903
 20
2.5902118613
 30
0.0
 10
5.3213895868
 20
2.5864705901
 30
0.0
 10
5.3170597594
 20
2.5824361274
 30
0.0
 10
5.3124017189
 20
2.5781412248
 30
0.0
 10
5.3074366881
 20
2.5736182114
 30
0.0
 10
5.3021835822
 20
2.5688978165
 30
0.0
 10
5.296658866
 20
2.5640095505
 30
0.0
 10
5.2908759603
 20
2.558982185
 30
0.0
 10
5.2848448604
 20
2.5538448446
 30
0.0
 10
5.278573322
 20
2.5486254451
 30
0.0
 10
5.2720670829
 20
2.5433512998
 30
0.0
 10
5.2653288183
 20
2.5380507344
 30
0.0
 10
5.2583560725
 20
2.5327571332
 30
0.0
 10
5.2511457248
 20
2.5275034599
 30
0.0
 10
5.2436912858
 20
2.5223271086
 30
0.0
 10
5.2359858952
 20
2.5172670384
 30
0.0
 10
5.2280138993
 20
2.5123791936
 30
0.0
 10
5.2211584689
 20
2.5085099079
 30
0.0
 10
5.2155274782
 20
2.5055620286
 30
0.0
 10
5.2097652999
 20
2.5027093032
 30
0.0
 10
5.2023738082
 20
2.4993864297
 30
0.0
 10
5.1947623984
 20
2.4964826586
 30
0.0
 10
5.1885232697
 20
2.494456387
 30
0.0
 10
5.1837621478
 20
2.4930965856
 30
0.0
 10
5.1789355051
 20
2.4919130414
 30
0.0
 10
5.1740500975
 20
2.4909194126
 30
0.0
 10
5.1691138896
 20
2.4901312681
 30
0.0
 10
5.1641371933
 20
2.4895638058
 30
0.0
 10
5.1591329698
 20
2.4892208141
 30
0.0
 10
5.1541147605
 20
2.4891066404
 30
0.0
 10
5.1490965547
 20
2.4892210374
 30
0.0
 10
5.1440923161
 20
2.4895638673
 30
0.0
 10
5.1391156062
 20
2.4901313104
 30
0.0
 10
5.1341794837
 20
2.4909200541
 30
0.0
 10
5.1292942175
 20
2.4919143889
 30
0.0
 10
5.1244676988
 20
2.4930984218
 30
0.0
 10
5.1197066014
 20
2.4944582549
 30
0.0
 10
5.1134671849
 20
2.4964834732
 30
0.0
 10
5.1058547148
 20
2.4993843813
 30
0.0
 10
5.0984634397
 20
2.5027077677
 30
0.0
 10
5.0927016992
 20
2.5055613059
 30
0.0
 10
5.0870710569
 20
2.5085098221
 30
0.0
 10
5.0802159601
 20
2.5123795017
 30
0.0
 10
5.0722433676
 20
2.517266152
 30
0.0
 10
5.0620502672
 20
2.523957459
 30
0.0
 10
5.0499564522
 20
2.5325901193
 30
0.0
 10
5.0362777697
 20
2.5431788514
 30
0.0
 10
5.0235372129
 20
2.5536582764
 30
0.0
 10
5.0135506639
 20
2.5622579557
 30
0.0
 10
5.0060460237
 20
2.5688974146
 30
0.0
 10
5.0007930551
 20
2.5736180367
 30
0.0
 10
4.9958280941
 20
2.5781413163
 30
0.0
 10
4.9911701127
 20
2.582436561
 30
0.0
 10
4.9868405668
 20
2.5864714252
 30
0.0
 10
4.9828630574
 20
2.5902123894
 30
0.0
 10
4.9797821177
 20
2.5931330719
 30
0.0
 10
4.9775122489
 20
2.595296317
 30
0.0
 10
4.975962916
 20
2.5967775539
 30
0.0
 10
4.974521639
 20
2.5981594994
 30
0.0
 10
4.9731917904
 20
2.5994379086
 30
0.0
 10
4.971976716
 20
2.6006087306
 30
0.0
 10
4.9708796482
 20
2.6016680748
 30
0.0
 10
4.9699035801
 20
2.6026122577
 30
0.0
 10
4.9691672571
 20
2.6033256807
 30
0.0
 10
4.9686407816
 20
2.6038363466
 30
0.0
 10
4.9682935553
 20
2.6041733582
 30
0.0
 10
4.9679785439
 20
2.604479279
 30
0.0
 10
4.9676959856
 20
2.6047538356
 30
0.0
 10
4.9674460971
 20
2.6049967728
 30
0.0
 10
4.9672290947
 20
2.6052078373
 30
0.0
 10
4.967045179
 20
2.6053867896
 30
0.0
 10
4.9669126743
 20
2.605515755
 30
0.0
 10
4.9668233284
 20
2.6056027347
 30
0.0
 10
4.9667688345
 20
2.6056557946
 30
0.0
 10
4.9667226968
 20
2.605700722
 30
0.0
 10
4.9666849325
 20
2.6057375115
 30
0.0
 10
4.9666586826
 20
2.6057630664
 30
0.0
 10
4.9666418969
 20
2.6057794476
 30
0.0
 10
4.9666324085
 20
2.6057886391
 30
0.0
 10
4.9666251356
 20
2.6057958693
 30
0.0
 10
4.9666196876
 20
2.6058008598
 30
0.0
 10
4.9666168658
 20
2.6058041752
 30
0.0
 10
4.9666151148
 20
2.6058052998
 30
0.0
 10
4.9666149068
 20
2.6058057453
 30
0.0
  0
ENDSEC
  0
SECTION
  2
OBJECTS
  0
DICTIONARY
  5
C
100
AcDbDictionary
280
0
281
1
  3
ACAD_GROUP
350
D
  3
ACAD_MLINESTYLE
350
17
  3
ACAD_LAYOUT
350
1A
  3
ACAD_PLOTSETTINGS
350
19
  3
ACAD_PLOTSTYLENAME
350
E
  0
DICTIONARY
  5
D
102
{ACAD_REACTORS
330
C
102
}
100
AcDbDictionary
280
0
281
1
  0
ACDBDICTIONARYWDFLT
  5
E
102
{ACAD_REACTORS
330
C
102
}
100
AcDbDictionary
281
1
  3
Normal
350
F
100
AcDbDictionaryWithDefault
340
F
  0
DICTIONARY
  5
17
102
{ACAD_REACTORS
330
C
102
}
100
AcDbDictionary
280
0
281
1
  3
Standard
350
18
  0
DICTIONARY
  5
19
102
{ACAD_REACTORS
330
C
102
}
100
AcDbDictionary
281
1
  0
DICTIONARY
  5
1A
102
{ACAD_REACTORS
330
C
102
}
100
AcDbDictionary
281
1
  3
Model
350
2C8
  3
Layout1
350
2C9
  0
ACDBPLACEHOLDER
  5
F
102
{ACAD_REACTORS
330
E
102
}
  0
MLINESTYLE
  5
18
102
{ACAD_REACTORS
330
17
102
}
100
AcDbMlineStyle
  2
STANDARD
 70
0
  3

 62
256
 51
90.0
 52
90.0
 71
2
 49
0.5
 62
256
  6
BYLAYER
 49
-0.5
 62
256
  6
BYLAYER
  0
LAYOUT
  5
2C8
102
{ACAD_REACTORS
330
1A
102
}
100
AcDbPlotSettings
  1

  2
none_device
  4
ANSI_A_(11.00_x_8.50_Inches)
  6

 40
0.0
 41
0.0
 42
0.0
 43
0.0
 44
279.4
 45
215.9
 46
0.0
 47
0.0
 48
0.0
 49
0.0
140
0.0
141
0.0
142
1.0
143
1.0
 70
1024
 72
0
 73
0
 74
0
  7

 75
0
147
1.0
148
0.0
149
0.0
100
AcDbLayout
  1
Model
 70
0
 71
0
 10
0.0
 20
0.0
 11
11.0
 21
8.5
 12
0.0
 22
0.0
 32
0.0
 14
0.0
 24
0.0
 34
0.0
 15
0.0
 25
0.0
 35
0.0
146
0.0
 13
0.0
 23
0.0
 33
0.0
 16
1.0
 26
0.0
 36
0.0
 17
0.0
 27
1.0
 37
0.0
 76
0
330
202
345
0
346
0
  0
LAYOUT
  5
2C9
102
{ACAD_REACTORS
330
1A
102
}
100
AcDbPlotSettings
  1

  2
none_device
  4
ANSI_A_(11.00_x_8.50_Inches)
  6

 40
0.0
 41
0.0
 42
0.0
 43
0.0
 44
279.4
 45
215.9
 46
0.0
 47
0.0
 48
0.0
 49
0.0
140
0.0
141
0.0
142
1.0
143
1.0
 70
0
 72
0
 73
0
 74
0
  7

 75
0
147
1.0
148
0.0
149
0.0
100
AcDbLayout
  1
Layout1
 70
0
 71
1
 10
0.0
 20
0.0
 11
11.0
 21
8.5
 12
0.0
 22
0.0
 32
0.0
 14
0.0
 24
0.0
 34
0.0
 15
0.0
 25
0.0
 35
0.0
146
0.0
 13
0.0
 23
0.0
 33
0.0
 16
1.0
 26
0.0
 36
0.0
 17
0.0
 27
1.0
 37
0.0
 76
0
330
203
345
0
346
0
  0
ENDSEC
  0
EOF
