999
DXF file: 1500-5412_front.dxf
999
Pro/ENGINEER 2018400 by Parametric Technology Corporation
  0
SECTION
  2
HEADER
  9
$ACADVER
  1
AC1027
  9
$DWGCODEPAGE
  3
ANSI_1252
  9
$EXTMAX
 10
11.0
 20
8.5
 30
0.0
  9
$EXTMIN
 10
0.0
 20
0.0
 30
0.0
  9
$LIMMIN
 10
0.0
 20
0.0
  9
$LIMMAX
 10
11.0
 20
8.5
  9
$VIEWCTR
 10
5.5
 20
4.25
  9
$VIEWSIZE
 40
8.5
  9
$CLAYER
  8
0
  9
$LTSCALE
 40
0.605
  9
$CELTYPE
  6
BYLAYER
  9
$DIMSCALE
 40
1.0
  9
$DIMASZ
 40
0.1
  9
$DIMEXO
 40
0.0625
  9
$DIMDLI
 40
0.418
  9
$DIMEXE
 40
0.125
  9
$DIMCEN
 40
0.099
  9
$DIMLFAC
 40
1.0
  9
$DIMBLK
  1
_FILLED
  9
$DIMALT
 70
1
  9
$DIMALTD
 70
1
  9
$DIMALTTD
 70
2
  9
$DIMALTF
 40
25.4
  9
$DIMTXT
 40
0.08
  9
$DIMTOL
 70
1
  9
$DIMLIM
 70
0
  9
$DIMTFAC
 40
1.0
  9
$DIMTP
 40
0.01
  9
$DIMTM
 40
0.01
  9
$DIMGAP
 40
0.09
  9
$DIMDSEP
 70
46
  9
$AUNITS
 70
0
  9
$PDMODE
 70
3
  9
$PDSIZE
 40
0.3125
  9
$HANDSEED
  5
454
  9
$TILEMODE
 70
1
  9
$MEASUREMENT
 70
0
  9
$INSUNITS
 70
1
  0
ENDSEC
  0
SECTION
  2
CLASSES
  0
CLASS
  1
ACDBDICTIONARYWDFLT
  2
AcDbDictionaryWithDefault
  3
AutoCAD 2000
 90
0
 91
1
280
0
281
0
  0
CLASS
  1
ACDBPLACEHOLDER
  2
AcDbPlaceHolder
  3
AutoCAD 2000
 90
0
 91
1
280
0
281
0
  0
CLASS
  1
LAYOUT
  2
AcDbLayout
  3
AutoCAD 2000
 90
0
 91
0
280
0
281
0
  0
ENDSEC
  0
SECTION
  2
TABLES
  0
TABLE
  2
VPORT
  5
8
100
AcDbSymbolTable
 70
2
  0
VPORT
  5
1F4
100
AcDbSymbolTableRecord
100
AcDbViewportTableRecord
  2
*ACTIVE
 70
0
 10
0.0
 20
0.0
 11
1.0
 21
1.0
 12
5.5
 22
4.25
 13
0.0
 23
0.0
 14
1.0
 24
1.0
 15
0.0
 25
0.0
 16
0.0
 26
0.0
 36
1.0
 17
0.0
 27
0.0
 37
0.0
 40
8.5
 41
1.2941176471
 42
50.0
 43
0.0
 44
0.0
 50
0.0
 51
0.0
 71
0
 72
100
 73
1
 74
1
 75
0
 76
0
 77
0
 78
0
  0
ENDTAB
  0
TABLE
  2
LTYPE
  5
5
100
AcDbSymbolTable
 70
6
  0
LTYPE
  5
14
100
AcDbSymbolTableRecord
100
AcDbLinetypeTableRecord
  2
BYBLOCK
 70
0
  3

 72
65
 73
0
 40
0.0
  0
LTYPE
  5
15
100
AcDbSymbolTableRecord
100
AcDbLinetypeTableRecord
  2
BYLAYER
 70
0
  3

 72
65
 73
0
 40
0.0
  0
LTYPE
  5
16
100
AcDbSymbolTableRecord
100
AcDbLinetypeTableRecord
  2
CONTINUOUS
 70
64
  3
Solid line
 72
65
 73
0
 40
0.0
  0
LTYPE
  5
1F5
100
AcDbSymbolTableRecord
100
AcDbLinetypeTableRecord
  2
CENTER
 70
64
  3
____ _ ____ _ ____ _ ____ _ ____ _ ____ _ ____
 72
65
 73
4
 40
0.6
 49
0.375
 74
0
 49
-0.075
 74
0
 49
0.075
 74
0
 49
-0.075
 74
0
  0
LTYPE
  5
1F6
100
AcDbSymbolTableRecord
100
AcDbLinetypeTableRecord
  2
HIDDEN
 70
64
  3
- - - - - - - - - - - - - - - - - - - -
 72
65
 73
2
 40
0.2
 49
0.1
 74
0
 49
-0.1
 74
0
  0
LTYPE
  5
1F7
100
AcDbSymbolTableRecord
100
AcDbLinetypeTableRecord
  2
PHANTOM
 70
64
  3
_____ _ _ _____ _ _ _____ _ _ _____
 72
65
 73
6
 40
0.8
 49
0.45
 74
0
 49
-0.05
 74
0
 49
0.1
 74
0
 49
-0.05
 74
0
 49
0.1
 74
0
 49
-0.05
 74
0
  0
LTYPE
  5
1F8
100
AcDbSymbolTableRecord
100
AcDbLinetypeTableRecord
  2
DOT
 70
64
  3
. . . . . . . . . . . . . . . . . . . .
 72
65
 73
2
 40
0.2
 49
0.1
 74
0
 49
-0.1
 74
0
  0
LTYPE
  5
1F9
100
AcDbSymbolTableRecord
100
AcDbLinetypeTableRecord
  2
DASHED
 70
64
  3
- - - - - - - - - - - - - - - - - - - -
 72
65
 73
2
 40
0.2
 49
0.1
 74
0
 49
-0.1
 74
0
  0
ENDTAB
  0
TABLE
  2
LAYER
  5
2
100
AcDbSymbolTable
 70
36
  0
LAYER
  5
10
100
AcDbSymbolTableRecord
100
AcDbLayerTableRecord
  2
0
 70
0
 62
7
  6
CONTINUOUS
370
-3
390
F
  0
LAYER
  5
1FA
100
AcDbSymbolTableRecord
100
AcDbLayerTableRecord
  2
DEFAULT_1
 70
0
 62
7
  6
CENTER
370
-3
390
F
  0
LAYER
  5
1FB
100
AcDbSymbolTableRecord
100
AcDbLayerTableRecord
  2
DEFAULT_2
 70
0
 62
8
  6
HIDDEN
370
-3
390
F
  0
LAYER
  5
1FC
100
AcDbSymbolTableRecord
100
AcDbLayerTableRecord
  2
DEFAULT_3
 70
0
 62
7
  6
PHANTOM
370
-3
390
F
  0
LAYER
  5
1FD
100
AcDbSymbolTableRecord
100
AcDbLayerTableRecord
  2
DEFAULT_COORDINATE_SYSTEM
 70
0
 62
7
  6
CONTINUOUS
370
-3
390
F
  0
LAYER
  5
1FE
100
AcDbSymbolTableRecord
100
AcDbLayerTableRecord
  2
DEFAULT_DATUM_AXES
 70
0
 62
7
  6
CONTINUOUS
370
-3
390
F
  0
LAYER
  5
1FF
100
AcDbSymbolTableRecord
100
AcDbLayerTableRecord
  2
DEFAULT_DATUM_PLANES
 70
0
 62
7
  6
CONTINUOUS
370
-3
390
F
  0
ENDTAB
  0
TABLE
  2
STYLE
  5
3
100
AcDbSymbolTable
 70
1
  0
STYLE
  5
11
100
AcDbSymbolTableRecord
100
AcDbTextStyleTableRecord
  2
STANDARD
 70
0
 40
0.0
 41
0.8
 50
0.0
 71
0
 42
0.2
  3
txt
  4

  0
STYLE
  5
200
100
AcDbSymbolTableRecord
100
AcDbTextStyleTableRecord
  2
TEXTSTYLE_1
 70
0
 40
0.0
 41
0.8
 50
0.0
 71
0
 42
0.2
  3
gdt
  4

  0
ENDTAB
  0
TABLE
  2
VIEW
  5
6
100
AcDbSymbolTable
 70
0
  0
ENDTAB
  0
TABLE
  2
UCS
  5
7
100
AcDbSymbolTable
 70
0
  0
ENDTAB
  0
TABLE
  2
APPID
  5
9
100
AcDbSymbolTable
 70
1
  0
APPID
  5
201
100
AcDbSymbolTableRecord
100
AcDbRegAppTableRecord
  2
ACAD
 70
0
  0
ENDTAB
  0
TABLE
  2
BLOCK_RECORD
  5
1
100
AcDbSymbolTable
 70
0
  0
BLOCK_RECORD
  5
202
100
AcDbSymbolTableRecord
100
AcDbBlockTableRecord
  2
*Model_Space
  0
BLOCK_RECORD
  5
203
100
AcDbSymbolTableRecord
100
AcDbBlockTableRecord
  2
*Paper_Space
  0
BLOCK_RECORD
  5
204
100
AcDbSymbolTableRecord
100
AcDbBlockTableRecord
  2
_FILLED
  0
ENDTAB
  0
TABLE
  2
DIMSTYLE
  5
A
100
AcDbSymbolTable
 70
1
100
AcDbDimStyleTable
 71
0
  0
DIMSTYLE
105
205
100
AcDbSymbolTableRecord
100
AcDbDimStyleTableRecord
  2
STANDARD
 70
0
  3

  4

 40
1.0
 41
0.1
 42
0.0625
 43
0.38
 44
0.125
 45
0.0
 46
0.0
 47
0.01
 48
0.01
140
0.08
141
0.09
142
0.0
143
25.4
144
1.0
145
0.0
146
1.0
147
0.09
 71
1.0
 72
0.0
 73
1
 74
1
 75
0
 76
0
 77
0
 78
4
 79
1
170
1
171
1
172
0
173
0
174
0
175
0
176
0
177
0
178
0
270
2
179
2
271
2
272
2
273
2
274
2
275
0
280
0
281
0
282
0
283
1
284
4
285
0
286
0
287
3
288
0
340
11
278
46
341
204
342
204
343
204
344
204
  0
ENDTAB
  0
ENDSEC
  0
SECTION
  2
BLOCKS
  0
BLOCK
  5
20
100
AcDbEntity
  8
0
100
AcDbBlockBegin
  2
*Model_Space
 70
0
 10
0.0
 20
0.0
 30
0.0
  3
*Model_Space
  1

  0
ENDBLK
  5
21
100
AcDbEntity
  8
0
100
AcDbBlockEnd
  0
BLOCK
  5
1C
100
AcDbEntity
  8
0
100
AcDbBlockBegin
  2
*Paper_Space
 70
0
 10
0.0
 20
0.0
 30
0.0
  3
*Paper_Space
  1

  0
ENDBLK
  5
1D
100
AcDbEntity
  8
0
100
AcDbBlockEnd
  0
BLOCK
  5
206
100
AcDbEntity
  8
0
100
AcDbBlockBegin
  2
_FILLED
 70
64
 10
0.0
 20
0.0
  3
_FILLED
  1

  0
SOLID
  5
207
100
AcDbEntity
  8
0
  6
BYBLOCK
 62
0
100
AcDbTrace
 10
0.0
 20
0.0
 11
-1.0
 21
0.2
 12
-1.0
 22
-0.2
 13
-1.0
 23
-0.2
  0
ENDBLK
  5
208
100
AcDbEntity
  8
0
  6
BYBLOCK
 62
0
100
AcDbBlockEnd
  0
ENDSEC
  0
SECTION
  2
ENTITIES
  0
MTEXT
  5
209
100
AcDbEntity
  8
0
100
AcDbMText
 62
2
  6
CONTINUOUS
  7
STANDARD
 71
3
 72
1
 10
4.8774068323
 20
1.2453787267
 30
0.0
 11
1.0
 21
0.0
 31
0.0
 73
2
 44
0.9
  1
SCALE  .375
 40
0.08
 41
0.704
  0
LINE
  5
20A
100
AcDbEntity
  8
0
100
AcDbLine
 62
7
  6
CONTINUOUS
 10
0.0
 20
0.0
 11
0.0
 21
8.5
  0
LINE
  5
20B
100
AcDbEntity
  8
0
100
AcDbLine
 62
7
  6
CONTINUOUS
 10
0.0
 20
0.0
 11
11.0
 21
0.0
  0
LINE
  5
20C
100
AcDbEntity
  8
0
100
AcDbLine
 62
7
  6
CONTINUOUS
 10
0.0
 20
8.5
 11
11.0
 21
8.5
  0
LINE
  5
20D
100
AcDbEntity
  8
0
100
AcDbLine
 62
7
  6
CONTINUOUS
 10
11.0
 20
0.0
 11
11.0
 21
8.5
  0
LINE
  5
20E
100
AcDbEntity
  8
0
100
AcDbLine
 62
7
  6
CONTINUOUS
 10
2.4430920031
 20
3.6105972826
 11
2.4430920031
 21
3.7774722826
  0
LINE
  5
20F
100
AcDbEntity
  8
0
100
AcDbLine
 62
7
  6
CONTINUOUS
 10
2.7243420031
 20
2.8067847826
 11
2.7355920031
 21
2.7955347826
  0
LINE
  5
210
100
AcDbEntity
  8
0
100
AcDbLine
 62
7
  6
CONTINUOUS
 10
2.5874670031
 20
1.6960347826
 11
2.5874670031
 21
1.5479097826
  0
LINE
  5
211
100
AcDbEntity
  8
0
100
AcDbLine
 62
7
  6
CONTINUOUS
 10
2.7243420031
 20
1.7072847826
 11
2.7243420031
 21
2.7842847826
  0
LINE
  5
212
100
AcDbEntity
  8
0
100
AcDbLine
 62
7
  6
CONTINUOUS
 10
2.7243420031
 20
2.8067847826
 11
2.7243420031
 21
3.3711597826
  0
LINE
  5
213
100
AcDbEntity
  8
0
100
AcDbLine
 62
7
  6
CONTINUOUS
 10
2.5874670031
 20
1.5479097826
 11
3.3299670031
 21
1.5479097826
  0
LINE
  5
214
100
AcDbEntity
  8
0
100
AcDbLine
 62
7
  6
CONTINUOUS
 10
5.5874670031
 20
1.5479097826
 11
6.3299670031
 21
1.5479097826
  0
LINE
  5
215
100
AcDbEntity
  8
0
100
AcDbLine
 62
7
  6
CONTINUOUS
 10
7.8374670031
 20
1.5479097826
 11
8.5799670031
 21
1.5479097826
  0
LINE
  5
216
100
AcDbEntity
  8
0
100
AcDbLine
 62
7
  6
CONTINUOUS
 10
3.1818420031
 20
2.7955347826
 11
3.1930920029
 21
2.7842847828
  0
LINE
  5
217
100
AcDbEntity
  8
0
100
AcDbLine
 62
7
  6
CONTINUOUS
 10
2.8180920031
 20
3.8065347826
 11
2.8180920031
 21
3.7821597826
  0
LINE
  5
218
100
AcDbEntity
  8
0
100
AcDbLine
 62
7
  6
CONTINUOUS
 10
2.8180920031
 20
3.6059097826
 11
2.8180920031
 21
3.5815347826
  0
LINE
  5
219
100
AcDbEntity
  8
0
100
AcDbLine
 62
7
  6
CONTINUOUS
 10
2.8602795031
 20
3.5815347826
 11
2.8602795031
 21
3.3940347826
  0
LINE
  5
21A
100
AcDbEntity
  8
0
100
AcDbLine
 62
7
  6
CONTINUOUS
 10
2.8638420031
 20
3.3824097826
 11
2.8638420031
 21
3.3940347826
  0
LINE
  5
21B
100
AcDbEntity
  8
0
100
AcDbLine
 62
7
  6
CONTINUOUS
 10
2.5874670031
 20
1.6960347826
 11
3.3299670031
 21
1.6960347826
  0
LINE
  5
21C
100
AcDbEntity
  8
0
100
AcDbLine
 62
7
  6
CONTINUOUS
 10
5.5874670031
 20
1.6960347826
 11
6.3299670031
 21
1.6960347826
  0
LINE
  5
21D
100
AcDbEntity
  8
0
100
AcDbLine
 62
7
  6
CONTINUOUS
 10
7.8374670031
 20
1.6960347826
 11
8.5799670031
 21
1.6960347826
  0
LINE
  5
21E
100
AcDbEntity
  8
0
100
AcDbLine
 62
7
  6
CONTINUOUS
 10
2.5987170031
 20
1.7072847826
 11
3.318716977
 21
1.7072847826
  0
LINE
  5
21F
100
AcDbEntity
  8
0
100
AcDbLine
 62
7
  6
CONTINUOUS
 10
5.5987170031
 20
1.7072847826
 11
6.318716977
 21
1.7072847826
  0
LINE
  5
220
100
AcDbEntity
  8
0
100
AcDbLine
 62
7
  6
CONTINUOUS
 10
7.8487170031
 20
1.7072847826
 11
8.5687170031
 21
1.7072847826
  0
LINE
  5
221
100
AcDbEntity
  8
0
100
AcDbLine
 62
7
  6
CONTINUOUS
 10
3.0535920031
 20
3.3824097826
 11
3.0535920031
 21
3.3940347826
  0
LINE
  5
222
100
AcDbEntity
  8
0
100
AcDbLine
 62
7
  6
CONTINUOUS
 10
3.0571545031
 20
3.5815347826
 11
3.0571545031
 21
3.3940347826
  0
LINE
  5
223
100
AcDbEntity
  8
0
100
AcDbLine
 62
7
  6
CONTINUOUS
 10
3.0993420031
 20
3.8065347826
 11
3.0993420031
 21
3.7821597826
  0
LINE
  5
224
100
AcDbEntity
  8
0
100
AcDbLine
 62
7
  6
CONTINUOUS
 10
3.0993420031
 20
3.6059097826
 11
3.0993420031
 21
3.5815347826
  0
LINE
  5
225
100
AcDbEntity
  8
0
100
AcDbLine
 62
7
  6
CONTINUOUS
 10
3.1930920031
 20
1.7072847826
 11
3.1930920031
 21
2.2079097826
  0
LINE
  5
226
100
AcDbEntity
  8
0
100
AcDbLine
 62
7
  6
CONTINUOUS
 10
3.1930920031
 20
2.7441597826
 11
3.1930920031
 21
2.7842847826
  0
LINE
  5
227
100
AcDbEntity
  8
0
100
AcDbLine
 62
7
  6
CONTINUOUS
 10
3.1930920031
 20
2.8067847826
 11
3.1930920031
 21
3.3711597826
  0
LINE
  5
228
100
AcDbEntity
  8
0
100
AcDbLine
 62
7
  6
CONTINUOUS
 10
7.9743420031
 20
1.9547847826
 11
8.4430920031
 21
1.9547847826
  0
LINE
  5
229
100
AcDbEntity
  8
0
100
AcDbLine
 62
7
  6
CONTINUOUS
 10
8.4026602093
 20
1.9626597826
 11
8.0147737969
 21
1.9626597826
  0
LINE
  5
22A
100
AcDbEntity
  8
0
100
AcDbLine
 62
7
  6
CONTINUOUS
 10
3.3299670031
 20
1.6960347826
 11
3.3299670031
 21
1.5479097826
  0
LINE
  5
22B
100
AcDbEntity
  8
0
100
AcDbLine
 62
7
  6
CONTINUOUS
 10
3.4743420031
 20
3.6105972826
 11
3.4743420031
 21
3.7774722826
  0
LINE
  5
22C
100
AcDbEntity
  8
0
100
AcDbLine
 62
7
  6
CONTINUOUS
 10
5.6905920031
 20
2.2416597826
 11
3.2268420031
 21
2.2416597826
  0
LINE
  5
22D
100
AcDbEntity
  8
0
100
AcDbLine
 62
7
  6
CONTINUOUS
 10
8.075457612
 20
3.0903438172
 11
8.0825334503
 21
3.0921080219
  0
LINE
  5
22E
100
AcDbEntity
  8
0
100
AcDbLine
 62
7
  6
CONTINUOUS
 10
8.3999880184
 20
3.1683273326
 11
8.40710332
 21
3.1699700294
  0
LINE
  5
22F
100
AcDbEntity
  8
0
100
AcDbLine
 62
7
  6
CONTINUOUS
 10
8.0664534556
 20
3.0975626655
 11
8.073621752
 21
3.0989560411
  0
LINE
  5
230
100
AcDbEntity
  8
0
100
AcDbLine
 62
7
  6
CONTINUOUS
 10
8.3946253593
 20
3.1584505431
 11
8.4018168817
 21
3.1597186025
  0
LINE
  5
231
100
AcDbEntity
  8
0
100
AcDbLine
 62
7
  6
CONTINUOUS
 10
5.6905920031
 20
2.7104097826
 11
4.6799670031
 21
2.7104097826
  0
LINE
  5
232
100
AcDbEntity
  8
0
100
AcDbLine
 62
7
  6
CONTINUOUS
 10
4.2374670031
 20
2.7104097826
 11
3.2268420031
 21
2.7104097826
  0
LINE
  5
233
100
AcDbEntity
  8
0
100
AcDbLine
 62
7
  6
CONTINUOUS
 10
8.3419763942
 20
3.441225748
 11
8.3349005559
 21
3.4394615433
  0
LINE
  5
234
100
AcDbEntity
  8
0
100
AcDbLine
 62
7
  6
CONTINUOUS
 10
8.0174459878
 20
3.3632422327
 11
8.0103306862
 21
3.3615995359
  0
LINE
  5
235
100
AcDbEntity
  8
0
100
AcDbLine
 62
7
  6
CONTINUOUS
 10
8.3509805506
 20
3.4340068998
 11
8.3438122542
 21
3.4326135241
  0
LINE
  5
236
100
AcDbEntity
  8
0
100
AcDbLine
 62
7
  6
CONTINUOUS
 10
8.0228086469
 20
3.3731190221
 11
8.0156171245
 21
3.3718509627
  0
LINE
  5
237
100
AcDbEntity
  8
0
100
AcDbLine
 62
7
  6
CONTINUOUS
 10
8.0578443575
 20
3.1052387068
 11
8.0650757536
 21
3.1062550133
  0
LINE
  5
238
100
AcDbEntity
  8
0
100
AcDbLine
 62
7
  6
CONTINUOUS
 10
8.3887531383
 20
3.1488679494
 11
8.39600117
 21
3.1497578958
  0
LINE
  5
239
100
AcDbEntity
  8
0
100
AcDbLine
 62
7
  6
CONTINUOUS
 10
8.0496487908
 20
3.1133547938
 11
8.0569234659
 21
3.1139912454
  0
LINE
  5
23A
100
AcDbEntity
  8
0
100
AcDbLine
 62
7
  6
CONTINUOUS
 10
8.3823937638
 20
3.1396012298
 11
8.3896684552
 21
3.1401099258
  0
LINE
  5
23B
100
AcDbEntity
  8
0
100
AcDbLine
 62
7
  6
CONTINUOUS
 10
2.7243420031
 20
2.7842847826
 11
3.1930920031
 21
2.7842847826
  0
LINE
  5
23C
100
AcDbEntity
  8
0
100
AcDbLine
 62
7
  6
CONTINUOUS
 10
5.7243420031
 20
2.7842847826
 11
6.1930920031
 21
2.7842847826
  0
LINE
  5
23D
100
AcDbEntity
  8
0
100
AcDbLine
 62
7
  6
CONTINUOUS
 10
2.7355920031
 20
2.7955347826
 11
3.1818420031
 21
2.7955347826
  0
LINE
  5
23E
100
AcDbEntity
  8
0
100
AcDbLine
 62
7
  6
CONTINUOUS
 10
5.7355920031
 20
2.7955347826
 11
6.1818420031
 21
2.7955347826
  0
LINE
  5
23F
100
AcDbEntity
  8
0
100
AcDbLine
 62
7
  6
CONTINUOUS
 10
2.7243420031
 20
2.8067847826
 11
3.1930920031
 21
2.8067847826
  0
LINE
  5
240
100
AcDbEntity
  8
0
100
AcDbLine
 62
7
  6
CONTINUOUS
 10
5.7243420031
 20
2.8067847826
 11
6.1930920031
 21
2.8067847826
  0
LINE
  5
241
100
AcDbEntity
  8
0
100
AcDbLine
 62
7
  6
CONTINUOUS
 10
4.6462170031
 20
2.8697847826
 11
4.2712170031
 21
2.8697847826
  0
LINE
  5
242
100
AcDbEntity
  8
0
100
AcDbLine
 62
7
  6
CONTINUOUS
 10
4.6462170286
 20
2.8817097826
 11
4.2712169776
 21
2.8817097826
  0
LINE
  5
243
100
AcDbEntity
  8
0
100
AcDbLine
 62
7
  6
CONTINUOUS
 10
4.2712170031
 20
2.7441597826
 11
4.2712170031
 21
2.8697847826
  0
LINE
  5
244
100
AcDbEntity
  8
0
100
AcDbLine
 62
7
  6
CONTINUOUS
 10
4.2712170031
 20
2.8817097826
 11
4.2712170031
 21
7.0067097826
  0
LINE
  5
245
100
AcDbEntity
  8
0
100
AcDbLine
 62
7
  6
CONTINUOUS
 10
8.3595896487
 20
3.4263308584
 11
8.3523582526
 21
3.425314552
  0
LINE
  5
246
100
AcDbEntity
  8
0
100
AcDbLine
 62
7
  6
CONTINUOUS
 10
8.0286808679
 20
3.3827016158
 11
8.0214328362
 21
3.3818116694
  0
LINE
  5
247
100
AcDbEntity
  8
0
100
AcDbLine
 62
7
  6
CONTINUOUS
 10
8.3677852154
 20
3.4182147714
 11
8.3605105403
 21
3.4175783198
  0
LINE
  5
248
100
AcDbEntity
  8
0
100
AcDbLine
 62
7
  6
CONTINUOUS
 10
8.0350402424
 20
3.3919683354
 11
8.027765551
 21
3.3914596394
  0
LINE
  5
249
100
AcDbEntity
  8
0
100
AcDbLine
 62
7
  6
CONTINUOUS
 10
8.041889219
 20
3.1218886808
 11
8.0491872338
 21
3.1221435331
  0
LINE
  5
24A
100
AcDbEntity
  8
0
100
AcDbLine
 62
7
  6
CONTINUOUS
 10
8.3755457446
 20
3.1306895315
 11
8.3828470956
 21
3.130816977
  0
LINE
  5
24B
100
AcDbEntity
  8
0
100
AcDbLine
 62
7
  6
CONTINUOUS
 10
8.0345869106
 20
3.130816977
 11
8.0418882616
 21
3.1306895315
  0
LINE
  5
24C
100
AcDbEntity
  8
0
100
AcDbLine
 62
7
  6
CONTINUOUS
 10
8.3682467724
 20
3.1221435331
 11
8.3755447872
 21
3.1218886808
  0
LINE
  5
24D
100
AcDbEntity
  8
0
100
AcDbLine
 62
7
  6
CONTINUOUS
 10
4.6462170031
 20
2.7441597826
 11
4.6462170031
 21
2.8697847826
  0
LINE
  5
24E
100
AcDbEntity
  8
0
100
AcDbLine
 62
7
  6
CONTINUOUS
 10
4.6462170031
 20
2.8817097826
 11
4.6462170031
 21
7.0067097826
  0
LINE
  5
24F
100
AcDbEntity
  8
0
100
AcDbLine
 62
7
  6
CONTINUOUS
 10
2.7355920031
 20
2.7955347826
 11
2.7243420033
 21
2.7842847828
  0
LINE
  5
250
100
AcDbEntity
  8
0
100
AcDbLine
 62
7
  6
CONTINUOUS
 10
8.3755447872
 20
3.4096808844
 11
8.3682467724
 21
3.4094260321
  0
LINE
  5
251
100
AcDbEntity
  8
0
100
AcDbLine
 62
7
  6
CONTINUOUS
 10
8.0418882616
 20
3.4008800337
 11
8.0345869106
 21
3.4007525882
  0
LINE
  5
252
100
AcDbEntity
  8
0
100
AcDbLine
 62
7
  6
CONTINUOUS
 10
2.7243420031
 20
3.3711597826
 11
3.1930920031
 21
3.3711597826
  0
LINE
  5
253
100
AcDbEntity
  8
0
100
AcDbLine
 62
7
  6
CONTINUOUS
 10
5.7243420031
 20
3.3711597826
 11
6.1930920031
 21
3.3711597826
  0
LINE
  5
254
100
AcDbEntity
  8
0
100
AcDbLine
 62
7
  6
CONTINUOUS
 10
2.7355920031
 20
3.3824097826
 11
3.1818420031
 21
3.3824097826
  0
LINE
  5
255
100
AcDbEntity
  8
0
100
AcDbLine
 62
7
  6
CONTINUOUS
 10
5.7355920031
 20
3.3824097826
 11
6.1818420031
 21
3.3824097826
  0
LINE
  5
256
100
AcDbEntity
  8
0
100
AcDbLine
 62
7
  6
CONTINUOUS
 10
2.8602795031
 20
3.3940347826
 11
3.0571545031
 21
3.3940347826
  0
LINE
  5
257
100
AcDbEntity
  8
0
100
AcDbLine
 62
7
  6
CONTINUOUS
 10
5.8602795031
 20
3.3940347826
 11
6.0571545031
 21
3.3940347826
  0
LINE
  5
258
100
AcDbEntity
  8
0
100
AcDbLine
 62
7
  6
CONTINUOUS
 10
8.3828470956
 20
3.4007525882
 11
8.3755457446
 21
3.4008800337
  0
LINE
  5
259
100
AcDbEntity
  8
0
100
AcDbLine
 62
7
  6
CONTINUOUS
 10
8.0491872338
 20
3.4094260321
 11
8.041889219
 21
3.4096808844
  0
LINE
  5
25A
100
AcDbEntity
  8
0
100
AcDbLine
 62
7
  6
CONTINUOUS
 10
8.027765551
 20
3.1401099258
 11
8.0350402424
 21
3.1396012298
  0
LINE
  5
25B
100
AcDbEntity
  8
0
100
AcDbLine
 62
7
  6
CONTINUOUS
 10
8.3605105403
 20
3.1139912454
 11
8.3677852154
 21
3.1133547938
  0
LINE
  5
25C
100
AcDbEntity
  8
0
100
AcDbLine
 62
7
  6
CONTINUOUS
 10
8.0214328362
 20
3.1497578958
 11
8.0286808679
 21
3.1488679494
  0
LINE
  5
25D
100
AcDbEntity
  8
0
100
AcDbLine
 62
7
  6
CONTINUOUS
 10
8.3523582526
 20
3.1062550133
 11
8.3595896487
 21
3.1052387068
  0
LINE
  5
25E
100
AcDbEntity
  8
0
100
AcDbLine
 62
7
  6
CONTINUOUS
 10
5.7243420031
 20
2.8067847826
 11
5.7355920031
 21
2.7955347826
  0
LINE
  5
25F
100
AcDbEntity
  8
0
100
AcDbLine
 62
7
  6
CONTINUOUS
 10
3.1099062299
 20
2.6489951391
 11
3.1133771204
 21
2.6529661182
  0
LINE
  5
260
100
AcDbEntity
  8
0
100
AcDbLine
 62
7
  6
CONTINUOUS
 10
3.0989553854
 20
2.6364673713
 11
3.1026953888
 21
2.6407460494
  0
LINE
  5
261
100
AcDbEntity
  8
0
100
AcDbLine
 62
7
  6
CONTINUOUS
 10
2.9587170031
 20
2.4760347826
 11
3.1930920031
 21
2.7441597826
  0
LWPOLYLINE
  5
262
100
AcDbEntity
  8
0
100
AcDbPolyline
 62
7
  6
CONTINUOUS
 90
4
 70
0
 10
3.0567695907
 20
2.5882062824
 10
3.0658766786
 20
2.5986255056
 10
3.07030929
 20
2.6036958324
 10
3.0746601265
 20
2.6086738133
  0
LWPOLYLINE
  5
263
100
AcDbEntity
  8
0
100
AcDbPolyline
 62
7
  6
CONTINUOUS
 90
3
 70
0
 10
3.042541141
 20
2.5719287436
 10
3.0521006276
 20
2.5828657227
 10
3.0567695907
 20
2.5882062824
  0
LINE
  5
264
100
AcDbEntity
  8
0
100
AcDbLine
 62
7
  6
CONTINUOUS
 10
3.0912076657
 20
2.6276042664
 11
3.0951257787
 21
2.6320862805
  0
LWPOLYLINE
  5
265
100
AcDbEntity
  8
0
100
AcDbPolyline
 62
7
  6
CONTINUOUS
 90
3
 70
0
 10
3.078926224
 20
2.6135541745
 10
3.0831066902
 20
2.6183362593
 10
3.0872011426
 20
2.6230207245
  0
LWPOLYLINE
  5
266
100
AcDbEntity
  8
0
100
AcDbPolyline
 62
7
  6
CONTINUOUS
 90
3
 70
0
 10
3.0276955326
 20
2.5549452007
 10
3.0376577139
 20
2.5663429645
 10
3.042541141
 20
2.5719287436
  0
LWPOLYLINE
  5
267
100
AcDbEntity
  8
0
100
AcDbPolyline
 62
7
  6
CONTINUOUS
 90
6
 70
0
 10
3.1167584042
 20
2.656834294
 10
3.1200505159
 20
2.6606001104
 10
3.1232538144
 20
2.6642649527
 10
3.1263686062
 20
2.6678284417
 10
3.129395618
 20
2.6712909567
 10
3.1323359178
 20
2.674655021
  0
LINE
  5
268
100
AcDbEntity
  8
0
100
AcDbLine
 62
7
  6
CONTINUOUS
 10
3.1379588881
 20
2.6810872265
 11
3.1505624327
 21
2.6955064583
  0
LINE
  5
269
100
AcDbEntity
  8
0
100
AcDbLine
 62
7
  6
CONTINUOUS
 10
3.1528427938
 20
2.698114387
 11
3.1631145983
 21
2.7098660902
  0
LINE
  5
26A
100
AcDbEntity
  8
0
100
AcDbLine
 62
7
  6
CONTINUOUS
 10
3.1505624327
 20
2.6955064583
 11
3.1528427938
 21
2.698114387
  0
LINE
  5
26B
100
AcDbEntity
  8
0
100
AcDbLine
 62
7
  6
CONTINUOUS
 10
3.1631145983
 20
2.7098660902
 11
3.1772559341
 21
2.7260436501
  0
LINE
  5
26C
100
AcDbEntity
  8
0
100
AcDbLine
 62
7
  6
CONTINUOUS
 10
2.9641613634
 20
2.482268645
 11
3.0276955326
 21
2.5549452007
  0
LINE
  5
26D
100
AcDbEntity
  8
0
100
AcDbLine
 62
7
  6
CONTINUOUS
 10
3.1772559341
 20
2.7260436501
 11
3.1925444696
 21
2.7435328431
  0
LINE
  5
26E
100
AcDbEntity
  8
0
100
AcDbLine
 62
7
  6
CONTINUOUS
 10
3.1925444696
 20
2.7435328431
 11
3.1930050295
 21
2.7440601459
  0
LINE
  5
26F
100
AcDbEntity
  8
0
100
AcDbLine
 62
7
  6
CONTINUOUS
 10
3.1930703144
 20
2.7441352106
 11
3.1930920031
 21
2.7441597826
  0
LINE
  5
270
100
AcDbEntity
  8
0
100
AcDbLine
 62
7
  6
CONTINUOUS
 10
3.1930920031
 20
2.8067847826
 11
3.1818420031
 21
2.7955347826
  0
LINE
  5
271
100
AcDbEntity
  8
0
100
AcDbLine
 62
7
  6
CONTINUOUS
 10
2.8180920813
 20
3.5815347826
 11
3.0993419249
 21
3.5815347826
  0
LINE
  5
272
100
AcDbEntity
  8
0
100
AcDbLine
 62
7
  6
CONTINUOUS
 10
5.8180920813
 20
3.5815347826
 11
6.0993419249
 21
3.5815347826
  0
LINE
  5
273
100
AcDbEntity
  8
0
100
AcDbLine
 62
7
  6
CONTINUOUS
 10
6.4743420031
 20
3.6105972826
 11
6.0964530979
 21
3.6105972826
  0
LINE
  5
274
100
AcDbEntity
  8
0
100
AcDbLine
 62
7
  6
CONTINUOUS
 10
3.4743420031
 20
3.6105972826
 11
3.096453098
 21
3.6105972826
  0
LINE
  5
275
100
AcDbEntity
  8
0
100
AcDbLine
 62
7
  6
CONTINUOUS
 10
2.4430920031
 20
3.6105972826
 11
2.8209809083
 21
3.6105972826
  0
LINE
  5
276
100
AcDbEntity
  8
0
100
AcDbLine
 62
7
  6
CONTINUOUS
 10
5.4430920031
 20
3.6105972826
 11
5.8209809083
 21
3.6105972826
  0
LINE
  5
277
100
AcDbEntity
  8
0
100
AcDbLine
 62
7
  6
CONTINUOUS
 10
6.4743420031
 20
3.7774722826
 11
6.096453098
 21
3.7774722826
  0
LINE
  5
278
100
AcDbEntity
  8
0
100
AcDbLine
 62
7
  6
CONTINUOUS
 10
3.4743420031
 20
3.7774722826
 11
3.0964530979
 21
3.7774722826
  0
LINE
  5
279
100
AcDbEntity
  8
0
100
AcDbLine
 62
7
  6
CONTINUOUS
 10
2.4430920031
 20
3.7774722826
 11
2.8209809083
 21
3.7774722826
  0
LINE
  5
27A
100
AcDbEntity
  8
0
100
AcDbLine
 62
7
  6
CONTINUOUS
 10
5.4430920031
 20
3.7774722826
 11
5.8209809083
 21
3.7774722826
  0
LINE
  5
27B
100
AcDbEntity
  8
0
100
AcDbLine
 62
7
  6
CONTINUOUS
 10
2.8180920813
 20
3.8065347826
 11
3.0993419249
 21
3.8065347826
  0
LINE
  5
27C
100
AcDbEntity
  8
0
100
AcDbLine
 62
7
  6
CONTINUOUS
 10
5.8180920813
 20
3.8065347826
 11
6.0993419249
 21
3.8065347826
  0
LINE
  5
27D
100
AcDbEntity
  8
0
100
AcDbLine
 62
7
  6
CONTINUOUS
 10
8.3896684552
 20
3.3914596394
 11
8.3823937638
 21
3.3919683354
  0
LINE
  5
27E
100
AcDbEntity
  8
0
100
AcDbLine
 62
7
  6
CONTINUOUS
 10
8.0569234659
 20
3.4175783198
 11
8.0496487908
 21
3.4182147714
  0
LINE
  5
27F
100
AcDbEntity
  8
0
100
AcDbLine
 62
7
  6
CONTINUOUS
 10
8.39600117
 20
3.3818116694
 11
8.3887531383
 21
3.3827016158
  0
LINE
  5
280
100
AcDbEntity
  8
0
100
AcDbLine
 62
7
  6
CONTINUOUS
 10
8.0650757536
 20
3.425314552
 11
8.0578443575
 21
3.4263308584
  0
LINE
  5
281
100
AcDbEntity
  8
0
100
AcDbLine
 62
7
  6
CONTINUOUS
 10
8.0156171245
 20
3.1597186025
 11
8.0228086469
 21
3.1584505431
  0
LINE
  5
282
100
AcDbEntity
  8
0
100
AcDbLine
 62
7
  6
CONTINUOUS
 10
8.3438122542
 20
3.0989560411
 11
8.3509805506
 21
3.0975626655
  0
LINE
  5
283
100
AcDbEntity
  8
0
100
AcDbLine
 62
7
  6
CONTINUOUS
 10
8.0103306862
 20
3.1699700294
 11
8.0174459878
 21
3.1683273326
  0
LINE
  5
284
100
AcDbEntity
  8
0
100
AcDbLine
 62
7
  6
CONTINUOUS
 10
8.3349005559
 20
3.0921080219
 11
8.3419763942
 21
3.0903438172
  0
LINE
  5
285
100
AcDbEntity
  8
0
100
AcDbLine
 62
7
  6
CONTINUOUS
 10
6.1818420031
 20
2.7955347826
 11
6.1930920029
 21
2.7842847828
  0
LINE
  5
286
100
AcDbEntity
  8
0
100
AcDbLine
 62
7
  6
CONTINUOUS
 10
2.9587170031
 20
2.4760347826
 11
3.2268420031
 21
2.7104097826
  0
LINE
  5
287
100
AcDbEntity
  8
0
100
AcDbLine
 62
7
  6
CONTINUOUS
 10
8.4018168817
 20
3.3718509627
 11
8.3946253593
 21
3.3731190221
  0
LINE
  5
288
100
AcDbEntity
  8
0
100
AcDbLine
 62
7
  6
CONTINUOUS
 10
8.073621752
 20
3.4326135241
 11
8.0664534556
 21
3.4340068998
  0
LINE
  5
289
100
AcDbEntity
  8
0
100
AcDbLine
 62
7
  6
CONTINUOUS
 10
8.40710332
 20
3.3615995359
 11
8.3999880184
 21
3.3632422327
  0
LINE
  5
28A
100
AcDbEntity
  8
0
100
AcDbLine
 62
7
  6
CONTINUOUS
 10
8.0825334503
 20
3.4394615433
 11
8.075457612
 21
3.441225748
  0
LINE
  5
28B
100
AcDbEntity
  8
0
100
AcDbLine
 62
7
  6
CONTINUOUS
 10
8.0055880111
 20
3.1804840777
 11
8.0126075892
 21
3.1784712461
  0
LINE
  5
28C
100
AcDbEntity
  8
0
100
AcDbLine
 62
7
  6
CONTINUOUS
 10
8.3256338363
 20
3.0857486474
 11
8.3326172166
 21
3.0836136138
  0
LINE
  5
28D
100
AcDbEntity
  8
0
100
AcDbLine
 62
7
  6
CONTINUOUS
 10
8.0014020983
 20
3.1912319294
 11
8.0083067129
 21
3.18885448
  0
LINE
  5
28E
100
AcDbEntity
  8
0
100
AcDbLine
 62
7
  6
CONTINUOUS
 10
8.3160512426
 20
3.0798764264
 11
8.3229133134
 21
3.0773788369
  0
LINE
  5
28F
100
AcDbEntity
  8
0
100
AcDbLine
 62
7
  6
CONTINUOUS
 10
5.4430920031
 20
3.6105972826
 11
5.4430920031
 21
3.7774722826
  0
LINE
  5
290
100
AcDbEntity
  8
0
100
AcDbLine
 62
7
  6
CONTINUOUS
 10
8.4118459951
 20
3.3510854875
 11
8.404826417
 21
3.3530983191
  0
LINE
  5
291
100
AcDbEntity
  8
0
100
AcDbLine
 62
7
  6
CONTINUOUS
 10
8.0918001699
 20
3.4458209178
 11
8.0848167896
 21
3.4479559514
  0
LINE
  5
292
100
AcDbEntity
  8
0
100
AcDbLine
 62
7
  6
CONTINUOUS
 10
8.4160319079
 20
3.3403376358
 11
8.4091272933
 21
3.3427150853
  0
LINE
  5
293
100
AcDbEntity
  8
0
100
AcDbLine
 62
7
  6
CONTINUOUS
 10
8.1013827636
 20
3.4516931388
 11
8.0945206928
 21
3.4541907283
  0
LINE
  5
294
100
AcDbEntity
  8
0
100
AcDbLine
 62
7
  6
CONTINUOUS
 10
7.9977862789
 20
3.202177965
 11
8.0045477259
 21
3.1994461631
  0
LINE
  5
295
100
AcDbEntity
  8
0
100
AcDbLine
 62
7
  6
CONTINUOUS
 10
8.3061744532
 20
3.0745137673
 11
8.312896406
 21
3.0716604676
  0
LINE
  5
296
100
AcDbEntity
  8
0
100
AcDbLine
 62
7
  6
CONTINUOUS
 10
7.9947448959
 20
3.2133106462
 11
8.0013631752
 21
3.2102244919
  0
LINE
  5
297
100
AcDbEntity
  8
0
100
AcDbLine
 62
7
  6
CONTINUOUS
 10
5.5874670031
 20
1.6960347826
 11
5.5874670031
 21
1.5479097826
  0
LINE
  5
298
100
AcDbEntity
  8
0
100
AcDbLine
 62
7
  6
CONTINUOUS
 10
5.7243420031
 20
1.7072847826
 11
5.7243420031
 21
2.2079097826
  0
LINE
  5
299
100
AcDbEntity
  8
0
100
AcDbLine
 62
7
  6
CONTINUOUS
 10
5.7243420031
 20
2.7441597826
 11
5.7243420031
 21
2.7842847826
  0
LINE
  5
29A
100
AcDbEntity
  8
0
100
AcDbLine
 62
7
  6
CONTINUOUS
 10
5.7243420031
 20
2.8067847826
 11
5.7243420031
 21
3.3711597826
  0
LINE
  5
29B
100
AcDbEntity
  8
0
100
AcDbLine
 62
7
  6
CONTINUOUS
 10
5.8180920031
 20
3.8065347826
 11
5.8180920031
 21
3.7821597826
  0
LINE
  5
29C
100
AcDbEntity
  8
0
100
AcDbLine
 62
7
  6
CONTINUOUS
 10
5.8180920031
 20
3.6059097826
 11
5.8180920031
 21
3.5815347826
  0
LINE
  5
29D
100
AcDbEntity
  8
0
100
AcDbLine
 62
7
  6
CONTINUOUS
 10
4.2712170031
 20
4.6685847826
 11
4.6462170031
 21
4.6685847826
  0
LINE
  5
29E
100
AcDbEntity
  8
0
100
AcDbLine
 62
7
  6
CONTINUOUS
 10
8.4196477273
 20
3.3293916003
 11
8.4128862803
 21
3.3321234021
  0
LINE
  5
29F
100
AcDbEntity
  8
0
100
AcDbLine
 62
7
  6
CONTINUOUS
 10
8.1112595531
 20
3.4570557979
 11
8.1045376002
 21
3.4599090976
  0
LINE
  5
2A0
100
AcDbEntity
  8
0
100
AcDbLine
 62
7
  6
CONTINUOUS
 10
8.4226891103
 20
3.318258919
 11
8.416070831
 21
3.3213450734
  0
LINE
  5
2A1
100
AcDbEntity
  8
0
100
AcDbLine
 62
7
  6
CONTINUOUS
 10
8.2960305396
 20
3.0696753687
 11
8.3025939501
 21
3.0664741796
  0
LINE
  5
2A2
100
AcDbEntity
  8
0
100
AcDbLine
 62
7
  6
CONTINUOUS
 10
7.9922918531
 20
3.224580995
 11
7.9987395454
 21
3.2211526962
  0
LINE
  5
2A3
100
AcDbEntity
  8
0
100
AcDbLine
 62
7
  6
CONTINUOUS
 10
8.2856473057
 20
3.0653744925
 11
8.292034184
 21
3.061834188
  0
LINE
  5
2A4
100
AcDbEntity
  8
0
100
AcDbLine
 62
7
  6
CONTINUOUS
 10
7.9904320166
 20
3.2359642805
 11
7.9966914493
 21
3.2322032339
  0
LINE
  5
2A5
100
AcDbEntity
  8
0
100
AcDbLine
 62
7
  6
CONTINUOUS
 10
5.8602795031
 20
3.5815347826
 11
5.8602795031
 21
3.3940347826
  0
LINE
  5
2A6
100
AcDbEntity
  8
0
100
AcDbLine
 62
7
  6
CONTINUOUS
 10
5.8638420031
 20
3.3824097826
 11
5.8638420031
 21
3.3940347826
  0
LINE
  5
2A7
100
AcDbEntity
  8
0
100
AcDbLine
 62
7
  6
CONTINUOUS
 10
6.0535920031
 20
3.3824097826
 11
6.0535920031
 21
3.3940347826
  0
LINE
  5
2A8
100
AcDbEntity
  8
0
100
AcDbLine
 62
7
  6
CONTINUOUS
 10
6.0571545031
 20
3.5815347826
 11
6.0571545031
 21
3.3940347826
  0
LINE
  5
2A9
100
AcDbEntity
  8
0
100
AcDbLine
 62
7
  6
CONTINUOUS
 10
6.0993420031
 20
3.8065347826
 11
6.0993420031
 21
3.7821597826
  0
LINE
  5
2AA
100
AcDbEntity
  8
0
100
AcDbLine
 62
7
  6
CONTINUOUS
 10
6.0993420031
 20
3.6059097826
 11
6.0993420031
 21
3.5815347826
  0
LINE
  5
2AB
100
AcDbEntity
  8
0
100
AcDbLine
 62
7
  6
CONTINUOUS
 10
8.1214034666
 20
3.4618941965
 11
8.1148400561
 21
3.4650953856
  0
LINE
  5
2AC
100
AcDbEntity
  8
0
100
AcDbLine
 62
7
  6
CONTINUOUS
 10
8.4251421531
 20
3.3069885702
 11
8.4186944608
 21
3.310416869
  0
LINE
  5
2AD
100
AcDbEntity
  8
0
100
AcDbLine
 62
7
  6
CONTINUOUS
 10
8.1317867005
 20
3.4661950728
 11
8.1253998222
 21
3.4697353772
  0
LINE
  5
2AE
100
AcDbEntity
  8
0
100
AcDbLine
 62
7
  6
CONTINUOUS
 10
8.4270019896
 20
3.2956052847
 11
8.4207425569
 21
3.2993663313
  0
LINE
  5
2AF
100
AcDbEntity
  8
0
100
AcDbLine
 62
7
  6
CONTINUOUS
 10
8.2750556226
 20
3.0616155054
 11
8.2812399756
 21
3.0577510927
  0
LINE
  5
2B0
100
AcDbEntity
  8
0
100
AcDbLine
 62
7
  6
CONTINUOUS
 10
7.9891704841
 20
3.247429302
 11
7.9952245005
 21
3.2433458164
  0
LINE
  5
2B1
100
AcDbEntity
  8
0
100
AcDbLine
 62
7
  6
CONTINUOUS
 10
8.2642772938
 20
3.0584309547
 11
8.2702591215
 21
3.0542424339
  0
LINE
  5
2B2
100
AcDbEntity
  8
0
100
AcDbLine
 62
7
  6
CONTINUOUS
 10
6.1930920031
 20
1.7072847826
 11
6.1930920031
 21
2.7842847826
  0
LINE
  5
2B3
100
AcDbEntity
  8
0
100
AcDbLine
 62
7
  6
CONTINUOUS
 10
6.1930920031
 20
2.8067847826
 11
6.1930920031
 21
3.3711597826
  0
LINE
  5
2B4
100
AcDbEntity
  8
0
100
AcDbLine
 62
7
  6
CONTINUOUS
 10
6.3299670031
 20
1.6960347826
 11
6.3299670031
 21
1.5479097826
  0
LINE
  5
2B5
100
AcDbEntity
  8
0
100
AcDbLine
 62
7
  6
CONTINUOUS
 10
8.1423783836
 20
3.4699540598
 11
8.1361940306
 21
3.4738184725
  0
LINE
  5
2B6
100
AcDbEntity
  8
0
100
AcDbLine
 62
7
  6
CONTINUOUS
 10
8.4282635221
 20
3.2841402632
 11
8.4222095057
 21
3.2882237488
  0
LINE
  5
2B7
100
AcDbEntity
  8
0
100
AcDbLine
 62
7
  6
CONTINUOUS
 10
8.1531567124
 20
3.4731386105
 11
8.1471748847
 21
3.4773271314
  0
LINE
  5
2B8
100
AcDbEntity
  8
0
100
AcDbLine
 62
7
  6
CONTINUOUS
 10
7.9885107134
 20
3.2589446346
 11
7.9943427198
 21
3.2545499025
  0
LINE
  5
2B9
100
AcDbEntity
  8
0
100
AcDbLine
 62
7
  6
CONTINUOUS
 10
8.2533490895
 20
3.0558073249
 11
8.2591035091
 21
3.0513114797
  0
LINE
  5
2BA
100
AcDbEntity
  8
0
100
AcDbLine
 62
7
  6
CONTINUOUS
 10
7.9884543758
 20
3.2704722826
 11
7.9940407207
 21
3.2657847826
  0
LINE
  5
2BB
100
AcDbEntity
  8
0
100
AcDbLine
 62
7
  6
CONTINUOUS
 10
8.2422985518
 20
3.0537592288
 11
8.2478097907
 21
3.0489683819
  0
LINE
  5
2BC
100
AcDbEntity
  8
0
100
AcDbLine
 62
7
  6
CONTINUOUS
 10
6.4743420031
 20
3.6105972826
 11
6.4743420031
 21
3.7774722826
  0
LINE
  5
2BD
100
AcDbEntity
  8
0
100
AcDbLine
 62
7
  6
CONTINUOUS
 10
4.2712170031
 20
5.2629597826
 11
4.6462170031
 21
5.2629597826
  0
LINE
  5
2BE
100
AcDbEntity
  8
0
100
AcDbLine
 62
7
  6
CONTINUOUS
 10
8.4289232928
 20
3.2726249307
 11
8.4230912864
 21
3.2770196627
  0
LINE
  5
2BF
100
AcDbEntity
  8
0
100
AcDbLine
 62
7
  6
CONTINUOUS
 10
8.1640849167
 20
3.4757622403
 11
8.1583304971
 21
3.4802580855
  0
LINE
  5
2C0
100
AcDbEntity
  8
0
100
AcDbLine
 62
7
  6
CONTINUOUS
 10
8.4289796304
 20
3.2610972826
 11
8.4233932855
 21
3.2657847826
  0
LINE
  5
2C1
100
AcDbEntity
  8
0
100
AcDbLine
 62
7
  6
CONTINUOUS
 10
8.1751354544
 20
3.4778103364
 11
8.1696242155
 21
3.4826011833
  0
LINE
  5
2C2
100
AcDbEntity
  8
0
100
AcDbLine
 62
7
  6
CONTINUOUS
 10
7.9890020363
 20
3.2819999307
 11
7.9943427198
 21
3.2770196627
  0
LINE
  5
2C3
100
AcDbEntity
  8
0
100
AcDbLine
 62
7
  6
CONTINUOUS
 10
8.2311559693
 20
3.05229228
 11
8.2364089218
 21
3.0472195628
  0
LINE
  5
2C4
100
AcDbEntity
  8
0
100
AcDbLine
 62
7
  6
CONTINUOUS
 10
7.9901517833
 20
3.2934767013
 11
7.9952245005
 21
3.2882237488
  0
LINE
  5
2C5
100
AcDbEntity
  8
0
100
AcDbLine
 62
7
  6
CONTINUOUS
 10
8.2199518832
 20
3.0514104993
 11
8.2249321512
 21
3.0460698158
  0
LINE
  5
2C6
100
AcDbEntity
  8
0
100
AcDbLine
 62
7
  6
CONTINUOUS
 10
5.7355920031
 20
2.7955347826
 11
5.7243420033
 21
2.7842847828
  0
LINE
  5
2C7
100
AcDbEntity
  8
0
100
AcDbLine
 62
7
  6
CONTINUOUS
 10
8.4284319699
 20
3.2495696346
 11
8.4230912864
 21
3.2545499025
  0
LINE
  5
2C8
100
AcDbEntity
  8
0
100
AcDbLine
 62
7
  6
CONTINUOUS
 10
8.1862780369
 20
3.4792772852
 11
8.1810250845
 21
3.4843500024
  0
LINE
  5
2C9
100
AcDbEntity
  8
0
100
AcDbLine
 62
7
  6
CONTINUOUS
 10
8.4272822229
 20
3.238092864
 11
8.4222095057
 21
3.2433458164
  0
LINE
  5
2CA
100
AcDbEntity
  8
0
100
AcDbLine
 62
7
  6
CONTINUOUS
 10
8.197482123
 20
3.4801590659
 11
8.192501855
 21
3.4854997494
  0
LINE
  5
2CB
100
AcDbEntity
  8
0
100
AcDbLine
 62
7
  6
CONTINUOUS
 10
7.9919006024
 20
3.3048775702
 11
7.9966914493
 21
3.2993663313
  0
LINE
  5
2CC
100
AcDbEntity
  8
0
100
AcDbLine
 62
7
  6
CONTINUOUS
 10
8.2087170031
 20
3.0511085002
 11
8.2134045031
 21
3.0455221553
  0
LINE
  5
2CD
100
AcDbEntity
  8
0
100
AcDbLine
 62
7
  6
CONTINUOUS
 10
7.9942437002
 20
3.3161712886
 11
7.9987395454
 21
3.310416869
  0
LINE
  5
2CE
100
AcDbEntity
  8
0
100
AcDbLine
 62
7
  6
CONTINUOUS
 10
8.197482123
 20
3.0514104993
 11
8.201876855
 21
3.0455784929
  0
LINE
  5
2CF
100
AcDbEntity
  8
0
100
AcDbLine
 62
7
  6
CONTINUOUS
 10
5.8075750498
 20
2.3031284835
 11
5.8041042688
 21
2.2991576854
  0
LWPOLYLINE
  5
2D0
100
AcDbEntity
  8
0
100
AcDbPolyline
 62
7
  6
CONTINUOUS
 90
4
 70
0
 10
5.7974310587
 20
2.2915238699
 10
5.7911128809
 20
2.2842954215
 10
5.7880857134
 20
2.2808327366
 10
5.7851452715
 20
2.2774684989
  0
LINE
  5
2D1
100
AcDbEntity
  8
0
100
AcDbLine
 62
7
  6
CONTINUOUS
 10
5.9587170031
 20
2.4760347826
 11
5.7243420031
 21
2.2079097826
  0
LINE
  5
2D2
100
AcDbEntity
  8
0
100
AcDbLine
 62
7
  6
CONTINUOUS
 10
5.8262713304
 20
2.3245168922
 11
5.8223538994
 21
2.3200355858
  0
LWPOLYLINE
  5
2D3
100
AcDbEntity
  8
0
100
AcDbPolyline
 62
7
  6
CONTINUOUS
 90
4
 70
0
 10
5.8749263273
 20
2.3801790772
 10
5.8653695305
 20
2.3692451959
 10
5.8607018275
 20
2.3639061064
 10
5.85610961
 20
2.3586517264
  0
LWPOLYLINE
  5
2D4
100
AcDbEntity
  8
0
100
AcDbPolyline
 62
7
  6
CONTINUOUS
 90
3
 70
0
 10
5.8897671674
 20
2.3971571708
 10
5.8798082795
 20
2.3857631657
 10
5.8749263273
 20
2.3801790772
  0
LINE
  5
2D5
100
AcDbEntity
  8
0
100
AcDbLine
 62
7
  6
CONTINUOUS
 10
5.8007230975
 20
2.2952896335
 11
5.7974310587
 21
2.2915238699
  0
LWPOLYLINE
  5
2D6
100
AcDbEntity
  8
0
100
AcDbPolyline
 62
7
  6
CONTINUOUS
 90
3
 70
0
 10
5.8385507406
 20
2.3385644059
 10
5.8343710417
 20
2.3337832733
 10
5.8302772303
 20
2.3290996619
  0
LWPOLYLINE
  5
2D7
100
AcDbEntity
  8
0
100
AcDbPolyline
 62
7
  6
CONTINUOUS
 90
3
 70
0
 10
5.8515970899
 20
2.3534896108
 10
5.84716562
 20
2.3484205257
 10
5.8428158771
 20
2.3434437052
  0
LINE
  5
2D8
100
AcDbEntity
  8
0
100
AcDbLine
 62
7
  6
CONTINUOUS
 10
5.7742351851
 20
2.2649871561
 11
5.760303621
 21
2.2490493416
  0
LINE
  5
2D9
100
AcDbEntity
  8
0
100
AcDbLine
 62
7
  6
CONTINUOUS
 10
5.7582503056
 20
2.2467011726
 11
5.749054705
 21
2.2361806893
  0
LINE
  5
2DA
100
AcDbEntity
  8
0
100
AcDbLine
 62
7
  6
CONTINUOUS
 10
5.760303621
 20
2.2490493416
 11
5.7582503056
 21
2.2467011726
  0
LINE
  5
2DB
100
AcDbEntity
  8
0
100
AcDbLine
 62
7
  6
CONTINUOUS
 10
5.7429091827
 20
2.2291510067
 11
5.7366119272
 21
2.2219462744
  0
LINE
  5
2DC
100
AcDbEntity
  8
0
100
AcDbLine
 62
7
  6
CONTINUOUS
 10
5.749054705
 20
2.2361806893
 11
5.7443495767
 21
2.2307981066
  0
LINE
  5
2DD
100
AcDbEntity
  8
0
100
AcDbLine
 62
7
  6
CONTINUOUS
 10
5.7355261354
 20
2.2207047372
 11
5.7317272876
 21
2.2163585885
  0
LINE
  5
2DE
100
AcDbEntity
  8
0
100
AcDbLine
 62
7
  6
CONTINUOUS
 10
5.7301428404
 20
2.2145461655
 11
5.7270497494
 21
2.211007331
  0
LINE
  5
2DF
100
AcDbEntity
  8
0
100
AcDbLine
 62
7
  6
CONTINUOUS
 10
5.7443495767
 20
2.2307981066
 11
5.7429091827
 21
2.2291510067
  0
LINE
  5
2E0
100
AcDbEntity
  8
0
100
AcDbLine
 62
7
  6
CONTINUOUS
 10
5.7366119272
 20
2.2219462744
 11
5.7355261354
 21
2.2207047372
  0
LINE
  5
2E1
100
AcDbEntity
  8
0
100
AcDbLine
 62
7
  6
CONTINUOUS
 10
5.7317272876
 20
2.2163585885
 11
5.7301428404
 21
2.2145461655
  0
LINE
  5
2E2
100
AcDbEntity
  8
0
100
AcDbLine
 62
7
  6
CONTINUOUS
 10
5.9532750299
 20
2.4698036545
 11
5.8897671674
 21
2.3971571708
  0
LINE
  5
2E3
100
AcDbEntity
  8
0
100
AcDbLine
 62
7
  6
CONTINUOUS
 10
5.7270497494
 20
2.211007331
 11
5.7243639287
 21
2.2079344597
  0
LINE
  5
2E4
100
AcDbEntity
  8
0
100
AcDbLine
 62
7
  6
CONTINUOUS
 10
5.7243639287
 20
2.2079344597
 11
5.7243420031
 21
2.2079097826
  0
LINE
  5
2E5
100
AcDbEntity
  8
0
100
AcDbLine
 62
7
  6
CONTINUOUS
 10
6.1930920031
 20
2.8067847826
 11
6.1818420031
 21
2.7955347826
  0
LINE
  5
2E6
100
AcDbEntity
  8
0
100
AcDbLine
 62
7
  6
CONTINUOUS
 10
8.0126075892
 20
3.3530983191
 11
8.0055880111
 21
3.3510854875
  0
LINE
  5
2E7
100
AcDbEntity
  8
0
100
AcDbLine
 62
7
  6
CONTINUOUS
 10
8.4255334038
 20
3.226691995
 11
8.4207425569
 21
3.2322032339
  0
LINE
  5
2E8
100
AcDbEntity
  8
0
100
AcDbLine
 62
7
  6
CONTINUOUS
 10
8.2087170031
 20
3.480461065
 11
8.2040295031
 21
3.4860474099
  0
LINE
  5
2E9
100
AcDbEntity
  8
0
100
AcDbLine
 62
7
  6
CONTINUOUS
 10
8.423190306
 20
3.2153982766
 11
8.4186944608
 21
3.2211526962
  0
LINE
  5
2EA
100
AcDbEntity
  8
0
100
AcDbLine
 62
7
  6
CONTINUOUS
 10
8.2199518832
 20
3.4801590659
 11
8.2155571512
 21
3.4859910723
  0
LINE
  5
2EB
100
AcDbEntity
  8
0
100
AcDbLine
 62
7
  6
CONTINUOUS
 10
7.9971746543
 20
3.327326901
 11
8.0013631752
 21
3.3213450734
  0
LINE
  5
2EC
100
AcDbEntity
  8
0
100
AcDbLine
 62
7
  6
CONTINUOUS
 10
8.1862780369
 20
3.05229228
 11
8.1903615225
 21
3.0462382636
  0
LINE
  5
2ED
100
AcDbEntity
  8
0
100
AcDbLine
 62
7
  6
CONTINUOUS
 10
8.0006833132
 20
3.3383077551
 11
8.0045477259
 21
3.3321234021
  0
LINE
  5
2EE
100
AcDbEntity
  8
0
100
AcDbLine
 62
7
  6
CONTINUOUS
 10
8.1751354544
 20
3.0537592288
 11
8.178896501
 21
3.0474997962
  0
LINE
  5
2EF
100
AcDbEntity
  8
0
100
AcDbLine
 62
7
  6
CONTINUOUS
 10
8.0047664085
 20
3.3491019635
 11
8.0083067129
 21
3.3427150853
  0
LINE
  5
2F0
100
AcDbEntity
  8
0
100
AcDbLine
 62
7
  6
CONTINUOUS
 10
5.6906166795
 20
2.241681695
 11
5.6905920031
 21
2.2416597826
  0
LINE
  5
2F1
100
AcDbEntity
  8
0
100
AcDbLine
 62
7
  6
CONTINUOUS
 10
5.9587170031
 20
2.4760347826
 11
5.6905920031
 21
2.2416597826
  0
LINE
  5
2F2
100
AcDbEntity
  8
0
100
AcDbLine
 62
7
  6
CONTINUOUS
 10
8.312896406
 20
3.4599090976
 11
8.3061744532
 21
3.4570557979
  0
LINE
  5
2F3
100
AcDbEntity
  8
0
100
AcDbLine
 62
7
  6
CONTINUOUS
 10
8.0045477259
 20
3.3321234021
 11
7.9977862789
 21
3.3293916003
  0
LINE
  5
2F4
100
AcDbEntity
  8
0
100
AcDbLine
 62
7
  6
CONTINUOUS
 10
8.3229133134
 20
3.4541907283
 11
8.3160512426
 21
3.4516931388
  0
LINE
  5
2F5
100
AcDbEntity
  8
0
100
AcDbLine
 62
7
  6
CONTINUOUS
 10
8.0083067129
 20
3.3427150853
 11
8.0014020983
 21
3.3403376358
  0
LINE
  5
2F6
100
AcDbEntity
  8
0
100
AcDbLine
 62
7
  6
CONTINUOUS
 10
8.3326172166
 20
3.4479559514
 11
8.3256338363
 21
3.4458209178
  0
LINE
  5
2F7
100
AcDbEntity
  8
0
100
AcDbLine
 62
7
  6
CONTINUOUS
 10
8.404826417
 20
3.1784712461
 11
8.4118459951
 21
3.1804840777
  0
LINE
  5
2F8
100
AcDbEntity
  8
0
100
AcDbLine
 62
7
  6
CONTINUOUS
 10
8.4202593519
 20
3.2042426642
 11
8.416070831
 21
3.2102244919
  0
LINE
  5
2F9
100
AcDbEntity
  8
0
100
AcDbLine
 62
7
  6
CONTINUOUS
 10
8.2311559693
 20
3.4792772852
 11
8.2270724837
 21
3.4853313016
  0
LINE
  5
2FA
100
AcDbEntity
  8
0
100
AcDbLine
 62
7
  6
CONTINUOUS
 10
8.416750693
 20
3.1932618101
 11
8.4128862803
 21
3.1994461631
  0
LINE
  5
2FB
100
AcDbEntity
  8
0
100
AcDbLine
 62
7
  6
CONTINUOUS
 10
8.2422985518
 20
3.4778103364
 11
8.2385375052
 21
3.4840697691
  0
LINE
  5
2FC
100
AcDbEntity
  8
0
100
AcDbLine
 62
7
  6
CONTINUOUS
 10
8.4126675977
 20
3.1824676017
 11
8.4091272933
 21
3.18885448
  0
LINE
  5
2FD
100
AcDbEntity
  8
0
100
AcDbLine
 62
7
  6
CONTINUOUS
 10
8.1640849167
 20
3.0558073249
 11
8.1675132155
 21
3.0493596326
  0
LINE
  5
2FE
100
AcDbEntity
  8
0
100
AcDbLine
 62
7
  6
CONTINUOUS
 10
8.0094064001
 20
3.3596617296
 11
8.0126075892
 21
3.3530983191
  0
LINE
  5
2FF
100
AcDbEntity
  8
0
100
AcDbLine
 62
7
  6
CONTINUOUS
 10
8.1531567124
 20
3.0584309547
 11
8.1562428667
 21
3.0518126754
  0
LINE
  5
300
100
AcDbEntity
  8
0
100
AcDbLine
 62
7
  6
CONTINUOUS
 10
8.0145926881
 20
3.3699641855
 11
8.0174459878
 21
3.3632422327
  0
LINE
  5
301
100
AcDbEntity
  8
0
100
AcDbLine
 62
7
  6
CONTINUOUS
 10
8.1423783836
 20
3.0616155054
 11
8.1451101855
 21
3.0548540584
  0
LINE
  5
302
100
AcDbEntity
  8
0
100
AcDbLine
 62
7
  6
CONTINUOUS
 10
8.2812399756
 20
3.4738184725
 11
8.2750556226
 21
3.4699540598
  0
LINE
  5
303
100
AcDbEntity
  8
0
100
AcDbLine
 62
7
  6
CONTINUOUS
 10
7.9966914493
 20
3.2993663313
 11
7.9904320166
 21
3.2956052847
  0
LINE
  5
304
100
AcDbEntity
  8
0
100
AcDbLine
 62
7
  6
CONTINUOUS
 10
8.292034184
 20
3.4697353772
 11
8.2856473057
 21
3.4661950728
  0
LINE
  5
305
100
AcDbEntity
  8
0
100
AcDbLine
 62
7
  6
CONTINUOUS
 10
7.9987395454
 20
3.310416869
 11
7.9922918531
 21
3.3069885702
  0
LINE
  5
306
100
AcDbEntity
  8
0
100
AcDbLine
 62
7
  6
CONTINUOUS
 10
8.3025939501
 20
3.4650953856
 11
8.2960305396
 21
3.4618941965
  0
LINE
  5
307
100
AcDbEntity
  8
0
100
AcDbLine
 62
7
  6
CONTINUOUS
 10
8.0013631752
 20
3.3213450734
 11
7.9947448959
 21
3.318258919
  0
LINE
  5
308
100
AcDbEntity
  8
0
100
AcDbLine
 62
7
  6
CONTINUOUS
 10
8.1045376002
 20
3.0716604676
 11
8.1112595531
 21
3.0745137673
  0
LINE
  5
309
100
AcDbEntity
  8
0
100
AcDbLine
 62
7
  6
CONTINUOUS
 10
8.4128862803
 20
3.1994461631
 11
8.4196477273
 21
3.202177965
  0
LINE
  5
30A
100
AcDbEntity
  8
0
100
AcDbLine
 62
7
  6
CONTINUOUS
 10
8.0945206928
 20
3.0773788369
 11
8.1013827636
 21
3.0798764264
  0
LINE
  5
30B
100
AcDbEntity
  8
0
100
AcDbLine
 62
7
  6
CONTINUOUS
 10
8.4091272933
 20
3.18885448
 11
8.4160319079
 21
3.1912319294
  0
LINE
  5
30C
100
AcDbEntity
  8
0
100
AcDbLine
 62
7
  6
CONTINUOUS
 10
8.0848167896
 20
3.0836136138
 11
8.0918001699
 21
3.0857486474
  0
LINE
  5
30D
100
AcDbEntity
  8
0
100
AcDbLine
 62
7
  6
CONTINUOUS
 10
8.2533490895
 20
3.4757622403
 11
8.2499207907
 21
3.4822099326
  0
LINE
  5
30E
100
AcDbEntity
  8
0
100
AcDbLine
 62
7
  6
CONTINUOUS
 10
8.4080276061
 20
3.1719078356
 11
8.404826417
 21
3.1784712461
  0
LINE
  5
30F
100
AcDbEntity
  8
0
100
AcDbLine
 62
7
  6
CONTINUOUS
 10
8.2642772938
 20
3.4731386105
 11
8.2611911395
 21
3.4797568898
  0
LINE
  5
310
100
AcDbEntity
  8
0
100
AcDbLine
 62
7
  6
CONTINUOUS
 10
8.4028413181
 20
3.1616053797
 11
8.3999880184
 21
3.1683273326
  0
LINE
  5
311
100
AcDbEntity
  8
0
100
AcDbLine
 62
7
  6
CONTINUOUS
 10
8.2750556226
 20
3.4699540598
 11
8.2723238208
 21
3.4767155068
  0
LINE
  5
312
100
AcDbEntity
  8
0
100
AcDbLine
 62
7
  6
CONTINUOUS
 10
8.0203110574
 20
3.3799810929
 11
8.0228086469
 21
3.3731190221
  0
LINE
  5
313
100
AcDbEntity
  8
0
100
AcDbLine
 62
7
  6
CONTINUOUS
 10
8.1317867005
 20
3.0653744925
 11
8.1341641499
 21
3.0584698778
  0
LINE
  5
314
100
AcDbEntity
  8
0
100
AcDbLine
 62
7
  6
CONTINUOUS
 10
8.0265458343
 20
3.3896849961
 11
8.0286808679
 21
3.3827016158
  0
LINE
  5
315
100
AcDbEntity
  8
0
100
AcDbLine
 62
7
  6
CONTINUOUS
 10
8.1214034666
 20
3.0696753687
 11
8.1234162982
 21
3.0626557906
  0
LINE
  5
316
100
AcDbEntity
  8
0
100
AcDbLine
 62
7
  6
CONTINUOUS
 10
8.0332760377
 20
3.3990441737
 11
8.0350402424
 21
3.3919683354
  0
LINE
  5
317
100
AcDbEntity
  8
0
100
AcDbLine
 62
7
  6
CONTINUOUS
 10
8.1112595531
 20
3.0745137673
 11
8.1129022499
 21
3.0673984658
  0
LINE
  5
318
100
AcDbEntity
  8
0
100
AcDbLine
 62
7
  6
CONTINUOUS
 10
8.0562870143
 20
3.4248529949
 11
8.0569234659
 21
3.4175783198
  0
LINE
  5
319
100
AcDbEntity
  8
0
100
AcDbLine
 62
7
  6
CONTINUOUS
 10
8.0825334503
 20
3.0921080219
 11
8.0830421463
 21
3.0848333305
  0
LINE
  5
31A
100
AcDbEntity
  8
0
100
AcDbLine
 62
7
  6
CONTINUOUS
 10
8.0648209013
 20
3.4326125667
 11
8.0650757536
 21
3.425314552
  0
LINE
  5
31B
100
AcDbEntity
  8
0
100
AcDbLine
 62
7
  6
CONTINUOUS
 10
8.0149112556
 20
1.9547847826
 11
8.0147737969
 21
1.9626597826
  0
LINE
  5
31C
100
AcDbEntity
  8
0
100
AcDbLine
 62
7
  6
CONTINUOUS
 10
7.8374670031
 20
1.6960347826
 11
7.8374670031
 21
1.5479097826
  0
LINE
  5
31D
100
AcDbEntity
  8
0
100
AcDbLine
 62
7
  6
CONTINUOUS
 10
7.9743420031
 20
1.9547847826
 11
7.9743420031
 21
1.7072847826
  0
LINE
  5
31E
100
AcDbEntity
  8
0
100
AcDbLine
 62
7
  6
CONTINUOUS
 10
8.0212170031
 20
3.1587311929
 11
8.0212170031
 21
3.1540775377
  0
LINE
  5
31F
100
AcDbEntity
  8
0
100
AcDbLine
 62
7
  6
CONTINUOUS
 10
8.0212170031
 20
3.150107057
 11
8.0212170031
 21
1.9626597826
  0
LINE
  5
320
100
AcDbEntity
  8
0
100
AcDbLine
 62
7
  6
CONTINUOUS
 10
8.2364089218
 20
3.4843500024
 11
8.2311559693
 21
3.4792772852
  0
LINE
  5
321
100
AcDbEntity
  8
0
100
AcDbLine
 62
7
  6
CONTINUOUS
 10
7.9943427198
 20
3.2545499025
 11
7.9890020363
 21
3.2495696346
  0
LINE
  5
322
100
AcDbEntity
  8
0
100
AcDbLine
 62
7
  6
CONTINUOUS
 10
8.2478097907
 20
3.4826011833
 11
8.2422985518
 21
3.4778103364
  0
LINE
  5
323
100
AcDbEntity
  8
0
100
AcDbLine
 62
7
  6
CONTINUOUS
 10
7.9940407207
 20
3.2657847826
 11
7.9884543758
 21
3.2610972826
  0
LINE
  5
324
100
AcDbEntity
  8
0
100
AcDbLine
 62
7
  6
CONTINUOUS
 10
8.2591035091
 20
3.4802580855
 11
8.2533490895
 21
3.4757622403
  0
LINE
  5
325
100
AcDbEntity
  8
0
100
AcDbLine
 62
7
  6
CONTINUOUS
 10
7.9943427198
 20
3.2770196627
 11
7.9885107134
 21
3.2726249307
  0
LINE
  5
326
100
AcDbEntity
  8
0
100
AcDbLine
 62
7
  6
CONTINUOUS
 10
8.2702591215
 20
3.4773271314
 11
8.2642772938
 21
3.4731386105
  0
LINE
  5
327
100
AcDbEntity
  8
0
100
AcDbLine
 62
7
  6
CONTINUOUS
 10
7.9952245005
 20
3.2882237488
 11
7.9891704841
 21
3.2841402632
  0
LINE
  5
328
100
AcDbEntity
  8
0
100
AcDbLine
 62
7
  6
CONTINUOUS
 10
8.1361940306
 20
3.0577510927
 11
8.1423783836
 21
3.0616155054
  0
LINE
  5
329
100
AcDbEntity
  8
0
100
AcDbLine
 62
7
  6
CONTINUOUS
 10
8.4207425569
 20
3.2322032339
 11
8.4270019896
 21
3.2359642805
  0
LINE
  5
32A
100
AcDbEntity
  8
0
100
AcDbLine
 62
7
  6
CONTINUOUS
 10
8.1253998222
 20
3.061834188
 11
8.1317867005
 21
3.0653744925
  0
LINE
  5
32B
100
AcDbEntity
  8
0
100
AcDbLine
 62
7
  6
CONTINUOUS
 10
8.4186944608
 20
3.2211526962
 11
8.4251421531
 21
3.224580995
  0
LINE
  5
32C
100
AcDbEntity
  8
0
100
AcDbLine
 62
7
  6
CONTINUOUS
 10
8.1148400561
 20
3.0664741796
 11
8.1214034666
 21
3.0696753687
  0
LINE
  5
32D
100
AcDbEntity
  8
0
100
AcDbLine
 62
7
  6
CONTINUOUS
 10
8.416070831
 20
3.2102244919
 11
8.4226891103
 21
3.2133106462
  0
LINE
  5
32E
100
AcDbEntity
  8
0
100
AcDbLine
 62
7
  6
CONTINUOUS
 10
8.3971229488
 20
3.1515884723
 11
8.3946253593
 21
3.1584505431
  0
LINE
  5
32F
100
AcDbEntity
  8
0
100
AcDbLine
 62
7
  6
CONTINUOUS
 10
8.2856473057
 20
3.4661950728
 11
8.2832698563
 21
3.4730996874
  0
LINE
  5
330
100
AcDbEntity
  8
0
100
AcDbLine
 62
7
  6
CONTINUOUS
 10
8.3908881719
 20
3.1418845691
 11
8.3887531383
 21
3.1488679494
  0
LINE
  5
331
100
AcDbEntity
  8
0
100
AcDbLine
 62
7
  6
CONTINUOUS
 10
8.2960305396
 20
3.4618941965
 11
8.294017708
 21
3.4689137746
  0
LINE
  5
332
100
AcDbEntity
  8
0
100
AcDbLine
 62
7
  6
CONTINUOUS
 10
8.3841579685
 20
3.1325253915
 11
8.3823937638
 21
3.1396012298
  0
LINE
  5
333
100
AcDbEntity
  8
0
100
AcDbLine
 62
7
  6
CONTINUOUS
 10
8.3061744532
 20
3.4570557979
 11
8.3045317564
 21
3.4641710995
  0
LINE
  5
334
100
AcDbEntity
  8
0
100
AcDbLine
 62
7
  6
CONTINUOUS
 10
8.0404948859
 20
3.4080483301
 11
8.0418882616
 21
3.4008800337
  0
LINE
  5
335
100
AcDbEntity
  8
0
100
AcDbLine
 62
7
  6
CONTINUOUS
 10
8.1013827636
 20
3.0798764264
 11
8.102650823
 21
3.072684904
  0
LINE
  5
336
100
AcDbEntity
  8
0
100
AcDbLine
 62
7
  6
CONTINUOUS
 10
8.0481709273
 20
3.4166574283
 11
8.0491872338
 21
3.4094260321
  0
LINE
  5
337
100
AcDbEntity
  8
0
100
AcDbLine
 62
7
  6
CONTINUOUS
 10
8.0918001699
 20
3.0857486474
 11
8.0926901163
 21
3.0785006157
  0
LINE
  5
338
100
AcDbEntity
  8
0
100
AcDbLine
 62
7
  6
CONTINUOUS
 10
8.3611469919
 20
3.1067165703
 11
8.3605105403
 21
3.1139912454
  0
LINE
  5
339
100
AcDbEntity
  8
0
100
AcDbLine
 62
7
  6
CONTINUOUS
 10
8.3349005559
 20
3.4394615433
 11
8.3343918599
 21
3.4467362347
  0
LINE
  5
33A
100
AcDbEntity
  8
0
100
AcDbLine
 62
7
  6
CONTINUOUS
 10
8.3526131049
 20
3.0989569985
 11
8.3523582526
 21
3.1062550133
  0
LINE
  5
33B
100
AcDbEntity
  8
0
100
AcDbLine
 62
7
  6
CONTINUOUS
 10
8.073621752
 20
3.0989560411
 11
8.0737491975
 21
3.0916546901
  0
LINE
  5
33C
100
AcDbEntity
  8
0
100
AcDbLine
 62
7
  6
CONTINUOUS
 10
8.3438122542
 20
3.4326135241
 11
8.3436848087
 21
3.4399148751
  0
LINE
  5
33D
100
AcDbEntity
  8
0
100
AcDbLine
 62
7
  6
CONTINUOUS
 10
8.0737491975
 20
3.4399148751
 11
8.073621752
 21
3.4326135241
  0
LINE
  5
33E
100
AcDbEntity
  8
0
100
AcDbLine
 62
7
  6
CONTINUOUS
 10
8.0650757536
 20
3.1062550133
 11
8.0648209013
 21
3.0989569985
  0
LINE
  5
33F
100
AcDbEntity
  8
0
100
AcDbLine
 62
7
  6
CONTINUOUS
 10
8.0830421463
 20
3.4467362347
 11
8.0825334503
 21
3.4394615433
  0
LINE
  5
340
100
AcDbEntity
  8
0
100
AcDbLine
 62
7
  6
CONTINUOUS
 10
8.0569234659
 20
3.1139912454
 11
8.0562870143
 21
3.1067165703
  0
LINE
  5
341
100
AcDbEntity
  8
0
100
AcDbLine
 62
7
  6
CONTINUOUS
 10
8.0926901163
 20
3.4530689495
 11
8.0918001699
 21
3.4458209178
  0
LINE
  5
342
100
AcDbEntity
  8
0
100
AcDbLine
 62
7
  6
CONTINUOUS
 10
8.0491872338
 20
3.1221435331
 11
8.0481709273
 21
3.114912137
  0
LINE
  5
343
100
AcDbEntity
  8
0
100
AcDbLine
 62
7
  6
CONTINUOUS
 10
8.102650823
 20
3.4588846612
 11
8.1013827636
 21
3.4516931388
  0
LINE
  5
344
100
AcDbEntity
  8
0
100
AcDbLine
 62
7
  6
CONTINUOUS
 10
8.0418882616
 20
3.1306895315
 11
8.0404948859
 21
3.1235212351
  0
LINE
  5
345
100
AcDbEntity
  8
0
100
AcDbLine
 62
7
  6
CONTINUOUS
 10
8.1129022499
 20
3.4641710995
 11
8.1112595531
 21
3.4570557979
  0
LINE
  5
346
100
AcDbEntity
  8
0
100
AcDbLine
 62
7
  6
CONTINUOUS
 10
8.0350402424
 20
3.1396012298
 11
8.0332760377
 21
3.1325253915
  0
LINE
  5
347
100
AcDbEntity
  8
0
100
AcDbLine
 62
7
  6
CONTINUOUS
 10
8.1234162982
 20
3.4689137746
 11
8.1214034666
 21
3.4618941965
  0
LINE
  5
348
100
AcDbEntity
  8
0
100
AcDbLine
 62
7
  6
CONTINUOUS
 10
8.0286808679
 20
3.1488679494
 11
8.0265458343
 21
3.1418845691
  0
LINE
  5
349
100
AcDbEntity
  8
0
100
AcDbLine
 62
7
  6
CONTINUOUS
 10
8.1341641499
 20
3.4730996874
 11
8.1317867005
 21
3.4661950728
  0
LINE
  5
34A
100
AcDbEntity
  8
0
100
AcDbLine
 62
7
  6
CONTINUOUS
 10
8.0228086469
 20
3.1584505431
 11
8.0203110574
 21
3.1515884723
  0
LINE
  5
34B
100
AcDbEntity
  8
0
100
AcDbLine
 62
7
  6
CONTINUOUS
 10
8.1451101855
 20
3.4767155068
 11
8.1423783836
 21
3.4699540598
  0
LINE
  5
34C
100
AcDbEntity
  8
0
100
AcDbLine
 62
7
  6
CONTINUOUS
 10
8.0174459878
 20
3.1683273326
 11
8.0145926881
 21
3.1616053797
  0
LINE
  5
34D
100
AcDbEntity
  8
0
100
AcDbLine
 62
7
  6
CONTINUOUS
 10
8.1562428667
 20
3.4797568898
 11
8.1531567124
 21
3.4731386105
  0
LINE
  5
34E
100
AcDbEntity
  8
0
100
AcDbLine
 62
7
  6
CONTINUOUS
 10
8.0126075892
 20
3.1784712461
 11
8.0094064001
 21
3.1719078356
  0
LINE
  5
34F
100
AcDbEntity
  8
0
100
AcDbLine
 62
7
  6
CONTINUOUS
 10
8.1675132155
 20
3.4822099326
 11
8.1640849167
 21
3.4757622403
  0
LINE
  5
350
100
AcDbEntity
  8
0
100
AcDbLine
 62
7
  6
CONTINUOUS
 10
8.0083067129
 20
3.18885448
 11
8.0047664085
 21
3.1824676017
  0
LINE
  5
351
100
AcDbEntity
  8
0
100
AcDbLine
 62
7
  6
CONTINUOUS
 10
8.178896501
 20
3.4840697691
 11
8.1751354544
 21
3.4778103364
  0
LINE
  5
352
100
AcDbEntity
  8
0
100
AcDbLine
 62
7
  6
CONTINUOUS
 10
8.0045477259
 20
3.1994461631
 11
8.0006833132
 21
3.1932618101
  0
LINE
  5
353
100
AcDbEntity
  8
0
100
AcDbLine
 62
7
  6
CONTINUOUS
 10
8.1903615225
 20
3.4853313016
 11
8.1862780369
 21
3.4792772852
  0
LINE
  5
354
100
AcDbEntity
  8
0
100
AcDbLine
 62
7
  6
CONTINUOUS
 10
8.0013631752
 20
3.2102244919
 11
7.9971746543
 21
3.2042426642
  0
LINE
  5
355
100
AcDbEntity
  8
0
100
AcDbLine
 62
7
  6
CONTINUOUS
 10
8.201876855
 20
3.4859910723
 11
8.197482123
 21
3.4801590659
  0
LINE
  5
356
100
AcDbEntity
  8
0
100
AcDbLine
 62
7
  6
CONTINUOUS
 10
7.9987395454
 20
3.2211526962
 11
7.9942437002
 21
3.2153982766
  0
LINE
  5
357
100
AcDbEntity
  8
0
100
AcDbLine
 62
7
  6
CONTINUOUS
 10
8.2134045031
 20
3.4860474099
 11
8.2087170031
 21
3.480461065
  0
LINE
  5
358
100
AcDbEntity
  8
0
100
AcDbLine
 62
7
  6
CONTINUOUS
 10
7.9966914493
 20
3.2322032339
 11
7.9919006024
 21
3.226691995
  0
LINE
  5
359
100
AcDbEntity
  8
0
100
AcDbLine
 62
7
  6
CONTINUOUS
 10
8.2249321512
 20
3.4854997494
 11
8.2199518832
 21
3.4801590659
  0
LINE
  5
35A
100
AcDbEntity
  8
0
100
AcDbLine
 62
7
  6
CONTINUOUS
 10
7.9952245005
 20
3.2433458164
 11
7.9901517833
 21
3.238092864
  0
LINE
  5
35B
100
AcDbEntity
  8
0
100
AcDbLine
 62
7
  6
CONTINUOUS
 10
8.1810250845
 20
3.0472195628
 11
8.1862780369
 21
3.05229228
  0
LINE
  5
35C
100
AcDbEntity
  8
0
100
AcDbLine
 62
7
  6
CONTINUOUS
 10
8.4230912864
 20
3.2770196627
 11
8.4284319699
 21
3.2819999307
  0
LINE
  5
35D
100
AcDbEntity
  8
0
100
AcDbLine
 62
7
  6
CONTINUOUS
 10
8.1696242155
 20
3.0489683819
 11
8.1751354544
 21
3.0537592288
  0
LINE
  5
35E
100
AcDbEntity
  8
0
100
AcDbLine
 62
7
  6
CONTINUOUS
 10
8.4233932855
 20
3.2657847826
 11
8.4289796304
 21
3.2704722826
  0
LINE
  5
35F
100
AcDbEntity
  8
0
100
AcDbLine
 62
7
  6
CONTINUOUS
 10
8.1583304971
 20
3.0513114797
 11
8.1640849167
 21
3.0558073249
  0
LINE
  5
360
100
AcDbEntity
  8
0
100
AcDbLine
 62
7
  6
CONTINUOUS
 10
8.4230912864
 20
3.2545499025
 11
8.4289232928
 21
3.2589446346
  0
LINE
  5
361
100
AcDbEntity
  8
0
100
AcDbLine
 62
7
  6
CONTINUOUS
 10
8.1471748847
 20
3.0542424339
 11
8.1531567124
 21
3.0584309547
  0
LINE
  5
362
100
AcDbEntity
  8
0
100
AcDbLine
 62
7
  6
CONTINUOUS
 10
8.4222095057
 20
3.2433458164
 11
8.4282635221
 21
3.247429302
  0
LINE
  5
363
100
AcDbEntity
  8
0
100
AcDbLine
 62
7
  6
CONTINUOUS
 10
8.3769391203
 20
3.1235212351
 11
8.3755457446
 21
3.1306895315
  0
LINE
  5
364
100
AcDbEntity
  8
0
100
AcDbLine
 62
7
  6
CONTINUOUS
 10
8.3160512426
 20
3.4516931388
 11
8.3147831832
 21
3.4588846612
  0
LINE
  5
365
100
AcDbEntity
  8
0
100
AcDbLine
 62
7
  6
CONTINUOUS
 10
8.3692630789
 20
3.114912137
 11
8.3682467724
 21
3.1221435331
  0
LINE
  5
366
100
AcDbEntity
  8
0
100
AcDbLine
 62
7
  6
CONTINUOUS
 10
8.3256338363
 20
3.4458209178
 11
8.3247438899
 21
3.4530689495
  0
LINE
  5
367
100
AcDbEntity
  8
0
100
AcDbLine
 62
7
  6
CONTINUOUS
 10
8.3962170031
 20
3.1587311929
 11
8.3962170031
 21
3.1540775377
  0
LINE
  5
368
100
AcDbEntity
  8
0
100
AcDbLine
 62
7
  6
CONTINUOUS
 10
8.3962170031
 20
3.150107057
 11
8.3962170031
 21
1.9626597826
  0
LINE
  5
369
100
AcDbEntity
  8
0
100
AcDbLine
 62
7
  6
CONTINUOUS
 10
8.4430920031
 20
1.9547847826
 11
8.4430920031
 21
1.7072847826
  0
LINE
  5
36A
100
AcDbEntity
  8
0
100
AcDbLine
 62
7
  6
CONTINUOUS
 10
8.5799670031
 20
1.6960347826
 11
8.5799670031
 21
1.5479097826
  0
LINE
  5
36B
100
AcDbEntity
  8
0
100
AcDbLine
 62
7
  6
CONTINUOUS
 10
8.3436848087
 20
3.0916546901
 11
8.3438122542
 21
3.0989560411
  0
LINE
  5
36C
100
AcDbEntity
  8
0
100
AcDbLine
 62
7
  6
CONTINUOUS
 10
8.4025227506
 20
1.9547847826
 11
8.4026602093
 21
1.9626597826
  0
LINE
  5
36D
100
AcDbEntity
  8
0
100
AcDbLine
 62
7
  6
CONTINUOUS
 10
8.3523582526
 20
3.425314552
 11
8.3526131049
 21
3.4326125667
  0
LINE
  5
36E
100
AcDbEntity
  8
0
100
AcDbLine
 62
7
  6
CONTINUOUS
 10
8.3343918599
 20
3.0848333305
 11
8.3349005559
 21
3.0921080219
  0
LINE
  5
36F
100
AcDbEntity
  8
0
100
AcDbLine
 62
7
  6
CONTINUOUS
 10
8.3605105403
 20
3.4175783198
 11
8.3611469919
 21
3.4248529949
  0
LINE
  5
370
100
AcDbEntity
  8
0
100
AcDbLine
 62
7
  6
CONTINUOUS
 10
8.3247438899
 20
3.0785006157
 11
8.3256338363
 21
3.0857486474
  0
LINE
  5
371
100
AcDbEntity
  8
0
100
AcDbLine
 62
7
  6
CONTINUOUS
 10
8.3682467724
 20
3.4094260321
 11
8.3692630789
 21
3.4166574283
  0
LINE
  5
372
100
AcDbEntity
  8
0
100
AcDbLine
 62
7
  6
CONTINUOUS
 10
8.3147831832
 20
3.072684904
 11
8.3160512426
 21
3.0798764264
  0
LINE
  5
373
100
AcDbEntity
  8
0
100
AcDbLine
 62
7
  6
CONTINUOUS
 10
8.3755457446
 20
3.4008800337
 11
8.3769391203
 21
3.4080483301
  0
LINE
  5
374
100
AcDbEntity
  8
0
100
AcDbLine
 62
7
  6
CONTINUOUS
 10
8.3045317564
 20
3.0673984658
 11
8.3061744532
 21
3.0745137673
  0
LINE
  5
375
100
AcDbEntity
  8
0
100
AcDbLine
 62
7
  6
CONTINUOUS
 10
8.3823937638
 20
3.3919683354
 11
8.3841579685
 21
3.3990441737
  0
LINE
  5
376
100
AcDbEntity
  8
0
100
AcDbLine
 62
7
  6
CONTINUOUS
 10
8.294017708
 20
3.0626557906
 11
8.2960305396
 21
3.0696753687
  0
LINE
  5
377
100
AcDbEntity
  8
0
100
AcDbLine
 62
7
  6
CONTINUOUS
 10
8.3887531383
 20
3.3827016158
 11
8.3908881719
 21
3.3896849961
  0
LINE
  5
378
100
AcDbEntity
  8
0
100
AcDbLine
 62
7
  6
CONTINUOUS
 10
8.2832698563
 20
3.0584698778
 11
8.2856473057
 21
3.0653744925
  0
LINE
  5
379
100
AcDbEntity
  8
0
100
AcDbLine
 62
7
  6
CONTINUOUS
 10
8.3946253593
 20
3.3731190221
 11
8.3971229488
 21
3.3799810929
  0
LINE
  5
37A
100
AcDbEntity
  8
0
100
AcDbLine
 62
7
  6
CONTINUOUS
 10
8.2723238208
 20
3.0548540584
 11
8.2750556226
 21
3.0616155054
  0
LINE
  5
37B
100
AcDbEntity
  8
0
100
AcDbLine
 62
7
  6
CONTINUOUS
 10
8.3999880184
 20
3.3632422327
 11
8.4028413181
 21
3.3699641855
  0
LINE
  5
37C
100
AcDbEntity
  8
0
100
AcDbLine
 62
7
  6
CONTINUOUS
 10
8.2611911395
 20
3.0518126754
 11
8.2642772938
 21
3.0584309547
  0
LINE
  5
37D
100
AcDbEntity
  8
0
100
AcDbLine
 62
7
  6
CONTINUOUS
 10
8.404826417
 20
3.3530983191
 11
8.4080276061
 21
3.3596617296
  0
LINE
  5
37E
100
AcDbEntity
  8
0
100
AcDbLine
 62
7
  6
CONTINUOUS
 10
8.2499207907
 20
3.0493596326
 11
8.2533490895
 21
3.0558073249
  0
LINE
  5
37F
100
AcDbEntity
  8
0
100
AcDbLine
 62
7
  6
CONTINUOUS
 10
8.4091272933
 20
3.3427150853
 11
8.4126675977
 21
3.3491019635
  0
LINE
  5
380
100
AcDbEntity
  8
0
100
AcDbLine
 62
7
  6
CONTINUOUS
 10
8.2385375052
 20
3.0474997962
 11
8.2422985518
 21
3.0537592288
  0
LINE
  5
381
100
AcDbEntity
  8
0
100
AcDbLine
 62
7
  6
CONTINUOUS
 10
8.4128862803
 20
3.3321234021
 11
8.416750693
 21
3.3383077551
  0
LINE
  5
382
100
AcDbEntity
  8
0
100
AcDbLine
 62
7
  6
CONTINUOUS
 10
8.2270724837
 20
3.0462382636
 11
8.2311559693
 21
3.05229228
  0
LINE
  5
383
100
AcDbEntity
  8
0
100
AcDbLine
 62
7
  6
CONTINUOUS
 10
8.416070831
 20
3.3213450734
 11
8.4202593519
 21
3.327326901
  0
LINE
  5
384
100
AcDbEntity
  8
0
100
AcDbLine
 62
7
  6
CONTINUOUS
 10
8.2155571512
 20
3.0455784929
 11
8.2199518832
 21
3.0514104993
  0
LINE
  5
385
100
AcDbEntity
  8
0
100
AcDbLine
 62
7
  6
CONTINUOUS
 10
8.4186944608
 20
3.310416869
 11
8.423190306
 21
3.3161712886
  0
LINE
  5
386
100
AcDbEntity
  8
0
100
AcDbLine
 62
7
  6
CONTINUOUS
 10
8.2040295031
 20
3.0455221553
 11
8.2087170031
 21
3.0511085002
  0
LINE
  5
387
100
AcDbEntity
  8
0
100
AcDbLine
 62
7
  6
CONTINUOUS
 10
8.4207425569
 20
3.2993663313
 11
8.4255334038
 21
3.3048775702
  0
LINE
  5
388
100
AcDbEntity
  8
0
100
AcDbLine
 62
7
  6
CONTINUOUS
 10
8.192501855
 20
3.0460698158
 11
8.197482123
 21
3.0514104993
  0
LINE
  5
389
100
AcDbEntity
  8
0
100
AcDbLine
 62
7
  6
CONTINUOUS
 10
8.4222095057
 20
3.2882237488
 11
8.4272822229
 21
3.2934767013
  0
CIRCLE
  5
38A
100
AcDbEntity
  8
0
100
AcDbCircle
 62
7
  6
CONTINUOUS
 10
2.9587170031
 20
3.6940347826
 40
0.088125
  0
CIRCLE
  5
38B
100
AcDbEntity
  8
0
100
AcDbCircle
 62
7
  6
CONTINUOUS
 10
2.9587170031
 20
3.6940347826
 40
0.0834375
  0
ARC
  5
38C
100
AcDbEntity
  8
0
100
AcDbCircle
 62
7
  6
CONTINUOUS
 10
4.2374670031
 20
2.7441597826
 40
0.03375
100
AcDbArc
 50
269.9999999987
 51
360.0
  0
ARC
  5
38D
100
AcDbEntity
  8
0
100
AcDbCircle
 62
7
  6
CONTINUOUS
 10
4.6799670031
 20
2.7441597826
 40
0.03375
100
AcDbArc
 50
179.9999999991
 51
270.0000000013
  0
ARC
  5
38E
100
AcDbEntity
  8
0
100
AcDbCircle
 62
7
  6
CONTINUOUS
 10
3.2268420031
 20
2.7441597826
 40
0.03375
100
AcDbArc
 50
179.9999999986
 51
270.0000000009
  0
ARC
  5
38F
100
AcDbEntity
  8
0
100
AcDbCircle
 62
7
  6
CONTINUOUS
 10
3.2268420031
 20
2.2079097826
 40
0.03375
100
AcDbArc
 50
89.999999999
 51
180.0000000017
  0
ARC
  5
390
100
AcDbEntity
  8
0
100
AcDbCircle
 62
7
  6
CONTINUOUS
 10
2.5987170031
 20
1.6960347826
 40
0.01125
100
AcDbArc
 50
90.0
 51
180.0
  0
ARC
  5
391
100
AcDbEntity
  8
0
100
AcDbCircle
 62
7
  6
CONTINUOUS
 10
3.3187170031
 20
1.6960347826
 40
0.01125
100
AcDbArc
 50
0.0
 51
90.0
  0
ARC
  5
392
100
AcDbEntity
  8
0
100
AcDbCircle
 62
7
  6
CONTINUOUS
 10
2.7355920031
 20
3.3711597826
 40
0.01125
100
AcDbArc
 50
90.0
 51
180.0
  0
ARC
  5
393
100
AcDbEntity
  8
0
100
AcDbCircle
 62
7
  6
CONTINUOUS
 10
3.1818420031
 20
3.3711597826
 40
0.01125
100
AcDbArc
 50
0.0
 51
90.0
  0
ARC
  5
394
100
AcDbEntity
  8
0
100
AcDbCircle
 62
7
  6
CONTINUOUS
 10
4.4587170031
 20
7.0067097826
 40
0.1875
100
AcDbArc
 50
0.0
 51
180.0
  0
ARC
  5
395
100
AcDbEntity
  8
0
100
AcDbCircle
 62
7
  6
CONTINUOUS
 10
5.6905920031
 20
2.2079097826
 40
0.03375
100
AcDbArc
 50
0.0
 51
90.000000001
  0
ARC
  5
396
100
AcDbEntity
  8
0
100
AcDbCircle
 62
7
  6
CONTINUOUS
 10
5.5987170031
 20
1.6960347826
 40
0.01125
100
AcDbArc
 50
90.0
 51
180.0
  0
ARC
  5
397
100
AcDbEntity
  8
0
100
AcDbCircle
 62
7
  6
CONTINUOUS
 10
6.3187170031
 20
1.6960347826
 40
0.01125
100
AcDbArc
 50
0.0
 51
90.0
  0
CIRCLE
  5
398
100
AcDbEntity
  8
0
100
AcDbCircle
 62
7
  6
CONTINUOUS
 10
5.9587170031
 20
3.6940347826
 40
0.088125
  0
CIRCLE
  5
399
100
AcDbEntity
  8
0
100
AcDbCircle
 62
7
  6
CONTINUOUS
 10
5.9587170031
 20
3.6940347826
 40
0.0834375
  0
ARC
  5
39A
100
AcDbEntity
  8
0
100
AcDbCircle
 62
7
  6
CONTINUOUS
 10
5.6905920031
 20
2.7441597826
 40
0.03375
100
AcDbArc
 50
269.999999999
 51
360.0
  0
ARC
  5
39B
100
AcDbEntity
  8
0
100
AcDbCircle
 62
7
  6
CONTINUOUS
 10
6.1818420031
 20
3.3711597826
 40
0.01125
100
AcDbArc
 50
0.0
 51
90.0
  0
ARC
  5
39C
100
AcDbEntity
  8
0
100
AcDbCircle
 62
7
  6
CONTINUOUS
 10
5.7355920031
 20
3.3711597826
 40
0.01125
100
AcDbArc
 50
90.0
 51
180.0
  0
ARC
  5
39D
100
AcDbEntity
  8
0
100
AcDbCircle
 62
7
  6
CONTINUOUS
 10
7.8487170031
 20
1.6960347826
 40
0.01125
100
AcDbArc
 50
90.0
 51
180.0
  0
ARC
  5
39E
100
AcDbEntity
  8
0
100
AcDbCircle
 62
7
  6
CONTINUOUS
 10
8.5687170031
 20
1.6960347826
 40
0.01125
100
AcDbArc
 50
0.0
 51
90.0
  0
ARC
  5
39F
100
AcDbEntity
  8
0
100
AcDbCircle
 62
7
  6
CONTINUOUS
 10
8.1700325451
 20
3.2359680565
 40
0.222450141
100
AcDbArc
 50
321.3596896643
 51
321.8998471987
  0
ARC
  5
3A0
100
AcDbEntity
  8
0
100
AcDbCircle
 62
7
  6
CONTINUOUS
 10
8.1761346119
 20
3.2308852094
 40
0.2145076335
100
AcDbArc
 50
317.5796355028
 51
319.3407325731
  0
ARC
  5
3A1
100
AcDbEntity
  8
0
100
AcDbCircle
 62
7
  6
CONTINUOUS
 10
8.0899158043
 20
3.2657832309
 40
0.0077758164
100
AcDbArc
 50
0.0114341342
 51
168.0588921125
  0
CIRCLE
  5
3A2
100
AcDbEntity
  8
0
100
AcDbCircle
 62
7
  6
CONTINUOUS
 10
8.1632525684
 20
3.1560273958
 40
0.0077756494
  0
ARC
  5
3A3
100
AcDbEntity
  8
0
100
AcDbCircle
 62
7
  6
CONTINUOUS
 10
8.2087156759
 20
3.1469836935
 40
0.0077756494
100
AcDbArc
 50
258.0798146048
 51
79.4381170032
  0
CIRCLE
  5
3A4
100
AcDbEntity
  8
0
100
AcDbCircle
 62
7
  6
CONTINUOUS
 10
8.0989585997
 20
3.2203227998
 40
0.0077756493
  0
CIRCLE
  5
3A5
100
AcDbEntity
  8
0
100
AcDbCircle
 62
7
  6
CONTINUOUS
 10
8.1247110083
 20
3.1817806646
 40
0.0077756493
  0
ARC
  5
3A6
100
AcDbEntity
  8
0
100
AcDbCircle
 62
7
  6
CONTINUOUS
 10
8.2087169922
 20
3.1925928169
 40
0.0073454965
100
AcDbArc
 50
210.6274744951
 51
31.7144741391
  0
CIRCLE
  5
3A7
100
AcDbEntity
  8
0
100
AcDbCircle
 62
7
  6
CONTINUOUS
 10
8.1569628136
 20
3.2140305745
 40
0.0073454958
  0
ARC
  5
3A8
100
AcDbEntity
  8
0
100
AcDbCircle
 62
7
  6
CONTINUOUS
 10
8.1355247703
 20
3.2657846963
 40
0.0073453321
100
AcDbArc
 50
0.0030291534
 51
179.9993270822
  0
ARC
  5
3A9
100
AcDbEntity
  8
0
100
AcDbCircle
 62
7
  6
CONTINUOUS
 10
8.2087156456
 20
3.3845860111
 40
0.0077756716
100
AcDbArc
 50
259.4577535551
 51
78.0602465585
  0
CIRCLE
  5
3AA
100
AcDbEntity
  8
0
100
AcDbCircle
 62
7
  6
CONTINUOUS
 10
8.1247128859
 20
3.3497907767
 40
0.0077756494
  0
CIRCLE
  5
3AB
100
AcDbEntity
  8
0
100
AcDbCircle
 62
7
  6
CONTINUOUS
 10
8.1632550207
 20
3.375543185
 40
0.0077756494
  0
CIRCLE
  5
3AC
100
AcDbEntity
  8
0
100
AcDbCircle
 62
7
  6
CONTINUOUS
 10
8.0989596154
 20
3.3112492176
 40
0.0077756493
  0
ARC
  5
3AD
100
AcDbEntity
  8
0
100
AcDbCircle
 62
7
  6
CONTINUOUS
 10
8.0899130184
 20
3.265784788
 40
0.0077726977
100
AcDbArc
 50
168.0658731573
 51
359.9998649528
  0
CIRCLE
  5
3AE
100
AcDbEntity
  8
0
100
AcDbCircle
 62
7
  6
CONTINUOUS
 10
8.1569627958
 20
3.3175389717
 40
0.0073454946
  0
ARC
  5
3AF
100
AcDbEntity
  8
0
100
AcDbCircle
 62
7
  6
CONTINUOUS
 10
8.2087169904
 20
3.3389762713
 40
0.0073454943
100
AcDbArc
 50
211.7114057282
 51
30.6305823211
  0
ARC
  5
3B0
100
AcDbEntity
  8
0
100
AcDbCircle
 62
7
  6
CONTINUOUS
 10
8.1355257855
 20
3.2657848632
 40
0.007345322
100
AcDbArc
 50
180.0030743686
 51
359.9993715456
  0
ARC
  5
3B1
100
AcDbEntity
  8
0
100
AcDbCircle
 62
7
  6
CONTINUOUS
 10
8.2471664225
 20
3.2357845798
 40
0.2221519748
100
AcDbArc
 50
218.1005178711
 51
218.6409583827
  0
ARC
  5
3B2
100
AcDbEntity
  8
0
100
AcDbCircle
 62
7
  6
CONTINUOUS
 10
8.2407249322
 20
3.2303735626
 40
0.2137384516
100
AcDbArc
 50
220.6559153897
 51
222.420991412
  0
ARC
  5
3B3
100
AcDbEntity
  8
0
100
AcDbCircle
 62
7
  6
CONTINUOUS
 10
8.2087183606
 20
3.1469835539
 40
0.0077756716
100
AcDbArc
 50
79.4577535443
 51
258.0602465384
  0
CIRCLE
  5
3B4
100
AcDbEntity
  8
0
100
AcDbCircle
 62
7
  6
CONTINUOUS
 10
8.3184743908
 20
3.2203203473
 40
0.0077756494
  0
CIRCLE
  5
3B5
100
AcDbEntity
  8
0
100
AcDbCircle
 62
7
  6
CONTINUOUS
 10
8.2541789856
 20
3.15602638
 40
0.0077756494
  0
CIRCLE
  5
3B6
100
AcDbEntity
  8
0
100
AcDbCircle
 62
7
  6
CONTINUOUS
 10
8.2927211204
 20
3.1817787884
 40
0.0077756494
  0
ARC
  5
3B7
100
AcDbEntity
  8
0
100
AcDbCircle
 62
7
  6
CONTINUOUS
 10
8.3275209878
 20
3.2657847772
 40
0.0077726977
100
AcDbArc
 50
348.0658731572
 51
179.9998649527
  0
ARC
  5
3B8
100
AcDbEntity
  8
0
100
AcDbCircle
 62
7
  6
CONTINUOUS
 10
8.2087170163
 20
3.1925932927
 40
0.0073454958
100
AcDbArc
 50
31.7114152752
 51
210.6305727394
  0
CIRCLE
  5
3B9
100
AcDbEntity
  8
0
100
AcDbCircle
 62
7
  6
CONTINUOUS
 10
8.2604712101
 20
3.2140305933
 40
0.0073454944
  0
ARC
  5
3BA
100
AcDbEntity
  8
0
100
AcDbCircle
 62
7
  6
CONTINUOUS
 10
8.2819082203
 20
3.2657847013
 40
0.007345322
100
AcDbArc
 50
0.0030721608
 51
179.9993656681
  0
ARC
  5
3BB
100
AcDbEntity
  8
0
100
AcDbCircle
 62
7
  6
CONTINUOUS
 10
8.2087170031
 20
3.2657847826
 40
0.2203125
100
AcDbArc
 50
106.2208244843
 51
106.780848866
  0
ARC
  5
3BC
100
AcDbEntity
  8
0
100
AcDbCircle
 62
7
  6
CONTINUOUS
 10
8.2087170031
 20
3.2657847826
 40
0.2203125
100
AcDbArc
 50
109.219151134
 51
109.7791755157
  0
ARC
  5
3BD
100
AcDbEntity
  8
0
100
AcDbCircle
 62
7
  6
CONTINUOUS
 10
8.2087170031
 20
3.2657847826
 40
0.2203125
100
AcDbArc
 50
112.2208244843
 51
112.7791755157
  0
ARC
  5
3BE
100
AcDbEntity
  8
0
100
AcDbCircle
 62
7
  6
CONTINUOUS
 10
8.2087170031
 20
3.2657847826
 40
0.2203125
100
AcDbArc
 50
115.2208244843
 51
115.7791755157
  0
ARC
  5
3BF
100
AcDbEntity
  8
0
100
AcDbCircle
 62
7
  6
CONTINUOUS
 10
8.2087170031
 20
3.2657847826
 40
0.2203125
100
AcDbArc
 50
118.2208244843
 51
118.7791755157
  0
ARC
  5
3C0
100
AcDbEntity
  8
0
100
AcDbCircle
 62
7
  6
CONTINUOUS
 10
8.2087170031
 20
3.2657847826
 40
0.2203125
100
AcDbArc
 50
121.2208244843
 51
121.7791755157
  0
ARC
  5
3C1
100
AcDbEntity
  8
0
100
AcDbCircle
 62
7
  6
CONTINUOUS
 10
8.2087170031
 20
3.2657847826
 40
0.2203125
100
AcDbArc
 50
124.2208244843
 51
124.780848866
  0
ARC
  5
3C2
100
AcDbEntity
  8
0
100
AcDbCircle
 62
7
  6
CONTINUOUS
 10
8.2087170031
 20
3.2657847826
 40
0.2203125
100
AcDbArc
 50
127.219151134
 51
127.7791755157
  0
ARC
  5
3C3
100
AcDbEntity
  8
0
100
AcDbCircle
 62
7
  6
CONTINUOUS
 10
8.2087170031
 20
3.2657847826
 40
0.2203125
100
AcDbArc
 50
130.2208244843
 51
130.7791755157
  0
ARC
  5
3C4
100
AcDbEntity
  8
0
100
AcDbCircle
 62
7
  6
CONTINUOUS
 10
8.2087170031
 20
3.2657847826
 40
0.2203125
100
AcDbArc
 50
133.2208244843
 51
133.7791755157
  0
ARC
  5
3C5
100
AcDbEntity
  8
0
100
AcDbCircle
 62
7
  6
CONTINUOUS
 10
8.2087170031
 20
3.2657847826
 40
0.2203125
100
AcDbArc
 50
136.2208244843
 51
136.7791755157
  0
ARC
  5
3C6
100
AcDbEntity
  8
0
100
AcDbCircle
 62
7
  6
CONTINUOUS
 10
8.2087170031
 20
3.2657847826
 40
0.2203125
100
AcDbArc
 50
139.2208244843
 51
139.7791755157
  0
ARC
  5
3C7
100
AcDbEntity
  8
0
100
AcDbCircle
 62
7
  6
CONTINUOUS
 10
8.2087170031
 20
3.2657847826
 40
0.2203125
100
AcDbArc
 50
142.2208244843
 51
142.780848866
  0
ARC
  5
3C8
100
AcDbEntity
  8
0
100
AcDbCircle
 62
7
  6
CONTINUOUS
 10
8.2087170031
 20
3.2657847826
 40
0.2203125
100
AcDbArc
 50
145.219151134
 51
145.7791755157
  0
ARC
  5
3C9
100
AcDbEntity
  8
0
100
AcDbCircle
 62
7
  6
CONTINUOUS
 10
8.2087170031
 20
3.2657847826
 40
0.2203125
100
AcDbArc
 50
148.2208244843
 51
148.7791755157
  0
ARC
  5
3CA
100
AcDbEntity
  8
0
100
AcDbCircle
 62
7
  6
CONTINUOUS
 10
8.2087170031
 20
3.2657847826
 40
0.2203125
100
AcDbArc
 50
151.2208244843
 51
151.7791755157
  0
ARC
  5
3CB
100
AcDbEntity
  8
0
100
AcDbCircle
 62
7
  6
CONTINUOUS
 10
8.2087170031
 20
3.2657847826
 40
0.2203125
100
AcDbArc
 50
154.2208244843
 51
154.7791755157
  0
ARC
  5
3CC
100
AcDbEntity
  8
0
100
AcDbCircle
 62
7
  6
CONTINUOUS
 10
8.2087170031
 20
3.2657847826
 40
0.2203125
100
AcDbArc
 50
157.2208244843
 51
157.7791755157
  0
ARC
  5
3CD
100
AcDbEntity
  8
0
100
AcDbCircle
 62
7
  6
CONTINUOUS
 10
8.2087170031
 20
3.2657847826
 40
0.2203125
100
AcDbArc
 50
160.2208244843
 51
160.780848866
  0
ARC
  5
3CE
100
AcDbEntity
  8
0
100
AcDbCircle
 62
7
  6
CONTINUOUS
 10
8.2087170031
 20
3.2657847826
 40
0.2203125
100
AcDbArc
 50
163.219151134
 51
163.7791755157
  0
ARC
  5
3CF
100
AcDbEntity
  8
0
100
AcDbCircle
 62
7
  6
CONTINUOUS
 10
8.2087170031
 20
3.2657847826
 40
0.2203125
100
AcDbArc
 50
166.2208244843
 51
166.7791755157
  0
ARC
  5
3D0
100
AcDbEntity
  8
0
100
AcDbCircle
 62
7
  6
CONTINUOUS
 10
8.2087170031
 20
3.2657847826
 40
0.2203125
100
AcDbArc
 50
169.2208244843
 51
169.7791755157
  0
ARC
  5
3D1
100
AcDbEntity
  8
0
100
AcDbCircle
 62
7
  6
CONTINUOUS
 10
8.2087170031
 20
3.2657847826
 40
0.2203125
100
AcDbArc
 50
172.2208244843
 51
172.7791755157
  0
ARC
  5
3D2
100
AcDbEntity
  8
0
100
AcDbCircle
 62
7
  6
CONTINUOUS
 10
8.2087170031
 20
3.2657847826
 40
0.2203125
100
AcDbArc
 50
175.2208244843
 51
175.7791755157
  0
ARC
  5
3D3
100
AcDbEntity
  8
0
100
AcDbCircle
 62
7
  6
CONTINUOUS
 10
8.2087170031
 20
3.2657847826
 40
0.2203125
100
AcDbArc
 50
178.2208244843
 51
178.780848866
  0
ARC
  5
3D4
100
AcDbEntity
  8
0
100
AcDbCircle
 62
7
  6
CONTINUOUS
 10
8.2087170031
 20
3.2657847826
 40
0.2203125
100
AcDbArc
 50
181.219151134
 51
181.7791755157
  0
ARC
  5
3D5
100
AcDbEntity
  8
0
100
AcDbCircle
 62
7
  6
CONTINUOUS
 10
8.2087170031
 20
3.2657847826
 40
0.2203125
100
AcDbArc
 50
184.2208244843
 51
184.7791755157
  0
ARC
  5
3D6
100
AcDbEntity
  8
0
100
AcDbCircle
 62
7
  6
CONTINUOUS
 10
8.2087170031
 20
3.2657847826
 40
0.2203125
100
AcDbArc
 50
187.2208244843
 51
187.7791755157
  0
ARC
  5
3D7
100
AcDbEntity
  8
0
100
AcDbCircle
 62
7
  6
CONTINUOUS
 10
8.2087170031
 20
3.2657847826
 40
0.2203125
100
AcDbArc
 50
190.2208244843
 51
190.7791755157
  0
ARC
  5
3D8
100
AcDbEntity
  8
0
100
AcDbCircle
 62
7
  6
CONTINUOUS
 10
8.2087170031
 20
3.2657847826
 40
0.2203125
100
AcDbArc
 50
193.2208244843
 51
193.7791755157
  0
ARC
  5
3D9
100
AcDbEntity
  8
0
100
AcDbCircle
 62
7
  6
CONTINUOUS
 10
8.2087170031
 20
3.2657847826
 40
0.2203125
100
AcDbArc
 50
196.2208244843
 51
196.780848866
  0
ARC
  5
3DA
100
AcDbEntity
  8
0
100
AcDbCircle
 62
7
  6
CONTINUOUS
 10
8.2087170031
 20
3.2657847826
 40
0.2203125
100
AcDbArc
 50
199.219151134
 51
199.7791755157
  0
ARC
  5
3DB
100
AcDbEntity
  8
0
100
AcDbCircle
 62
7
  6
CONTINUOUS
 10
8.2087170031
 20
3.2657847826
 40
0.2203125
100
AcDbArc
 50
202.2208244843
 51
202.7791755157
  0
ARC
  5
3DC
100
AcDbEntity
  8
0
100
AcDbCircle
 62
7
  6
CONTINUOUS
 10
8.2087170031
 20
3.2657847826
 40
0.2203125
100
AcDbArc
 50
205.2208244843
 51
205.7791755157
  0
ARC
  5
3DD
100
AcDbEntity
  8
0
100
AcDbCircle
 62
7
  6
CONTINUOUS
 10
8.2087170031
 20
3.2657847826
 40
0.2203125
100
AcDbArc
 50
208.2208244843
 51
208.7791755157
  0
ARC
  5
3DE
100
AcDbEntity
  8
0
100
AcDbCircle
 62
7
  6
CONTINUOUS
 10
8.2087170031
 20
3.2657847826
 40
0.2203125
100
AcDbArc
 50
211.2208244843
 51
211.7791755157
  0
ARC
  5
3DF
100
AcDbEntity
  8
0
100
AcDbCircle
 62
7
  6
CONTINUOUS
 10
8.2087170031
 20
3.2657847826
 40
0.2203125
100
AcDbArc
 50
214.2208244843
 51
214.780848866
  0
ARC
  5
3E0
100
AcDbEntity
  8
0
100
AcDbCircle
 62
7
  6
CONTINUOUS
 10
8.2087170031
 20
3.2657847826
 40
0.2203125
100
AcDbArc
 50
217.219151134
 51
217.7791755157
  0
ARC
  5
3E1
100
AcDbEntity
  8
0
100
AcDbCircle
 62
7
  6
CONTINUOUS
 10
8.2087170031
 20
3.2657847826
 40
0.2203125
100
AcDbArc
 50
220.2208244843
 51
220.7791755157
  0
ARC
  5
3E2
100
AcDbEntity
  8
0
100
AcDbCircle
 62
7
  6
CONTINUOUS
 10
8.2087170031
 20
3.2657847826
 40
0.2203125
100
AcDbArc
 50
223.2208244843
 51
223.7791755157
  0
ARC
  5
3E3
100
AcDbEntity
  8
0
100
AcDbCircle
 62
7
  6
CONTINUOUS
 10
8.2087170031
 20
3.2657847826
 40
0.2203125
100
AcDbArc
 50
226.2208244843
 51
226.7791755157
  0
ARC
  5
3E4
100
AcDbEntity
  8
0
100
AcDbCircle
 62
7
  6
CONTINUOUS
 10
8.2087170031
 20
3.2657847826
 40
0.2203125
100
AcDbArc
 50
229.2208244843
 51
229.7791755157
  0
ARC
  5
3E5
100
AcDbEntity
  8
0
100
AcDbCircle
 62
7
  6
CONTINUOUS
 10
8.2087170031
 20
3.2657847826
 40
0.2203125
100
AcDbArc
 50
232.2208244843
 51
232.780848866
  0
ARC
  5
3E6
100
AcDbEntity
  8
0
100
AcDbCircle
 62
7
  6
CONTINUOUS
 10
8.2087170031
 20
3.2657847826
 40
0.2203125
100
AcDbArc
 50
235.219151134
 51
235.7791755157
  0
ARC
  5
3E7
100
AcDbEntity
  8
0
100
AcDbCircle
 62
7
  6
CONTINUOUS
 10
8.2087170031
 20
3.2657847826
 40
0.2203125
100
AcDbArc
 50
238.2208244843
 51
238.7791755157
  0
ARC
  5
3E8
100
AcDbEntity
  8
0
100
AcDbCircle
 62
7
  6
CONTINUOUS
 10
8.2087170031
 20
3.2657847826
 40
0.2203125
100
AcDbArc
 50
241.2208244843
 51
241.7791755157
  0
ARC
  5
3E9
100
AcDbEntity
  8
0
100
AcDbCircle
 62
7
  6
CONTINUOUS
 10
8.2087170031
 20
3.2657847826
 40
0.2203125
100
AcDbArc
 50
244.2208244843
 51
244.7791755157
  0
ARC
  5
3EA
100
AcDbEntity
  8
0
100
AcDbCircle
 62
7
  6
CONTINUOUS
 10
8.2087170031
 20
3.2657847826
 40
0.2203125
100
AcDbArc
 50
247.2208244843
 51
247.7791755157
  0
ARC
  5
3EB
100
AcDbEntity
  8
0
100
AcDbCircle
 62
7
  6
CONTINUOUS
 10
8.2087170031
 20
3.2657847826
 40
0.2203125
100
AcDbArc
 50
250.2208244843
 51
250.780848866
  0
ARC
  5
3EC
100
AcDbEntity
  8
0
100
AcDbCircle
 62
7
  6
CONTINUOUS
 10
8.2087170031
 20
3.2657847826
 40
0.2203125
100
AcDbArc
 50
253.219151134
 51
253.7791755157
  0
ARC
  5
3ED
100
AcDbEntity
  8
0
100
AcDbCircle
 62
7
  6
CONTINUOUS
 10
8.2087170031
 20
3.2657847826
 40
0.2203125
100
AcDbArc
 50
256.2208244843
 51
256.7791755157
  0
ARC
  5
3EE
100
AcDbEntity
  8
0
100
AcDbCircle
 62
7
  6
CONTINUOUS
 10
8.2087170031
 20
3.2657847826
 40
0.2203125
100
AcDbArc
 50
259.2208244843
 51
259.7791755157
  0
ARC
  5
3EF
100
AcDbEntity
  8
0
100
AcDbCircle
 62
7
  6
CONTINUOUS
 10
8.2087170031
 20
3.2657847826
 40
0.2203125
100
AcDbArc
 50
262.2208244843
 51
262.7791755157
  0
ARC
  5
3F0
100
AcDbEntity
  8
0
100
AcDbCircle
 62
7
  6
CONTINUOUS
 10
8.2087170031
 20
3.2657847826
 40
0.2203125
100
AcDbArc
 50
265.2208244843
 51
265.7791755157
  0
ARC
  5
3F1
100
AcDbEntity
  8
0
100
AcDbCircle
 62
7
  6
CONTINUOUS
 10
8.2087170031
 20
3.2657847826
 40
0.2203125
100
AcDbArc
 50
268.2208244843
 51
268.780848866
  0
ARC
  5
3F2
100
AcDbEntity
  8
0
100
AcDbCircle
 62
7
  6
CONTINUOUS
 10
8.2087170031
 20
3.2657847826
 40
0.2203125
100
AcDbArc
 50
271.219151134
 51
271.7791755157
  0
ARC
  5
3F3
100
AcDbEntity
  8
0
100
AcDbCircle
 62
7
  6
CONTINUOUS
 10
8.2087170031
 20
3.2657847826
 40
0.2203125
100
AcDbArc
 50
274.2208244843
 51
274.7791755157
  0
ARC
  5
3F4
100
AcDbEntity
  8
0
100
AcDbCircle
 62
7
  6
CONTINUOUS
 10
8.2087170031
 20
3.2657847826
 40
0.2203125
100
AcDbArc
 50
277.2208244843
 51
277.7791755157
  0
ARC
  5
3F5
100
AcDbEntity
  8
0
100
AcDbCircle
 62
7
  6
CONTINUOUS
 10
8.2087170031
 20
3.2657847826
 40
0.2203125
100
AcDbArc
 50
280.2208244843
 51
280.7791755157
  0
ARC
  5
3F6
100
AcDbEntity
  8
0
100
AcDbCircle
 62
7
  6
CONTINUOUS
 10
8.2087170031
 20
3.2657847826
 40
0.2203125
100
AcDbArc
 50
283.2208244843
 51
283.7791755157
  0
ARC
  5
3F7
100
AcDbEntity
  8
0
100
AcDbCircle
 62
7
  6
CONTINUOUS
 10
8.2087170031
 20
3.2657847826
 40
0.2203125
100
AcDbArc
 50
286.2208244843
 51
286.780848866
  0
ARC
  5
3F8
100
AcDbEntity
  8
0
100
AcDbCircle
 62
7
  6
CONTINUOUS
 10
8.2087170031
 20
3.2657847826
 40
0.2203125
100
AcDbArc
 50
289.219151134
 51
289.7791755157
  0
ARC
  5
3F9
100
AcDbEntity
  8
0
100
AcDbCircle
 62
7
  6
CONTINUOUS
 10
8.2087170031
 20
3.2657847826
 40
0.2203125
100
AcDbArc
 50
292.2208244843
 51
292.7791755157
  0
ARC
  5
3FA
100
AcDbEntity
  8
0
100
AcDbCircle
 62
7
  6
CONTINUOUS
 10
8.2087170031
 20
3.2657847826
 40
0.2203125
100
AcDbArc
 50
295.2208244843
 51
295.7791755157
  0
ARC
  5
3FB
100
AcDbEntity
  8
0
100
AcDbCircle
 62
7
  6
CONTINUOUS
 10
8.2087170031
 20
3.2657847826
 40
0.2203125
100
AcDbArc
 50
298.2208244843
 51
298.7791755157
  0
ARC
  5
3FC
100
AcDbEntity
  8
0
100
AcDbCircle
 62
7
  6
CONTINUOUS
 10
8.2087170031
 20
3.2657847826
 40
0.2203125
100
AcDbArc
 50
301.2208244843
 51
301.7791755157
  0
ARC
  5
3FD
100
AcDbEntity
  8
0
100
AcDbCircle
 62
7
  6
CONTINUOUS
 10
8.2087170031
 20
3.2657847826
 40
0.2203125
100
AcDbArc
 50
304.2208244843
 51
304.780848866
  0
ARC
  5
3FE
100
AcDbEntity
  8
0
100
AcDbCircle
 62
7
  6
CONTINUOUS
 10
8.2087170031
 20
3.2657847826
 40
0.2203125
100
AcDbArc
 50
307.219151134
 51
307.7791755157
  0
ARC
  5
3FF
100
AcDbEntity
  8
0
100
AcDbCircle
 62
7
  6
CONTINUOUS
 10
8.2087170031
 20
3.2657847826
 40
0.2203125
100
AcDbArc
 50
310.2208244843
 51
310.7791755157
  0
ARC
  5
400
100
AcDbEntity
  8
0
100
AcDbCircle
 62
7
  6
CONTINUOUS
 10
8.2087170031
 20
3.2657847826
 40
0.2203125
100
AcDbArc
 50
313.2208244843
 51
313.7791755157
  0
ARC
  5
401
100
AcDbEntity
  8
0
100
AcDbCircle
 62
7
  6
CONTINUOUS
 10
8.2087170031
 20
3.2657847826
 40
0.2203125
100
AcDbArc
 50
316.2208244843
 51
316.7791755157
  0
ARC
  5
402
100
AcDbEntity
  8
0
100
AcDbCircle
 62
7
  6
CONTINUOUS
 10
8.2087170031
 20
3.2657847826
 40
0.2203125
100
AcDbArc
 50
319.2208244843
 51
319.7791755157
  0
ARC
  5
403
100
AcDbEntity
  8
0
100
AcDbCircle
 62
7
  6
CONTINUOUS
 10
8.2087170031
 20
3.2657847826
 40
0.2203125
100
AcDbArc
 50
322.2208244843
 51
322.780848866
  0
ARC
  5
404
100
AcDbEntity
  8
0
100
AcDbCircle
 62
7
  6
CONTINUOUS
 10
8.2087170031
 20
3.2657847826
 40
0.2203125
100
AcDbArc
 50
325.219151134
 51
325.7791755157
  0
ARC
  5
405
100
AcDbEntity
  8
0
100
AcDbCircle
 62
7
  6
CONTINUOUS
 10
8.2087170031
 20
3.2657847826
 40
0.2203125
100
AcDbArc
 50
328.2208244843
 51
328.7791755157
  0
ARC
  5
406
100
AcDbEntity
  8
0
100
AcDbCircle
 62
7
  6
CONTINUOUS
 10
8.2087170031
 20
3.2657847826
 40
0.2203125
100
AcDbArc
 50
331.2208244843
 51
331.7791755157
  0
ARC
  5
407
100
AcDbEntity
  8
0
100
AcDbCircle
 62
7
  6
CONTINUOUS
 10
8.2087170031
 20
3.2657847826
 40
0.2203125
100
AcDbArc
 50
334.2208244843
 51
334.7791755157
  0
ARC
  5
408
100
AcDbEntity
  8
0
100
AcDbCircle
 62
7
  6
CONTINUOUS
 10
8.2087170031
 20
3.2657847826
 40
0.2203125
100
AcDbArc
 50
337.2208244843
 51
337.7791755157
  0
ARC
  5
409
100
AcDbEntity
  8
0
100
AcDbCircle
 62
7
  6
CONTINUOUS
 10
8.2087170031
 20
3.2657847826
 40
0.2203125
100
AcDbArc
 50
340.2208244843
 51
340.780848866
  0
ARC
  5
40A
100
AcDbEntity
  8
0
100
AcDbCircle
 62
7
  6
CONTINUOUS
 10
8.2087170031
 20
3.2657847826
 40
0.2203125
100
AcDbArc
 50
343.219151134
 51
343.7791755157
  0
ARC
  5
40B
100
AcDbEntity
  8
0
100
AcDbCircle
 62
7
  6
CONTINUOUS
 10
8.2087170031
 20
3.2657847826
 40
0.2203125
100
AcDbArc
 50
346.2208244843
 51
346.7791755157
  0
ARC
  5
40C
100
AcDbEntity
  8
0
100
AcDbCircle
 62
7
  6
CONTINUOUS
 10
8.2087170031
 20
3.2657847826
 40
0.2203125
100
AcDbArc
 50
349.2208244843
 51
349.7791755157
  0
ARC
  5
40D
100
AcDbEntity
  8
0
100
AcDbCircle
 62
7
  6
CONTINUOUS
 10
8.2087170031
 20
3.2657847826
 40
0.2203125
100
AcDbArc
 50
352.2208244843
 51
352.7791755157
  0
ARC
  5
40E
100
AcDbEntity
  8
0
100
AcDbCircle
 62
7
  6
CONTINUOUS
 10
8.2087170031
 20
3.2657847826
 40
0.2203125
100
AcDbArc
 50
355.2208244843
 51
355.7791755157
  0
ARC
  5
40F
100
AcDbEntity
  8
0
100
AcDbCircle
 62
7
  6
CONTINUOUS
 10
8.2087170031
 20
3.2657847826
 40
0.2203125
100
AcDbArc
 50
358.2208244843
 51
358.780848866
  0
ARC
  5
410
100
AcDbEntity
  8
0
100
AcDbCircle
 62
7
  6
CONTINUOUS
 10
8.2087170031
 20
3.2657847826
 40
0.2203125
100
AcDbArc
 50
1.219151134
 51
1.7791755157
  0
ARC
  5
411
100
AcDbEntity
  8
0
100
AcDbCircle
 62
7
  6
CONTINUOUS
 10
8.2087170031
 20
3.2657847826
 40
0.2203125
100
AcDbArc
 50
4.2208244843
 51
4.7791755157
  0
ARC
  5
412
100
AcDbEntity
  8
0
100
AcDbCircle
 62
7
  6
CONTINUOUS
 10
8.2087170031
 20
3.2657847826
 40
0.2203125
100
AcDbArc
 50
7.2208244843
 51
7.7791755157
  0
ARC
  5
413
100
AcDbEntity
  8
0
100
AcDbCircle
 62
7
  6
CONTINUOUS
 10
8.2087170031
 20
3.2657847826
 40
0.2203125
100
AcDbArc
 50
10.2208244843
 51
10.7791755157
  0
ARC
  5
414
100
AcDbEntity
  8
0
100
AcDbCircle
 62
7
  6
CONTINUOUS
 10
8.2087170031
 20
3.2657847826
 40
0.2203125
100
AcDbArc
 50
13.2208244843
 51
13.7791755157
  0
ARC
  5
415
100
AcDbEntity
  8
0
100
AcDbCircle
 62
7
  6
CONTINUOUS
 10
8.2087170031
 20
3.2657847826
 40
0.2203125
100
AcDbArc
 50
16.2208244843
 51
16.780848866
  0
ARC
  5
416
100
AcDbEntity
  8
0
100
AcDbCircle
 62
7
  6
CONTINUOUS
 10
8.2087170031
 20
3.2657847826
 40
0.2203125
100
AcDbArc
 50
19.219151134
 51
19.7791755157
  0
ARC
  5
417
100
AcDbEntity
  8
0
100
AcDbCircle
 62
7
  6
CONTINUOUS
 10
8.2087170031
 20
3.2657847826
 40
0.2203125
100
AcDbArc
 50
22.2208244843
 51
22.7791755157
  0
ARC
  5
418
100
AcDbEntity
  8
0
100
AcDbCircle
 62
7
  6
CONTINUOUS
 10
8.2087170031
 20
3.2657847826
 40
0.2203125
100
AcDbArc
 50
25.2208244843
 51
25.7791755157
  0
ARC
  5
419
100
AcDbEntity
  8
0
100
AcDbCircle
 62
7
  6
CONTINUOUS
 10
8.2087170031
 20
3.2657847826
 40
0.2203125
100
AcDbArc
 50
28.2208244843
 51
28.7791755157
  0
ARC
  5
41A
100
AcDbEntity
  8
0
100
AcDbCircle
 62
7
  6
CONTINUOUS
 10
8.2087170031
 20
3.2657847826
 40
0.2203125
100
AcDbArc
 50
31.2208244843
 51
31.7791755157
  0
ARC
  5
41B
100
AcDbEntity
  8
0
100
AcDbCircle
 62
7
  6
CONTINUOUS
 10
8.2087170031
 20
3.2657847826
 40
0.2203125
100
AcDbArc
 50
34.2208244843
 51
34.780848866
  0
ARC
  5
41C
100
AcDbEntity
  8
0
100
AcDbCircle
 62
7
  6
CONTINUOUS
 10
8.2087170031
 20
3.2657847826
 40
0.2203125
100
AcDbArc
 50
37.219151134
 51
37.7791755157
  0
ARC
  5
41D
100
AcDbEntity
  8
0
100
AcDbCircle
 62
7
  6
CONTINUOUS
 10
8.2087170031
 20
3.2657847826
 40
0.2203125
100
AcDbArc
 50
40.2208244843
 51
40.7791755157
  0
ARC
  5
41E
100
AcDbEntity
  8
0
100
AcDbCircle
 62
7
  6
CONTINUOUS
 10
8.2087170031
 20
3.2657847826
 40
0.2203125
100
AcDbArc
 50
43.2208244843
 51
43.7791755157
  0
ARC
  5
41F
100
AcDbEntity
  8
0
100
AcDbCircle
 62
7
  6
CONTINUOUS
 10
8.2087170031
 20
3.2657847826
 40
0.2203125
100
AcDbArc
 50
46.2208244843
 51
46.7791755157
  0
ARC
  5
420
100
AcDbEntity
  8
0
100
AcDbCircle
 62
7
  6
CONTINUOUS
 10
8.2087170031
 20
3.2657847826
 40
0.2203125
100
AcDbArc
 50
49.2208244843
 51
49.7791755157
  0
ARC
  5
421
100
AcDbEntity
  8
0
100
AcDbCircle
 62
7
  6
CONTINUOUS
 10
8.2087170031
 20
3.2657847826
 40
0.2203125
100
AcDbArc
 50
52.2208244843
 51
52.780848866
  0
ARC
  5
422
100
AcDbEntity
  8
0
100
AcDbCircle
 62
7
  6
CONTINUOUS
 10
8.2087170031
 20
3.2657847826
 40
0.2203125
100
AcDbArc
 50
55.219151134
 51
55.7791755157
  0
ARC
  5
423
100
AcDbEntity
  8
0
100
AcDbCircle
 62
7
  6
CONTINUOUS
 10
8.2087170031
 20
3.2657847826
 40
0.2203125
100
AcDbArc
 50
58.2208244843
 51
58.7791755157
  0
ARC
  5
424
100
AcDbEntity
  8
0
100
AcDbCircle
 62
7
  6
CONTINUOUS
 10
8.2087170031
 20
3.2657847826
 40
0.2203125
100
AcDbArc
 50
61.2208244843
 51
61.7791755157
  0
ARC
  5
425
100
AcDbEntity
  8
0
100
AcDbCircle
 62
7
  6
CONTINUOUS
 10
8.2087170031
 20
3.2657847826
 40
0.2203125
100
AcDbArc
 50
64.2208244843
 51
64.7791755157
  0
ARC
  5
426
100
AcDbEntity
  8
0
100
AcDbCircle
 62
7
  6
CONTINUOUS
 10
8.2087170031
 20
3.2657847826
 40
0.2203125
100
AcDbArc
 50
67.2208244843
 51
67.7791755157
  0
ARC
  5
427
100
AcDbEntity
  8
0
100
AcDbCircle
 62
7
  6
CONTINUOUS
 10
8.2087170031
 20
3.2657847826
 40
0.2203125
100
AcDbArc
 50
70.2208244843
 51
70.780848866
  0
ARC
  5
428
100
AcDbEntity
  8
0
100
AcDbCircle
 62
7
  6
CONTINUOUS
 10
8.2087170031
 20
3.2657847826
 40
0.2203125
100
AcDbArc
 50
73.219151134
 51
73.7791755157
  0
ARC
  5
429
100
AcDbEntity
  8
0
100
AcDbCircle
 62
7
  6
CONTINUOUS
 10
8.2087170031
 20
3.2657847826
 40
0.2203125
100
AcDbArc
 50
76.2208244843
 51
76.7791755157
  0
ARC
  5
42A
100
AcDbEntity
  8
0
100
AcDbCircle
 62
7
  6
CONTINUOUS
 10
8.2087170031
 20
3.2657847826
 40
0.2203125
100
AcDbArc
 50
79.2208244843
 51
79.7791755157
  0
ARC
  5
42B
100
AcDbEntity
  8
0
100
AcDbCircle
 62
7
  6
CONTINUOUS
 10
8.2087170031
 20
3.2657847826
 40
0.2203125
100
AcDbArc
 50
82.2208244843
 51
82.7791755157
  0
ARC
  5
42C
100
AcDbEntity
  8
0
100
AcDbCircle
 62
7
  6
CONTINUOUS
 10
8.2087170031
 20
3.2657847826
 40
0.2203125
100
AcDbArc
 50
85.2208244843
 51
85.7791755157
  0
ARC
  5
42D
100
AcDbEntity
  8
0
100
AcDbCircle
 62
7
  6
CONTINUOUS
 10
8.2087170031
 20
3.2657847826
 40
0.2203125
100
AcDbArc
 50
88.2208244843
 51
88.780848866
  0
ARC
  5
42E
100
AcDbEntity
  8
0
100
AcDbCircle
 62
7
  6
CONTINUOUS
 10
8.2087170031
 20
3.2657847826
 40
0.2203125
100
AcDbArc
 50
103.2208244843
 51
103.7791755157
  0
ARC
  5
42F
100
AcDbEntity
  8
0
100
AcDbCircle
 62
7
  6
CONTINUOUS
 10
8.2087170031
 20
3.2657847826
 40
0.2203125
100
AcDbArc
 50
100.2208244843
 51
100.7791755157
  0
ARC
  5
430
100
AcDbEntity
  8
0
100
AcDbCircle
 62
7
  6
CONTINUOUS
 10
8.2087170031
 20
3.2657847826
 40
0.2203125
100
AcDbArc
 50
97.2208244843
 51
97.7791755157
  0
ARC
  5
431
100
AcDbEntity
  8
0
100
AcDbCircle
 62
7
  6
CONTINUOUS
 10
8.2087170031
 20
3.2657847826
 40
0.2203125
100
AcDbArc
 50
94.2208244843
 51
94.7791755157
  0
ARC
  5
432
100
AcDbEntity
  8
0
100
AcDbCircle
 62
7
  6
CONTINUOUS
 10
8.2087170031
 20
3.2657847826
 40
0.2203125
100
AcDbArc
 50
91.219151134
 51
91.7791755157
  0
CIRCLE
  5
433
100
AcDbEntity
  8
0
100
AcDbCircle
 62
7
  6
CONTINUOUS
 10
8.2087170031
 20
3.2657847826
 40
0.20625
  0
CIRCLE
  5
434
100
AcDbEntity
  8
0
100
AcDbCircle
 62
7
  6
CONTINUOUS
 10
8.2087170031
 20
3.2657847826
 40
0.195
  0
CIRCLE
  5
435
100
AcDbEntity
  8
0
100
AcDbCircle
 62
7
  6
CONTINUOUS
 10
8.2087170031
 20
3.2657847826
 40
0.16875
  0
CIRCLE
  5
436
100
AcDbEntity
  8
0
100
AcDbCircle
 62
7
  6
CONTINUOUS
 10
8.2087170031
 20
3.2657847826
 40
0.1575
  0
CIRCLE
  5
437
100
AcDbEntity
  8
0
100
AcDbCircle
 62
7
  6
CONTINUOUS
 10
8.2087170031
 20
3.2657847826
 40
0.1565625
  0
CIRCLE
  5
438
100
AcDbEntity
  8
0
100
AcDbCircle
 62
7
  6
CONTINUOUS
 10
8.2087170031
 20
3.2657847826
 40
0.1553887795
  0
CIRCLE
  5
439
100
AcDbEntity
  8
0
100
AcDbCircle
 62
7
  6
CONTINUOUS
 10
8.2087170031
 20
3.2657847826
 40
0.152786636
  0
CIRCLE
  5
43A
100
AcDbEntity
  8
0
100
AcDbCircle
 62
7
  6
CONTINUOUS
 10
8.2604711921
 20
3.3175389896
 40
0.0073454943
  0
ARC
  5
43B
100
AcDbEntity
  8
0
100
AcDbCircle
 62
7
  6
CONTINUOUS
 10
8.2087183302
 20
3.3845858716
 40
0.0077756494
100
AcDbArc
 50
78.0798146319
 51
259.4381170096
  0
CIRCLE
  5
43C
100
AcDbEntity
  8
0
100
AcDbCircle
 62
7
  6
CONTINUOUS
 10
8.2541814377
 20
3.3755421693
 40
0.0077756493
  0
ARC
  5
43D
100
AcDbEntity
  8
0
100
AcDbCircle
 62
7
  6
CONTINUOUS
 10
8.2087170142
 20
3.3389767475
 40
0.0073454973
100
AcDbArc
 50
30.6274808074
 51
211.7144678611
  0
ARC
  5
43E
100
AcDbEntity
  8
0
100
AcDbCircle
 62
7
  6
CONTINUOUS
 10
8.3275182018
 20
3.2657863344
 40
0.0077758164
100
AcDbArc
 50
180.01143442
 51
348.0588919743
  0
CIRCLE
  5
43F
100
AcDbEntity
  8
0
100
AcDbCircle
 62
7
  6
CONTINUOUS
 10
8.3184754068
 20
3.3112467653
 40
0.0077756494
  0
ARC
  5
440
100
AcDbEntity
  8
0
100
AcDbCircle
 62
7
  6
CONTINUOUS
 10
8.2819092363
 20
3.2657848696
 40
0.0073453321
100
AcDbArc
 50
180.0030310538
 51
359.9993211888
  0
CIRCLE
  5
441
100
AcDbEntity
  8
0
100
AcDbCircle
 62
7
  6
CONTINUOUS
 10
8.2927229982
 20
3.3497889006
 40
0.0077756494
  0
SPLINE
  5
442
100
AcDbEntity
  8
0
100
AcDbSpline
 62
7
  6
CONTINUOUS
 70
0
 71
3
 72
22
 73
18
 74
0
 42
0.0000001
 43
0.0000001
 44
0.0000000001
 40
0.0
 40
0.0
 40
0.0
 40
0.0
 40
0.0470516734
 40
0.0939837977
 40
0.1406802065
 40
0.1870306331
 40
0.2782780842
 40
0.3670220988
 40
0.4526475139
 40
0.5345942519
 40
0.6123033771
 40
0.6851737649
 40
0.7525329151
 40
0.8136222755
 40
0.9135522529
 40
0.9777531742
 40
1.0
 40
1.0
 40
1.0
 40
1.0
 10
5.8491297091
 20
3.6940347826
 30
0.0
 10
5.8491297091
 20
3.6925498209
 30
0.0
 10
5.8490693524
 20
3.6895833157
 30
0.0
 10
5.8487995985
 20
3.685150493
 30
0.0
 10
5.8483563511
 20
3.6807538252
 30
0.0
 10
5.8475504633
 20
3.67499236
 30
0.0
 10
5.8461708993
 20
3.6679767744
 30
0.0
 10
5.8440108686
 20
3.6598715587
 30
0.0
 10
5.8414795518
 20
3.6521843232
 30
0.0
 10
5.838698548
 20
3.6449571725
 30
0.0
 10
5.8357806349
 20
3.638221717
 30
0.0
 10
5.832828965
 20
3.6320077984
 30
0.0
 10
5.8299388503
 20
3.6263486771
 30
0.0
 10
5.8265097508
 20
3.6200084128
 30
0.0
 10
5.8229612883
 20
3.6138480236
 30
0.0
 10
5.8199072165
 20
3.6088206084
 30
0.0
 10
5.8184648341
 20
3.6065047298
 30
0.0
 10
5.8180920031
 20
3.6059097826
 30
0.0
  0
SPLINE
  5
443
100
AcDbEntity
  8
0
100
AcDbSpline
 62
7
  6
CONTINUOUS
 70
0
 71
3
 72
22
 73
18
 74
0
 42
0.0000001
 43
0.0000001
 44
0.0000000001
 40
0.0
 40
0.0
 40
0.0
 40
0.0
 40
0.0470516734
 40
0.0939837977
 40
0.1406802065
 40
0.1870306331
 40
0.2782780843
 40
0.3670220988
 40
0.4526475139
 40
0.534594252
 40
0.6123033771
 40
0.6851737649
 40
0.7525329151
 40
0.8136222756
 40
0.9135522529
 40
0.9777531742
 40
1.0
 40
1.0
 40
1.0
 40
1.0
 10
6.0683042971
 20
3.6940347826
 30
0.0
 10
6.0683042971
 20
3.6955197443
 30
0.0
 10
6.0683646538
 20
3.6984862495
 30
0.0
 10
6.0686344077
 20
3.7029190722
 30
0.0
 10
6.0690776551
 20
3.70731574
 30
0.0
 10
6.0698835429
 20
3.7130772052
 30
0.0
 10
6.0712631069
 20
3.7200927909
 30
0.0
 10
6.0734231377
 20
3.7281980065
 30
0.0
 10
6.0759544545
 20
3.735885242
 30
0.0
 10
6.0787354583
 20
3.7431123927
 30
0.0
 10
6.0816533713
 20
3.7498478482
 30
0.0
 10
6.0846050412
 20
3.7560617668
 30
0.0
 10
6.0874951559
 20
3.7617208881
 30
0.0
 10
6.0909242554
 20
3.7680611524
 30
0.0
 10
6.0944727179
 20
3.7742215416
 30
0.0
 10
6.0975267897
 20
3.7792489568
 30
0.0
 10
6.0989691721
 20
3.7815648354
 30
0.0
 10
6.0993420031
 20
3.7821597826
 30
0.0
  0
SPLINE
  5
444
100
AcDbEntity
  8
0
100
AcDbSpline
 62
7
  6
CONTINUOUS
 70
0
 71
3
 72
22
 73
18
 74
0
 42
0.0000001
 43
0.0000001
 44
0.0000000001
 40
0.0
 40
0.0
 40
0.0
 40
0.0
 40
0.0470516734
 40
0.0939837977
 40
0.1406802065
 40
0.1870306331
 40
0.2782780842
 40
0.3670220988
 40
0.4526475139
 40
0.5345942519
 40
0.6123033771
 40
0.6851737649
 40
0.7525329151
 40
0.8136222755
 40
0.9135522529
 40
0.9777531742
 40
1.0
 40
1.0
 40
1.0
 40
1.0
 10
3.0683042971
 20
3.6940347826
 30
0.0
 10
3.0683042971
 20
3.6955197443
 30
0.0
 10
3.0683646538
 20
3.6984862495
 30
0.0
 10
3.0686344077
 20
3.7029190722
 30
0.0
 10
3.0690776551
 20
3.70731574
 30
0.0
 10
3.0698835429
 20
3.7130772052
 30
0.0
 10
3.0712631069
 20
3.7200927909
 30
0.0
 10
3.0734231377
 20
3.7281980065
 30
0.0
 10
3.0759544545
 20
3.735885242
 30
0.0
 10
3.0787354583
 20
3.7431123927
 30
0.0
 10
3.0816533713
 20
3.7498478482
 30
0.0
 10
3.0846050412
 20
3.7560617668
 30
0.0
 10
3.0874951559
 20
3.7617208881
 30
0.0
 10
3.0909242554
 20
3.7680611524
 30
0.0
 10
3.0944727179
 20
3.7742215416
 30
0.0
 10
3.0975267897
 20
3.7792489568
 30
0.0
 10
3.0989691721
 20
3.7815648354
 30
0.0
 10
3.0993420031
 20
3.7821597826
 30
0.0
  0
SPLINE
  5
445
100
AcDbEntity
  8
0
100
AcDbSpline
 62
7
  6
CONTINUOUS
 70
0
 71
3
 72
22
 73
18
 74
0
 42
0.0000001
 43
0.0000001
 44
0.0000000001
 40
0.0
 40
0.0
 40
0.0
 40
0.0
 40
0.0470516734
 40
0.0939837977
 40
0.1406802065
 40
0.1870306331
 40
0.2782780843
 40
0.3670220988
 40
0.4526475139
 40
0.534594252
 40
0.6123033771
 40
0.6851737649
 40
0.7525329151
 40
0.8136222756
 40
0.9135522529
 40
0.9777531742
 40
1.0
 40
1.0
 40
1.0
 40
1.0
 10
2.8491297091
 20
3.6940347826
 30
0.0
 10
2.8491297091
 20
3.6925498209
 30
0.0
 10
2.8490693524
 20
3.6895833157
 30
0.0
 10
2.8487995985
 20
3.685150493
 30
0.0
 10
2.8483563511
 20
3.6807538252
 30
0.0
 10
2.8475504633
 20
3.67499236
 30
0.0
 10
2.8461708993
 20
3.6679767744
 30
0.0
 10
2.8440108686
 20
3.6598715587
 30
0.0
 10
2.8414795517
 20
3.6521843232
 30
0.0
 10
2.8386985479
 20
3.6449571725
 30
0.0
 10
2.8357806349
 20
3.638221717
 30
0.0
 10
2.832828965
 20
3.6320077984
 30
0.0
 10
2.8299388503
 20
3.6263486771
 30
0.0
 10
2.8265097508
 20
3.6200084128
 30
0.0
 10
2.8229612883
 20
3.6138480236
 30
0.0
 10
2.8199072165
 20
3.6088206084
 30
0.0
 10
2.8184648341
 20
3.6065047298
 30
0.0
 10
2.8180920031
 20
3.6059097826
 30
0.0
  0
SPLINE
  5
446
100
AcDbEntity
  8
0
100
AcDbSpline
 62
7
  6
CONTINUOUS
 70
0
 71
3
 72
22
 73
18
 74
0
 42
0.0000001
 43
0.0000001
 44
0.0000000001
 40
0.0
 40
0.0
 40
0.0
 40
0.0
 40
0.0222468258
 40
0.0864477471
 40
0.1863777245
 40
0.2474670849
 40
0.3148262351
 40
0.3876966229
 40
0.4654057481
 40
0.5473524861
 40
0.6329779012
 40
0.7217219158
 40
0.8129693669
 40
0.8593197935
 40
0.9060162023
 40
0.9529483266
 40
1.0
 40
1.0
 40
1.0
 40
1.0
 10
2.8180920031
 20
3.7821597826
 30
0.0
 10
2.8184648341
 20
3.7815648354
 30
0.0
 10
2.8199072165
 20
3.7792489568
 30
0.0
 10
2.8229612883
 20
3.7742215416
 30
0.0
 10
2.8265097508
 20
3.7680611524
 30
0.0
 10
2.8299388503
 20
3.7617208881
 30
0.0
 10
2.832828965
 20
3.7560617668
 30
0.0
 10
2.8357806349
 20
3.7498478482
 30
0.0
 10
2.838698548
 20
3.7431123927
 30
0.0
 10
2.8414795518
 20
3.735885242
 30
0.0
 10
2.8440108686
 20
3.7281980065
 30
0.0
 10
2.8461708993
 20
3.7200927909
 30
0.0
 10
2.8475504633
 20
3.7130772052
 30
0.0
 10
2.8483563511
 20
3.70731574
 30
0.0
 10
2.8487995985
 20
3.7029190722
 30
0.0
 10
2.8490693524
 20
3.6984862495
 30
0.0
 10
2.8491297091
 20
3.6955197443
 30
0.0
 10
2.8491297091
 20
3.6940347826
 30
0.0
  0
SPLINE
  5
447
100
AcDbEntity
  8
0
100
AcDbSpline
 62
7
  6
CONTINUOUS
 70
0
 71
3
 72
22
 73
18
 74
0
 42
0.0000001
 43
0.0000001
 44
0.0000000001
 40
0.0
 40
0.0
 40
0.0
 40
0.0
 40
0.0222468258
 40
0.0864477471
 40
0.1863777244
 40
0.2474670849
 40
0.3148262351
 40
0.3876966229
 40
0.465405748
 40
0.5473524861
 40
0.6329779012
 40
0.7217219157
 40
0.8129693669
 40
0.8593197935
 40
0.9060162023
 40
0.9529483266
 40
1.0
 40
1.0
 40
1.0
 40
1.0
 10
3.0993420031
 20
3.6059097826
 30
0.0
 10
3.0989691721
 20
3.6065047298
 30
0.0
 10
3.0975267897
 20
3.6088206084
 30
0.0
 10
3.0944727179
 20
3.6138480236
 30
0.0
 10
3.0909242554
 20
3.6200084128
 30
0.0
 10
3.0874951559
 20
3.6263486771
 30
0.0
 10
3.0846050412
 20
3.6320077984
 30
0.0
 10
3.0816533713
 20
3.638221717
 30
0.0
 10
3.0787354583
 20
3.6449571725
 30
0.0
 10
3.0759544545
 20
3.6521843232
 30
0.0
 10
3.0734231377
 20
3.6598715587
 30
0.0
 10
3.0712631069
 20
3.6679767744
 30
0.0
 10
3.0698835429
 20
3.67499236
 30
0.0
 10
3.0690776551
 20
3.6807538252
 30
0.0
 10
3.0686344077
 20
3.685150493
 30
0.0
 10
3.0683646538
 20
3.6895833157
 30
0.0
 10
3.0683042971
 20
3.6925498209
 30
0.0
 10
3.0683042971
 20
3.6940347826
 30
0.0
  0
SPLINE
  5
448
100
AcDbEntity
  8
0
100
AcDbSpline
 62
7
  6
CONTINUOUS
 70
0
 71
3
 72
22
 73
18
 74
0
 42
0.0000001
 43
0.0000001
 44
0.0000000001
 40
0.0
 40
0.0
 40
0.0
 40
0.0
 40
0.0222468258
 40
0.0864477471
 40
0.1863777245
 40
0.2474670849
 40
0.3148262351
 40
0.3876966229
 40
0.4654057481
 40
0.5473524861
 40
0.6329779012
 40
0.7217219158
 40
0.8129693669
 40
0.8593197935
 40
0.9060162023
 40
0.9529483266
 40
1.0
 40
1.0
 40
1.0
 40
1.0
 10
6.0993420031
 20
3.6059097826
 30
0.0
 10
6.0989691721
 20
3.6065047298
 30
0.0
 10
6.0975267897
 20
3.6088206084
 30
0.0
 10
6.0944727179
 20
3.6138480236
 30
0.0
 10
6.0909242554
 20
3.6200084128
 30
0.0
 10
6.0874951559
 20
3.6263486771
 30
0.0
 10
6.0846050412
 20
3.6320077984
 30
0.0
 10
6.0816533713
 20
3.638221717
 30
0.0
 10
6.0787354583
 20
3.6449571725
 30
0.0
 10
6.0759544545
 20
3.6521843232
 30
0.0
 10
6.0734231377
 20
3.6598715587
 30
0.0
 10
6.0712631069
 20
3.6679767744
 30
0.0
 10
6.0698835429
 20
3.67499236
 30
0.0
 10
6.0690776551
 20
3.6807538252
 30
0.0
 10
6.0686344077
 20
3.685150493
 30
0.0
 10
6.0683646538
 20
3.6895833157
 30
0.0
 10
6.0683042971
 20
3.6925498209
 30
0.0
 10
6.0683042971
 20
3.6940347826
 30
0.0
  0
SPLINE
  5
449
100
AcDbEntity
  8
0
100
AcDbSpline
 62
7
  6
CONTINUOUS
 70
0
 71
3
 72
22
 73
18
 74
0
 42
0.0000001
 43
0.0000001
 44
0.0000000001
 40
0.0
 40
0.0
 40
0.0
 40
0.0
 40
0.0222468258
 40
0.0864477471
 40
0.1863777244
 40
0.2474670849
 40
0.3148262351
 40
0.3876966229
 40
0.465405748
 40
0.5473524861
 40
0.6329779012
 40
0.7217219157
 40
0.8129693669
 40
0.8593197935
 40
0.9060162023
 40
0.9529483266
 40
1.0
 40
1.0
 40
1.0
 40
1.0
 10
5.8180920031
 20
3.7821597826
 30
0.0
 10
5.8184648341
 20
3.7815648354
 30
0.0
 10
5.8199072165
 20
3.7792489568
 30
0.0
 10
5.8229612883
 20
3.7742215416
 30
0.0
 10
5.8265097508
 20
3.7680611524
 30
0.0
 10
5.8299388503
 20
3.7617208881
 30
0.0
 10
5.832828965
 20
3.7560617668
 30
0.0
 10
5.8357806349
 20
3.7498478482
 30
0.0
 10
5.8386985479
 20
3.7431123927
 30
0.0
 10
5.8414795517
 20
3.735885242
 30
0.0
 10
5.8440108686
 20
3.7281980065
 30
0.0
 10
5.8461708993
 20
3.7200927909
 30
0.0
 10
5.8475504633
 20
3.7130772052
 30
0.0
 10
5.8483563511
 20
3.70731574
 30
0.0
 10
5.8487995985
 20
3.7029190722
 30
0.0
 10
5.8490693524
 20
3.6984862495
 30
0.0
 10
5.8491297091
 20
3.6955197443
 30
0.0
 10
5.8491297091
 20
3.6940347826
 30
0.0
  0
LINE
  5
44A
100
AcDbEntity
  8
0
100
AcDbLine
 62
7
  6
CONTINUOUS
 10
3.2268420031
 20
2.2416597826
 11
2.9587170031
 21
2.4760347826
  0
SPLINE
  5
44B
100
AcDbEntity
  8
0
100
AcDbSpline
 62
7
  6
CONTINUOUS
 70
0
 71
3
 72
23
 73
19
 74
0
 42
0.0000001
 43
0.0000001
 44
0.0000000001
 40
0.0
 40
0.0
 40
0.0
 40
0.0
 40
0.1155078697
 40
0.2335689974
 40
0.2936495316
 40
0.354457552
 40
0.4160137268
 40
0.4783297767
 40
0.5414053233
 40
0.6052236604
 40
0.6697483604
 40
0.734919354
 40
0.7677250105
 40
0.8006582427
 40
0.8337041783
 40
0.8668466867
 40
0.933342134
 40
1.0
 40
1.0
 40
1.0
 40
1.0
 10
8.332213295
 20
3.0837366987
 30
0.0
 10
8.328521445
 20
3.0798234959
 30
0.0
 10
8.3207483283
 20
3.0721944991
 30
0.0
 10
8.3102220267
 20
3.0634346184
 30
0.0
 10
8.3012147561
 20
3.0568922789
 30
0.0
 10
8.2941148306
 20
3.0522175747
 30
0.0
 10
8.2867104249
 20
3.0478334692
 30
0.0
 10
8.2790042349
 20
3.0437720802
 30
0.0
 10
8.2710038849
 20
3.0400671045
 30
0.0
 10
8.2627217524
 20
3.0367550382
 30
0.0
 10
8.2541778076
 20
3.0338709075
 30
0.0
 10
8.246876725
 20
3.0318591373
 30
0.0
 10
8.2409330358
 20
3.0304962791
 30
0.0
 10
8.2364196005
 20
3.0295995086
 30
0.0
 10
8.2318660671
 20
3.0288343801
 30
0.0
 10
8.2257428932
 20
3.0279934635
 30
0.0
 10
8.2180248601
 20
3.0272877408
 30
0.0
 10
8.211821641
 20
3.0270973557
 30
0.0
 10
8.2087170031
 20
3.0270972826
 30
0.0
  0
LINE
  5
44C
100
AcDbEntity
  8
0
100
AcDbLine
 62
7
  6
CONTINUOUS
 10
3.1930920031
 20
2.2079097826
 11
2.9587170031
 21
2.4760347826
  0
SPLINE
  5
44D
100
AcDbEntity
  8
0
100
AcDbSpline
 62
7
  6
CONTINUOUS
 70
0
 71
3
 72
132
 73
128
 74
0
 42
0.0000001
 43
0.0000001
 44
0.0000000001
 40
0.0
 40
0.0
 40
0.0
 40
0.0
 40
0.0000033343
 40
0.0000074489
 40
0.0000131941
 40
0.0000295734
 40
0.0000524664
 40
0.0000818671
 40
0.0001177695
 40
0.0001601677
 40
0.0002090557
 40
0.0003262775
 40
0.0004693874
 40
0.0006383379
 40
0.0008330737
 40
0.0010535237
 40
0.001299615
 40
0.0018684295
 40
0.0025389332
 40
0.0033105185
 40
0.0041825246
 40
0.0051542832
 40
0.006225112
 40
0.0073941968
 40
0.0100235876
 40
0.0130344299
 40
0.0164158927
 40
0.0201565913
 40
0.0242450928
 40
0.0286699652
 40
0.0334197679
 40
0.0384827626
 40
0.0494999206
 40
0.0616230975
 40
0.0747576147
 40
0.0888154432
 40
0.1037140475
 40
0.1193765855
 40
0.1357331395
 40
0.1702818786
 40
0.1883654096
 40
0.2069254363
 40
0.2259222547
 40
0.2453192582
 40
0.2650836392
 40
0.2851872461
 40
0.2953589332
 40
0.3056065634
 40
0.3263176117
 40
0.3473006786
 40
0.357889216
 40
0.3685391905
 40
0.3900119989
 40
0.4117000544
 40
0.42261895
 40
0.4335822214
 40
0.4445854128
 40
0.4556235047
 40
0.4666908201
 40
0.4722336839
 40
0.4777814148
 40
0.4888868707
 40
0.5000001859
 40
0.5111134971
 40
0.5222189674
 40
0.5277666884
 40
0.533309544
 40
0.544376882
 40
0.5554149773
 40
0.5664181579
 40
0.58829685
 40
0.5991677683
 40
0.609987454
 40
0.6314602017
 40
0.6421102134
 40
0.6526989389
 40
0.6632239672
 40
0.6736829412
 40
0.6943933688
 40
0.7148122146
 40
0.7349168617
 40
0.7546810492
 40
0.774077267
 40
0.7930741026
 40
0.811635088
 40
0.8297186729
 40
0.8472795534
 40
0.8642669518
 40
0.880623629
 40
0.8962862028
 40
0.9111849354
 40
0.925243244
 40
0.938378266
 40
0.9505008647
 40
0.9561532475
 40
0.9615172561
 40
0.9665807168
 40
0.9713311998
 40
0.9757565765
 40
0.979845
 40
0.9835850698
 40
0.9869657175
 40
0.9899762553
 40
0.99260658
 40
0.9937765242
 40
0.994848342
 40
0.9958210939
 40
0.9966938999
 40
0.9974658832
 40
0.9981362243
 40
0.9987044138
 40
0.9989500757
 40
0.9991700484
 40
0.9993642815
 40
0.9995327267
 40
0.9996753481
 40
0.9997921142
 40
0.9998407918
 40
0.9998829938
 40
0.9999187164
 40
0.9999479556
 40
0.9999707074
 40
0.9999869681
 40
0.999992663
 40
0.9999967336
 40
0.9999991794
 40
1.0
 40
1.0
 40
1.0
 40
1.0
 10
4.6462170031
 20
2.7441597826
 30
0.0
 10
4.646216785
 20
2.7441593306
 30
0.0
 10
4.6462157808
 20
2.7441586869
 30
0.0
 10
4.6462144791
 20
2.7441572116
 30
0.0
 10
4.6462116133
 20
2.7441544737
 30
0.0
 10
4.6462068416
 20
2.7441496757
 30
0.0
 10
4.6461994667
 20
2.7441424254
 30
0.0
 10
4.6461900262
 20
2.7441330938
 30
0.0
 10
4.6461784788
 20
2.7441217137
 30
0.0
 10
4.6461648404
 20
2.7441082774
 30
0.0
 10
4.6461424705
 20
2.7440862618
 30
0.0
 10
4.646109275
 20
2.7440536337
 30
0.0
 10
4.6460631543
 20
2.7440083735
 30
0.0
 10
4.6460086644
 20
2.7439549832
 30
0.0
 10
4.6459458135
 20
2.7438934917
 30
0.0
 10
4.6458746188
 20
2.7438239243
 30
0.0
 10
4.6457630879
 20
2.7437150667
 30
0.0
 10
4.6456029503
 20
2.7435590193
 30
0.0
 10
4.6453859681
 20
2.743347965
 30
0.0
 10
4.6451360766
 20
2.743105289
 30
0.0
 10
4.6448535018
 20
2.742831177
 30
0.0
 10
4.6445384702
 20
2.7425258308
 30
0.0
 10
4.644191227
 20
2.7421894656
 30
0.0
 10
4.6436646603
 20
2.741679598
 30
0.0
 10
4.6429282064
 20
2.7409666878
 30
0.0
 10
4.6419524382
 20
2.7400221881
 30
0.0
 10
4.6408555782
 20
2.7389622683
 30
0.0
 10
4.6396406173
 20
2.737791125
 30
0.0
 10
4.638310788
 20
2.7365128378
 30
0.0
 10
4.6368694095
 20
2.7351314106
 30
0.0
 10
4.6353200233
 20
2.733650684
 30
0.0
 10
4.6330500327
 20
2.7314877218
 30
0.0
 10
4.6299695425
 20
2.7285664359
 30
0.0
 10
4.6259923413
 20
2.7248250891
 30
0.0
 10
4.6216624687
 20
2.7207907275
 30
0.0
 10
4.6170042896
 20
2.7164959877
 30
0.0
 10
4.6120393902
 20
2.7119726917
 30
0.0
 10
4.6067863292
 20
2.7072520978
 30
0.0
 10
4.5992813015
 20
2.7006126656
 30
0.0
 10
4.5914125219
 20
2.6938346017
 30
0.0
 10
4.5831757183
 20
2.6869788353
 30
0.0
 10
4.5766684491
 20
2.6817055489
 30
0.0
 10
4.5699296283
 20
2.676405294
 30
0.0
 10
4.5629574562
 20
2.6711102721
 30
0.0
 10
4.5557472459
 20
2.6658558448
 30
0.0
 10
4.5495590508
 20
2.6615599048
 30
0.0
 10
4.5444815874
 20
2.6581791865
 30
0.0
 10
4.5392804518
 20
2.6548203152
 30
0.0
 10
4.5326142223
 20
2.6507317669
 30
0.0
 10
4.5257585066
 20
2.6468625746
 30
0.0
 10
4.5201274636
 20
2.6439146849
 30
0.0
 10
4.5143648709
 20
2.6410627427
 30
0.0
 10
4.5069737894
 20
2.6377392297
 30
0.0
 10
4.4993622314
 20
2.6348361236
 30
0.0
 10
4.4931233686
 20
2.6328097626
 30
0.0
 10
4.4883624513
 20
2.6314499631
 30
0.0
 10
4.4835360169
 20
2.6302667704
 30
0.0
 10
4.4786507939
 20
2.6292738289
 30
0.0
 10
4.4745396858
 20
2.6286169419
 30
0.0
 10
4.4712300817
 20
2.6282010707
 30
0.0
 10
4.467906184
 20
2.6278598621
 30
0.0
 10
4.4637347103
 20
2.6275749187
 30
0.0
 10
4.4587169003
 20
2.627461284
 30
0.0
 10
4.4536990982
 20
2.6275751533
 30
0.0
 10
4.4495276183
 20
2.6278599605
 30
0.0
 10
4.4462037123
 20
2.6282010992
 30
0.0
 10
4.4428941335
 20
2.6286171982
 30
0.0
 10
4.4387830812
 20
2.6292743791
 30
0.0
 10
4.4338979424
 20
2.6302680553
 30
0.0
 10
4.4274757701
 20
2.6318432908
 30
0.0
 10
4.4211716348
 20
2.6337723319
 30
0.0
 10
4.4150042675
 20
2.6360053483
 30
0.0
 10
4.4089667881
 20
2.6384085941
 30
0.0
 10
4.4030676451
 20
2.6410603864
 30
0.0
 10
4.397305926
 20
2.6439139449
 30
0.0
 10
4.3930705232
 20
2.6461335075
 30
0.0
 10
4.3889074805
 20
2.6484267426
 30
0.0
 10
4.3834691525
 20
2.6515602478
 30
0.0
 10
4.3768464074
 20
2.6556182016
 30
0.0
 10
4.3691402539
 20
2.6606776581
 30
0.0
 10
4.3616882453
 20
2.665858256
 30
0.0
 10
4.3544770544
 20
2.6711113197
 30
0.0
 10
4.3475034987
 20
2.6764042893
 30
0.0
 10
4.3407645881
 20
2.6817045115
 30
0.0
 10
4.3342589564
 20
2.6869800501
 30
0.0
 10
4.3279872999
 20
2.6921997808
 30
0.0
 10
4.321955743
 20
2.6973368538
 30
0.0
 10
4.316172467
 20
2.702363872
 30
0.0
 10
4.3106475538
 20
2.7072520755
 30
0.0
 10
4.3053944482
 20
2.7119726681
 30
0.0
 10
4.3004295221
 20
2.7164960837
 30
0.0
 10
4.2957715026
 20
2.7207912441
 30
0.0
 10
4.2914419658
 20
2.7248260545
 30
0.0
 10
4.2880527361
 20
2.7280138271
 30
0.0
 10
4.2855227182
 20
2.7304077168
 30
0.0
 10
4.2837677094
 20
2.7320746261
 30
0.0
 10
4.2821138977
 20
2.7336509416
 30
0.0
 10
4.2805646261
 20
2.7351321476
 30
0.0
 10
4.2791233555
 20
2.7365139279
 30
0.0
 10
4.2777935224
 20
2.7377921669
 30
0.0
 10
4.2765784739
 20
2.7389628891
 30
0.0
 10
4.2754814791
 20
2.7400222904
 30
0.0
 10
4.2745055446
 20
2.7409665782
 30
0.0
 10
4.2737692043
 20
2.741679928
 30
0.0
 10
4.2732427441
 20
2.7421905073
 30
0.0
 10
4.2728955311
 20
2.7425275183
 30
0.0
 10
4.2725805374
 20
2.7428335049
 30
0.0
 10
4.2722979992
 20
2.7431081279
 30
0.0
 10
4.2720481472
 20
2.7433510683
 30
0.0
 10
4.2718311634
 20
2.7435620368
 30
0.0
 10
4.2716709829
 20
2.7437177773
 30
0.0
 10
4.2715594192
 20
2.7438262708
 30
0.0
 10
4.2714882184
 20
2.743895528
 30
0.0
 10
4.2714253599
 20
2.7439566916
 30
0.0
 10
4.2713708609
 20
2.7440097503
 30
0.0
 10
4.2713247305
 20
2.7440546883
 30
0.0
 10
4.2712915231
 20
2.744087056
 30
0.0
 10
4.2712691459
 20
2.7441088784
 30
0.0
 10
4.2712555039
 20
2.7441221854
 30
0.0
 10
4.2712439602
 20
2.7441334524
 30
0.0
 10
4.2712345081
 20
2.7441426724
 30
0.0
 10
4.2712271679
 20
2.7441498575
 30
0.0
 10
4.271222333
 20
2.7441545454
 30
0.0
 10
4.2712195599
 20
2.7441573039
 30
0.0
 10
4.271218199
 20
2.7441585562
 30
0.0
 10
4.2712174925
 20
2.744159387
 30
0.0
 10
4.2712170554
 20
2.7441596707
 30
0.0
 10
4.2712170031
 20
2.7441597826
 30
0.0
  0
LINE
  5
44E
100
AcDbEntity
  8
0
100
AcDbLine
 62
7
  6
CONTINUOUS
 10
5.7243420031
 20
2.7441597826
 11
5.9587170031
 21
2.4760347826
  0
SPLINE
  5
44F
100
AcDbEntity
  8
0
100
AcDbSpline
 62
7
  6
CONTINUOUS
 70
0
 71
3
 72
135
 73
131
 74
0
 42
0.0000001
 43
0.0000001
 44
0.0000000001
 40
0.0
 40
0.0
 40
0.0
 40
0.0
 40
0.0000034517
 40
0.0000136306
 40
0.0000305297
 40
0.0000541416
 40
0.0000844594
 40
0.0001214758
 40
0.0002155758
 40
0.0003363842
 40
0.000483844
 40
0.0006578968
 40
0.0008584715
 40
0.0010854877
 40
0.0013388647
 40
0.0019243788
 40
0.0026143669
 40
0.0034081596
 40
0.004305069
 40
0.0053044058
 40
0.0064054102
 40
0.0076072076
 40
0.0103095417
 40
0.0134017561
 40
0.0168716431
 40
0.0207068417
 40
0.0248949787
 40
0.0294236975
 40
0.0342805829
 40
0.0394530786
 40
0.0506925424
 40
0.0630363185
 40
0.0763836845
 40
0.0906415308
 40
0.1057260507
 40
0.1215584679
 40
0.1380648364
 40
0.1465497528
 40
0.1551788958
 40
0.1728440643
 40
0.1910104246
 40
0.2096295579
 40
0.2190952888
 40
0.2286584933
 40
0.2383151774
 40
0.2480616338
 40
0.2678073492
 40
0.2878627024
 40
0.2979981191
 40
0.3082014108
 40
0.3184696138
 40
0.3288000938
 40
0.3391897309
 40
0.3496350544
 40
0.3706799222
 40
0.391915017
 40
0.4133166861
 40
0.4348568425
 40
0.4456704371
 40
0.4565073016
 40
0.4673634505
 40
0.4727974214
 40
0.4782344986
 40
0.4891151315
 40
0.5000003659
 40
0.5108856205
 40
0.5217662264
 40
0.5272032904
 40
0.5326372772
 40
0.5434934419
 40
0.5543302071
 40
0.5651436864
 40
0.5866837671
 40
0.6080862532
 40
0.6293222939
 40
0.6503666089
 40
0.6711989428
 40
0.6815296586
 40
0.6917990478
 40
0.7020034248
 40
0.7121391396
 40
0.7222033988
 40
0.7321932803
 40
0.7421056096
 40
0.7519370652
 40
0.7616840345
 40
0.7713420961
 40
0.7809063792
 40
0.790372021
 40
0.8089891158
 40
0.8271543774
 40
0.8448211808
 40
0.8619357843
 40
0.8784406762
 40
0.8942723051
 40
0.9093574787
 40
0.923616978
 40
0.9369653319
 40
0.9493083592
 40
0.9605464144
 40
0.9657193215
 40
0.9705772566
 40
0.9751067506
 40
0.9792950146
 40
0.9831296286
 40
0.9865985622
 40
0.989690119
 40
0.9923931309
 40
0.9935958669
 40
0.9946980289
 40
0.9956985884
 40
0.9965965756
 40
0.9973910466
 40
0.9980810688
 40
0.9986659696
 40
0.9989188691
 40
0.9991453342
 40
0.9993453144
 40
0.9995187594
 40
0.9996656256
 40
0.9997858764
 40
0.9998360097
 40
0.9998794755
 40
0.9999162693
 40
0.9999463866
 40
0.9999698229
 40
0.9999865735
 40
0.9999924404
 40
0.9999966341
 40
1.0
 40
1.0
 40
1.0
 40
1.0
 10
4.6799670031
 20
2.7104097826
 30
0.0
 10
4.6799664898
 20
2.7104095363
 30
0.0
 10
4.6799647672
 20
2.7104080448
 30
0.0
 10
4.6799605542
 20
2.7104053131
 30
0.0
 10
4.6799538016
 20
2.7104003631
 30
0.0
 10
4.6799442579
 20
2.7103936332
 30
0.0
 10
4.6799320521
 20
2.7103849099
 30
0.0
 10
4.6799103687
 20
2.710369457
 30
0.0
 10
4.679876556
 20
2.7103453036
 30
0.0
 10
4.6798279371
 20
2.7103105392
 30
0.0
 10
4.679768621
 20
2.7102680616
 30
0.0
 10
4.6796986404
 20
2.7102178791
 30
0.0
 10
4.679618028
 20
2.7101600049
 30
0.0
 10
4.6795268152
 20
2.7100944614
 30
0.0
 10
4.6793840784
 20
2.7099918157
 30
0.0
 10
4.6791794133
 20
2.7098444907
 30
0.0
 10
4.6789025009
 20
2.7096449572
 30
0.0
 10
4.6785839717
 20
2.7094153222
 30
0.0
 10
4.6782240464
 20
2.7091558568
 30
0.0
 10
4.6778229673
 20
2.7088668277
 30
0.0
 10
4.6773809852
 20
2.7085485423
 30
0.0
 10
4.6767108216
 20
2.7080664427
 30
0.0
 10
4.6757733232
 20
2.7073935509
 30
0.0
 10
4.6745307326
 20
2.7065041555
 30
0.0
 10
4.6731353079
 20
2.7055072471
 30
0.0
 10
4.6715917702
 20
2.7044067017
 30
0.0
 10
4.6699048241
 20
2.7032064618
 30
0.0
 10
4.6680789467
 20
2.7019108077
 30
0.0
 10
4.6661186326
 20
2.7005240515
 30
0.0
 10
4.6632511905
 20
2.6985030027
 30
0.0
 10
4.6593665314
 20
2.6957816631
 30
0.0
 10
4.6543635803
 20
2.6923066579
 30
0.0
 10
4.6489347686
 20
2.6885721664
 30
0.0
 10
4.6431129088
 20
2.6846115578
 30
0.0
 10
4.6369260649
 20
2.6804589629
 30
0.0
 10
4.6304004294
 20
2.6761459746
 30
0.0
 10
4.6247541878
 20
2.6724770074
 30
0.0
 10
4.6200849695
 20
2.6694853462
 30
0.0
 10
4.6152407783
 20
2.6664125931
 30
0.0
 10
4.6090184823
 20
2.6625313426
 30
0.0
 10
4.6013436023
 20
2.6578664367
 30
0.0
 10
4.594774265
 20
2.653987596
 30
0.0
 10
4.5893937816
 20
2.650887329
 30
0.0
 10
4.5852764897
 20
2.6485560317
 30
0.0
 10
4.5810996064
 20
2.646236308
 30
0.0
 10
4.5754265867
 20
2.6431518139
 30
0.0
 10
4.5681907956
 20
2.6393516669
 30
0.0
 10
4.560819424
 20
2.6356751443
 30
0.0
 10
4.5548043862
 20
2.6328094335
 30
0.0
 10
4.5502189931
 20
2.6306971994
 30
0.0
 10
4.5455750497
 20
2.6286363032
 30
0.0
 10
4.5408722582
 20
2.6266336178
 30
0.0
 10
4.5361109982
 20
2.6246952261
 30
0.0
 10
4.5296704115
 20
2.6221974707
 30
0.0
 10
4.5214798641
 20
2.6192676394
 30
0.0
 10
4.5114505226
 20
2.6161354911
 30
0.0
 10
4.5012077986
 20
2.6134479663
 30
0.0
 10
4.4925247053
 20
2.611631975
 30
0.0
 10
4.4854974205
 20
2.6104578253
 30
0.0
 10
4.4801853426
 20
2.6097245872
 30
0.0
 10
4.4757360827
 20
2.6092443503
 30
0.0
 10
4.4721649883
 20
2.6089423373
 30
0.0
 10
4.4685855613
 20
2.608696202
 30
0.0
 10
4.4641025296
 20
2.6084925633
 30
0.0
 10
4.4587168168
 20
2.6084114436
 30
0.0
 10
4.4533311155
 20
2.6084928388
 30
0.0
 10
4.4488480867
 20
2.6086964626
 30
0.0
 10
4.4452686716
 20
2.6089427218
 30
0.0
 10
4.4416975811
 20
2.6092448022
 30
0.0
 10
4.437248313
 20
2.6097248836
 30
0.0
 10
4.4319363464
 20
2.610458736
 30
0.0
 10
4.4249093067
 20
2.6116340838
 30
0.0
 10
4.4162263368
 20
2.6134509096
 30
0.0
 10
4.4059823909
 20
2.6161345768
 30
0.0
 10
4.3959515805
 20
2.6192630784
 30
0.0
 10
4.3861482158
 20
2.6227719564
 30
0.0
 10
4.3781474288
 20
2.6259607099
 30
0.0
 10
4.3718595602
 20
2.6286379888
 30
0.0
 10
4.3672141397
 20
2.6306965892
 30
0.0
 10
4.3626272805
 20
2.6328066516
 30
0.0
 10
4.3580995823
 20
2.6349632526
 30
0.0
 10
4.353630736
 20
2.6371601943
 30
0.0
 10
4.3492201102
 20
2.6393912784
 30
0.0
 10
4.344867319
 20
2.6416509936
 30
0.0
 10
4.3405724459
 20
2.6439347744
 30
0.0
 10
4.3363354731
 20
2.646237665
 30
0.0
 10
4.3321571888
 20
2.6485558635
 30
0.0
 10
4.3280387084
 20
2.6508858624
 30
0.0
 10
4.3226584839
 20
2.6539862444
 30
0.0
 10
4.316091055
 20
2.6578672771
 30
0.0
 10
4.3084170368
 20
2.6625330974
 30
0.0
 10
4.3010059755
 20
2.6671532757
 30
0.0
 10
4.2938729623
 20
2.6717008992
 30
0.0
 10
4.287034406
 20
2.6761466506
 30
0.0
 10
4.2805092458
 20
2.6804598739
 30
0.0
 10
4.2743219233
 20
2.6846122008
 30
0.0
 10
4.2684989371
 20
2.6885721192
 30
0.0
 10
4.2630695027
 20
2.6923062587
 30
0.0
 10
4.2580669406
 20
2.6957814891
 30
0.0
 10
4.2541830672
 20
2.6985034467
 30
0.0
 10
4.2513154653
 20
2.7005242829
 30
0.0
 10
4.2493545256
 20
2.7019107932
 30
0.0
 10
4.2475281815
 20
2.7032063461
 30
0.0
 10
4.2458411535
 20
2.7044065616
 30
0.0
 10
4.2442979542
 20
2.7055071809
 30
0.0
 10
4.2429030546
 20
2.7065042013
 30
0.0
 10
4.2416607946
 20
2.707393794
 30
0.0
 10
4.2407230658
 20
2.7080666353
 30
0.0
 10
4.2400522404
 20
2.7085485983
 30
0.0
 10
4.2396095611
 20
2.7088668519
 30
0.0
 10
4.2392077492
 20
2.7091558394
 30
0.0
 10
4.2388471897
 20
2.7094152649
 30
0.0
 10
4.238528264
 20
2.7096448546
 30
0.0
 10
4.2382513166
 20
2.7098443676
 30
0.0
 10
4.2380469011
 20
2.7099917408
 30
0.0
 10
4.2379045245
 20
2.7100944232
 30
0.0
 10
4.2378136459
 20
2.7101599727
 30
0.0
 10
4.2377333957
 20
2.7102178551
 30
0.0
 10
4.2376637877
 20
2.7102680485
 30
0.0
 10
4.2376048377
 20
2.7103105382
 30
0.0
 10
4.2375623815
 20
2.7103411267
 30
0.0
 10
4.2375337599
 20
2.7103617415
 30
0.0
 10
4.237516306
 20
2.7103743079
 30
0.0
 10
4.2375015324
 20
2.7103849478
 30
0.0
 10
4.2374894326
 20
2.7103936438
 30
0.0
 10
4.2374800318
 20
2.7104004397
 30
0.0
 10
4.2374738401
 20
2.7104048269
 30
0.0
 10
4.2374702831
 20
2.7104074733
 30
0.0
 10
4.2374684257
 20
2.7104086516
 30
0.0
 10
4.2374675274
 20
2.7104096001
 30
0.0
 10
4.2374670031
 20
2.7104097826
 30
0.0
  0
LINE
  5
450
100
AcDbEntity
  8
0
100
AcDbLine
 62
7
  6
CONTINUOUS
 10
5.6905920031
 20
2.7104097826
 11
5.9587170031
 21
2.4760347826
  0
SPLINE
  5
451
100
AcDbEntity
  8
0
100
AcDbSpline
 62
7
  6
CONTINUOUS
 70
0
 71
3
 72
18
 73
14
 74
0
 42
0.0000001
 43
0.0000001
 44
0.0000000001
 40
0.0
 40
0.0
 40
0.0
 40
0.0
 40
0.0666694612
 40
0.0999567252
 40
0.1331840229
 40
0.199376535
 40
0.265119736
 40
0.3947860379
 40
0.5216571096
 40
0.6455128742
 40
0.7663905836
 40
0.8844722019
 40
1.0
 40
1.0
 40
1.0
 40
1.0
 10
8.2087170031
 20
3.0270972826
 30
0.0
 10
8.2056123816
 20
3.0270973267
 30
0.0
 10
8.2009560559
 20
3.027240147
 30
0.0
 10
8.1947713127
 20
3.0277117511
 30
0.0
 10
8.1886255376
 20
3.0283673954
 30
0.0
 10
8.1810173767
 20
3.0295295338
 30
0.0
 10
8.1690993324
 20
3.0320796219
 30
0.0
 10
8.1547171899
 20
3.0364898894
 30
0.0
 10
8.1384241434
 20
3.0435234773
 30
0.0
 10
8.1232990707
 20
3.0519892968
 30
0.0
 10
8.1093897536
 20
3.061622105
 30
0.0
 10
8.0966866056
 20
3.0721937738
 30
0.0
 10
8.0889131075
 20
3.0798229087
 30
0.0
 10
8.0852212547
 20
3.0837360593
 30
0.0
  0
ENDSEC
  0
SECTION
  2
OBJECTS
  0
DICTIONARY
  5
C
100
AcDbDictionary
280
0
281
1
  3
ACAD_GROUP
350
D
  3
ACAD_MLINESTYLE
350
17
  3
ACAD_LAYOUT
350
1A
  3
ACAD_PLOTSETTINGS
350
19
  3
ACAD_PLOTSTYLENAME
350
E
  0
DICTIONARY
  5
D
102
{ACAD_REACTORS
330
C
102
}
100
AcDbDictionary
280
0
281
1
  0
ACDBDICTIONARYWDFLT
  5
E
102
{ACAD_REACTORS
330
C
102
}
100
AcDbDictionary
281
1
  3
Normal
350
F
100
AcDbDictionaryWithDefault
340
F
  0
DICTIONARY
  5
17
102
{ACAD_REACTORS
330
C
102
}
100
AcDbDictionary
280
0
281
1
  3
Standard
350
18
  0
DICTIONARY
  5
19
102
{ACAD_REACTORS
330
C
102
}
100
AcDbDictionary
281
1
  0
DICTIONARY
  5
1A
102
{ACAD_REACTORS
330
C
102
}
100
AcDbDictionary
281
1
  3
Model
350
452
  3
Layout1
350
453
  0
ACDBPLACEHOLDER
  5
F
102
{ACAD_REACTORS
330
E
102
}
  0
MLINESTYLE
  5
18
102
{ACAD_REACTORS
330
17
102
}
100
AcDbMlineStyle
  2
STANDARD
 70
0
  3

 62
256
 51
90.0
 52
90.0
 71
2
 49
0.5
 62
256
  6
BYLAYER
 49
-0.5
 62
256
  6
BYLAYER
  0
LAYOUT
  5
452
102
{ACAD_REACTORS
330
1A
102
}
100
AcDbPlotSettings
  1

  2
none_device
  4
ANSI_A_(11.00_x_8.50_Inches)
  6

 40
0.0
 41
0.0
 42
0.0
 43
0.0
 44
279.4
 45
215.9
 46
0.0
 47
0.0
 48
0.0
 49
0.0
140
0.0
141
0.0
142
1.0
143
1.0
 70
1024
 72
0
 73
0
 74
0
  7

 75
0
147
1.0
148
0.0
149
0.0
100
AcDbLayout
  1
Model
 70
0
 71
0
 10
0.0
 20
0.0
 11
11.0
 21
8.5
 12
0.0
 22
0.0
 32
0.0
 14
0.0
 24
0.0
 34
0.0
 15
0.0
 25
0.0
 35
0.0
146
0.0
 13
0.0
 23
0.0
 33
0.0
 16
1.0
 26
0.0
 36
0.0
 17
0.0
 27
1.0
 37
0.0
 76
0
330
202
345
0
346
0
  0
LAYOUT
  5
453
102
{ACAD_REACTORS
330
1A
102
}
100
AcDbPlotSettings
  1

  2
none_device
  4
ANSI_A_(11.00_x_8.50_Inches)
  6

 40
0.0
 41
0.0
 42
0.0
 43
0.0
 44
279.4
 45
215.9
 46
0.0
 47
0.0
 48
0.0
 49
0.0
140
0.0
141
0.0
142
1.0
143
1.0
 70
0
 72
0
 73
0
 74
0
  7

 75
0
147
1.0
148
0.0
149
0.0
100
AcDbLayout
  1
Layout1
 70
0
 71
1
 10
0.0
 20
0.0
 11
11.0
 21
8.5
 12
0.0
 22
0.0
 32
0.0
 14
0.0
 24
0.0
 34
0.0
 15
0.0
 25
0.0
 35
0.0
146
0.0
 13
0.0
 23
0.0
 33
0.0
 16
1.0
 26
0.0
 36
0.0
 17
0.0
 27
1.0
 37
0.0
 76
0
330
203
345
0
346
0
  0
ENDSEC
  0
EOF
