999
DXF file: 1500-5412_right.dxf
999
Pro/ENGINEER 2018400 by Parametric Technology Corporation
  0
SECTION
  2
HEADER
  9
$ACADVER
  1
AC1027
  9
$DWGCODEPAGE
  3
ANSI_1252
  9
$EXTMAX
 10
11.0
 20
8.5
 30
0.0
  9
$EXTMIN
 10
0.0
 20
0.0
 30
0.0
  9
$LIMMIN
 10
0.0
 20
0.0
  9
$LIMMAX
 10
11.0
 20
8.5
  9
$VIEWCTR
 10
5.5
 20
4.25
  9
$VIEWSIZE
 40
8.5
  9
$CLAYER
  8
0
  9
$LTSCALE
 40
0.605
  9
$CELTYPE
  6
BYLAYER
  9
$DIMSCALE
 40
1.0
  9
$DIMASZ
 40
0.1
  9
$DIMEXO
 40
0.0625
  9
$DIMDLI
 40
0.418
  9
$DIMEXE
 40
0.125
  9
$DIMCEN
 40
0.099
  9
$DIMLFAC
 40
1.0
  9
$DIMBLK
  1
_FILLED
  9
$DIMALT
 70
1
  9
$DIMALTD
 70
1
  9
$DIMALTTD
 70
2
  9
$DIMALTF
 40
25.4
  9
$DIMTXT
 40
0.08
  9
$DIMTOL
 70
1
  9
$DIMLIM
 70
0
  9
$DIMTFAC
 40
1.0
  9
$DIMTP
 40
0.01
  9
$DIMTM
 40
0.01
  9
$DIMGAP
 40
0.09
  9
$DIMDSEP
 70
46
  9
$AUNITS
 70
0
  9
$PDMODE
 70
3
  9
$PDSIZE
 40
0.3125
  9
$HANDSEED
  5
41D
  9
$TILEMODE
 70
1
  9
$MEASUREMENT
 70
0
  9
$INSUNITS
 70
1
  0
ENDSEC
  0
SECTION
  2
CLASSES
  0
CLASS
  1
ACDBDICTIONARYWDFLT
  2
AcDbDictionaryWithDefault
  3
AutoCAD 2000
 90
0
 91
1
280
0
281
0
  0
CLASS
  1
ACDBPLACEHOLDER
  2
AcDbPlaceHolder
  3
AutoCAD 2000
 90
0
 91
1
280
0
281
0
  0
CLASS
  1
LAYOUT
  2
AcDbLayout
  3
AutoCAD 2000
 90
0
 91
0
280
0
281
0
  0
ENDSEC
  0
SECTION
  2
TABLES
  0
TABLE
  2
VPORT
  5
8
100
AcDbSymbolTable
 70
2
  0
VPORT
  5
1F4
100
AcDbSymbolTableRecord
100
AcDbViewportTableRecord
  2
*ACTIVE
 70
0
 10
0.0
 20
0.0
 11
1.0
 21
1.0
 12
5.5
 22
4.25
 13
0.0
 23
0.0
 14
1.0
 24
1.0
 15
0.0
 25
0.0
 16
0.0
 26
0.0
 36
1.0
 17
0.0
 27
0.0
 37
0.0
 40
8.5
 41
1.2941176471
 42
50.0
 43
0.0
 44
0.0
 50
0.0
 51
0.0
 71
0
 72
100
 73
1
 74
1
 75
0
 76
0
 77
0
 78
0
  0
ENDTAB
  0
TABLE
  2
LTYPE
  5
5
100
AcDbSymbolTable
 70
6
  0
LTYPE
  5
14
100
AcDbSymbolTableRecord
100
AcDbLinetypeTableRecord
  2
BYBLOCK
 70
0
  3

 72
65
 73
0
 40
0.0
  0
LTYPE
  5
15
100
AcDbSymbolTableRecord
100
AcDbLinetypeTableRecord
  2
BYLAYER
 70
0
  3

 72
65
 73
0
 40
0.0
  0
LTYPE
  5
16
100
AcDbSymbolTableRecord
100
AcDbLinetypeTableRecord
  2
CONTINUOUS
 70
64
  3
Solid line
 72
65
 73
0
 40
0.0
  0
LTYPE
  5
1F5
100
AcDbSymbolTableRecord
100
AcDbLinetypeTableRecord
  2
CENTER
 70
64
  3
____ _ ____ _ ____ _ ____ _ ____ _ ____ _ ____
 72
65
 73
4
 40
0.6
 49
0.375
 74
0
 49
-0.075
 74
0
 49
0.075
 74
0
 49
-0.075
 74
0
  0
LTYPE
  5
1F6
100
AcDbSymbolTableRecord
100
AcDbLinetypeTableRecord
  2
HIDDEN
 70
64
  3
- - - - - - - - - - - - - - - - - - - -
 72
65
 73
2
 40
0.2
 49
0.1
 74
0
 49
-0.1
 74
0
  0
LTYPE
  5
1F7
100
AcDbSymbolTableRecord
100
AcDbLinetypeTableRecord
  2
PHANTOM
 70
64
  3
_____ _ _ _____ _ _ _____ _ _ _____
 72
65
 73
6
 40
0.8
 49
0.45
 74
0
 49
-0.05
 74
0
 49
0.1
 74
0
 49
-0.05
 74
0
 49
0.1
 74
0
 49
-0.05
 74
0
  0
LTYPE
  5
1F8
100
AcDbSymbolTableRecord
100
AcDbLinetypeTableRecord
  2
DOT
 70
64
  3
. . . . . . . . . . . . . . . . . . . .
 72
65
 73
2
 40
0.2
 49
0.1
 74
0
 49
-0.1
 74
0
  0
LTYPE
  5
1F9
100
AcDbSymbolTableRecord
100
AcDbLinetypeTableRecord
  2
DASHED
 70
64
  3
- - - - - - - - - - - - - - - - - - - -
 72
65
 73
2
 40
0.2
 49
0.1
 74
0
 49
-0.1
 74
0
  0
ENDTAB
  0
TABLE
  2
LAYER
  5
2
100
AcDbSymbolTable
 70
36
  0
LAYER
  5
10
100
AcDbSymbolTableRecord
100
AcDbLayerTableRecord
  2
0
 70
0
 62
7
  6
CONTINUOUS
370
-3
390
F
  0
LAYER
  5
1FA
100
AcDbSymbolTableRecord
100
AcDbLayerTableRecord
  2
DEFAULT_1
 70
0
 62
7
  6
CENTER
370
-3
390
F
  0
LAYER
  5
1FB
100
AcDbSymbolTableRecord
100
AcDbLayerTableRecord
  2
DEFAULT_2
 70
0
 62
8
  6
HIDDEN
370
-3
390
F
  0
LAYER
  5
1FC
100
AcDbSymbolTableRecord
100
AcDbLayerTableRecord
  2
DEFAULT_3
 70
0
 62
7
  6
PHANTOM
370
-3
390
F
  0
LAYER
  5
1FD
100
AcDbSymbolTableRecord
100
AcDbLayerTableRecord
  2
DEFAULT_COORDINATE_SYSTEM
 70
0
 62
7
  6
CONTINUOUS
370
-3
390
F
  0
LAYER
  5
1FE
100
AcDbSymbolTableRecord
100
AcDbLayerTableRecord
  2
DEFAULT_DATUM_AXES
 70
0
 62
7
  6
CONTINUOUS
370
-3
390
F
  0
LAYER
  5
1FF
100
AcDbSymbolTableRecord
100
AcDbLayerTableRecord
  2
DEFAULT_DATUM_PLANES
 70
0
 62
7
  6
CONTINUOUS
370
-3
390
F
  0
ENDTAB
  0
TABLE
  2
STYLE
  5
3
100
AcDbSymbolTable
 70
1
  0
STYLE
  5
11
100
AcDbSymbolTableRecord
100
AcDbTextStyleTableRecord
  2
STANDARD
 70
0
 40
0.0
 41
0.8
 50
0.0
 71
0
 42
0.2
  3
txt
  4

  0
STYLE
  5
200
100
AcDbSymbolTableRecord
100
AcDbTextStyleTableRecord
  2
TEXTSTYLE_1
 70
0
 40
0.0
 41
0.8
 50
0.0
 71
0
 42
0.2
  3
gdt
  4

  0
ENDTAB
  0
TABLE
  2
VIEW
  5
6
100
AcDbSymbolTable
 70
0
  0
ENDTAB
  0
TABLE
  2
UCS
  5
7
100
AcDbSymbolTable
 70
0
  0
ENDTAB
  0
TABLE
  2
APPID
  5
9
100
AcDbSymbolTable
 70
1
  0
APPID
  5
201
100
AcDbSymbolTableRecord
100
AcDbRegAppTableRecord
  2
ACAD
 70
0
  0
ENDTAB
  0
TABLE
  2
BLOCK_RECORD
  5
1
100
AcDbSymbolTable
 70
0
  0
BLOCK_RECORD
  5
202
100
AcDbSymbolTableRecord
100
AcDbBlockTableRecord
  2
*Model_Space
  0
BLOCK_RECORD
  5
203
100
AcDbSymbolTableRecord
100
AcDbBlockTableRecord
  2
*Paper_Space
  0
BLOCK_RECORD
  5
204
100
AcDbSymbolTableRecord
100
AcDbBlockTableRecord
  2
_FILLED
  0
ENDTAB
  0
TABLE
  2
DIMSTYLE
  5
A
100
AcDbSymbolTable
 70
1
100
AcDbDimStyleTable
 71
0
  0
DIMSTYLE
105
205
100
AcDbSymbolTableRecord
100
AcDbDimStyleTableRecord
  2
STANDARD
 70
0
  3

  4

 40
1.0
 41
0.1
 42
0.0625
 43
0.38
 44
0.125
 45
0.0
 46
0.0
 47
0.01
 48
0.01
140
0.08
141
0.09
142
0.0
143
25.4
144
1.0
145
0.0
146
1.0
147
0.09
 71
1.0
 72
0.0
 73
1
 74
1
 75
0
 76
0
 77
0
 78
4
 79
1
170
1
171
1
172
0
173
0
174
0
175
0
176
0
177
0
178
0
270
2
179
2
271
2
272
2
273
2
274
2
275
0
280
0
281
0
282
0
283
1
284
4
285
0
286
0
287
3
288
0
340
11
278
46
341
204
342
204
343
204
344
204
  0
ENDTAB
  0
ENDSEC
  0
SECTION
  2
BLOCKS
  0
BLOCK
  5
20
100
AcDbEntity
  8
0
100
AcDbBlockBegin
  2
*Model_Space
 70
0
 10
0.0
 20
0.0
 30
0.0
  3
*Model_Space
  1

  0
ENDBLK
  5
21
100
AcDbEntity
  8
0
100
AcDbBlockEnd
  0
BLOCK
  5
1C
100
AcDbEntity
  8
0
100
AcDbBlockBegin
  2
*Paper_Space
 70
0
 10
0.0
 20
0.0
 30
0.0
  3
*Paper_Space
  1

  0
ENDBLK
  5
1D
100
AcDbEntity
  8
0
100
AcDbBlockEnd
  0
BLOCK
  5
206
100
AcDbEntity
  8
0
100
AcDbBlockBegin
  2
_FILLED
 70
64
 10
0.0
 20
0.0
  3
_FILLED
  1

  0
SOLID
  5
207
100
AcDbEntity
  8
0
  6
BYBLOCK
 62
0
100
AcDbTrace
 10
0.0
 20
0.0
 11
-1.0
 21
0.2
 12
-1.0
 22
-0.2
 13
-1.0
 23
-0.2
  0
ENDBLK
  5
208
100
AcDbEntity
  8
0
  6
BYBLOCK
 62
0
100
AcDbBlockEnd
  0
ENDSEC
  0
SECTION
  2
ENTITIES
  0
MTEXT
  5
209
100
AcDbEntity
  8
0
100
AcDbMText
 62
2
  6
CONTINUOUS
  7
STANDARD
 71
3
 72
1
 10
5.0779342772
 20
1.2453787267
 30
0.0
 11
1.0
 21
0.0
 31
0.0
 73
2
 44
0.9
  1
SCALE  .375
 40
0.08
 41
0.704
  0
LINE
  5
20A
100
AcDbEntity
  8
0
100
AcDbLine
 62
7
  6
CONTINUOUS
 10
0.0
 20
0.0
 11
0.0
 21
8.5
  0
LINE
  5
20B
100
AcDbEntity
  8
0
100
AcDbLine
 62
7
  6
CONTINUOUS
 10
0.0
 20
0.0
 11
11.0
 21
0.0
  0
LINE
  5
20C
100
AcDbEntity
  8
0
100
AcDbLine
 62
7
  6
CONTINUOUS
 10
0.0
 20
8.5
 11
11.0
 21
8.5
  0
LINE
  5
20D
100
AcDbEntity
  8
0
100
AcDbLine
 62
7
  6
CONTINUOUS
 10
11.0
 20
0.0
 11
11.0
 21
8.5
  0
LINE
  5
20E
100
AcDbEntity
  8
0
100
AcDbLine
 62
7
  6
CONTINUOUS
 10
7.4596683453
 20
1.5479097826
 11
6.7171683453
 21
1.5479097826
  0
LINE
  5
20F
100
AcDbEntity
  8
0
100
AcDbLine
 62
7
  6
CONTINUOUS
 10
6.7171683453
 20
1.6960347826
 11
7.4596683453
 21
1.6960347826
  0
LINE
  5
210
100
AcDbEntity
  8
0
100
AcDbLine
 62
7
  6
CONTINUOUS
 10
6.7284183453
 20
1.7072847826
 11
7.4484183453
 21
1.7072847826
  0
LINE
  5
211
100
AcDbEntity
  8
0
100
AcDbLine
 62
7
  6
CONTINUOUS
 10
7.3227933453
 20
1.9547847826
 11
6.8540433453
 21
1.9547847826
  0
LINE
  5
212
100
AcDbEntity
  8
0
100
AcDbLine
 62
7
  6
CONTINUOUS
 10
6.8944752049
 20
1.9626597826
 11
7.2823614858
 21
1.9626597826
  0
LINE
  5
213
100
AcDbEntity
  8
0
100
AcDbLine
 62
7
  6
CONTINUOUS
 10
3.4134183453
 20
4.6685847826
 11
3.4134183453
 21
5.2629597826
  0
LINE
  5
214
100
AcDbEntity
  8
0
100
AcDbLine
 62
7
  6
CONTINUOUS
 10
3.7884183453
 20
4.6685847826
 11
3.7884183453
 21
5.2629597826
  0
LINE
  5
215
100
AcDbEntity
  8
0
100
AcDbLine
 62
7
  6
CONTINUOUS
 10
7.5943811592
 20
2.5358863433
 11
7.5744308649
 21
2.536234577
  0
LINE
  5
216
100
AcDbEntity
  8
0
100
AcDbLine
 62
7
  6
CONTINUOUS
 10
7.5790512649
 20
2.5961655864
 11
7.5591009709
 21
2.5965138194
  0
LINE
  5
217
100
AcDbEntity
  8
0
100
AcDbLine
 62
7
  6
CONTINUOUS
 10
7.3329183453
 20
3.1942357128
 11
7.3494557803
 21
3.1974502645
  0
LINE
  5
218
100
AcDbEntity
  8
0
100
AcDbLine
 62
7
  6
CONTINUOUS
 10
7.3329183453
 20
3.220977026
 11
7.3476109216
 21
3.2238329735
  0
LINE
  5
219
100
AcDbEntity
  8
0
100
AcDbLine
 62
7
  6
CONTINUOUS
 10
7.3329183453
 20
3.2677743242
 11
7.3443824188
 21
3.2700027143
  0
LINE
  5
21A
100
AcDbEntity
  8
0
100
AcDbLine
 62
7
  6
CONTINUOUS
 10
6.8540433453
 20
2.7842847826
 11
6.9009183453
 21
2.7842847826
  0
LINE
  5
21B
100
AcDbEntity
  8
0
100
AcDbLine
 62
7
  6
CONTINUOUS
 10
7.2759183453
 20
2.7842847826
 11
7.3227933453
 21
2.7842847826
  0
LINE
  5
21C
100
AcDbEntity
  8
0
100
AcDbLine
 62
7
  6
CONTINUOUS
 10
6.8652933453
 20
2.7955347826
 11
6.9009183453
 21
2.7955347826
  0
LINE
  5
21D
100
AcDbEntity
  8
0
100
AcDbLine
 62
7
  6
CONTINUOUS
 10
7.2759183453
 20
2.7955347826
 11
7.3115433453
 21
2.7955347826
  0
LINE
  5
21E
100
AcDbEntity
  8
0
100
AcDbLine
 62
7
  6
CONTINUOUS
 10
6.8540433453
 20
2.8067847826
 11
6.9009183453
 21
2.8067847826
  0
LINE
  5
21F
100
AcDbEntity
  8
0
100
AcDbLine
 62
7
  6
CONTINUOUS
 10
7.2759183453
 20
2.8067847826
 11
7.3227933453
 21
2.8067847826
  0
LINE
  5
220
100
AcDbEntity
  8
0
100
AcDbLine
 62
7
  6
CONTINUOUS
 10
7.3329183453
 20
3.3947955621
 11
7.3356193398
 21
3.3953205822
  0
LINE
  5
221
100
AcDbEntity
  8
0
100
AcDbLine
 62
7
  6
CONTINUOUS
 10
7.3651843999
 20
3.1875543316
 11
7.3502209391
 21
3.1865079845
  0
LINE
  5
222
100
AcDbEntity
  8
0
100
AcDbLine
 62
7
  6
CONTINUOUS
 10
7.3789028547
 20
3.2575041715
 11
7.3938663154
 21
3.2585505186
  0
LINE
  5
223
100
AcDbEntity
  8
0
100
AcDbLine
 62
7
  6
CONTINUOUS
 10
7.3770435573
 20
3.284093363
 11
7.392007018
 21
3.2851397101
  0
LINE
  5
224
100
AcDbEntity
  8
0
100
AcDbLine
 62
7
  6
CONTINUOUS
 10
7.3584109907
 20
3.2844185957
 11
7.3434475299
 21
3.2833722486
  0
LINE
  5
225
100
AcDbEntity
  8
0
100
AcDbLine
 62
7
  6
CONTINUOUS
 10
6.6894862587
 20
3.0455221553
 11
6.8001112587
 21
3.0455221553
  0
LINE
  5
226
100
AcDbEntity
  8
0
100
AcDbLine
 62
7
  6
CONTINUOUS
 10
6.6894862587
 20
3.0455784929
 11
6.8001112587
 21
3.0455784929
  0
LINE
  5
227
100
AcDbEntity
  8
0
100
AcDbLine
 62
7
  6
CONTINUOUS
 10
6.6894862587
 20
3.0460698158
 11
6.8001112587
 21
3.0460698158
  0
LINE
  5
228
100
AcDbEntity
  8
0
100
AcDbLine
 62
7
  6
CONTINUOUS
 10
6.6894862587
 20
3.0462382636
 11
6.8001112587
 21
3.0462382636
  0
LINE
  5
229
100
AcDbEntity
  8
0
100
AcDbLine
 62
7
  6
CONTINUOUS
 10
6.6894862587
 20
3.0472195628
 11
6.8001112587
 21
3.0472195628
  0
LINE
  5
22A
100
AcDbEntity
  8
0
100
AcDbLine
 62
7
  6
CONTINUOUS
 10
6.6894862587
 20
3.0474997962
 11
6.8001112587
 21
3.0474997962
  0
LINE
  5
22B
100
AcDbEntity
  8
0
100
AcDbLine
 62
7
  6
CONTINUOUS
 10
6.6894862587
 20
3.0489683819
 11
6.8001112587
 21
3.0489683819
  0
LINE
  5
22C
100
AcDbEntity
  8
0
100
AcDbLine
 62
7
  6
CONTINUOUS
 10
6.6894862587
 20
3.0493596326
 11
6.8001112587
 21
3.0493596326
  0
LINE
  5
22D
100
AcDbEntity
  8
0
100
AcDbLine
 62
7
  6
CONTINUOUS
 10
6.6894862587
 20
3.0513114797
 11
6.8001112587
 21
3.0513114797
  0
LINE
  5
22E
100
AcDbEntity
  8
0
100
AcDbLine
 62
7
  6
CONTINUOUS
 10
6.6894862587
 20
3.0518126754
 11
6.8001112587
 21
3.0518126754
  0
LINE
  5
22F
100
AcDbEntity
  8
0
100
AcDbLine
 62
7
  6
CONTINUOUS
 10
6.6894862587
 20
3.0542424339
 11
6.8001112587
 21
3.0542424339
  0
LINE
  5
230
100
AcDbEntity
  8
0
100
AcDbLine
 62
7
  6
CONTINUOUS
 10
6.6894862587
 20
3.0548540584
 11
6.8001112587
 21
3.0548540584
  0
LINE
  5
231
100
AcDbEntity
  8
0
100
AcDbLine
 62
7
  6
CONTINUOUS
 10
6.6894862587
 20
3.0577510927
 11
6.8001112587
 21
3.0577510927
  0
LINE
  5
232
100
AcDbEntity
  8
0
100
AcDbLine
 62
7
  6
CONTINUOUS
 10
6.6894862587
 20
3.0584698778
 11
6.8001112587
 21
3.0584698778
  0
LINE
  5
233
100
AcDbEntity
  8
0
100
AcDbLine
 62
7
  6
CONTINUOUS
 10
6.6501112587
 20
3.0595347826
 11
6.6894862587
 21
3.0595347826
  0
LINE
  5
234
100
AcDbEntity
  8
0
100
AcDbLine
 62
7
  6
CONTINUOUS
 10
6.6894862587
 20
3.061834188
 11
6.8001112587
 21
3.061834188
  0
LINE
  5
235
100
AcDbEntity
  8
0
100
AcDbLine
 62
7
  6
CONTINUOUS
 10
6.6894862587
 20
3.0626557906
 11
6.8001112587
 21
3.0626557906
  0
LINE
  5
236
100
AcDbEntity
  8
0
100
AcDbLine
 62
7
  6
CONTINUOUS
 10
6.6894862587
 20
3.0664741796
 11
6.8001112587
 21
3.0664741796
  0
LINE
  5
237
100
AcDbEntity
  8
0
100
AcDbLine
 62
7
  6
CONTINUOUS
 10
6.6894862587
 20
3.0673984658
 11
6.8001112587
 21
3.0673984658
  0
LINE
  5
238
100
AcDbEntity
  8
0
100
AcDbLine
 62
7
  6
CONTINUOUS
 10
6.6894862587
 20
3.0716604676
 11
6.8001112587
 21
3.0716604676
  0
LINE
  5
239
100
AcDbEntity
  8
0
100
AcDbLine
 62
7
  6
CONTINUOUS
 10
6.6894862587
 20
3.072684904
 11
6.8001112587
 21
3.072684904
  0
LINE
  5
23A
100
AcDbEntity
  8
0
100
AcDbLine
 62
7
  6
CONTINUOUS
 10
6.8540433453
 20
3.0739722826
 11
6.8076112587
 21
3.0739722826
  0
LINE
  5
23B
100
AcDbEntity
  8
0
100
AcDbLine
 62
7
  6
CONTINUOUS
 10
6.6894862587
 20
3.0773788369
 11
6.8001112587
 21
3.0773788369
  0
LINE
  5
23C
100
AcDbEntity
  8
0
100
AcDbLine
 62
7
  6
CONTINUOUS
 10
6.6894862587
 20
3.0785006157
 11
6.8001112587
 21
3.0785006157
  0
LINE
  5
23D
100
AcDbEntity
  8
0
100
AcDbLine
 62
7
  6
CONTINUOUS
 10
6.6894862587
 20
3.0836136138
 11
6.8001112587
 21
3.0836136138
  0
LINE
  5
23E
100
AcDbEntity
  8
0
100
AcDbLine
 62
7
  6
CONTINUOUS
 10
6.6894862587
 20
3.0848333305
 11
6.8001112587
 21
3.0848333305
  0
LINE
  5
23F
100
AcDbEntity
  8
0
100
AcDbLine
 62
7
  6
CONTINUOUS
 10
6.6894862587
 20
3.0903438172
 11
6.8001112587
 21
3.0903438172
  0
LINE
  5
240
100
AcDbEntity
  8
0
100
AcDbLine
 62
7
  6
CONTINUOUS
 10
6.6894862587
 20
3.0916546901
 11
6.8001112587
 21
3.0916546901
  0
LINE
  5
241
100
AcDbEntity
  8
0
100
AcDbLine
 62
7
  6
CONTINUOUS
 10
7.3216683453
 20
3.0927222826
 11
7.3066683453
 21
3.0927222826
  0
LINE
  5
242
100
AcDbEntity
  8
0
100
AcDbLine
 62
7
  6
CONTINUOUS
 10
6.6238612587
 20
3.0970347826
 11
6.6388612587
 21
3.0970347826
  0
LINE
  5
243
100
AcDbEntity
  8
0
100
AcDbLine
 62
7
  6
CONTINUOUS
 10
6.6894862587
 20
3.0975626655
 11
6.8001112587
 21
3.0975626655
  0
LINE
  5
244
100
AcDbEntity
  8
0
100
AcDbLine
 62
7
  6
CONTINUOUS
 10
6.6894862587
 20
3.0989569985
 11
6.8001112587
 21
3.0989569985
  0
LINE
  5
245
100
AcDbEntity
  8
0
100
AcDbLine
 62
7
  6
CONTINUOUS
 10
6.6894862587
 20
3.1052387068
 11
6.8001112587
 21
3.1052387068
  0
LINE
  5
246
100
AcDbEntity
  8
0
100
AcDbLine
 62
7
  6
CONTINUOUS
 10
6.6894862587
 20
3.1067165703
 11
6.8001112587
 21
3.1067165703
  0
LINE
  5
247
100
AcDbEntity
  8
0
100
AcDbLine
 62
7
  6
CONTINUOUS
 10
6.6894862587
 20
3.1133547938
 11
6.8001112587
 21
3.1133547938
  0
LINE
  5
248
100
AcDbEntity
  8
0
100
AcDbLine
 62
7
  6
CONTINUOUS
 10
6.6894862587
 20
3.114912137
 11
6.8001112587
 21
3.114912137
  0
LINE
  5
249
100
AcDbEntity
  8
0
100
AcDbLine
 62
7
  6
CONTINUOUS
 10
6.6894862587
 20
3.1218886808
 11
6.8001112587
 21
3.1218886808
  0
LINE
  5
24A
100
AcDbEntity
  8
0
100
AcDbLine
 62
7
  6
CONTINUOUS
 10
6.6894862587
 20
3.1235212351
 11
6.8001112587
 21
3.1235212351
  0
LINE
  5
24B
100
AcDbEntity
  8
0
100
AcDbLine
 62
7
  6
CONTINUOUS
 10
6.8073779872
 20
3.1306895315
 11
6.6894862587
 21
3.1306895315
  0
LINE
  5
24C
100
AcDbEntity
  8
0
100
AcDbLine
 62
7
  6
CONTINUOUS
 10
6.6894862587
 20
3.130816977
 11
6.8001112587
 21
3.130816977
  0
LINE
  5
24D
100
AcDbEntity
  8
0
100
AcDbLine
 62
7
  6
CONTINUOUS
 10
6.6894862587
 20
3.1325253915
 11
6.8001112587
 21
3.1325253915
  0
LINE
  5
24E
100
AcDbEntity
  8
0
100
AcDbLine
 62
7
  6
CONTINUOUS
 10
6.8073759897
 20
3.1396012298
 11
6.6894862587
 21
3.1396012298
  0
LINE
  5
24F
100
AcDbEntity
  8
0
100
AcDbLine
 62
7
  6
CONTINUOUS
 10
6.6894862587
 20
3.1401099258
 11
6.8001112587
 21
3.1401099258
  0
LINE
  5
250
100
AcDbEntity
  8
0
100
AcDbLine
 62
7
  6
CONTINUOUS
 10
6.6894862587
 20
3.1418845691
 11
6.8001112587
 21
3.1418845691
  0
LINE
  5
251
100
AcDbEntity
  8
0
100
AcDbLine
 62
7
  6
CONTINUOUS
 10
6.8073779872
 20
3.1488679494
 11
6.6894862587
 21
3.1488679494
  0
LINE
  5
252
100
AcDbEntity
  8
0
100
AcDbLine
 62
7
  6
CONTINUOUS
 10
6.6894862587
 20
3.1497578958
 11
6.8001112587
 21
3.1497578958
  0
LINE
  5
253
100
AcDbEntity
  8
0
100
AcDbLine
 62
7
  6
CONTINUOUS
 10
6.6894862587
 20
3.1515884723
 11
6.8001112587
 21
3.1515884723
  0
LINE
  5
254
100
AcDbEntity
  8
0
100
AcDbLine
 62
7
  6
CONTINUOUS
 10
6.8073779872
 20
3.1584505431
 11
6.6894862587
 21
3.1584505431
  0
LINE
  5
255
100
AcDbEntity
  8
0
100
AcDbLine
 62
7
  6
CONTINUOUS
 10
6.6894862587
 20
3.1597186025
 11
6.8001112587
 21
3.1597186025
  0
LINE
  5
256
100
AcDbEntity
  8
0
100
AcDbLine
 62
7
  6
CONTINUOUS
 10
6.6894862587
 20
3.1616053797
 11
6.8001112587
 21
3.1616053797
  0
LINE
  5
257
100
AcDbEntity
  8
0
100
AcDbLine
 62
7
  6
CONTINUOUS
 10
6.8073779872
 20
3.1683273326
 11
6.6894862587
 21
3.1683273326
  0
LINE
  5
258
100
AcDbEntity
  8
0
100
AcDbLine
 62
7
  6
CONTINUOUS
 10
6.6894862587
 20
3.1699700294
 11
6.8001112587
 21
3.1699700294
  0
LINE
  5
259
100
AcDbEntity
  8
0
100
AcDbLine
 62
7
  6
CONTINUOUS
 10
6.6894862587
 20
3.1719078356
 11
6.8001112587
 21
3.1719078356
  0
LINE
  5
25A
100
AcDbEntity
  8
0
100
AcDbLine
 62
7
  6
CONTINUOUS
 10
6.8073779872
 20
3.1784712461
 11
6.6894862587
 21
3.1784712461
  0
LINE
  5
25B
100
AcDbEntity
  8
0
100
AcDbLine
 62
7
  6
CONTINUOUS
 10
6.6894862587
 20
3.1804840777
 11
6.8001112587
 21
3.1804840777
  0
LINE
  5
25C
100
AcDbEntity
  8
0
100
AcDbLine
 62
7
  6
CONTINUOUS
 10
6.6894862587
 20
3.1824676017
 11
6.8001112587
 21
3.1824676017
  0
LINE
  5
25D
100
AcDbEntity
  8
0
100
AcDbLine
 62
7
  6
CONTINUOUS
 10
6.8073779872
 20
3.18885448
 11
6.6894862587
 21
3.18885448
  0
LINE
  5
25E
100
AcDbEntity
  8
0
100
AcDbLine
 62
7
  6
CONTINUOUS
 10
6.6894862587
 20
3.1912319294
 11
6.8001112587
 21
3.1912319294
  0
LINE
  5
25F
100
AcDbEntity
  8
0
100
AcDbLine
 62
7
  6
CONTINUOUS
 10
6.6894862587
 20
3.1932618101
 11
6.8001112587
 21
3.1932618101
  0
LINE
  5
260
100
AcDbEntity
  8
0
100
AcDbLine
 62
7
  6
CONTINUOUS
 10
6.8073759897
 20
3.1994461631
 11
6.6894862587
 21
3.1994461631
  0
LINE
  5
261
100
AcDbEntity
  8
0
100
AcDbLine
 62
7
  6
CONTINUOUS
 10
6.6894862587
 20
3.202177965
 11
6.8001112587
 21
3.202177965
  0
LINE
  5
262
100
AcDbEntity
  8
0
100
AcDbLine
 62
7
  6
CONTINUOUS
 10
6.6894862587
 20
3.2042426642
 11
6.8001112587
 21
3.2042426642
  0
LINE
  5
263
100
AcDbEntity
  8
0
100
AcDbLine
 62
7
  6
CONTINUOUS
 10
6.8073779872
 20
3.2102244919
 11
6.6894862587
 21
3.2102244919
  0
LINE
  5
264
100
AcDbEntity
  8
0
100
AcDbLine
 62
7
  6
CONTINUOUS
 10
6.6894862587
 20
3.2133106462
 11
6.8001112587
 21
3.2133106462
  0
LINE
  5
265
100
AcDbEntity
  8
0
100
AcDbLine
 62
7
  6
CONTINUOUS
 10
6.6894862587
 20
3.2153982766
 11
6.8001112587
 21
3.2153982766
  0
LINE
  5
266
100
AcDbEntity
  8
0
100
AcDbLine
 62
7
  6
CONTINUOUS
 10
6.8073779872
 20
3.2211526962
 11
6.6894862587
 21
3.2211526962
  0
LINE
  5
267
100
AcDbEntity
  8
0
100
AcDbLine
 62
7
  6
CONTINUOUS
 10
6.6894862587
 20
3.224580995
 11
6.8001112587
 21
3.224580995
  0
LINE
  5
268
100
AcDbEntity
  8
0
100
AcDbLine
 62
7
  6
CONTINUOUS
 10
6.6894862587
 20
3.226691995
 11
6.8001112587
 21
3.226691995
  0
LINE
  5
269
100
AcDbEntity
  8
0
100
AcDbLine
 62
7
  6
CONTINUOUS
 10
6.8073779872
 20
3.2322032339
 11
6.6894862587
 21
3.2322032339
  0
LINE
  5
26A
100
AcDbEntity
  8
0
100
AcDbLine
 62
7
  6
CONTINUOUS
 10
6.6894862587
 20
3.2359642805
 11
6.8001112587
 21
3.2359642805
  0
LINE
  5
26B
100
AcDbEntity
  8
0
100
AcDbLine
 62
7
  6
CONTINUOUS
 10
6.6894862587
 20
3.238092864
 11
6.8001112587
 21
3.238092864
  0
LINE
  5
26C
100
AcDbEntity
  8
0
100
AcDbLine
 62
7
  6
CONTINUOUS
 10
6.8073779872
 20
3.2433458164
 11
6.6894862587
 21
3.2433458164
  0
LINE
  5
26D
100
AcDbEntity
  8
0
100
AcDbLine
 62
7
  6
CONTINUOUS
 10
6.6894862587
 20
3.247429302
 11
6.8001112587
 21
3.247429302
  0
LINE
  5
26E
100
AcDbEntity
  8
0
100
AcDbLine
 62
7
  6
CONTINUOUS
 10
6.6894862587
 20
3.2495696346
 11
6.8001112587
 21
3.2495696346
  0
LINE
  5
26F
100
AcDbEntity
  8
0
100
AcDbLine
 62
7
  6
CONTINUOUS
 10
6.8073779872
 20
3.2545499025
 11
6.6894862587
 21
3.2545499025
  0
LINE
  5
270
100
AcDbEntity
  8
0
100
AcDbLine
 62
7
  6
CONTINUOUS
 10
6.6894862587
 20
3.2589446346
 11
6.8001112587
 21
3.2589446346
  0
LINE
  5
271
100
AcDbEntity
  8
0
100
AcDbLine
 62
7
  6
CONTINUOUS
 10
6.6894862587
 20
3.2610972826
 11
6.8001112587
 21
3.2610972826
  0
LINE
  5
272
100
AcDbEntity
  8
0
100
AcDbLine
 62
7
  6
CONTINUOUS
 10
6.8073759897
 20
3.2657847826
 11
6.6894862587
 21
3.2657847826
  0
LINE
  5
273
100
AcDbEntity
  8
0
100
AcDbLine
 62
7
  6
CONTINUOUS
 10
6.6894862587
 20
3.2704722826
 11
6.8001112587
 21
3.2704722826
  0
LINE
  5
274
100
AcDbEntity
  8
0
100
AcDbLine
 62
7
  6
CONTINUOUS
 10
6.6894862587
 20
3.2726249307
 11
6.8001112587
 21
3.2726249307
  0
LINE
  5
275
100
AcDbEntity
  8
0
100
AcDbLine
 62
7
  6
CONTINUOUS
 10
6.8073779872
 20
3.2770196627
 11
6.6894862587
 21
3.2770196627
  0
LINE
  5
276
100
AcDbEntity
  8
0
100
AcDbLine
 62
7
  6
CONTINUOUS
 10
6.6894862587
 20
3.2819999307
 11
6.8001112587
 21
3.2819999307
  0
LINE
  5
277
100
AcDbEntity
  8
0
100
AcDbLine
 62
7
  6
CONTINUOUS
 10
6.6894862587
 20
3.2841402632
 11
6.8001112587
 21
3.2841402632
  0
LINE
  5
278
100
AcDbEntity
  8
0
100
AcDbLine
 62
7
  6
CONTINUOUS
 10
6.8073779872
 20
3.2882237488
 11
6.6894862587
 21
3.2882237488
  0
LINE
  5
279
100
AcDbEntity
  8
0
100
AcDbLine
 62
7
  6
CONTINUOUS
 10
6.6894862587
 20
3.2934767013
 11
6.8001112587
 21
3.2934767013
  0
LINE
  5
27A
100
AcDbEntity
  8
0
100
AcDbLine
 62
7
  6
CONTINUOUS
 10
6.6894862587
 20
3.2956052847
 11
6.8001112587
 21
3.2956052847
  0
LINE
  5
27B
100
AcDbEntity
  8
0
100
AcDbLine
 62
7
  6
CONTINUOUS
 10
6.8073779872
 20
3.2993663313
 11
6.6894862587
 21
3.2993663313
  0
LINE
  5
27C
100
AcDbEntity
  8
0
100
AcDbLine
 62
7
  6
CONTINUOUS
 10
6.6894862587
 20
3.3048775702
 11
6.8001112587
 21
3.3048775702
  0
LINE
  5
27D
100
AcDbEntity
  8
0
100
AcDbLine
 62
7
  6
CONTINUOUS
 10
6.6894862587
 20
3.3069885702
 11
6.8001112587
 21
3.3069885702
  0
LINE
  5
27E
100
AcDbEntity
  8
0
100
AcDbLine
 62
7
  6
CONTINUOUS
 10
6.8073779872
 20
3.310416869
 11
6.6894862587
 21
3.310416869
  0
LINE
  5
27F
100
AcDbEntity
  8
0
100
AcDbLine
 62
7
  6
CONTINUOUS
 10
6.6894862587
 20
3.3161712886
 11
6.8001112587
 21
3.3161712886
  0
LINE
  5
280
100
AcDbEntity
  8
0
100
AcDbLine
 62
7
  6
CONTINUOUS
 10
6.6894862587
 20
3.318258919
 11
6.8001112587
 21
3.318258919
  0
LINE
  5
281
100
AcDbEntity
  8
0
100
AcDbLine
 62
7
  6
CONTINUOUS
 10
6.8073779872
 20
3.3213450734
 11
6.6894862587
 21
3.3213450734
  0
LINE
  5
282
100
AcDbEntity
  8
0
100
AcDbLine
 62
7
  6
CONTINUOUS
 10
6.6894862587
 20
3.327326901
 11
6.8001112587
 21
3.327326901
  0
LINE
  5
283
100
AcDbEntity
  8
0
100
AcDbLine
 62
7
  6
CONTINUOUS
 10
6.6894862587
 20
3.3293916003
 11
6.8001112587
 21
3.3293916003
  0
LINE
  5
284
100
AcDbEntity
  8
0
100
AcDbLine
 62
7
  6
CONTINUOUS
 10
6.8073759897
 20
3.3321234021
 11
6.6894862587
 21
3.3321234021
  0
LINE
  5
285
100
AcDbEntity
  8
0
100
AcDbLine
 62
7
  6
CONTINUOUS
 10
6.6894862587
 20
3.3383077551
 11
6.8001112587
 21
3.3383077551
  0
LINE
  5
286
100
AcDbEntity
  8
0
100
AcDbLine
 62
7
  6
CONTINUOUS
 10
6.6894862587
 20
3.3403376358
 11
6.8001112587
 21
3.3403376358
  0
LINE
  5
287
100
AcDbEntity
  8
0
100
AcDbLine
 62
7
  6
CONTINUOUS
 10
6.8073779872
 20
3.3427150853
 11
6.6894862587
 21
3.3427150853
  0
LINE
  5
288
100
AcDbEntity
  8
0
100
AcDbLine
 62
7
  6
CONTINUOUS
 10
6.6894862587
 20
3.3491019635
 11
6.8001112587
 21
3.3491019635
  0
LINE
  5
289
100
AcDbEntity
  8
0
100
AcDbLine
 62
7
  6
CONTINUOUS
 10
6.6894862587
 20
3.3510854875
 11
6.8001112587
 21
3.3510854875
  0
LINE
  5
28A
100
AcDbEntity
  8
0
100
AcDbLine
 62
7
  6
CONTINUOUS
 10
6.8073779872
 20
3.3530983191
 11
6.6894862587
 21
3.3530983191
  0
LINE
  5
28B
100
AcDbEntity
  8
0
100
AcDbLine
 62
7
  6
CONTINUOUS
 10
6.6894862587
 20
3.3596617296
 11
6.8001112587
 21
3.3596617296
  0
LINE
  5
28C
100
AcDbEntity
  8
0
100
AcDbLine
 62
7
  6
CONTINUOUS
 10
6.6894862587
 20
3.3615995359
 11
6.8001112587
 21
3.3615995359
  0
LINE
  5
28D
100
AcDbEntity
  8
0
100
AcDbLine
 62
7
  6
CONTINUOUS
 10
6.8073779872
 20
3.3632422327
 11
6.6894862587
 21
3.3632422327
  0
LINE
  5
28E
100
AcDbEntity
  8
0
100
AcDbLine
 62
7
  6
CONTINUOUS
 10
6.6894862587
 20
3.3699641855
 11
6.8001112587
 21
3.3699641855
  0
LINE
  5
28F
100
AcDbEntity
  8
0
100
AcDbLine
 62
7
  6
CONTINUOUS
 10
6.6894862587
 20
3.3718509627
 11
6.8001112587
 21
3.3718509627
  0
LINE
  5
290
100
AcDbEntity
  8
0
100
AcDbLine
 62
7
  6
CONTINUOUS
 10
6.8073779872
 20
3.3731190221
 11
6.6894862587
 21
3.3731190221
  0
LINE
  5
291
100
AcDbEntity
  8
0
100
AcDbLine
 62
7
  6
CONTINUOUS
 10
6.6894862587
 20
3.3799810929
 11
6.8001112587
 21
3.3799810929
  0
LINE
  5
292
100
AcDbEntity
  8
0
100
AcDbLine
 62
7
  6
CONTINUOUS
 10
6.6894862587
 20
3.3818116694
 11
6.8001112587
 21
3.3818116694
  0
LINE
  5
293
100
AcDbEntity
  8
0
100
AcDbLine
 62
7
  6
CONTINUOUS
 10
6.8073779872
 20
3.3827016158
 11
6.6894862587
 21
3.3827016158
  0
LINE
  5
294
100
AcDbEntity
  8
0
100
AcDbLine
 62
7
  6
CONTINUOUS
 10
6.6894862587
 20
3.3896849961
 11
6.8001112587
 21
3.3896849961
  0
LINE
  5
295
100
AcDbEntity
  8
0
100
AcDbLine
 62
7
  6
CONTINUOUS
 10
6.6894862587
 20
3.3914596394
 11
6.8001112587
 21
3.3914596394
  0
LINE
  5
296
100
AcDbEntity
  8
0
100
AcDbLine
 62
7
  6
CONTINUOUS
 10
6.8073759897
 20
3.3919683354
 11
6.6894862587
 21
3.3919683354
  0
LINE
  5
297
100
AcDbEntity
  8
0
100
AcDbLine
 62
7
  6
CONTINUOUS
 10
6.6894862587
 20
3.3990441737
 11
6.8001112587
 21
3.3990441737
  0
LINE
  5
298
100
AcDbEntity
  8
0
100
AcDbLine
 62
7
  6
CONTINUOUS
 10
6.6894862587
 20
3.4007525882
 11
6.8001112587
 21
3.4007525882
  0
LINE
  5
299
100
AcDbEntity
  8
0
100
AcDbLine
 62
7
  6
CONTINUOUS
 10
6.8073779872
 20
3.4008800337
 11
6.6894862587
 21
3.4008800337
  0
LINE
  5
29A
100
AcDbEntity
  8
0
100
AcDbLine
 62
7
  6
CONTINUOUS
 10
6.6894862587
 20
3.4080483301
 11
6.8001112587
 21
3.4080483301
  0
LINE
  5
29B
100
AcDbEntity
  8
0
100
AcDbLine
 62
7
  6
CONTINUOUS
 10
6.6894862587
 20
3.4096808844
 11
6.8001112587
 21
3.4096808844
  0
LINE
  5
29C
100
AcDbEntity
  8
0
100
AcDbLine
 62
7
  6
CONTINUOUS
 10
6.6894862587
 20
3.4166574283
 11
6.8001112587
 21
3.4166574283
  0
LINE
  5
29D
100
AcDbEntity
  8
0
100
AcDbLine
 62
7
  6
CONTINUOUS
 10
6.6894862587
 20
3.4182147714
 11
6.8001112587
 21
3.4182147714
  0
LINE
  5
29E
100
AcDbEntity
  8
0
100
AcDbLine
 62
7
  6
CONTINUOUS
 10
6.6894862587
 20
3.4248529949
 11
6.8001112587
 21
3.4248529949
  0
LINE
  5
29F
100
AcDbEntity
  8
0
100
AcDbLine
 62
7
  6
CONTINUOUS
 10
6.6894862587
 20
3.4263308584
 11
6.8001112587
 21
3.4263308584
  0
LINE
  5
2A0
100
AcDbEntity
  8
0
100
AcDbLine
 62
7
  6
CONTINUOUS
 10
6.6894862587
 20
3.4326125667
 11
6.8001112587
 21
3.4326125667
  0
LINE
  5
2A1
100
AcDbEntity
  8
0
100
AcDbLine
 62
7
  6
CONTINUOUS
 10
6.6894862587
 20
3.4340068998
 11
6.8001112587
 21
3.4340068998
  0
LINE
  5
2A2
100
AcDbEntity
  8
0
100
AcDbLine
 62
7
  6
CONTINUOUS
 10
6.6238612587
 20
3.4345347826
 11
6.6388612587
 21
3.4345347826
  0
LINE
  5
2A3
100
AcDbEntity
  8
0
100
AcDbLine
 62
7
  6
CONTINUOUS
 10
7.3216683453
 20
3.4388472826
 11
7.3066683453
 21
3.4388472826
  0
LINE
  5
2A4
100
AcDbEntity
  8
0
100
AcDbLine
 62
7
  6
CONTINUOUS
 10
6.6894862587
 20
3.4399148751
 11
6.8001112587
 21
3.4399148751
  0
LINE
  5
2A5
100
AcDbEntity
  8
0
100
AcDbLine
 62
7
  6
CONTINUOUS
 10
6.6894862587
 20
3.441225748
 11
6.8001112587
 21
3.441225748
  0
LINE
  5
2A6
100
AcDbEntity
  8
0
100
AcDbLine
 62
7
  6
CONTINUOUS
 10
6.6894862587
 20
3.4467362347
 11
6.8001112587
 21
3.4467362347
  0
LINE
  5
2A7
100
AcDbEntity
  8
0
100
AcDbLine
 62
7
  6
CONTINUOUS
 10
6.6894862587
 20
3.4479559514
 11
6.8001112587
 21
3.4479559514
  0
LINE
  5
2A8
100
AcDbEntity
  8
0
100
AcDbLine
 62
7
  6
CONTINUOUS
 10
6.6894862587
 20
3.4530689495
 11
6.8001112587
 21
3.4530689495
  0
LINE
  5
2A9
100
AcDbEntity
  8
0
100
AcDbLine
 62
7
  6
CONTINUOUS
 10
6.6894862587
 20
3.4541907283
 11
6.8001112587
 21
3.4541907283
  0
LINE
  5
2AA
100
AcDbEntity
  8
0
100
AcDbLine
 62
7
  6
CONTINUOUS
 10
7.2954183453
 20
3.4575972826
 11
6.8076112587
 21
3.4575972826
  0
LINE
  5
2AB
100
AcDbEntity
  8
0
100
AcDbLine
 62
7
  6
CONTINUOUS
 10
6.6894862587
 20
3.4588846612
 11
6.8001112587
 21
3.4588846612
  0
LINE
  5
2AC
100
AcDbEntity
  8
0
100
AcDbLine
 62
7
  6
CONTINUOUS
 10
6.6894862587
 20
3.4599090976
 11
6.8001112587
 21
3.4599090976
  0
LINE
  5
2AD
100
AcDbEntity
  8
0
100
AcDbLine
 62
7
  6
CONTINUOUS
 10
6.6894862587
 20
3.4641710995
 11
6.8001112587
 21
3.4641710995
  0
LINE
  5
2AE
100
AcDbEntity
  8
0
100
AcDbLine
 62
7
  6
CONTINUOUS
 10
7.3584110854
 20
3.2844172412
 11
7.3770436527
 21
3.2840919979
  0
LINE
  5
2AF
100
AcDbEntity
  8
0
100
AcDbLine
 62
7
  6
CONTINUOUS
 10
7.3496135629
 20
3.4289691477
 11
7.3682461295
 21
3.428643915
  0
LINE
  5
2B0
100
AcDbEntity
  8
0
100
AcDbLine
 62
7
  6
CONTINUOUS
 10
6.6894862587
 20
3.4650953856
 11
6.8001112587
 21
3.4650953856
  0
LINE
  5
2B1
100
AcDbEntity
  8
0
100
AcDbLine
 62
7
  6
CONTINUOUS
 10
6.6894862587
 20
3.4689137746
 11
6.8001112587
 21
3.4689137746
  0
LINE
  5
2B2
100
AcDbEntity
  8
0
100
AcDbLine
 62
7
  6
CONTINUOUS
 10
6.6894862587
 20
3.4697353772
 11
6.8001112587
 21
3.4697353772
  0
LINE
  5
2B3
100
AcDbEntity
  8
0
100
AcDbLine
 62
7
  6
CONTINUOUS
 10
6.6894862587
 20
3.4720347826
 11
6.6501112587
 21
3.4720347826
  0
LINE
  5
2B4
100
AcDbEntity
  8
0
100
AcDbLine
 62
7
  6
CONTINUOUS
 10
6.6894862587
 20
3.4730996874
 11
6.8001112587
 21
3.4730996874
  0
LINE
  5
2B5
100
AcDbEntity
  8
0
100
AcDbLine
 62
7
  6
CONTINUOUS
 10
6.6894862587
 20
3.4738184725
 11
6.8001112587
 21
3.4738184725
  0
LINE
  5
2B6
100
AcDbEntity
  8
0
100
AcDbLine
 62
7
  6
CONTINUOUS
 10
6.6894862587
 20
3.4767155068
 11
6.8001112587
 21
3.4767155068
  0
LINE
  5
2B7
100
AcDbEntity
  8
0
100
AcDbLine
 62
7
  6
CONTINUOUS
 10
6.6894862587
 20
3.4773271314
 11
6.8001112587
 21
3.4773271314
  0
LINE
  5
2B8
100
AcDbEntity
  8
0
100
AcDbLine
 62
7
  6
CONTINUOUS
 10
6.6894862587
 20
3.4797568898
 11
6.8001112587
 21
3.4797568898
  0
LINE
  5
2B9
100
AcDbEntity
  8
0
100
AcDbLine
 62
7
  6
CONTINUOUS
 10
6.6894862587
 20
3.4802580855
 11
6.8001112587
 21
3.4802580855
  0
LINE
  5
2BA
100
AcDbEntity
  8
0
100
AcDbLine
 62
7
  6
CONTINUOUS
 10
6.6894862587
 20
3.4822099326
 11
6.8001112587
 21
3.4822099326
  0
LINE
  5
2BB
100
AcDbEntity
  8
0
100
AcDbLine
 62
7
  6
CONTINUOUS
 10
6.6894862587
 20
3.4826011833
 11
6.8001112587
 21
3.4826011833
  0
LINE
  5
2BC
100
AcDbEntity
  8
0
100
AcDbLine
 62
7
  6
CONTINUOUS
 10
6.6894862587
 20
3.4840697691
 11
6.8001112587
 21
3.4840697691
  0
LINE
  5
2BD
100
AcDbEntity
  8
0
100
AcDbLine
 62
7
  6
CONTINUOUS
 10
6.6894862587
 20
3.4843500024
 11
6.8001112587
 21
3.4843500024
  0
LINE
  5
2BE
100
AcDbEntity
  8
0
100
AcDbLine
 62
7
  6
CONTINUOUS
 10
6.6894862587
 20
3.4853313016
 11
6.8001112587
 21
3.4853313016
  0
LINE
  5
2BF
100
AcDbEntity
  8
0
100
AcDbLine
 62
7
  6
CONTINUOUS
 10
6.6894862587
 20
3.4854997494
 11
6.8001112587
 21
3.4854997494
  0
LINE
  5
2C0
100
AcDbEntity
  8
0
100
AcDbLine
 62
7
  6
CONTINUOUS
 10
6.6894862587
 20
3.4859910723
 11
6.8001112587
 21
3.4859910723
  0
LINE
  5
2C1
100
AcDbEntity
  8
0
100
AcDbLine
 62
7
  6
CONTINUOUS
 10
6.6894862587
 20
3.4860474099
 11
6.8001112737
 21
3.4860474099
  0
LINE
  5
2C2
100
AcDbEntity
  8
0
100
AcDbLine
 62
7
  6
CONTINUOUS
 10
6.9477933453
 20
3.5815347826
 11
7.2290433453
 21
3.5815347826
  0
LINE
  5
2C3
100
AcDbEntity
  8
0
100
AcDbLine
 62
7
  6
CONTINUOUS
 10
6.9506822508
 20
3.6105972826
 11
6.5727933453
 21
3.6105972826
  0
LINE
  5
2C4
100
AcDbEntity
  8
0
100
AcDbLine
 62
7
  6
CONTINUOUS
 10
7.2261544446
 20
3.6105972826
 11
7.6040433453
 21
3.6105972826
  0
LINE
  5
2C5
100
AcDbEntity
  8
0
100
AcDbLine
 62
7
  6
CONTINUOUS
 10
6.9506822509
 20
3.7774722826
 11
6.5727933453
 21
3.7774722826
  0
LINE
  5
2C6
100
AcDbEntity
  8
0
100
AcDbLine
 62
7
  6
CONTINUOUS
 10
7.2261544398
 20
3.7774722826
 11
7.6040433453
 21
3.7774722826
  0
LINE
  5
2C7
100
AcDbEntity
  8
0
100
AcDbLine
 62
7
  6
CONTINUOUS
 10
6.9477933453
 20
3.8065347826
 11
7.2290433453
 21
3.8065347826
  0
LINE
  5
2C8
100
AcDbEntity
  8
0
100
AcDbLine
 62
7
  6
CONTINUOUS
 10
6.8652933453
 20
2.7955347826
 11
6.8540433453
 21
2.8067847826
  0
LINE
  5
2C9
100
AcDbEntity
  8
0
100
AcDbLine
 62
7
  6
CONTINUOUS
 10
7.3115433453
 20
2.7955347826
 11
7.3227933453
 21
2.7842847826
  0
LINE
  5
2CA
100
AcDbEntity
  8
0
100
AcDbLine
 62
7
  6
CONTINUOUS
 10
3.413418419
 20
4.6685847826
 11
3.7884182717
 21
4.6685847826
  0
LINE
  5
2CB
100
AcDbEntity
  8
0
100
AcDbLine
 62
7
  6
CONTINUOUS
 10
7.2759183453
 20
5.2629597826
 11
6.9009183453
 21
5.2629597826
  0
LINE
  5
2CC
100
AcDbEntity
  8
0
100
AcDbLine
 62
7
  6
CONTINUOUS
 10
3.4134183453
 20
5.2629597826
 11
3.7884183453
 21
5.2629597826
  0
LINE
  5
2CD
100
AcDbEntity
  8
0
100
AcDbLine
 62
7
  6
CONTINUOUS
 10
6.6028529821
 20
3.1392126191
 11
6.6028540942
 21
3.1392081001
  0
LINE
  5
2CE
100
AcDbEntity
  8
0
100
AcDbLine
 62
7
  6
CONTINUOUS
 10
6.6028540941
 20
3.1392081003
 11
6.602825332
 21
3.1393249959
  0
LINE
  5
2CF
100
AcDbEntity
  8
0
100
AcDbLine
 62
7
  6
CONTINUOUS
 10
6.6026635129
 20
3.139982794
 11
6.6026914334
 21
3.1398692829
  0
LINE
  5
2D0
100
AcDbEntity
  8
0
100
AcDbLine
 62
7
  6
CONTINUOUS
 10
6.6025672362
 20
3.1403742691
 11
6.6026635129
 21
3.139982794
  0
LINE
  5
2D1
100
AcDbEntity
  8
0
100
AcDbLine
 62
7
  6
CONTINUOUS
 10
6.6024529919
 20
3.1408389032
 11
6.6025672362
 21
3.1403742691
  0
LINE
  5
2D2
100
AcDbEntity
  8
0
100
AcDbLine
 62
7
  6
CONTINUOUS
 10
6.6023215783
 20
3.141373498
 11
6.6024529919
 21
3.1408389032
  0
LWPOLYLINE
  5
2D3
100
AcDbEntity
  8
0
100
AcDbPolyline
 62
7
  6
CONTINUOUS
 90
4
 70
0
 10
6.6021216723
 20
3.1421870102
 10
6.6021740928
 20
3.1419736538
 10
6.6022248854
 20
3.1417669482
 10
6.6023215783
 20
3.141373498
  0
LWPOLYLINE
  5
2D4
100
AcDbEntity
  8
0
100
AcDbPolyline
 62
7
  6
CONTINUOUS
 90
4
 70
0
 10
6.6009935607
 20
3.1467841637
 10
6.6010615528
 20
3.1465067842
 10
6.6011293056
 20
3.1462304205
 10
6.60126416
 20
3.1456804635
  0
LINE
  5
2D5
100
AcDbEntity
  8
0
100
AcDbLine
 62
7
  6
CONTINUOUS
 10
6.5990427953
 20
3.1547591262
 11
6.6028529843
 21
3.1392126107
  0
LINE
  5
2D6
100
AcDbEntity
  8
0
100
AcDbLine
 62
7
  6
CONTINUOUS
 10
6.5909005755
 20
3.199938848
 11
6.5930786458
 21
3.1852472236
  0
LINE
  5
2D7
100
AcDbEntity
  8
0
100
AcDbLine
 62
7
  6
CONTINUOUS
 10
6.5727933453
 20
3.7774722826
 11
6.5727933453
 21
3.6105972826
  0
LINE
  5
2D8
100
AcDbEntity
  8
0
100
AcDbLine
 62
7
  6
CONTINUOUS
 10
6.6104970363
 20
3.1129981466
 11
6.6104970363
 21
3.4185714186
  0
LINE
  5
2D9
100
AcDbEntity
  8
0
100
AcDbLine
 62
7
  6
CONTINUOUS
 10
6.6126112587
 20
3.1082847826
 11
6.6126112587
 21
3.4232847826
  0
LINE
  5
2DA
100
AcDbEntity
  8
0
100
AcDbLine
 62
7
  6
CONTINUOUS
 10
6.6238612587
 20
3.0970347826
 11
6.6238612587
 21
3.4345347826
  0
LINE
  5
2DB
100
AcDbEntity
  8
0
100
AcDbLine
 62
7
  6
CONTINUOUS
 10
6.6388612587
 20
3.4607847826
 11
6.6388612587
 21
3.0707847826
  0
LINE
  5
2DC
100
AcDbEntity
  8
0
100
AcDbLine
 62
7
  6
CONTINUOUS
 10
6.6501112587
 20
3.4720347826
 11
6.6501112587
 21
3.0595347826
  0
LINE
  5
2DD
100
AcDbEntity
  8
0
100
AcDbLine
 62
7
  6
CONTINUOUS
 10
6.6894862587
 20
3.0455221553
 11
6.6894862587
 21
3.4859910723
  0
LINE
  5
2DE
100
AcDbEntity
  8
0
100
AcDbLine
 62
7
  6
CONTINUOUS
 10
6.8944751392
 20
1.9626597826
 11
6.8946125978
 21
1.9547847826
  0
LINE
  5
2DF
100
AcDbEntity
  8
0
100
AcDbLine
 62
7
  6
CONTINUOUS
 10
6.7171683453
 20
1.5479097826
 11
6.7171683453
 21
1.6960347826
  0
LINE
  5
2E0
100
AcDbEntity
  8
0
100
AcDbLine
 62
7
  6
CONTINUOUS
 10
6.8001112587
 20
3.0455221553
 11
6.8001112587
 21
3.0455784929
  0
LINE
  5
2E1
100
AcDbEntity
  8
0
100
AcDbLine
 62
7
  6
CONTINUOUS
 10
6.8001112587
 20
3.0460698158
 11
6.8001112587
 21
3.0462382636
  0
LINE
  5
2E2
100
AcDbEntity
  8
0
100
AcDbLine
 62
7
  6
CONTINUOUS
 10
6.8001112587
 20
3.0472195628
 11
6.8001112587
 21
3.0474997962
  0
LINE
  5
2E3
100
AcDbEntity
  8
0
100
AcDbLine
 62
7
  6
CONTINUOUS
 10
6.8001112587
 20
3.0489683819
 11
6.8001112587
 21
3.0493596326
  0
LINE
  5
2E4
100
AcDbEntity
  8
0
100
AcDbLine
 62
7
  6
CONTINUOUS
 10
6.8001112587
 20
3.0513114797
 11
6.8001112587
 21
3.0518126754
  0
LINE
  5
2E5
100
AcDbEntity
  8
0
100
AcDbLine
 62
7
  6
CONTINUOUS
 10
6.8001112587
 20
3.0542424339
 11
6.8001112587
 21
3.0548540584
  0
LINE
  5
2E6
100
AcDbEntity
  8
0
100
AcDbLine
 62
7
  6
CONTINUOUS
 10
6.8001112587
 20
3.0577510927
 11
6.8001112587
 21
3.0584698778
  0
LINE
  5
2E7
100
AcDbEntity
  8
0
100
AcDbLine
 62
7
  6
CONTINUOUS
 10
6.8001112587
 20
3.061834188
 11
6.8001112587
 21
3.0626557906
  0
LINE
  5
2E8
100
AcDbEntity
  8
0
100
AcDbLine
 62
7
  6
CONTINUOUS
 10
6.8001112587
 20
3.0664741796
 11
6.8001112587
 21
3.0673984658
  0
LINE
  5
2E9
100
AcDbEntity
  8
0
100
AcDbLine
 62
7
  6
CONTINUOUS
 10
6.8001112587
 20
3.0716604676
 11
6.8001112587
 21
3.072684904
  0
LINE
  5
2EA
100
AcDbEntity
  8
0
100
AcDbLine
 62
7
  6
CONTINUOUS
 10
6.8001112587
 20
3.0773788369
 11
6.8001112587
 21
3.0785006157
  0
LINE
  5
2EB
100
AcDbEntity
  8
0
100
AcDbLine
 62
7
  6
CONTINUOUS
 10
6.8001112587
 20
3.0836136138
 11
6.8001112587
 21
3.0848333305
  0
LINE
  5
2EC
100
AcDbEntity
  8
0
100
AcDbLine
 62
7
  6
CONTINUOUS
 10
6.8001112587
 20
3.0903438172
 11
6.8001112587
 21
3.0916546901
  0
LINE
  5
2ED
100
AcDbEntity
  8
0
100
AcDbLine
 62
7
  6
CONTINUOUS
 10
6.8001112587
 20
3.0975626655
 11
6.8001112587
 21
3.0989569985
  0
LINE
  5
2EE
100
AcDbEntity
  8
0
100
AcDbLine
 62
7
  6
CONTINUOUS
 10
6.8001112587
 20
3.1052387068
 11
6.8001112587
 21
3.1067165703
  0
LINE
  5
2EF
100
AcDbEntity
  8
0
100
AcDbLine
 62
7
  6
CONTINUOUS
 10
6.8001112587
 20
3.1133547938
 11
6.8001112587
 21
3.114912137
  0
LINE
  5
2F0
100
AcDbEntity
  8
0
100
AcDbLine
 62
7
  6
CONTINUOUS
 10
6.8001112587
 20
3.1218886808
 11
6.8001112587
 21
3.1235212351
  0
LINE
  5
2F1
100
AcDbEntity
  8
0
100
AcDbLine
 62
7
  6
CONTINUOUS
 10
6.8001112587
 20
3.130816977
 11
6.8001112587
 21
3.1325253915
  0
LINE
  5
2F2
100
AcDbEntity
  8
0
100
AcDbLine
 62
7
  6
CONTINUOUS
 10
6.8001112587
 20
3.1401099258
 11
6.8001112587
 21
3.1418845691
  0
LINE
  5
2F3
100
AcDbEntity
  8
0
100
AcDbLine
 62
7
  6
CONTINUOUS
 10
6.8001112587
 20
3.1497578958
 11
6.8001112587
 21
3.1515884723
  0
LINE
  5
2F4
100
AcDbEntity
  8
0
100
AcDbLine
 62
7
  6
CONTINUOUS
 10
6.8001112587
 20
3.1597186025
 11
6.8001112587
 21
3.1616053797
  0
LINE
  5
2F5
100
AcDbEntity
  8
0
100
AcDbLine
 62
7
  6
CONTINUOUS
 10
6.8001112587
 20
3.1699700294
 11
6.8001112587
 21
3.1719078356
  0
LINE
  5
2F6
100
AcDbEntity
  8
0
100
AcDbLine
 62
7
  6
CONTINUOUS
 10
6.8001112587
 20
3.1804840777
 11
6.8001112587
 21
3.1824676017
  0
LINE
  5
2F7
100
AcDbEntity
  8
0
100
AcDbLine
 62
7
  6
CONTINUOUS
 10
6.8001112587
 20
3.1912319294
 11
6.8001112587
 21
3.1932618101
  0
LINE
  5
2F8
100
AcDbEntity
  8
0
100
AcDbLine
 62
7
  6
CONTINUOUS
 10
6.8001112587
 20
3.202177965
 11
6.8001112587
 21
3.2042426642
  0
LINE
  5
2F9
100
AcDbEntity
  8
0
100
AcDbLine
 62
7
  6
CONTINUOUS
 10
6.8001112587
 20
3.2133106462
 11
6.8001112587
 21
3.2153982766
  0
LINE
  5
2FA
100
AcDbEntity
  8
0
100
AcDbLine
 62
7
  6
CONTINUOUS
 10
6.8001112587
 20
3.224580995
 11
6.8001112587
 21
3.226691995
  0
LINE
  5
2FB
100
AcDbEntity
  8
0
100
AcDbLine
 62
7
  6
CONTINUOUS
 10
6.8001112587
 20
3.2359642805
 11
6.8001112587
 21
3.238092864
  0
LINE
  5
2FC
100
AcDbEntity
  8
0
100
AcDbLine
 62
7
  6
CONTINUOUS
 10
6.8001112587
 20
3.247429302
 11
6.8001112587
 21
3.2495696346
  0
LINE
  5
2FD
100
AcDbEntity
  8
0
100
AcDbLine
 62
7
  6
CONTINUOUS
 10
6.8001112587
 20
3.2589446346
 11
6.8001112587
 21
3.2610972826
  0
LINE
  5
2FE
100
AcDbEntity
  8
0
100
AcDbLine
 62
7
  6
CONTINUOUS
 10
6.8001112587
 20
3.2704722826
 11
6.8001112587
 21
3.2726249307
  0
LINE
  5
2FF
100
AcDbEntity
  8
0
100
AcDbLine
 62
7
  6
CONTINUOUS
 10
6.8001112587
 20
3.2819999307
 11
6.8001112587
 21
3.2841402632
  0
LINE
  5
300
100
AcDbEntity
  8
0
100
AcDbLine
 62
7
  6
CONTINUOUS
 10
6.8001112587
 20
3.2934767013
 11
6.8001112587
 21
3.2956052847
  0
LINE
  5
301
100
AcDbEntity
  8
0
100
AcDbLine
 62
7
  6
CONTINUOUS
 10
6.8001112587
 20
3.3048775702
 11
6.8001112587
 21
3.3069885702
  0
LINE
  5
302
100
AcDbEntity
  8
0
100
AcDbLine
 62
7
  6
CONTINUOUS
 10
6.8001112587
 20
3.3161712886
 11
6.8001112587
 21
3.318258919
  0
LINE
  5
303
100
AcDbEntity
  8
0
100
AcDbLine
 62
7
  6
CONTINUOUS
 10
6.8001112587
 20
3.327326901
 11
6.8001112587
 21
3.3293916003
  0
LINE
  5
304
100
AcDbEntity
  8
0
100
AcDbLine
 62
7
  6
CONTINUOUS
 10
6.8001112587
 20
3.3383077551
 11
6.8001112587
 21
3.3403376358
  0
LINE
  5
305
100
AcDbEntity
  8
0
100
AcDbLine
 62
7
  6
CONTINUOUS
 10
6.8001112587
 20
3.3491019635
 11
6.8001112587
 21
3.3510854875
  0
LINE
  5
306
100
AcDbEntity
  8
0
100
AcDbLine
 62
7
  6
CONTINUOUS
 10
6.8001112587
 20
3.3596617296
 11
6.8001112587
 21
3.3615995359
  0
LINE
  5
307
100
AcDbEntity
  8
0
100
AcDbLine
 62
7
  6
CONTINUOUS
 10
6.8001112587
 20
3.3699641855
 11
6.8001112587
 21
3.3718509627
  0
LINE
  5
308
100
AcDbEntity
  8
0
100
AcDbLine
 62
7
  6
CONTINUOUS
 10
6.8001112587
 20
3.3799810929
 11
6.8001112587
 21
3.3818116694
  0
LINE
  5
309
100
AcDbEntity
  8
0
100
AcDbLine
 62
7
  6
CONTINUOUS
 10
6.8001112587
 20
3.3896849961
 11
6.8001112587
 21
3.3914596394
  0
LINE
  5
30A
100
AcDbEntity
  8
0
100
AcDbLine
 62
7
  6
CONTINUOUS
 10
6.8001112587
 20
3.3990441737
 11
6.8001112587
 21
3.4007525882
  0
LINE
  5
30B
100
AcDbEntity
  8
0
100
AcDbLine
 62
7
  6
CONTINUOUS
 10
6.8001112587
 20
3.4080483301
 11
6.8001112587
 21
3.4096808844
  0
LINE
  5
30C
100
AcDbEntity
  8
0
100
AcDbLine
 62
7
  6
CONTINUOUS
 10
6.8001112587
 20
3.4166574283
 11
6.8001112587
 21
3.4182147714
  0
LINE
  5
30D
100
AcDbEntity
  8
0
100
AcDbLine
 62
7
  6
CONTINUOUS
 10
6.8001112587
 20
3.4248529949
 11
6.8001112587
 21
3.4263308584
  0
LINE
  5
30E
100
AcDbEntity
  8
0
100
AcDbLine
 62
7
  6
CONTINUOUS
 10
6.8001112587
 20
3.4326125667
 11
6.8001112587
 21
3.4340068998
  0
LINE
  5
30F
100
AcDbEntity
  8
0
100
AcDbLine
 62
7
  6
CONTINUOUS
 10
6.8001112587
 20
3.4399148751
 11
6.8001112587
 21
3.441225748
  0
LINE
  5
310
100
AcDbEntity
  8
0
100
AcDbLine
 62
7
  6
CONTINUOUS
 10
6.8001112587
 20
3.4467362347
 11
6.8001112587
 21
3.4479559514
  0
LINE
  5
311
100
AcDbEntity
  8
0
100
AcDbLine
 62
7
  6
CONTINUOUS
 10
6.8001112587
 20
3.4530689495
 11
6.8001112587
 21
3.4541907283
  0
LINE
  5
312
100
AcDbEntity
  8
0
100
AcDbLine
 62
7
  6
CONTINUOUS
 10
6.8001112587
 20
3.4588846612
 11
6.8001112587
 21
3.4599090976
  0
LINE
  5
313
100
AcDbEntity
  8
0
100
AcDbLine
 62
7
  6
CONTINUOUS
 10
6.8001112587
 20
3.4641710995
 11
6.8001112587
 21
3.4650953856
  0
LINE
  5
314
100
AcDbEntity
  8
0
100
AcDbLine
 62
7
  6
CONTINUOUS
 10
6.8001112587
 20
3.4689137746
 11
6.8001112587
 21
3.4697353772
  0
LINE
  5
315
100
AcDbEntity
  8
0
100
AcDbLine
 62
7
  6
CONTINUOUS
 10
6.8001112587
 20
3.4730996874
 11
6.8001112587
 21
3.4738184725
  0
LINE
  5
316
100
AcDbEntity
  8
0
100
AcDbLine
 62
7
  6
CONTINUOUS
 10
6.8001112587
 20
3.4767155068
 11
6.8001112587
 21
3.4773271314
  0
LINE
  5
317
100
AcDbEntity
  8
0
100
AcDbLine
 62
7
  6
CONTINUOUS
 10
6.8001112587
 20
3.4797568898
 11
6.8001112587
 21
3.4802580855
  0
LINE
  5
318
100
AcDbEntity
  8
0
100
AcDbLine
 62
7
  6
CONTINUOUS
 10
6.8001112587
 20
3.4822099326
 11
6.8001112587
 21
3.4826011833
  0
LINE
  5
319
100
AcDbEntity
  8
0
100
AcDbLine
 62
7
  6
CONTINUOUS
 10
6.8001112587
 20
3.4840697691
 11
6.8001112587
 21
3.4843500024
  0
LINE
  5
31A
100
AcDbEntity
  8
0
100
AcDbLine
 62
7
  6
CONTINUOUS
 10
6.8001112587
 20
3.4853313016
 11
6.8001112587
 21
3.4854997494
  0
LINE
  5
31B
100
AcDbEntity
  8
0
100
AcDbLine
 62
7
  6
CONTINUOUS
 10
6.8076112587
 20
3.0529722826
 11
6.8076112587
 21
3.4785972826
  0
LINE
  5
31C
100
AcDbEntity
  8
0
100
AcDbLine
 62
7
  6
CONTINUOUS
 10
6.8540433453
 20
3.0739722826
 11
6.8540433453
 21
2.8067847826
  0
LINE
  5
31D
100
AcDbEntity
  8
0
100
AcDbLine
 62
7
  6
CONTINUOUS
 10
6.8540433453
 20
1.7072847826
 11
6.8540433453
 21
2.7842847826
  0
LINE
  5
31E
100
AcDbEntity
  8
0
100
AcDbLine
 62
7
  6
CONTINUOUS
 10
6.9009183453
 20
5.2629597826
 11
6.9009183453
 21
3.7774722826
  0
LINE
  5
31F
100
AcDbEntity
  8
0
100
AcDbLine
 62
7
  6
CONTINUOUS
 10
6.9009183453
 20
3.6105972826
 11
6.9009183453
 21
3.4575972826
  0
LINE
  5
320
100
AcDbEntity
  8
0
100
AcDbLine
 62
7
  6
CONTINUOUS
 10
6.9009183453
 20
1.9626597826
 11
6.9009183453
 21
3.0270972826
  0
LINE
  5
321
100
AcDbEntity
  8
0
100
AcDbLine
 62
7
  6
CONTINUOUS
 10
6.9477933453
 20
3.5815347826
 11
6.9477933453
 21
3.6059097826
  0
LINE
  5
322
100
AcDbEntity
  8
0
100
AcDbLine
 62
7
  6
CONTINUOUS
 10
6.9477933453
 20
3.7821597826
 11
6.9477933453
 21
3.8065347826
  0
LINE
  5
323
100
AcDbEntity
  8
0
100
AcDbLine
 62
7
  6
CONTINUOUS
 10
6.5930786415
 20
3.3463223154
 11
6.590900571
 21
3.3316306838
  0
LINE
  5
324
100
AcDbEntity
  8
0
100
AcDbLine
 62
7
  6
CONTINUOUS
 10
6.6028540939
 20
3.3923614643
 11
6.5990431892
 21
3.3768120515
  0
LINE
  5
325
100
AcDbEntity
  8
0
100
AcDbLine
 62
7
  6
CONTINUOUS
 10
6.6028529821
 20
3.3923569462
 11
6.6028540942
 21
3.3923614651
  0
LINE
  5
326
100
AcDbEntity
  8
0
100
AcDbLine
 62
7
  6
CONTINUOUS
 10
7.3648587288
 20
3.1145609493
 11
7.5605098724
 21
2.5463487701
  0
LINE
  5
327
100
AcDbEntity
  8
0
100
AcDbLine
 62
7
  6
CONTINUOUS
 10
7.3790415075
 20
3.1194444716
 11
7.5591009709
 21
2.5965138194
  0
LINE
  5
328
100
AcDbEntity
  8
0
100
AcDbLine
 62
7
  6
CONTINUOUS
 10
7.5790512649
 20
2.5961655864
 11
7.4187176428
 21
3.0618082357
  0
LINE
  5
329
100
AcDbEntity
  8
0
100
AcDbLine
 62
7
  6
CONTINUOUS
 10
7.6088257239
 20
2.555767581
 11
7.4329004214
 21
3.0666917581
  0
LINE
  5
32A
100
AcDbEntity
  8
0
100
AcDbLine
 62
7
  6
CONTINUOUS
 10
6.9899808453
 20
3.4575972826
 11
6.9899808453
 21
3.5815347826
  0
LINE
  5
32B
100
AcDbEntity
  8
0
100
AcDbLine
 62
7
  6
CONTINUOUS
 10
7.5591012045
 20
2.5965138153
 11
7.5744308652
 21
2.5362345768
  0
LINE
  5
32C
100
AcDbEntity
  8
0
100
AcDbLine
 62
7
  6
CONTINUOUS
 10
7.5943811592
 20
2.5358863433
 11
7.5790514986
 21
2.5961655823
  0
LINE
  5
32D
100
AcDbEntity
  8
0
100
AcDbLine
 62
7
  6
CONTINUOUS
 10
7.334388315
 20
3.412925058
 11
7.3502209391
 21
3.1865079845
  0
LINE
  5
32E
100
AcDbEntity
  8
0
100
AcDbLine
 62
7
  6
CONTINUOUS
 10
7.3584110854
 20
3.2844172412
 11
7.3651843999
 21
3.1875543316
  0
LINE
  5
32F
100
AcDbEntity
  8
0
100
AcDbLine
 62
7
  6
CONTINUOUS
 10
7.3789028547
 20
3.2575041715
 11
7.3770436527
 21
3.2840919979
  0
LINE
  5
330
100
AcDbEntity
  8
0
100
AcDbLine
 62
7
  6
CONTINUOUS
 10
7.3938663154
 20
3.2585505186
 11
7.3829478031
 21
3.4146925195
  0
LINE
  5
331
100
AcDbEntity
  8
0
100
AcDbLine
 62
7
  6
CONTINUOUS
 10
7.3496135629
 20
3.4289691477
 11
7.3584110729
 21
3.2844172414
  0
LINE
  5
332
100
AcDbEntity
  8
0
100
AcDbLine
 62
7
  6
CONTINUOUS
 10
7.3770436401
 20
3.2840919982
 11
7.3682461295
 21
3.428643915
  0
LINE
  5
333
100
AcDbEntity
  8
0
100
AcDbLine
 62
7
  6
CONTINUOUS
 10
7.1868558453
 20
3.4575972826
 11
7.1868558453
 21
3.5815347826
  0
LINE
  5
334
100
AcDbEntity
  8
0
100
AcDbLine
 62
7
  6
CONTINUOUS
 10
7.2290433453
 20
3.5815347826
 11
7.2290433453
 21
3.6059097826
  0
LINE
  5
335
100
AcDbEntity
  8
0
100
AcDbLine
 62
7
  6
CONTINUOUS
 10
7.2290433453
 20
3.7821597826
 11
7.2290433453
 21
3.8065347826
  0
LINE
  5
336
100
AcDbEntity
  8
0
100
AcDbLine
 62
7
  6
CONTINUOUS
 10
7.2759183453
 20
5.2629597826
 11
7.2759183453
 21
3.7774722826
  0
LINE
  5
337
100
AcDbEntity
  8
0
100
AcDbLine
 62
7
  6
CONTINUOUS
 10
7.2759183453
 20
3.6105972826
 11
7.2759183453
 21
3.4575972826
  0
LINE
  5
338
100
AcDbEntity
  8
0
100
AcDbLine
 62
7
  6
CONTINUOUS
 10
7.2759183453
 20
3.0270967758
 11
7.2759183453
 21
1.9626597826
  0
LINE
  5
339
100
AcDbEntity
  8
0
100
AcDbLine
 62
7
  6
CONTINUOUS
 10
7.2954183332
 20
3.0955229047
 11
7.2954183453
 21
3.4575972826
  0
LINE
  5
33A
100
AcDbEntity
  8
0
100
AcDbLine
 62
7
  6
CONTINUOUS
 10
7.3066683453
 20
3.0783722789
 11
7.3066683453
 21
3.4463472603
  0
LINE
  5
33B
100
AcDbEntity
  8
0
100
AcDbLine
 62
7
  6
CONTINUOUS
 10
7.3216683453
 20
3.4388472826
 11
7.3216683453
 21
3.0927222826
  0
LINE
  5
33C
100
AcDbEntity
  8
0
100
AcDbLine
 62
7
  6
CONTINUOUS
 10
7.3227933453
 20
3.0927796861
 11
7.3227933453
 21
2.8067847826
  0
LINE
  5
33D
100
AcDbEntity
  8
0
100
AcDbLine
 62
7
  6
CONTINUOUS
 10
7.3227933453
 20
1.7072847826
 11
7.3227933453
 21
2.7842847826
  0
LINE
  5
33E
100
AcDbEntity
  8
0
100
AcDbLine
 62
7
  6
CONTINUOUS
 10
7.3329183453
 20
3.4275972826
 11
7.3329183453
 21
3.1039722826
  0
LINE
  5
33F
100
AcDbEntity
  8
0
100
AcDbLine
 62
7
  6
CONTINUOUS
 10
7.2823615515
 20
1.9626597826
 11
7.2822240929
 21
1.9547847826
  0
LINE
  5
340
100
AcDbEntity
  8
0
100
AcDbLine
 62
7
  6
CONTINUOUS
 10
7.3790415075
 20
3.1194444716
 11
7.3648587288
 21
3.1145609493
  0
LINE
  5
341
100
AcDbEntity
  8
0
100
AcDbLine
 62
7
  6
CONTINUOUS
 10
7.4187176428
 20
3.0618082357
 11
7.4329004214
 21
3.0666917581
  0
LINE
  5
342
100
AcDbEntity
  8
0
100
AcDbLine
 62
7
  6
CONTINUOUS
 10
7.4596683453
 20
1.5479097826
 11
7.4596683453
 21
1.6960347826
  0
LINE
  5
343
100
AcDbEntity
  8
0
100
AcDbLine
 62
7
  6
CONTINUOUS
 10
7.6040433453
 20
3.7774722826
 11
7.6040433453
 21
3.6105972826
  0
LINE
  5
344
100
AcDbEntity
  8
0
100
AcDbLine
 62
7
  6
CONTINUOUS
 10
6.8652933453
 20
2.7955347826
 11
6.8540433453
 21
2.7842847826
  0
LINE
  5
345
100
AcDbEntity
  8
0
100
AcDbLine
 62
7
  6
CONTINUOUS
 10
7.5591018433
 20
2.5965112857
 11
7.5449190647
 21
2.5916277634
  0
LINE
  5
346
100
AcDbEntity
  8
0
100
AcDbLine
 62
7
  6
CONTINUOUS
 10
7.5790521375
 20
2.596163052
 11
7.5932349162
 21
2.6010465744
  0
LINE
  5
347
100
AcDbEntity
  8
0
100
AcDbLine
 62
7
  6
CONTINUOUS
 10
7.3115433453
 20
2.7955347826
 11
7.3227933453
 21
2.8067847826
  0
ARC
  5
348
100
AcDbEntity
  8
0
100
AcDbCircle
 62
7
  6
CONTINUOUS
 10
6.6305501449
 20
3.2657865514
 40
0.0315073536
100
AcDbArc
 50
177.4129385259
 51
180.0032165325
  0
ARC
  5
349
100
AcDbEntity
  8
0
100
AcDbCircle
 62
7
  6
CONTINUOUS
 10
6.571682538
 20
3.265782253
 40
0.0311715563
100
AcDbArc
 50
357.049004343
 51
0.004649529
  0
ARC
  5
34A
100
AcDbEntity
  8
0
100
AcDbCircle
 62
7
  6
CONTINUOUS
 10
6.7284183453
 20
1.6960347826
 40
0.01125
100
AcDbArc
 50
90.0
 51
180.0
  0
ARC
  5
34B
100
AcDbEntity
  8
0
100
AcDbCircle
 62
7
  6
CONTINUOUS
 10
6.6238612587
 20
3.4232847826
 40
0.01125
100
AcDbArc
 50
90.0
 51
180.0
  0
ARC
  5
34C
100
AcDbEntity
  8
0
100
AcDbCircle
 62
7
  6
CONTINUOUS
 10
6.6238612587
 20
3.1082847826
 40
0.01125
100
AcDbArc
 50
180.0
 51
270.0
  0
ARC
  5
34D
100
AcDbEntity
  8
0
100
AcDbCircle
 62
7
  6
CONTINUOUS
 10
6.6501112587
 20
3.4607847826
 40
0.01125
100
AcDbArc
 50
90.0
 51
180.0
  0
ARC
  5
34E
100
AcDbEntity
  8
0
100
AcDbCircle
 62
7
  6
CONTINUOUS
 10
6.6501112587
 20
3.0707847826
 40
0.01125
100
AcDbArc
 50
180.0
 51
270.0
  0
ARC
  5
34F
100
AcDbEntity
  8
0
100
AcDbCircle
 62
7
  6
CONTINUOUS
 10
6.6140670398
 20
3.1141460031
 40
0.00375
100
AcDbArc
 50
197.8240571943
 51
247.1516185425
  0
ARC
  5
350
100
AcDbEntity
  8
0
100
AcDbCircle
 62
7
  6
CONTINUOUS
 10
6.6140670398
 20
3.4174235621
 40
0.00375
100
AcDbArc
 50
112.8483814575
 51
162.1759428057
  0
ARC
  5
351
100
AcDbEntity
  8
0
100
AcDbCircle
 62
7
  6
CONTINUOUS
 10
5.3446683453
 20
5.2629597826
 40
1.93125
100
AcDbArc
 50
0.0
 51
180.0
  0
ARC
  5
352
100
AcDbEntity
  8
0
100
AcDbCircle
 62
7
  6
CONTINUOUS
 10
5.3446683453
 20
5.2629597826
 40
1.55625
100
AcDbArc
 50
0.0
 51
180.0
  0
ARC
  5
353
100
AcDbEntity
  8
0
100
AcDbCircle
 62
7
  6
CONTINUOUS
 10
8.1420393531
 20
3.3108678739
 40
0.765
100
AcDbArc
 50
184.0
 51
199.0
  0
ARC
  5
354
100
AcDbEntity
  8
0
100
AcDbCircle
 62
7
  6
CONTINUOUS
 10
8.1420393531
 20
3.3108678739
 40
0.75
100
AcDbArc
 50
184.0
 51
199.0
  0
ARC
  5
355
100
AcDbEntity
  8
0
100
AcDbCircle
 62
7
  6
CONTINUOUS
 10
7.0856861014
 20
3.2657847826
 40
0.4991476773
100
AcDbArc
 50
162.1759428058
 51
165.3102062657
  0
ARC
  5
356
100
AcDbEntity
  8
0
100
AcDbCircle
 62
7
  6
CONTINUOUS
 10
7.0856861014
 20
3.2657847826
 40
0.4991476773
100
AcDbArc
 50
167.1481751459
 51
170.7147267369
  0
ARC
  5
357
100
AcDbEntity
  8
0
100
AcDbCircle
 62
7
  6
CONTINUOUS
 10
7.0856861014
 20
3.2657847826
 40
0.4991476773
100
AcDbArc
 50
172.4196365177
 51
187.5803634823
  0
ARC
  5
358
100
AcDbEntity
  8
0
100
AcDbCircle
 62
7
  6
CONTINUOUS
 10
7.0856861014
 20
3.2657847826
 40
0.4991476773
100
AcDbArc
 50
189.2852732631
 51
192.8518248541
  0
ARC
  5
359
100
AcDbEntity
  8
0
100
AcDbCircle
 62
7
  6
CONTINUOUS
 10
7.0856861014
 20
3.2657847826
 40
0.4991476773
100
AcDbArc
 50
194.6897937343
 51
197.8240571942
  0
ARC
  5
35A
100
AcDbEntity
  8
0
100
AcDbCircle
 62
7
  6
CONTINUOUS
 10
7.6307858282
 20
3.2061269928
 40
0.28125
100
AcDbArc
 50
184.0
 51
199.0
  0
ARC
  5
35B
100
AcDbEntity
  8
0
100
AcDbCircle
 62
7
  6
CONTINUOUS
 10
7.6307858282
 20
3.2061269928
 40
0.26625
100
AcDbArc
 50
184.0
 51
199.0
  0
ARC
  5
35C
100
AcDbEntity
  8
0
100
AcDbCircle
 62
7
  6
CONTINUOUS
 10
6.8540433453
 20
3.0270972826
 40
0.046875
100
AcDbArc
 50
0.0
 51
90.0
  0
ARC
  5
35D
100
AcDbEntity
  8
0
100
AcDbCircle
 62
7
  6
CONTINUOUS
 10
7.3227933419
 20
3.0270972861
 40
0.0468749993
100
AcDbArc
 50
118.0971321168
 51
180.0006233435
  0
ARC
  5
35E
100
AcDbEntity
  8
0
100
AcDbCircle
 62
7
  6
CONTINUOUS
 10
7.3493517757
 20
3.4139714051
 40
0.015
100
AcDbArc
 50
88.9999977482
 51
184.0
  0
ARC
  5
35F
100
AcDbEntity
  8
0
100
AcDbCircle
 62
7
  6
CONTINUOUS
 10
7.3679843423
 20
3.4136461724
 40
0.015
100
AcDbArc
 50
4.0
 51
88.9999977491
  0
ARC
  5
360
100
AcDbEntity
  8
0
100
AcDbCircle
 62
7
  6
CONTINUOUS
 10
7.5946429453
 20
2.5508840587
 40
0.015
100
AcDbArc
 50
269.0
 51
19.0
  0
ARC
  5
361
100
AcDbEntity
  8
0
100
AcDbCircle
 62
7
  6
CONTINUOUS
 10
7.574692651
 20
2.5512322924
 40
0.015
100
AcDbArc
 50
199.0
 51
269.0
  0
ARC
  5
362
100
AcDbEntity
  8
0
100
AcDbCircle
 62
7
  6
CONTINUOUS
 10
7.2954183453
 20
3.4463472826
 40
0.01125
100
AcDbArc
 50
0.0
 51
90.0
  0
ARC
  5
363
100
AcDbEntity
  8
0
100
AcDbCircle
 62
7
  6
CONTINUOUS
 10
7.4484183453
 20
1.6960347826
 40
0.01125
100
AcDbArc
 50
0.0
 51
90.0
  0
ARC
  5
364
100
AcDbEntity
  8
0
100
AcDbCircle
 62
7
  6
CONTINUOUS
 10
7.2954183453
 20
3.0783722789
 40
0.01125
100
AcDbArc
 50
298.0971273946
 51
360.0
  0
ARC
  5
365
100
AcDbEntity
  8
0
100
AcDbCircle
 62
7
  6
CONTINUOUS
 10
7.3216683453
 20
3.4275972826
 40
0.01125
100
AcDbArc
 50
0.0
 51
90.0
  0
ARC
  5
366
100
AcDbEntity
  8
0
100
AcDbCircle
 62
7
  6
CONTINUOUS
 10
7.3216683453
 20
3.1039722826
 40
0.01125
100
AcDbArc
 50
270.0
 51
360.0
  0
ARC
  5
367
100
AcDbEntity
  8
0
100
AcDbCircle
 62
7
  6
CONTINUOUS
 10
6.7984749068
 20
3.0557912895
 40
0.0091320376
100
AcDbArc
 50
345.0547130697
 51
347.1429144386
  0
ARC
  5
368
100
AcDbEntity
  8
0
100
AcDbCircle
 62
7
  6
CONTINUOUS
 10
6.7984780111
 20
3.4757790644
 40
0.0091288357
100
AcDbArc
 50
12.8565951712
 51
14.7972104805
  0
ARC
  5
369
100
AcDbEntity
  8
0
100
AcDbCircle
 62
7
  6
CONTINUOUS
 10
6.8001112587
 20
3.0529722826
 40
0.0075
100
AcDbArc
 50
345.610977056
 51
360.0
  0
ARC
  5
36A
100
AcDbEntity
  8
0
100
AcDbCircle
 62
7
  6
CONTINUOUS
 10
6.8001112587
 20
3.4785972826
 40
0.0075
100
AcDbArc
 50
0.0
 51
14.389022944
  0
CIRCLE
  5
36B
100
AcDbEntity
  8
0
100
AcDbCircle
 62
7
  6
CONTINUOUS
 10
7.0884183453
 20
3.6940347826
 40
0.088125
  0
CIRCLE
  5
36C
100
AcDbEntity
  8
0
100
AcDbCircle
 62
7
  6
CONTINUOUS
 10
7.0884183453
 20
3.6940347826
 40
0.0834375
  0
SPLINE
  5
36D
100
AcDbEntity
  8
0
100
AcDbSpline
 62
7
  6
CONTINUOUS
 70
0
 71
3
 72
28
 73
24
 74
0
 42
0.0000001
 43
0.0000001
 44
0.0000000001
 40
0.0
 40
0.0
 40
0.0
 40
0.0
 40
0.0023551942
 40
0.0047789604
 40
0.0074301301
 40
0.0104311387
 40
0.0177812478
 40
0.0272324505
 40
0.0389436903
 40
0.0529770502
 40
0.0693460974
 40
0.0880344131
 40
0.1090071407
 40
0.1322126892
 40
0.1850586318
 40
0.2459474155
 40
0.3141103583
 40
0.3886624716
 40
0.4686235408
 40
0.5529371389
 40
0.6404917562
 40
0.8207126644
 40
1.0
 40
1.0
 40
1.0
 40
1.0
 10
6.5927542276
 20
3.3248846252
 30
0.0
 10
6.5927614997
 20
3.3248850581
 30
0.0
 10
6.5927764642
 20
3.3248839341
 30
0.0
 10
6.5927982569
 20
3.3248758632
 30
0.0
 10
6.5928190758
 20
3.3248617015
 30
0.0
 10
6.5928475156
 20
3.3248330032
 30
0.0
 10
6.5928800799
 20
3.3247803977
 30
0.0
 10
6.592913858
 20
3.3246987753
 30
0.0
 10
6.5929448489
 20
3.3245942453
 30
0.0
 10
6.5929729064
 20
3.3244669714
 30
0.0
 10
6.5929979062
 20
3.3243171431
 30
0.0
 10
6.5930197225
 20
3.3241451781
 30
0.0
 10
6.5930382526
 20
3.3239515806
 30
0.0
 10
6.5930593743
 20
3.3236521877
 30
0.0
 10
6.5930757184
 20
3.3232288218
 30
0.0
 10
6.5930808756
 20
3.3226661506
 30
0.0
 10
6.5930720207
 20
3.3220363828
 30
0.0
 10
6.59304923
 20
3.32134795
 30
0.0
 10
6.5930127629
 20
3.3206100895
 30
0.0
 10
6.5929631094
 20
3.3198326972
 30
0.0
 10
6.5928793835
 20
3.3187468217
 30
0.0
 10
6.5927475501
 20
3.317370142
 30
0.0
 10
6.5926160188
 20
3.316265806
 30
0.0
 10
6.5925435299
 20
3.3157159973
 30
0.0
  0
SPLINE
  5
36E
100
AcDbEntity
  8
0
100
AcDbSpline
 62
7
  6
CONTINUOUS
 70
0
 71
3
 72
19
 73
15
 74
0
 42
0.0000001
 43
0.0000001
 44
0.0000000001
 40
0.0
 40
0.0
 40
0.0
 40
0.0
 40
0.019074706
 40
0.0391815644
 40
0.0631223764
 40
0.0926197985
 40
0.1285898749
 40
0.1715189299
 40
0.2216545886
 40
0.2791226003
 40
0.4161715406
 40
0.5825022452
 40
0.7774703364
 40
1.0
 40
1.0
 40
1.0
 40
1.0
 10
6.6027044493
 20
3.3833179399
 30
0.0
 10
6.6027134492
 20
3.3833184613
 30
0.0
 10
6.6027324557
 20
3.38331578
 30
0.0
 10
6.6027579955
 20
3.3832989723
 30
0.0
 10
6.6027796259
 20
3.3832712721
 30
0.0
 10
6.6027982609
 20
3.3832331397
 30
0.0
 10
6.602814218
 20
3.3831843423
 30
0.0
 10
6.6028275515
 20
3.3831247685
 30
0.0
 10
6.6028382571
 20
3.383054392
 30
0.0
 10
6.6028496306
 20
3.3829392869
 30
0.0
 10
6.6028557152
 20
3.3827687099
 30
0.0
 10
6.6028521623
 20
3.3825331569
 30
0.0
 10
6.6028378493
 20
3.3822575524
 30
0.0
 10
6.6028221832
 20
3.382060839
 30
0.0
 10
6.6028127586
 20
3.3819560914
 30
0.0
  0
SPLINE
  5
36F
100
AcDbEntity
  8
0
100
AcDbSpline
 62
7
  6
CONTINUOUS
 70
0
 71
3
 72
24
 73
20
 74
0
 42
0.0000001
 43
0.0000001
 44
0.0000000001
 40
0.0
 40
0.0
 40
0.0
 40
0.0
 40
0.0112228513
 40
0.0225249396
 40
0.0342858191
 40
0.0468442199
 40
0.060477077
 40
0.0753979558
 40
0.1096615098
 40
0.1504608687
 40
0.198129796
 40
0.2527305644
 40
0.31414204
 40
0.3821059163
 40
0.4562530611
 40
0.536120474
 40
0.621163721
 40
0.8042514218
 40
1.0
 40
1.0
 40
1.0
 40
1.0
 10
6.6016509334
 20
3.3190216493
 30
0.0
 10
6.6016761199
 20
3.3190231281
 30
0.0
 10
6.6017270946
 20
3.3190213528
 30
0.0
 10
6.6018025923
 20
3.3190037332
 30
0.0
 10
6.6018762861
 20
3.3189713404
 30
0.0
 10
6.6019479332
 20
3.3189244015
 30
0.0
 10
6.602017489
 20
3.3188631426
 30
0.0
 10
6.6021117361
 20
3.3187576095
 30
0.0
 10
6.6022223561
 20
3.3185869447
 30
0.0
 10
6.6023399266
 20
3.3183367826
 30
0.0
 10
6.6024474624
 20
3.3180332187
 30
0.0
 10
6.6025441052
 20
3.3176779051
 30
0.0
 10
6.6026290299
 20
3.3172729266
 30
0.0
 10
6.6027014371
 20
3.3168210124
 30
0.0
 10
6.6027606264
 20
3.3163253958
 30
0.0
 10
6.6028060223
 20
3.3157898016
 30
0.0
 10
6.6028485544
 20
3.3150085318
 30
0.0
 10
6.6028624539
 20
3.313965324
 30
0.0
 10
6.602835503
 20
3.3131138122
 30
0.0
 10
6.6028127586
 20
3.3126743416
 30
0.0
  0
SPLINE
  5
370
100
AcDbEntity
  8
0
100
AcDbSpline
 62
7
  6
CONTINUOUS
 70
0
 71
3
 72
22
 73
18
 74
0
 42
0.0000001
 43
0.0000001
 44
0.0000000001
 40
0.0
 40
0.0
 40
0.0
 40
0.0
 40
0.047051665
 40
0.0939837848
 40
0.1406801957
 40
0.1870306283
 40
0.278278087
 40
0.3670220987
 40
0.4526475072
 40
0.5345942505
 40
0.6123033795
 40
0.6851737725
 40
0.7525329242
 40
0.8136222816
 40
0.9135522554
 40
0.9777531753
 40
1.0
 40
1.0
 40
1.0
 40
1.0
 10
6.9788310514
 20
3.6940347826
 30
0.0
 10
6.9788310514
 20
3.6925498211
 30
0.0
 10
6.9787706946
 20
3.6895833164
 30
0.0
 10
6.9785009408
 20
3.685150494
 30
0.0
 10
6.9780576935
 20
3.6807538261
 30
0.0
 10
6.9772518056
 20
3.6749923604
 30
0.0
 10
6.9758722415
 20
3.6679767744
 30
0.0
 10
6.9737122108
 20
3.6598715588
 30
0.0
 10
6.9711808941
 20
3.6521843235
 30
0.0
 10
6.9683998903
 20
3.6449571727
 30
0.0
 10
6.9654819771
 20
3.6382217167
 30
0.0
 10
6.962530307
 20
3.6320077979
 30
0.0
 10
6.9596401922
 20
3.6263486765
 30
0.0
 10
6.9562110927
 20
3.6200084124
 30
0.0
 10
6.9526626304
 20
3.6138480233
 30
0.0
 10
6.9496085587
 20
3.6088206083
 30
0.0
 10
6.9481661764
 20
3.6065047298
 30
0.0
 10
6.9477933453
 20
3.6059097826
 30
0.0
  0
SPLINE
  5
371
100
AcDbEntity
  8
0
100
AcDbSpline
 62
7
  6
CONTINUOUS
 70
0
 71
3
 72
22
 73
18
 74
0
 42
0.0000001
 43
0.0000001
 44
0.0000000001
 40
0.0
 40
0.0
 40
0.0
 40
0.0
 40
0.0470516647
 40
0.0939837839
 40
0.1406801944
 40
0.187030627
 40
0.2782780856
 40
0.3670220976
 40
0.4526475062
 40
0.5345942493
 40
0.6123033785
 40
0.6851737715
 40
0.7525329234
 40
0.813622281
 40
0.9135522551
 40
0.9777531752
 40
1.0
 40
1.0
 40
1.0
 40
1.0
 10
7.1980056393
 20
3.6940347826
 30
0.0
 10
7.1980056393
 20
3.6955197441
 30
0.0
 10
7.1980659961
 20
3.6984862488
 30
0.0
 10
7.1983357499
 20
3.7029190711
 30
0.0
 10
7.1987789972
 20
3.707315739
 30
0.0
 10
7.1995848851
 20
3.7130772047
 30
0.0
 10
7.2009644491
 20
3.7200927907
 30
0.0
 10
7.2031244798
 20
3.7281980063
 30
0.0
 10
7.2056557966
 20
3.7358852416
 30
0.0
 10
7.2084368004
 20
3.7431123924
 30
0.0
 10
7.2113547136
 20
3.7498478484
 30
0.0
 10
7.2143063837
 20
3.7560617672
 30
0.0
 10
7.2171964984
 20
3.7617208887
 30
0.0
 10
7.2206255979
 20
3.7680611528
 30
0.0
 10
7.2241740602
 20
3.7742215419
 30
0.0
 10
7.227228132
 20
3.7792489569
 30
0.0
 10
7.2286705143
 20
3.7815648354
 30
0.0
 10
7.2290433453
 20
3.7821597826
 30
0.0
  0
SPLINE
  5
372
100
AcDbEntity
  8
0
100
AcDbSpline
 62
7
  6
CONTINUOUS
 70
0
 71
3
 72
36
 73
32
 74
0
 42
0.0000001
 43
0.0000001
 44
0.0000000001
 40
0.0
 40
0.0
 40
0.0
 40
0.0
 40
0.0050365114
 40
0.0087200177
 40
0.0133221527
 40
0.0188829827
 40
0.0254166268
 40
0.0329227666
 40
0.0413934434
 40
0.0611658488
 40
0.0845789368
 40
0.1114325269
 40
0.1414957413
 40
0.2102109275
 40
0.2884743585
 40
0.3738084181
 40
0.4635604407
 40
0.5549320429
 40
0.645009106
 40
0.7308066904
 40
0.8093488159
 40
0.8450016462
 40
0.8777928344
 40
0.9074148896
 40
0.9335919107
 40
0.9560875361
 40
0.9747146774
 40
0.9825377458
 40
0.9893565263
 40
0.9951724495
 40
1.0
 40
1.0
 40
1.0
 40
1.0
 10
6.5991833366
 20
3.1638020253
 30
0.0
 10
6.5992101162
 20
3.1638036012
 30
0.0
 10
6.5992551864
 20
3.1637781636
 30
0.0
 10
6.5993048749
 20
3.1637290409
 30
0.0
 10
6.5993512005
 20
3.1636709815
 30
0.0
 10
6.5994004543
 20
3.163597019
 30
0.0
 10
6.5994532183
 20
3.1635068318
 30
0.0
 10
6.5995091358
 20
3.163400756
 30
0.0
 10
6.5995921531
 20
3.1632293578
 30
0.0
 10
6.599701669
 20
3.1629768449
 30
0.0
 10
6.5998378306
 20
3.1626294828
 30
0.0
 10
6.5999833142
 20
3.1622270715
 30
0.0
 10
6.6001976965
 20
3.1615931532
 30
0.0
 10
6.6004766249
 20
3.1606922188
 30
0.0
 10
6.6008144915
 20
3.1595017938
 30
0.0
 10
6.6011576564
 20
3.1581966652
 30
0.0
 10
6.6014951552
 20
3.1568180835
 30
0.0
 10
6.6018160617
 20
3.1554096243
 30
0.0
 10
6.6021097669
 20
3.1540167544
 30
0.0
 10
6.6023661271
 20
3.1526860554
 30
0.0
 10
6.6025465338
 20
3.1516361164
 30
0.0
 10
6.6026636918
 20
3.1508620174
 30
0.0
 10
6.6027339346
 20
3.1503444085
 30
0.0
 10
6.6027887612
 20
3.1498757166
 30
0.0
 10
6.6028276714
 20
3.1494604622
 30
0.0
 10
6.6028502948
 20
3.1491026643
 30
0.0
 10
6.6028559932
 20
3.1488418811
 30
0.0
 10
6.6028508634
 20
3.1486647181
 30
0.0
 10
6.6028430918
 20
3.1485559838
 30
0.0
 10
6.6028312417
 20
3.1484636831
 30
0.0
 10
6.6028196331
 20
3.148408078
 30
0.0
 10
6.6028127586
 20
3.1483833011
 30
0.0
  0
SPLINE
  5
373
100
AcDbEntity
  8
0
100
AcDbSpline
 62
7
  6
CONTINUOUS
 70
0
 71
3
 72
25
 73
21
 74
0
 42
0.0000001
 43
0.0000001
 44
0.0000000001
 40
0.0
 40
0.0
 40
0.0
 40
0.0
 40
0.0070907146
 40
0.014771871
 40
0.0236214839
 40
0.0340154566
 40
0.0461778464
 40
0.0602345613
 40
0.0762543517
 40
0.0942678887
 40
0.1362788455
 40
0.1861451442
 40
0.2435556735
 40
0.3080747136
 40
0.3791653727
 40
0.4562035717
 40
0.5384895517
 40
0.625256702
 40
0.8088845072
 40
1.0
 40
1.0
 40
1.0
 40
1.0
 10
6.5919786299
 20
3.2731299004
 30
0.0
 10
6.5919965166
 20
3.2731309822
 30
0.0
 10
6.5920344246
 20
3.2731267712
 30
0.0
 10
6.5920893804
 20
3.2731015846
 30
0.0
 10
6.5921429516
 20
3.2730588524
 30
0.0
 10
6.5921955905
 20
3.2729990749
 30
0.0
 10
6.5922475562
 20
3.2729223018
 30
0.0
 10
6.5922988908
 20
3.2728285792
 30
0.0
 10
6.5923495292
 20
3.2727180115
 30
0.0
 10
6.5924196052
 20
3.2725389833
 30
0.0
 10
6.5925026505
 20
3.2722736624
 30
0.0
 10
6.5925935763
 20
3.2719073707
 30
0.0
 10
6.5926791119
 20
3.2714815995
 30
0.0
 10
6.5927583568
 20
3.2710002082
 30
0.0
 10
6.5928304307
 20
3.2704676046
 30
0.0
 10
6.5928945571
 20
3.2698888022
 30
0.0
 10
6.5929500482
 20
3.2692693284
 30
0.0
 10
6.5930128849
 20
3.2683802206
 30
0.0
 10
6.5930648825
 20
3.2672148538
 30
0.0
 10
6.5930786459
 20
3.2662677626
 30
0.0
 10
6.5930786459
 20
3.2657847826
 30
0.0
  0
LINE
  5
374
100
AcDbEntity
  8
0
100
AcDbLine
 62
7
  6
CONTINUOUS
 10
6.5912141043
 20
3.2213758889
 11
6.5914162913
 21
3.2211793097
  0
SPLINE
  5
375
100
AcDbEntity
  8
0
100
AcDbSpline
 62
7
  6
CONTINUOUS
 70
0
 71
3
 72
20
 73
16
 74
0
 42
0.0000001
 43
0.0000001
 44
0.0000000001
 40
0.0
 40
0.0
 40
0.0
 40
0.0
 40
0.0221636677
 40
0.0453754063
 40
0.0721439388
 40
0.1041423395
 40
0.1423234799
 40
0.1871894213
 40
0.2389776691
 40
0.2977547
 40
0.3634776777
 40
0.4360170765
 40
0.6006972371
 40
0.7896347084
 40
1.0
 40
1.0
 40
1.0
 40
1.0
 10
6.6022804125
 20
3.3575643093
 30
0.0
 10
6.6023079554
 20
3.3575658985
 30
0.0
 10
6.6023655917
 20
3.3575589951
 30
0.0
 10
6.6024458974
 20
3.3575150548
 30
0.0
 10
6.6025176741
 20
3.3574410212
 30
0.0
 10
6.6025821867
 20
3.357338351
 30
0.0
 10
6.6026401331
 20
3.3572070074
 30
0.0
 10
6.6026915788
 20
3.3570470175
 30
0.0
 10
6.6027363607
 20
3.3568586443
 30
0.0
 10
6.6027742762
 20
3.356642403
 30
0.0
 10
6.6028051254
 20
3.3563990061
 30
0.0
 10
6.6028379713
 20
3.3560232699
 30
0.0
 10
6.6028578314
 20
3.3554928595
 30
0.0
 10
6.6028514916
 20
3.3547906936
 30
0.0
 10
6.6028286264
 20
3.354294064
 30
0.0
 10
6.6028127586
 20
3.3540326883
 30
0.0
  0
SPLINE
  5
376
100
AcDbEntity
  8
0
100
AcDbSpline
 62
7
  6
CONTINUOUS
 70
0
 71
3
 72
32
 73
28
 74
0
 42
0.0000001
 43
0.0000001
 44
0.0000000001
 40
0.0
 40
0.0
 40
0.0
 40
0.0
 40
0.0036619672
 40
0.0075986171
 40
0.0119538881
 40
0.0168313212
 40
0.0283960394
 40
0.0426178582
 40
0.0595982778
 40
0.0793371431
 40
0.1017765927
 40
0.126821642
 40
0.154350918
 40
0.1842228863
 40
0.2503435724
 40
0.3237538916
 40
0.4028202822
 40
0.4857315843
 40
0.570518575
 40
0.6550829735
 40
0.7372455366
 40
0.8148148248
 40
0.8856823254
 40
0.917996778
 40
0.9479404743
 40
0.9753292108
 40
1.0
 40
1.0
 40
1.0
 40
1.0
 10
6.5995855152
 20
3.1895541075
 30
0.0
 10
6.5996037375
 20
3.1895551782
 30
0.0
 10
6.5996419319
 20
3.1895527416
 30
0.0
 10
6.5996995388
 20
3.1895361575
 30
0.0
 10
6.5997586823
 20
3.1895070336
 30
0.0
 10
6.5998444779
 20
3.1894483687
 30
0.0
 10
6.5999546197
 20
3.1893410047
 30
0.0
 10
6.6000857094
 20
3.1891724814
 30
0.0
 10
6.6002221998
 20
3.1889580024
 30
0.0
 10
6.6003632702
 20
3.1886988702
 30
0.0
 10
6.6005080832
 20
3.1883965571
 30
0.0
 10
6.6006557201
 20
3.188052928
 30
0.0
 10
6.6008052781
 20
3.1876700692
 30
0.0
 10
6.6010131168
 20
3.1870904215
 30
0.0
 10
6.6012686391
 20
3.1862852839
 30
0.0
 10
6.6015593909
 20
3.1852349536
 30
0.0
 10
6.6018364009
 20
3.1840946007
 30
0.0
 10
6.6020926132
 20
3.1828913787
 30
0.0
 10
6.6023212285
 20
3.1816547311
 30
0.0
 10
6.6025159511
 20
3.1804160709
 30
0.0
 10
6.6026712147
 20
3.1792080884
 30
0.0
 10
6.6027824041
 20
3.1780638213
 30
0.0
 10
6.6028373419
 20
3.1771642267
 30
0.0
 10
6.60285467
 20
3.1765008031
 30
0.0
 10
6.6028545885
 20
3.1760538783
 30
0.0
 10
6.6028418931
 20
3.175645247
 30
0.0
 10
6.6028241764
 20
3.1753862591
 30
0.0
 10
6.6028127586
 20
3.1752638141
 30
0.0
  0
SPLINE
  5
377
100
AcDbEntity
  8
0
100
AcDbSpline
 62
7
  6
CONTINUOUS
 70
0
 71
3
 72
23
 73
19
 74
0
 42
0.0000001
 43
0.0000001
 44
0.0000000001
 40
0.0
 40
0.0
 40
0.0
 40
0.0
 40
0.0111589539
 40
0.0226101624
 40
0.0347342135
 40
0.0478483795
 40
0.0779181397
 40
0.1141330753
 40
0.1570574134
 40
0.2068588829
 40
0.2634574168
 40
0.3266000912
 40
0.3958992887
 40
0.47085338
 40
0.5508606671
 40
0.6352301766
 40
0.8138954185
 40
1.0
 40
1.0
 40
1.0
 40
1.0
 10
6.6009173106
 20
3.2735581069
 30
0.0
 10
6.6009482982
 20
3.2735599226
 30
0.0
 10
6.601011635
 20
3.2735572746
 30
0.0
 10
6.6011060229
 20
3.2735341548
 30
0.0
 10
6.6011996124
 20
3.2734922198
 30
0.0
 10
6.6013288673
 20
3.273407819
 30
0.0
 10
6.6014869759
 20
3.2732506696
 30
0.0
 10
6.6016619514
 20
3.2730012507
 30
0.0
 10
6.6018303981
 20
3.2726837859
 30
0.0
 10
6.6019909301
 20
3.2723002374
 30
0.0
 10
6.6021421498
 20
3.2718531957
 30
0.0
 10
6.6022824838
 20
3.2713461825
 30
0.0
 10
6.6024104324
 20
3.2707834571
 30
0.0
 10
6.6025245652
 20
3.2701700186
 30
0.0
 10
6.6026235843
 20
3.2695115548
 30
0.0
 10
6.6027360018
 20
3.2685638313
 30
0.0
 10
6.6028293526
 20
3.2673173116
 30
0.0
 10
6.6028540941
 20
3.2663024691
 30
0.0
 10
6.6028540941
 20
3.2657847826
 30
0.0
  0
SPLINE
  5
378
100
AcDbEntity
  8
0
100
AcDbSpline
 62
7
  6
CONTINUOUS
 70
0
 71
3
 72
28
 73
24
 74
0
 42
0.0000001
 43
0.0000001
 44
0.0000000001
 40
0.0
 40
0.0
 40
0.0
 40
0.0
 40
0.0093716328
 40
0.0195776166
 40
0.0311819688
 40
0.044549742
 40
0.0598941289
 40
0.0773273391
 40
0.0968969654
 40
0.1186063667
 40
0.1424281426
 40
0.16831211
 40
0.2259670979
 40
0.2908527354
 40
0.3620396861
 40
0.4384244163
 40
0.5187472942
 40
0.6016132196
 40
0.6855176819
 40
0.768884864
 40
0.8501159595
 40
0.927643661
 40
1.0
 40
1.0
 40
1.0
 40
1.0
 10
6.6001927688
 20
3.2280952027
 30
0.0
 10
6.6002328183
 20
3.2280975474
 30
0.0
 10
6.6003176537
 20
3.2280891984
 30
0.0
 10
6.6004430069
 20
3.2280397457
 30
0.0
 10
6.6005688011
 20
3.2279553813
 30
0.0
 10
6.6006952318
 20
3.2278371052
 30
0.0
 10
6.6008223839
 20
3.2276854572
 30
0.0
 10
6.6009499901
 20
3.2275009507
 30
0.0
 10
6.6010776246
 20
3.2272842309
 30
0.0
 10
6.6012047868
 20
3.2270361049
 30
0.0
 10
6.6013309537
 20
3.2267575292
 30
0.0
 10
6.6015033485
 20
3.2263313866
 30
0.0
 10
6.6017098425
 20
3.2257300199
 30
0.0
 10
6.6019372455
 20
3.2249322016
 30
0.0
 10
6.6021479609
 20
3.2240471946
 30
0.0
 10
6.6023378672
 20
3.2230900765
 30
0.0
 10
6.6025030737
 20
3.2220777154
 30
0.0
 10
6.6026400821
 20
3.2210286948
 30
0.0
 10
6.6027458917
 20
3.2199629744
 30
0.0
 10
6.6028181221
 20
3.2189014632
 30
0.0
 10
6.6028551295
 20
3.217865433
 30
0.0
 10
6.6028561084
 20
3.2168758746
 30
0.0
 10
6.6028318289
 20
3.2162344797
 30
0.0
 10
6.6028127586
 20
3.215925324
 30
0.0
  0
SPLINE
  5
379
100
AcDbEntity
  8
0
100
AcDbSpline
 62
7
  6
CONTINUOUS
 70
0
 71
3
 72
22
 73
18
 74
0
 42
0.0000001
 43
0.0000001
 44
0.0000000001
 40
0.0
 40
0.0
 40
0.0
 40
0.0
 40
0.0222468248
 40
0.0864477449
 40
0.186377719
 40
0.2474670765
 40
0.3148262284
 40
0.3876966214
 40
0.4654057506
 40
0.5473524937
 40
0.6329779023
 40
0.7217219143
 40
0.8129693729
 40
0.8593198054
 40
0.9060162159
 40
0.9529483352
 40
1.0
 40
1.0
 40
1.0
 40
1.0
 10
6.9477933453
 20
3.7821597826
 30
0.0
 10
6.9481661764
 20
3.7815648354
 30
0.0
 10
6.9496085587
 20
3.7792489569
 30
0.0
 10
6.9526626304
 20
3.7742215419
 30
0.0
 10
6.9562110928
 20
3.7680611528
 30
0.0
 10
6.9596401923
 20
3.7617208887
 30
0.0
 10
6.962530307
 20
3.7560617673
 30
0.0
 10
6.9654819771
 20
3.7498478484
 30
0.0
 10
6.9683998903
 20
3.7431123924
 30
0.0
 10
6.9711808941
 20
3.7358852416
 30
0.0
 10
6.9737122109
 20
3.7281980063
 30
0.0
 10
6.9758722416
 20
3.7200927907
 30
0.0
 10
6.9772518056
 20
3.7130772047
 30
0.0
 10
6.9780576935
 20
3.7073157391
 30
0.0
 10
6.9785009408
 20
3.7029190711
 30
0.0
 10
6.9787706946
 20
3.6984862488
 30
0.0
 10
6.9788310514
 20
3.6955197441
 30
0.0
 10
6.9788310514
 20
3.6940347826
 30
0.0
  0
SPLINE
  5
37A
100
AcDbEntity
  8
0
100
AcDbSpline
 62
7
  6
CONTINUOUS
 70
0
 71
3
 72
22
 73
18
 74
0
 42
0.0000001
 43
0.0000001
 44
0.0000000001
 40
0.0
 40
0.0
 40
0.0
 40
0.0
 40
0.0222468187
 40
0.0864477236
 40
0.1863776886
 40
0.247467054
 40
0.3148262155
 40
0.3876966157
 40
0.4654057765
 40
0.5473525242
 40
0.63297796
 40
0.7217219717
 40
0.8129694194
 40
0.859319844
 40
0.9060162404
 40
0.9529483409
 40
1.0
 40
1.0
 40
1.0
 40
1.0
 10
7.2290433453
 20
3.6059097826
 30
0.0
 10
7.2286705144
 20
3.6065047296
 30
0.0
 10
7.2272281324
 20
3.6088206076
 30
0.0
 10
7.2241740612
 20
3.6138480218
 30
0.0
 10
7.2206255991
 20
3.6200084104
 30
0.0
 10
7.2171964994
 20
3.6263486747
 30
0.0
 10
7.2143063843
 20
3.6320077968
 30
0.0
 10
7.2113547135
 20
3.638221717
 30
0.0
 10
7.2084367998
 20
3.6449571743
 30
0.0
 10
7.2056557953
 20
3.6521843269
 30
0.0
 10
7.2031244785
 20
3.6598715633
 30
0.0
 10
7.2009644479
 20
3.6679767795
 30
0.0
 10
7.1995848843
 20
3.674992365
 30
0.0
 10
7.1987789968
 20
3.6807538296
 30
0.0
 10
7.1983357498
 20
3.6851504962
 30
0.0
 10
7.198065996
 20
3.6895833174
 30
0.0
 10
7.1980056393
 20
3.6925498213
 30
0.0
 10
7.1980056393
 20
3.6940347826
 30
0.0
  0
SPLINE
  5
37B
100
AcDbEntity
  8
0
100
AcDbSpline
 62
7
  6
CONTINUOUS
 70
0
 71
3
 72
17
 73
13
 74
0
 42
0.0000001
 43
0.0000001
 44
0.0000000001
 40
0.0
 40
0.0
 40
0.0
 40
0.0
 40
0.2026739221
 40
0.3820495139
 40
0.537767677
 40
0.6699419683
 40
0.7792498431
 40
0.8674189077
 40
0.9047485308
 40
0.9385161262
 40
0.9698109744
 40
1.0
 40
1.0
 40
1.0
 40
1.0
 10
6.5925435299
 20
3.2594640779
 30
0.0
 10
6.5925233802
 20
3.2593837052
 30
0.0
 10
6.5924828068
 20
3.2592328228
 30
0.0
 10
6.5924161867
 20
3.259023202
 30
0.0
 10
6.5923477976
 20
3.2588446893
 30
0.0
 10
6.5922779252
 20
3.2586978179
 30
0.0
 10
6.5922068637
 20
3.2585829629
 30
0.0
 10
6.5921431634
 20
3.258510003
 30
0.0
 10
6.5920910224
 20
3.258470609
 30
0.0
 10
6.5920536951
 20
3.2584511429
 30
0.0
 10
6.5920160044
 20
3.2584402692
 30
0.0
 10
6.5919906402
 20
3.2584389143
 30
0.0
 10
6.5919783219
 20
3.2584396839
 30
0.0
  0
SPLINE
  5
37C
100
AcDbEntity
  8
0
100
AcDbSpline
 62
7
  6
CONTINUOUS
 70
0
 71
3
 72
14
 73
10
 74
0
 42
0.0000001
 43
0.0000001
 44
0.0000000001
 40
0.0
 40
0.0
 40
0.0
 40
0.0
 40
0.2969893144
 40
0.4392444343
 40
0.5741590252
 40
0.6995432055
 40
0.8134156307
 40
0.9140437719
 40
1.0
 40
1.0
 40
1.0
 40
1.0
 10
6.5930786459
 20
3.2657847826
 30
0.0
 10
6.5930786459
 20
3.2651556287
 30
0.0
 10
6.5930612311
 20
3.2642249571
 30
0.0
 10
6.5930010569
 20
3.263010059
 30
0.0
 10
6.5929399244
 20
3.2621593829
 30
0.0
 10
6.5928633454
 20
3.2613703406
 30
0.0
 10
6.5927727735
 20
3.2606558974
 30
0.0
 10
6.5926699249
 20
3.2600276208
 30
0.0
 10
6.5925878108
 20
3.2596407049
 30
0.0
 10
6.5925435299
 20
3.2594640779
 30
0.0
  0
SPLINE
  5
37D
100
AcDbEntity
  8
0
100
AcDbSpline
 62
7
  6
CONTINUOUS
 70
0
 71
3
 72
22
 73
18
 74
0
 42
0.0000001
 43
0.0000001
 44
0.0000000001
 40
0.0
 40
0.0
 40
0.0
 40
0.0
 40
0.1931223411
 40
0.3733512828
 40
0.4570665326
 40
0.5357824933
 40
0.6090347781
 40
0.6764338312
 40
0.7376726126
 40
0.7925402733
 40
0.8409454401
 40
0.8829569333
 40
0.9188781266
 40
0.9493813806
 40
0.9757184156
 40
0.9879700177
 40
1.0
 40
1.0
 40
1.0
 40
1.0
 10
6.6028127586
 20
3.2641774845
 30
0.0
 10
6.6027902335
 20
3.2637443128
 30
0.0
 10
6.6027284854
 20
3.2629077057
 30
0.0
 10
6.602603355
 20
3.2618882542
 30
0.0
 10
6.6024761902
 20
3.2611291
 30
0.0
 10
6.6023720579
 20
3.2606099883
 30
0.0
 10
6.6022577299
 20
3.2601306066
 30
0.0
 10
6.60213415
 20
3.2596941611
 30
0.0
 10
6.6020023186
 20
3.2593034439
 30
0.0
 10
6.6018632612
 20
3.2589608178
 30
0.0
 10
6.6017179765
 20
3.2586681984
 30
0.0
 10
6.6015673979
 20
3.2584270092
 30
0.0
 10
6.6014120312
 20
3.2582382332
 30
0.0
 10
6.6012520121
 20
3.2581025685
 30
0.0
 10
6.6011100603
 20
3.258033966
 30
0.0
 10
6.6009981368
 20
3.2580113344
 30
0.0
 10
6.600943291
 20
3.2580098797
 30
0.0
 10
6.6009163211
 20
3.2580115176
 30
0.0
  0
LINE
  5
37E
100
AcDbEntity
  8
0
100
AcDbLine
 62
7
  6
CONTINUOUS
 10
6.6028127586
 20
3.1483833011
 11
6.6027041229
 21
3.1482516439
  0
SPLINE
  5
37F
100
AcDbEntity
  8
0
100
AcDbSpline
 62
7
  6
CONTINUOUS
 70
0
 71
3
 72
18
 73
14
 74
0
 42
0.0000001
 43
0.0000001
 44
0.0000000001
 40
0.0
 40
0.0
 40
0.0
 40
0.0
 40
0.2035402807
 40
0.3826863297
 40
0.5371504592
 40
0.6672839848
 40
0.7742735821
 40
0.8199345236
 40
0.8610475767
 40
0.8984181898
 40
0.9331198592
 40
0.966484818
 40
1.0
 40
1.0
 40
1.0
 40
1.0
 10
6.6028127586
 20
3.1752638141
 30
0.0
 10
6.6028035547
 20
3.1751651107
 30
0.0
 10
6.6027825542
 20
3.1749798329
 30
0.0
 10
6.6027393257
 20
3.1747216729
 30
0.0
 10
6.6026866551
 20
3.1745017678
 30
0.0
 10
6.6026249123
 20
3.1743210013
 30
0.0
 10
6.6025630913
 20
3.1741970646
 30
0.0
 10
6.60250788
 20
3.1741202777
 30
0.0
 10
6.6024664267
 20
3.1740759821
 30
0.0
 10
6.6024227034
 20
3.1740419661
 30
0.0
 10
6.6023766724
 20
3.1740184178
 30
0.0
 10
6.602328493
 20
3.1740056023
 30
0.0
 10
6.6022956521
 20
3.1740043077
 30
0.0
 10
6.6022793603
 20
3.1740053183
 30
0.0
  0
SPLINE
  5
380
100
AcDbEntity
  8
0
100
AcDbSpline
 62
7
  6
CONTINUOUS
 70
0
 71
3
 72
20
 73
16
 74
0
 42
0.0000001
 43
0.0000001
 44
0.0000000001
 40
0.0
 40
0.0
 40
0.0
 40
0.0
 40
0.20234682
 40
0.3841247887
 40
0.5431786485
 40
0.6137160209
 40
0.6781049913
 40
0.7363214616
 40
0.7884341044
 40
0.8346305611
 40
0.8752725907
 40
0.9109644976
 40
0.9426585666
 40
0.9717414499
 40
1.0
 40
1.0
 40
1.0
 40
1.0
 10
6.6028127586
 20
3.215925324
 30
0.0
 10
6.6027970872
 20
3.2156712686
 30
0.0
 10
6.6027579216
 20
3.2151894596
 30
0.0
 10
6.602669251
 20
3.2145116711
 30
0.0
 10
6.6025708985
 20
3.2140031084
 30
0.0
 10
6.6024776458
 20
3.2136451299
 30
0.0
 10
6.6024048966
 20
3.2134131948
 30
0.0
 10
6.6023268413
 20
3.2132075756
 30
0.0
 10
6.602243775
 20
3.2130288244
 30
0.0
 10
6.6021559532
 20
3.2128773542
 30
0.0
 10
6.6020635541
 20
3.2127534419
 30
0.0
 10
6.6019665739
 20
3.2126573392
 30
0.0
 10
6.6018647899
 20
3.2125895123
 30
0.0
 10
6.6017583072
 20
3.2125510361
 30
0.0
 10
6.6016853009
 20
3.2125458038
 30
0.0
 10
6.6016498204
 20
3.2125479832
 30
0.0
  0
SPLINE
  5
381
100
AcDbEntity
  8
0
100
AcDbSpline
 62
7
  6
CONTINUOUS
 70
0
 71
3
 72
36
 73
32
 74
0
 42
0.0000001
 43
0.0000001
 44
0.0000000001
 40
0.0
 40
0.0
 40
0.0
 40
0.0
 40
0.0137117498
 40
0.0311097701
 40
0.0521185797
 40
0.0766047775
 40
0.1043921339
 40
0.1352723107
 40
0.2053396069
 40
0.2846410468
 40
0.3706925817
 40
0.460762839
 40
0.5519453325
 40
0.6412462662
 40
0.7256882035
 40
0.7651907379
 40
0.8024300536
 40
0.8370928747
 40
0.8688905175
 40
0.8975631579
 40
0.9228845674
 40
0.9446674941
 40
0.962771908
 40
0.970419201
 40
0.977126
 40
0.9828998648
 40
0.9877632618
 40
0.9917619252
 40
0.9949887458
 40
0.9976258212
 40
1.0
 40
1.0
 40
1.0
 40
1.0
 10
6.5914162913
 20
3.2211793097
 30
0.0
 10
6.5914486638
 20
3.2211202359
 30
0.0
 10
6.5915122174
 20
3.2209808655
 30
0.0
 10
6.5916009088
 20
3.2207405834
 30
0.0
 10
6.5916931663
 20
3.2204455805
 30
0.0
 10
6.5917881421
 20
3.220098265
 30
0.0
 10
6.5918849734
 20
3.2197013485
 30
0.0
 10
6.5920212439
 20
3.2190837222
 30
0.0
 10
6.5921877654
 20
3.2182138323
 30
0.0
 10
6.5923750795
 20
3.2170724437
 30
0.0
 10
6.5925509243
 20
3.2158299011
 30
0.0
 10
6.5927094158
 20
3.2145262238
 30
0.0
 10
6.5928451601
 20
3.2132039316
 30
0.0
 10
6.5929535068
 20
3.2119068592
 30
0.0
 10
6.5930193406
 20
3.2108612112
 30
0.0
 10
6.5930545534
 20
3.2100701196
 30
0.0
 10
6.5930715114
 20
3.2095230601
 30
0.0
 10
6.5930794913
 20
3.2090136489
 30
0.0
 10
6.5930784445
 20
3.2085462547
 30
0.0
 10
6.5930684165
 20
3.2081248635
 30
0.0
 10
6.5930495801
 20
3.2077530037
 30
0.0
 10
6.5930221535
 20
3.2074337585
 30
0.0
 10
6.592991096
 20
3.2072021377
 30
0.0
 10
6.592960836
 20
3.2070455287
 30
0.0
 10
6.5929374709
 20
3.2069493963
 30
0.0
 10
6.5929122142
 20
3.2068679428
 30
0.0
 10
6.5928851259
 20
3.2068012106
 30
0.0
 10
6.5928561654
 20
3.2067491204
 30
0.0
 10
6.5928250761
 20
3.2067114487
 30
0.0
 10
6.5927908125
 20
3.2066883312
 30
0.0
 10
6.5927655671
 20
3.206684225
 30
0.0
 10
6.5927539265
 20
3.206684959
 30
0.0
  0
SPLINE
  5
382
100
AcDbEntity
  8
0
100
AcDbSpline
 62
7
  6
CONTINUOUS
 70
0
 71
3
 72
25
 73
21
 74
0
 42
0.0000001
 43
0.0000001
 44
0.0000000001
 40
0.0
 40
0.0
 40
0.0
 40
0.0
 40
0.2018814834
 40
0.389795984
 40
0.4769628713
 40
0.55883438
 40
0.634881253
 40
0.7046153546
 40
0.7675940743
 40
0.8234257689
 40
0.8717801961
 40
0.9124043604
 40
0.929770478
 40
0.9451627768
 40
0.9585947133
 40
0.9701039243
 40
0.9797680828
 40
0.9877403503
 40
0.9943094753
 40
1.0
 40
1.0
 40
1.0
 40
1.0
 10
6.5925435299
 20
3.3157159973
 30
0.0
 10
6.5924929272
 20
3.3153321898
 30
0.0
 10
6.5923886974
 20
3.3145919688
 30
0.0
 10
6.5922431616
 20
3.3136889146
 30
0.0
 10
6.5921219341
 20
3.3130152231
 30
0.0
 10
6.5920324894
 20
3.3125538197
 30
0.0
 10
6.5919428474
 20
3.3121265549
 30
0.0
 10
6.591853625
 20
3.311736279
 30
0.0
 10
6.5917654462
 20
3.3113856092
 30
0.0
 10
6.5916789544
 20
3.3110768866
 30
0.0
 10
6.5915947646
 20
3.3108122061
 30
0.0
 10
6.5915238854
 20
3.3106208473
 30
0.0
 10
6.5914678144
 20
3.3104917429
 30
0.0
 10
6.5914289083
 20
3.3104121288
 30
0.0
 10
6.5913909923
 20
3.3103446535
 30
0.0
 10
6.5913541123
 20
3.3102893831
 30
0.0
 10
6.5913182664
 20
3.3102463148
 30
0.0
 10
6.5912832981
 20
3.3102154031
 30
0.0
 10
6.5912487712
 20
3.3101966766
 30
0.0
 10
6.5912248645
 20
3.3101930087
 30
0.0
 10
6.5912139732
 20
3.3101936838
 30
0.0
  0
SPLINE
  5
383
100
AcDbEntity
  8
0
100
AcDbSpline
 62
7
  6
CONTINUOUS
 70
0
 71
3
 72
32
 73
28
 74
0
 42
0.0000001
 43
0.0000001
 44
0.0000000001
 40
0.0
 40
0.0
 40
0.0
 40
0.0
 40
0.0539733395
 40
0.1179798859
 40
0.190250102
 40
0.2688278536
 40
0.3516627458
 40
0.4366786945
 40
0.5218236762
 40
0.6050998223
 40
0.6845835506
 40
0.7584399117
 40
0.824937666
 40
0.8549205977
 40
0.8824745112
 40
0.9074254228
 40
0.9296137945
 40
0.9488983759
 40
0.9651617309
 40
0.9721336089
 40
0.9783232195
 40
0.983729507
 40
0.9883596451
 40
0.9922324211
 40
0.9953900633
 40
0.9979201584
 40
1.0
 40
1.0
 40
1.0
 40
1.0
 10
6.6028127586
 20
3.3819560914
 30
0.0
 10
6.6027889849
 20
3.3816918633
 30
0.0
 10
6.6027226493
 20
3.3811155913
 30
0.0
 10
6.6025881906
 20
3.3801900956
 30
0.0
 10
6.6024128298
 20
3.3791486011
 30
0.0
 10
6.6022014938
 20
3.3780195355
 30
0.0
 10
6.6019598788
 20
3.376832559
 30
0.0
 10
6.6016942963
 20
3.3756176566
 30
0.0
 10
6.6014114125
 20
3.3744044391
 30
0.0
 10
6.6011181046
 20
3.3732216958
 30
0.0
 10
6.6008213738
 20
3.3720970936
 30
0.0
 10
6.6005282394
 20
3.3710569889
 30
0.0
 10
6.6002851783
 20
3.3702557007
 30
0.0
 10
6.6000965932
 20
3.3696759132
 30
0.0
 10
6.5999652803
 20
3.3692922932
 30
0.0
 10
6.5998399998
 20
3.3689471641
 30
0.0
 10
6.5997215937
 20
3.3686428552
 30
0.0
 10
6.599610869
 20
3.3683815079
 30
0.0
 10
6.5995217028
 20
3.3681923736
 30
0.0
 10
6.5994539792
 20
3.3680645471
 30
0.0
 10
6.5994082076
 20
3.3679855565
 30
0.0
 10
6.5993648899
 20
3.3679185409
 30
0.0
 10
6.5993240956
 20
3.3678635986
 30
0.0
 10
6.5992858687
 20
3.3678207487
 30
0.0
 10
6.5992500896
 20
3.3677899795
 30
0.0
 10
6.5992164711
 20
3.3677711212
 30
0.0
 10
6.5991934923
 20
3.3677669365
 30
0.0
 10
6.5991832874
 20
3.3677675456
 30
0.0
  0
SPLINE
  5
384
100
AcDbEntity
  8
0
100
AcDbSpline
 62
7
  6
CONTINUOUS
 70
0
 71
3
 72
27
 73
23
 74
0
 42
0.0000001
 43
0.0000001
 44
0.0000000001
 40
0.0
 40
0.0
 40
0.0
 40
0.0
 40
0.0736706802
 40
0.1522628512
 40
0.2342729826
 40
0.3181578598
 40
0.4023869705
 40
0.4854753045
 40
0.5660085198
 40
0.6426604948
 40
0.7142032035
 40
0.7795159451
 40
0.8375962476
 40
0.8875806689
 40
0.9093189107
 40
0.9287968046
 40
0.945974615
 40
0.960845709
 40
0.97345498
 40
0.9839375016
 40
0.9925915325
 40
1.0
 40
1.0
 40
1.0
 40
1.0
 10
6.6028127586
 20
3.3540326883
 30
0.0
 10
6.6027938914
 20
3.353721906
 30
0.0
 10
6.6027436939
 20
3.3530802331
 30
0.0
 10
6.6026383904
 20
3.3520956321
 30
0.0
 10
6.6025023988
 20
3.3510712371
 30
0.0
 10
6.6023385778
 20
3.3500268139
 30
0.0
 10
6.6021502707
 20
3.3489818985
 30
0.0
 10
6.6019411826
 20
3.3479553931
 30
0.0
 10
6.6017152745
 20
3.3469652716
 30
0.0
 10
6.6014766886
 20
3.3460283878
 30
0.0
 10
6.6012296787
 20
3.345160373
 30
0.0
 10
6.6009786098
 20
3.3443755103
 30
0.0
 10
6.6007278313
 20
3.3436868008
 30
0.0
 10
6.6005140756
 20
3.3431811324
 30
0.0
 10
6.6003440917
 20
3.3428350846
 30
0.0
 10
6.6002252989
 20
3.3426186465
 30
0.0
 10
6.6001097206
 20
3.3424339031
 30
0.0
 10
6.5999978119
 20
3.3422816347
 30
0.0
 10
6.5998899347
 20
3.3421623654
 30
0.0
 10
6.5997860009
 20
3.3420764753
 30
0.0
 10
6.599685363
 20
3.342024267
 30
0.0
 10
6.5996164652
 20
3.3420135993
 30
0.0
 10
6.599585211
 20
3.3420154756
 30
0.0
  0
SPLINE
  5
385
100
AcDbEntity
  8
0
100
AcDbSpline
 62
7
  6
CONTINUOUS
 70
0
 71
3
 72
25
 73
21
 74
0
 42
0.0000001
 43
0.0000001
 44
0.0000000001
 40
0.0
 40
0.0
 40
0.0
 40
0.0
 40
0.1767091031
 40
0.3518704072
 40
0.4362223755
 40
0.5171147147
 40
0.5936653756
 40
0.6650794129
 40
0.7306575147
 40
0.7898047917
 40
0.8420460223
 40
0.8870548695
 40
0.9068079703
 40
0.9247340294
 40
0.9408740543
 40
0.9553081354
 40
0.9681710937
 40
0.9796763514
 40
0.990140817
 40
1.0
 40
1.0
 40
1.0
 40
1.0
 10
6.6028127586
 20
3.3126743416
 30
0.0
 10
6.6027827046
 20
3.3120936331
 30
0.0
 10
6.6026922914
 20
3.3109387197
 30
0.0
 10
6.6025096551
 20
3.3095142866
 30
0.0
 10
6.6023232173
 20
3.3084096354
 30
0.0
 10
6.6021688653
 20
3.3076289736
 30
0.0
 10
6.6020003511
 20
3.3068948528
 30
0.0
 10
6.6018198579
 20
3.3062155748
 30
0.0
 10
6.6016296701
 20
3.3055986104
 30
0.0
 10
6.6014321424
 20
3.3050505078
 30
0.0
 10
6.6012296337
 20
3.3045770361
 30
0.0
 10
6.6010517821
 20
3.3042348759
 30
0.0
 10
6.6009068366
 20
3.3040044245
 30
0.0
 10
6.6008030263
 20
3.3038607586
 30
0.0
 10
6.6006995897
 20
3.3037389576
 30
0.0
 10
6.6005967065
 20
3.3036393272
 30
0.0
 10
6.6004944832
 20
3.3035621576
 30
0.0
 10
6.6003929024
 20
3.3035078073
 30
0.0
 10
6.6002920455
 20
3.3034768941
 30
0.0
 10
6.6002245436
 20
3.3034724503
 30
0.0
 10
6.600192159
 20
3.3034743972
 30
0.0
  0
SPLINE
  5
386
100
AcDbEntity
  8
0
100
AcDbSpline
 62
7
  6
CONTINUOUS
 70
0
 71
3
 72
18
 73
14
 74
0
 42
0.0000001
 43
0.0000001
 44
0.0000000001
 40
0.0
 40
0.0
 40
0.0
 40
0.0
 40
0.0705741478
 40
0.1407433594
 40
0.2101441672
 40
0.2784808264
 40
0.4110811363
 40
0.5379715122
 40
0.5993851382
 40
0.6595188693
 40
0.7763170897
 40
0.8894651476
 40
1.0
 40
1.0
 40
1.0
 40
1.0
 10
6.8001112587
 20
3.0455221553
 30
0.0
 10
6.8003432114
 20
3.0455221553
 30
0.0
 10
6.8008060664
 20
3.0455432701
 30
0.0
 10
6.8014911879
 20
3.045637445
 30
0.0
 10
6.8021579205
 20
3.045791476
 30
0.0
 10
6.8030032151
 20
3.0460683336
 30
0.0
 10
6.8039797611
 20
3.046537269
 30
0.0
 10
6.8048430165
 20
3.0471523366
 30
0.0
 10
6.8054442642
 20
3.0477059854
 30
0.0
 10
6.805976243
 20
3.0482819891
 30
0.0
 10
6.8065384292
 20
3.0490572886
 30
0.0
 10
6.8070504871
 20
3.0500567762
 30
0.0
 10
6.8072857106
 20
3.0507566068
 30
0.0
 10
6.8073759897
 20
3.0511085002
 30
0.0
  0
SPLINE
  5
387
100
AcDbEntity
  8
0
100
AcDbSpline
 62
7
  6
CONTINUOUS
 70
0
 71
3
 72
18
 73
14
 74
0
 42
0.0000001
 43
0.0000001
 44
0.0000000001
 40
0.0
 40
0.0
 40
0.0
 40
0.0
 40
0.0718849809
 40
0.1433035336
 40
0.2138387468
 40
0.2831472858
 40
0.4170820872
 40
0.5443802673
 40
0.6056452795
 40
0.6654081075
 40
0.7808608241
 40
0.8919869982
 40
1.0
 40
1.0
 40
1.0
 40
1.0
 10
6.8001112587
 20
3.0460698158
 30
0.0
 10
6.8003434009
 20
3.0460698158
 30
0.0
 10
6.8008064359
 20
3.0460899926
 30
0.0
 10
6.8014919302
 20
3.0461800009
 30
0.0
 10
6.8021590214
 20
3.0463272134
 30
0.0
 10
6.803003662
 20
3.046591489
 30
0.0
 10
6.8039789993
 20
3.0470384679
 30
0.0
 10
6.8048443592
 20
3.0476269876
 30
0.0
 10
6.8054469849
 20
3.0481572782
 30
0.0
 10
6.8059781501
 20
3.0487069465
 30
0.0
 10
6.806539851
 20
3.0494468606
 30
0.0
 10
6.8070522471
 20
3.0504027723
 30
0.0
 10
6.807287842
 20
3.0510735365
 30
0.0
 10
6.8073779872
 20
3.0514104993
 30
0.0
  0
SPLINE
  5
388
100
AcDbEntity
  8
0
100
AcDbSpline
 62
7
  6
CONTINUOUS
 70
0
 71
3
 72
17
 73
13
 74
0
 42
0.0000001
 43
0.0000001
 44
0.0000000001
 40
0.0
 40
0.0
 40
0.0
 40
0.0
 40
0.1459470327
 40
0.2177142918
 40
0.2880849973
 40
0.4235009971
 40
0.5512898732
 40
0.6124185197
 40
0.6718016004
 40
0.7858232951
 40
0.8947555164
 40
1.0
 40
1.0
 40
1.0
 40
1.0
 10
6.8001112587
 20
3.0472195628
 30
0.0
 10
6.8005734279
 20
3.0472195628
 30
0.0
 10
6.8012646699
 20
3.0472765771
 30
0.0
 10
6.802158274
 20
3.0474638706
 30
0.0
 10
6.8030016625
 20
3.0477144098
 30
0.0
 10
6.8039749797
 20
3.0481375044
 30
0.0
 10
6.8048421172
 20
3.0486968429
 30
0.0
 10
6.8054461062
 20
3.0492014907
 30
0.0
 10
6.805976339
 20
3.0497224885
 30
0.0
 10
6.8065376278
 20
3.0504238407
 30
0.0
 10
6.8070509695
 20
3.0513322743
 30
0.0
 10
6.8072876337
 20
3.0519714846
 30
0.0
 10
6.8073779872
 20
3.05229228
 30
0.0
  0
SPLINE
  5
389
100
AcDbEntity
  8
0
100
AcDbSpline
 62
7
  6
CONTINUOUS
 70
0
 71
3
 72
17
 73
13
 74
0
 42
0.0000001
 43
0.0000001
 44
0.0000000001
 40
0.0
 40
0.0
 40
0.0
 40
0.0
 40
0.1489099744
 40
0.2933933348
 40
0.4304100105
 40
0.4957263846
 40
0.5588458514
 40
0.6787190391
 40
0.7911926226
 40
0.8451476385
 40
0.897812192
 40
1.0
 40
1.0
 40
1.0
 40
1.0
 10
6.8001112587
 20
3.0489683819
 30
0.0
 10
6.8005732579
 20
3.0489683819
 30
0.0
 10
6.8014851879
 20
3.0490392796
 30
0.0
 10
6.8027893376
 20
3.0493488752
 30
0.0
 10
6.8037894254
 20
3.0497589662
 30
0.0
 10
6.8045092202
 20
3.050160749
 30
0.0
 10
6.805150709
 20
3.0505885784
 30
0.0
 10
6.8058517182
 20
3.05118567
 30
0.0
 10
6.8064290957
 20
3.0518661817
 30
0.0
 10
6.8068015244
 20
3.0524356822
 30
0.0
 10
6.8071107224
 20
3.0530055394
 30
0.0
 10
6.8072873805
 20
3.05345541
 30
0.0
 10
6.8073779872
 20
3.0537592288
 30
0.0
  0
SPLINE
  5
38A
100
AcDbEntity
  8
0
100
AcDbSpline
 62
7
  6
CONTINUOUS
 70
0
 71
3
 72
15
 73
11
 74
0
 42
0.0000001
 43
0.0000001
 44
0.0000000001
 40
0.0
 40
0.0
 40
0.0
 40
0.0
 40
0.1520921644
 40
0.2992412675
 40
0.4380187042
 40
0.5669990642
 40
0.6863489107
 40
0.7971949922
 40
0.9011414138
 40
1.0
 40
1.0
 40
1.0
 40
1.0
 10
6.8001112587
 20
3.0513114797
 30
0.0
 10
6.8005730902
 20
3.0513114797
 30
0.0
 10
6.801483188
 20
3.0513777731
 30
0.0
 10
6.8027859768
 20
3.051667607
 30
0.0
 10
6.8039664908
 20
3.0521211308
 30
0.0
 10
6.8049917693
 20
3.0527053843
 30
0.0
 10
6.8058477539
 20
3.0533885619
 30
0.0
 10
6.8065320017
 20
3.0541439819
 30
0.0
 10
6.8070476128
 20
3.0549499034
 30
0.0
 10
6.8072870702
 20
3.0555212375
 30
0.0
 10
6.8073779872
 20
3.0558073249
 30
0.0
  0
SPLINE
  5
38B
100
AcDbEntity
  8
0
100
AcDbSpline
 62
7
  6
CONTINUOUS
 70
0
 71
3
 72
15
 73
11
 74
0
 42
0.0000001
 43
0.0000001
 44
0.0000000001
 40
0.0
 40
0.0
 40
0.0
 40
0.0
 40
0.1554295066
 40
0.3053857034
 40
0.4460347903
 40
0.5757201049
 40
0.6945324484
 40
0.8036420356
 40
0.9047893808
 40
1.0
 40
1.0
 40
1.0
 40
1.0
 10
6.8001112587
 20
3.0542424339
 30
0.0
 10
6.8005729268
 20
3.0542424339
 30
0.0
 10
6.801481263
 20
3.0543039939
 30
0.0
 10
6.8027825372
 20
3.0545733049
 30
0.0
 10
6.8039620773
 20
3.0549948438
 30
0.0
 10
6.804987056
 20
3.0555381229
 30
0.0
 10
6.8058433867
 20
3.0561737377
 30
0.0
 10
6.8065285375
 20
3.0568770948
 30
0.0
 10
6.807045384
 20
3.0576281106
 30
0.0
 10
6.8072866859
 20
3.0581632967
 30
0.0
 10
6.8073779872
 20
3.0584309547
 30
0.0
  0
SPLINE
  5
38C
100
AcDbEntity
  8
0
100
AcDbSpline
 62
7
  6
CONTINUOUS
 70
0
 71
3
 72
15
 73
11
 74
0
 42
0.0000001
 43
0.0000001
 44
0.0000000001
 40
0.0
 40
0.0
 40
0.0
 40
0.0
 40
0.1588951072
 40
0.3117873373
 40
0.4544293981
 40
0.5849129194
 40
0.703225702
 40
0.8105470461
 40
0.9087286656
 40
1.0
 40
1.0
 40
1.0
 40
1.0
 10
6.8001112587
 20
3.0577510927
 30
0.0
 10
6.8005723584
 20
3.0577510927
 30
0.0
 10
6.8014782108
 20
3.0578076893
 30
0.0
 10
6.8027769356
 20
3.0580554379
 30
0.0
 10
6.8039546398
 20
3.0584433322
 30
0.0
 10
6.8049786982
 20
3.0589434363
 30
0.0
 10
6.8058350632
 20
3.0595288341
 30
0.0
 10
6.8065211977
 20
3.0601771387
 30
0.0
 10
6.8070398179
 20
3.0608700851
 30
0.0
 10
6.8072838907
 20
3.0613671722
 30
0.0
 10
6.8073759897
 20
3.0616155054
 30
0.0
  0
SPLINE
  5
38D
100
AcDbEntity
  8
0
100
AcDbSpline
 62
7
  6
CONTINUOUS
 70
0
 71
3
 72
15
 73
11
 74
0
 42
0.0000001
 43
0.0000001
 44
0.0000000001
 40
0.0
 40
0.0
 40
0.0
 40
0.0
 40
0.1625778776
 40
0.3185974895
 40
0.4633780862
 40
0.5947444918
 40
0.7125605932
 40
0.8179987555
 40
0.9130013631
 40
1.0
 40
1.0
 40
1.0
 40
1.0
 10
6.8001112587
 20
3.061834188
 30
0.0
 10
6.80057262
 20
3.061834188
 30
0.0
 10
6.8014776339
 20
3.0618859019
 30
0.0
 10
6.8027758911
 20
3.0621123735
 30
0.0
 10
6.8039531957
 20
3.0624669525
 30
0.0
 10
6.8049770174
 20
3.0629241191
 30
0.0
 10
6.8058333977
 20
3.0634593297
 30
0.0
 10
6.8065199351
 20
3.0640523474
 30
0.0
 10
6.8070393569
 20
3.0646867772
 30
0.0
 10
6.8072855931
 20
3.0651455496
 30
0.0
 10
6.8073779872
 20
3.0653744925
 30
0.0
  0
SPLINE
  5
38E
100
AcDbEntity
  8
0
100
AcDbSpline
 62
7
  6
CONTINUOUS
 70
0
 71
3
 72
15
 73
11
 74
0
 42
0.0000001
 43
0.0000001
 44
0.0000000001
 40
0.0
 40
0.0
 40
0.0
 40
0.0
 40
0.166327376
 40
0.32555397
 40
0.4725674821
 40
0.6049117361
 40
0.7222991776
 40
0.8258506037
 40
0.9175519827
 40
1.0
 40
1.0
 40
1.0
 40
1.0
 10
6.8001112587
 20
3.0664741796
 30
0.0
 10
6.8005724799
 20
3.0664741796
 30
0.0
 10
6.8014759712
 20
3.0665208086
 30
0.0
 10
6.8027727741
 20
3.0667250949
 30
0.0
 10
6.8039488624
 20
3.06704493
 30
0.0
 10
6.8049718332
 20
3.0674572838
 30
0.0
 10
6.8058278393
 20
3.0679400272
 30
0.0
 10
6.8065146919
 20
3.0684750997
 30
0.0
 10
6.807035292
 20
3.069048039
 30
0.0
 10
6.8072848065
 20
3.0694665932
 30
0.0
 10
6.8073779872
 20
3.0696753687
 30
0.0
  0
SPLINE
  5
38F
100
AcDbEntity
  8
0
100
AcDbSpline
 62
7
  6
CONTINUOUS
 70
0
 71
3
 72
16
 73
12
 74
0
 42
0.0000001
 43
0.0000001
 44
0.0000000001
 40
0.0
 40
0.0
 40
0.0
 40
0.0
 40
0.170115643
 40
0.3325987783
 40
0.4819095275
 40
0.6153030575
 40
0.7323178788
 40
0.8339837272
 40
0.879694208
 40
0.9223721677
 40
1.0
 40
1.0
 40
1.0
 40
1.0
 10
6.8001112587
 20
3.0716604676
 30
0.0
 10
6.8005723507
 20
3.0716604676
 30
0.0
 10
6.8014744346
 20
3.0717019212
 30
0.0
 10
6.8027698572
 20
3.071883597
 30
0.0
 10
6.8039446926
 20
3.0721679928
 30
0.0
 10
6.8049666976
 20
3.0725346001
 30
0.0
 10
6.8058219143
 20
3.0729636149
 30
0.0
 10
6.8064137521
 20
3.0733733074
 30
0.0
 10
6.8067958828
 20
3.073719882
 30
0.0
 10
6.8070998769
 20
3.0740520776
 30
0.0
 10
6.8072837792
 20
3.0743256288
 30
0.0
 10
6.8073779872
 20
3.0745137673
 30
0.0
  0
SPLINE
  5
390
100
AcDbEntity
  8
0
100
AcDbSpline
 62
7
  6
CONTINUOUS
 70
0
 71
3
 72
19
 73
15
 74
0
 42
0.0000001
 43
0.0000001
 44
0.0000000001
 40
0.0
 40
0.0
 40
0.0
 40
0.0
 40
0.173881839
 40
0.2582279633
 40
0.3396567445
 40
0.4912945986
 40
0.6257985705
 40
0.6863775805
 40
0.7425689523
 40
0.7945272873
 40
0.8424667508
 40
0.8866526603
 40
0.9274009529
 40
1.0
 40
1.0
 40
1.0
 40
1.0
 10
6.8001112587
 20
3.0773788369
 30
0.0
 10
6.800572234
 20
3.0773788369
 30
0.0
 10
6.8012572802
 20
3.0774063444
 30
0.0
 10
6.8021532105
 20
3.0774984943
 30
0.0
 10
6.8029860954
 20
3.0776200406
 30
0.0
 10
6.8039407398
 20
3.0778221281
 30
0.0
 10
6.8048195706
 20
3.0780975633
 30
0.0
 10
6.8054362903
 20
3.0783502831
 30
0.0
 10
6.8058395108
 20
3.0785446255
 30
0.0
 10
6.8061998976
 20
3.0787486797
 30
0.0
 10
6.8065179086
 20
3.0789609148
 30
0.0
 10
6.8067943175
 20
3.0791801636
 30
0.0
 10
6.8070964454
 20
3.0794688022
 30
0.0
 10
6.8072824186
 20
3.079709364
 30
0.0
 10
6.8073779872
 20
3.0798764264
 30
0.0
  0
SPLINE
  5
391
100
AcDbEntity
  8
0
100
AcDbSpline
 62
7
  6
CONTINUOUS
 70
0
 71
3
 72
19
 73
15
 74
0
 42
0.0000001
 43
0.0000001
 44
0.0000000001
 40
0.0
 40
0.0
 40
0.0
 40
0.0
 40
0.1775825232
 40
0.2636205638
 40
0.3465655792
 40
0.5005426443
 40
0.6362252237
 40
0.6968882386
 40
0.7528015492
 40
0.8041000994
 40
0.8509792074
 40
0.8936868719
 40
0.9325252663
 40
1.0
 40
1.0
 40
1.0
 40
1.0
 10
6.8001112587
 20
3.0836136138
 30
0.0
 10
6.800572131
 20
3.0836136138
 30
0.0
 10
6.8012566334
 20
3.0836370864
 30
0.0
 10
6.8021527512
 20
3.0837158528
 30
0.0
 10
6.8029846312
 20
3.0838196087
 30
0.0
 10
6.8039371804
 20
3.0839918066
 30
0.0
 10
6.8048167981
 20
3.0842271098
 30
0.0
 10
6.8054349498
 20
3.0844435358
 30
0.0
 10
6.8058380244
 20
3.0846095159
 30
0.0
 10
6.8061982804
 20
3.0847837643
 30
0.0
 10
6.8065161758
 20
3.0849649681
 30
0.0
 10
6.8067925508
 20
3.0851521463
 30
0.0
 10
6.8070923184
 20
3.085396651
 30
0.0
 10
6.8072805966
 20
3.0856031136
 30
0.0
 10
6.8073779872
 20
3.0857486474
 30
0.0
  0
SPLINE
  5
392
100
AcDbEntity
  8
0
100
AcDbSpline
 62
7
  6
CONTINUOUS
 70
0
 71
3
 72
19
 73
15
 74
0
 42
0.0000001
 43
0.0000001
 44
0.0000000001
 40
0.0
 40
0.0
 40
0.0
 40
0.0
 40
0.1809712112
 40
0.3528936027
 40
0.5090660208
 40
0.6459095253
 40
0.706695819
 40
0.7623991564
 40
0.8131294209
 40
0.8590566049
 40
0.900400514
 40
0.9374342393
 40
0.970497477
 40
1.0
 40
1.0
 40
1.0
 40
1.0
 10
6.8001112587
 20
3.0903438172
 30
0.0
 10
6.8005716337
 20
3.0903438172
 30
0.0
 10
6.8014695853
 20
3.0903692833
 30
0.0
 10
6.8027605367
 20
3.0904809491
 30
0.0
 10
6.803931113
 20
3.0906556937
 30
0.0
 10
6.8048109399
 20
3.0908499727
 30
0.0
 10
6.8054302108
 20
3.0910290691
 30
0.0
 10
6.8058331129
 20
3.0911660928
 30
0.0
 10
6.8061932504
 20
3.0913099077
 30
0.0
 10
6.8065111366
 20
3.0914594551
 30
0.0
 10
6.8067874692
 20
3.0916137993
 30
0.0
 10
6.8070230716
 20
3.0917721857
 30
0.0
 10
6.8072186847
 20
3.0919339296
 30
0.0
 10
6.807328667
 20
3.0920497694
 30
0.0
 10
6.8073759897
 20
3.0921080219
 30
0.0
  0
SPLINE
  5
393
100
AcDbEntity
  8
0
100
AcDbSpline
 62
7
  6
CONTINUOUS
 70
0
 71
3
 72
19
 73
15
 74
0
 42
0.0000001
 43
0.0000001
 44
0.0000000001
 40
0.0
 40
0.0
 40
0.0
 40
0.0
 40
0.184205475
 40
0.3589590336
 40
0.5172310945
 40
0.6552050876
 40
0.7161291802
 40
0.7716589121
 40
0.8218807324
 40
0.866935785
 40
0.9070105061
 40
0.9423380696
 40
0.9732120835
 40
1.0
 40
1.0
 40
1.0
 40
1.0
 10
6.8001112587
 20
3.0975626655
 30
0.0
 10
6.8005719705
 20
3.0975626655
 30
0.0
 10
6.8014698918
 20
3.0975827572
 30
0.0
 10
6.8027609951
 20
3.097670856
 30
0.0
 10
6.8039314036
 20
3.0978086907
 30
0.0
 10
6.8048120898
 20
3.0979620556
 30
0.0
 10
6.805432594
 20
3.0981037128
 30
0.0
 10
6.8058353144
 20
3.0982118353
 30
0.0
 10
6.8061951687
 20
3.0983252786
 30
0.0
 10
6.8065126728
 20
3.0984431945
 30
0.0
 10
6.806788531
 20
3.0985648224
 30
0.0
 10
6.8070235991
 20
3.0986895433
 30
0.0
 10
6.8072186762
 20
3.0988168043
 30
0.0
 10
6.8073300219
 20
3.0989092635
 30
0.0
 10
6.8073779872
 20
3.0989560411
 30
0.0
  0
SPLINE
  5
394
100
AcDbEntity
  8
0
100
AcDbSpline
 62
7
  6
CONTINUOUS
 70
0
 71
3
 72
19
 73
15
 74
0
 42
0.0000001
 43
0.0000001
 44
0.0000000001
 40
0.0
 40
0.0
 40
0.0
 40
0.0
 40
0.1868490446
 40
0.3639330085
 40
0.5239629923
 40
0.6629276781
 40
0.7240047722
 40
0.7794345878
 40
0.8292799303
 40
0.8736529583
 40
0.9127030917
 40
0.9466150604
 40
0.9756183873
 40
1.0
 40
1.0
 40
1.0
 40
1.0
 10
6.8001112587
 20
3.1052387068
 30
0.0
 10
6.8005719147
 20
3.1052387068
 30
0.0
 10
6.8014692252
 20
3.1052533455
 30
0.0
 10
6.8027596554
 20
3.1053175343
 30
0.0
 10
6.8039293351
 20
3.1054179494
 30
0.0
 10
6.8048103316
 20
3.1055297458
 30
0.0
 10
6.8054316888
 20
3.1056331761
 30
0.0
 10
6.8058342356
 20
3.1057119749
 30
0.0
 10
6.806193877
 20
3.1057946267
 30
0.0
 10
6.8065111174
 20
3.1058804986
 30
0.0
 10
6.8067866476
 20
3.1059690127
 30
0.0
 10
6.8070213192
 20
3.1060596758
 30
0.0
 10
6.8072159459
 20
3.1061520392
 30
0.0
 10
6.8073290049
 20
3.1062201711
 30
0.0
 10
6.8073779872
 20
3.1062550133
 30
0.0
  0
SPLINE
  5
395
100
AcDbEntity
  8
0
100
AcDbSpline
 62
7
  6
CONTINUOUS
 70
0
 71
3
 72
18
 73
14
 74
0
 42
0.0000001
 43
0.0000001
 44
0.0000000001
 40
0.0
 40
0.0
 40
0.0
 40
0.0
 40
0.1888137689
 40
0.3676356754
 40
0.528988745
 40
0.668719372
 40
0.7853024832
 40
0.8348910533
 40
0.8787786238
 40
0.9170821176
 40
0.949940668
 40
0.9775171687
 40
1.0
 40
1.0
 40
1.0
 40
1.0
 10
6.8001112587
 20
3.1133547938
 30
0.0
 10
6.8005718762
 20
3.1133547938
 30
0.0
 10
6.8014687657
 20
3.1133639516
 30
0.0
 10
6.8027587197
 20
3.1134041302
 30
0.0
 10
6.8039278983
 20
3.1134669267
 30
0.0
 10
6.8049437184
 20
3.1135477079
 30
0.0
 10
6.8056856343
 20
3.1136298385
 30
0.0
 10
6.8061929057
 20
3.1137027784
 30
0.0
 10
6.8065099099
 20
3.1137564907
 30
0.0
 10
6.8067851223
 20
3.1138118117
 30
0.0
 10
6.8070193476
 20
3.1138683989
 30
0.0
 10
6.8072133639
 20
3.1139259339
 30
0.0
 10
6.8073278857
 20
3.1139689272
 30
0.0
 10
6.8073779872
 20
3.1139912454
 30
0.0
  0
LINE
  5
396
100
AcDbEntity
  8
0
100
AcDbLine
 62
7
  6
CONTINUOUS
 10
6.8001112587
 20
3.1218886808
 11
6.8073779872
 21
3.1221435331
  0
LINE
  5
397
100
AcDbEntity
  8
0
100
AcDbLine
 62
7
  6
CONTINUOUS
 10
6.8073779872
 20
3.4094260321
 11
6.8001112587
 21
3.4096808844
  0
SPLINE
  5
398
100
AcDbEntity
  8
0
100
AcDbSpline
 62
7
  6
CONTINUOUS
 70
0
 71
3
 72
18
 73
14
 74
0
 42
0.0000001
 43
0.0000001
 44
0.0000000001
 40
0.0
 40
0.0
 40
0.0
 40
0.0
 40
0.0224820259
 40
0.0500586988
 40
0.0829167458
 40
0.1212195125
 40
0.1651063263
 40
0.2146940665
 40
0.3312767055
 40
0.4710060668
 40
0.6323592673
 40
0.8111829392
 40
1.0
 40
1.0
 40
1.0
 40
1.0
 10
6.8073779872
 20
3.4175783198
 30
0.0
 10
6.8073278875
 20
3.4176006372
 30
0.0
 10
6.8072133672
 20
3.4176436302
 30
0.0
 10
6.8070193536
 20
3.4177011646
 30
0.0
 10
6.8067851311
 20
3.4177577521
 30
0.0
 10
6.8065099234
 20
3.4178130719
 30
0.0
 10
6.8061929248
 20
3.4178667836
 30
0.0
 10
6.8056856585
 20
3.4179397239
 30
0.0
 10
6.8049437489
 20
3.4180218542
 30
0.0
 10
6.8039279328
 20
3.4181026362
 30
0.0
 10
6.8027587527
 20
3.418165434
 30
0.0
 10
6.801468786
 20
3.4182056135
 30
0.0
 10
6.8005718842
 20
3.4182147714
 30
0.0
 10
6.8001112587
 20
3.4182147714
 30
0.0
  0
SPLINE
  5
399
100
AcDbEntity
  8
0
100
AcDbSpline
 62
7
  6
CONTINUOUS
 70
0
 71
3
 72
19
 73
15
 74
0
 42
0.0000001
 43
0.0000001
 44
0.0000000001
 40
0.0
 40
0.0
 40
0.0
 40
0.0
 40
0.0243807524
 40
0.0533842794
 40
0.0872957572
 40
0.1263451547
 40
0.1707174271
 40
0.2205619542
 40
0.2759916253
 40
0.3370684127
 40
0.4760318567
 40
0.6360619827
 40
0.8131476986
 40
1.0
 40
1.0
 40
1.0
 40
1.0
 10
6.8073779872
 20
3.425314552
 30
0.0
 10
6.8073290067
 20
3.4253493929
 30
0.0
 10
6.8072159492
 20
3.4254175242
 30
0.0
 10
6.8070213251
 20
3.4255098866
 30
0.0
 10
6.8067866565
 20
3.4256005502
 30
0.0
 10
6.8065111309
 20
3.4256890626
 30
0.0
 10
6.8061938961
 20
3.4257749334
 30
0.0
 10
6.8058342591
 20
3.4258575854
 30
0.0
 10
6.8054317155
 20
3.4259363846
 30
0.0
 10
6.8048103625
 20
3.4260398145
 30
0.0
 10
6.8039293696
 20
3.4261516122
 30
0.0
 10
6.8027596885
 20
3.4262520292
 30
0.0
 10
6.8014692456
 20
3.4263162196
 30
0.0
 10
6.8005719228
 20
3.4263308584
 30
0.0
 10
6.8001112587
 20
3.4263308584
 30
0.0
  0
SPLINE
  5
39A
100
AcDbEntity
  8
0
100
AcDbSpline
 62
7
  6
CONTINUOUS
 70
0
 71
3
 72
19
 73
15
 74
0
 42
0.0000001
 43
0.0000001
 44
0.0000000001
 40
0.0
 40
0.0
 40
0.0
 40
0.0
 40
0.0267869853
 40
0.0576612344
 40
0.0929883221
 40
0.1330622948
 40
0.1781165929
 40
0.228337617
 40
0.2838672233
 40
0.3447910188
 40
0.4827638025
 40
0.6410360218
 40
0.8157913145
 40
1.0
 40
1.0
 40
1.0
 40
1.0
 10
6.8073779872
 20
3.4326135241
 30
0.0
 10
6.8073300235
 20
3.4326603001
 30
0.0
 10
6.8072186794
 20
3.4327527584
 30
0.0
 10
6.807023605
 20
3.4328800182
 30
0.0
 10
6.8067885399
 20
3.4330047395
 30
0.0
 10
6.8065126861
 20
3.4331263652
 30
0.0
 10
6.8061951877
 20
3.4332442797
 30
0.0
 10
6.8058353378
 20
3.4333577232
 30
0.0
 10
6.8054326208
 20
3.4334658461
 30
0.0
 10
6.8048121206
 20
3.433607503
 30
0.0
 10
6.8039314382
 20
3.4337608695
 30
0.0
 10
6.8027610282
 20
3.4338987069
 30
0.0
 10
6.8014699122
 20
3.4339868078
 30
0.0
 10
6.8005719785
 20
3.4340068998
 30
0.0
 10
6.8001112587
 20
3.4340068998
 30
0.0
  0
SPLINE
  5
39B
100
AcDbEntity
  8
0
100
AcDbSpline
 62
7
  6
CONTINUOUS
 70
0
 71
3
 72
19
 73
15
 74
0
 42
0.0000001
 43
0.0000001
 44
0.0000000001
 40
0.0
 40
0.0
 40
0.0
 40
0.0
 40
0.029502515
 40
0.0625657232
 40
0.099599387
 40
0.140943141
 40
0.1868701767
 40
0.237600345
 40
0.2933035962
 40
0.3540897653
 40
0.4909332386
 40
0.6471056342
 40
0.8190281936
 40
1.0
 40
1.0
 40
1.0
 40
1.0
 10
6.8073759897
 20
3.4394615433
 30
0.0
 10
6.8073286671
 20
3.4395197958
 30
0.0
 10
6.8072186848
 20
3.4396356356
 30
0.0
 10
6.8070230719
 20
3.4397973793
 30
0.0
 10
6.8067874701
 20
3.4399557653
 30
0.0
 10
6.8065111383
 20
3.4401101092
 30
0.0
 10
6.8061932531
 20
3.4402596563
 30
0.0
 10
6.8058331164
 20
3.440403471
 30
0.0
 10
6.8054302151
 20
3.4405404947
 30
0.0
 10
6.804810945
 20
3.4407195913
 30
0.0
 10
6.8039311185
 20
3.4409138705
 30
0.0
 10
6.802760542
 20
3.4410886155
 30
0.0
 10
6.8014695888
 20
3.4412002818
 30
0.0
 10
6.8005716352
 20
3.441225748
 30
0.0
 10
6.8001112587
 20
3.441225748
 30
0.0
  0
SPLINE
  5
39C
100
AcDbEntity
  8
0
100
AcDbSpline
 62
7
  6
CONTINUOUS
 70
0
 71
3
 72
19
 73
15
 74
0
 42
0.0000001
 43
0.0000001
 44
0.0000000001
 40
0.0
 40
0.0
 40
0.0
 40
0.0
 40
0.0674739546
 40
0.1063119035
 40
0.149018786
 40
0.1958971395
 40
0.2471949399
 40
0.3031081734
 40
0.3637709152
 40
0.4994523683
 40
0.6534296357
 40
0.7363755549
 40
0.8224143835
 40
1.0
 40
1.0
 40
1.0
 40
1.0
 10
6.8073779872
 20
3.4458209178
 30
0.0
 10
6.8072805978
 20
3.4459664499
 30
0.0
 10
6.8070923216
 20
3.4461729098
 30
0.0
 10
6.8067925599
 20
3.4464174137
 30
0.0
 10
6.806516189
 20
3.4466045888
 30
0.0
 10
6.8061982993
 20
3.4467857903
 30
0.0
 10
6.805838048
 20
3.446960039
 30
0.0
 10
6.8054349766
 20
3.4471260197
 30
0.0
 10
6.8048168288
 20
3.4473424453
 30
0.0
 10
6.8039372151
 20
3.4475777509
 30
0.0
 10
6.8029846664
 20
3.447749952
 30
0.0
 10
6.8021527817
 20
3.4478537098
 30
0.0
 10
6.8012566516
 20
3.4479324788
 30
0.0
 10
6.8005721391
 20
3.4479559514
 30
0.0
 10
6.8001112587
 20
3.4479559514
 30
0.0
  0
SPLINE
  5
39D
100
AcDbEntity
  8
0
100
AcDbSpline
 62
7
  6
CONTINUOUS
 70
0
 71
3
 72
19
 73
15
 74
0
 42
0.0000001
 43
0.0000001
 44
0.0000000001
 40
0.0
 40
0.0
 40
0.0
 40
0.0
 40
0.0725982222
 40
0.1133460824
 40
0.1575311903
 40
0.2054698979
 40
0.2574275079
 40
0.3136188306
 40
0.374197581
 40
0.5087004753
 40
0.6603385579
 40
0.7417682322
 40
0.8261151322
 40
1.0
 40
1.0
 40
1.0
 40
1.0
 10
6.8073779872
 20
3.4516931388
 30
0.0
 10
6.8072824196
 20
3.4518601993
 30
0.0
 10
6.8070964484
 20
3.4521007581
 30
0.0
 10
6.8067943268
 20
3.4523893954
 30
0.0
 10
6.8065179217
 20
3.4526086408
 30
0.0
 10
6.8061999163
 20
3.4528208732
 30
0.0
 10
6.8058395344
 20
3.4530249276
 30
0.0
 10
6.8054363172
 20
3.4532192708
 30
0.0
 10
6.8048196012
 20
3.4534719901
 30
0.0
 10
6.8039407745
 20
3.4537474281
 30
0.0
 10
6.8029861306
 20
3.4539495194
 30
0.0
 10
6.802153241
 20
3.4540710679
 30
0.0
 10
6.8012572984
 20
3.4541632208
 30
0.0
 10
6.8005722421
 20
3.4541907283
 30
0.0
 10
6.8001112587
 20
3.4541907283
 30
0.0
  0
SPLINE
  5
39E
100
AcDbEntity
  8
0
100
AcDbSpline
 62
7
  6
CONTINUOUS
 70
0
 71
3
 72
16
 73
12
 74
0
 42
0.0000001
 43
0.0000001
 44
0.0000000001
 40
0.0
 40
0.0
 40
0.0
 40
0.0
 40
0.0776269603
 40
0.1203044985
 40
0.1660141574
 40
0.2676785542
 40
0.3846931041
 40
0.5180856051
 40
0.6673966128
 40
0.8298813942
 40
1.0
 40
1.0
 40
1.0
 40
1.0
 10
6.8073779872
 20
3.4570557979
 30
0.0
 10
6.8072837802
 20
3.4572439343
 30
0.0
 10
6.8070998796
 20
3.4575174821
 30
0.0
 10
6.8067958921
 20
3.4578496761
 30
0.0
 10
6.8064137664
 20
3.4581962454
 30
0.0
 10
6.805821937
 20
3.4586059375
 30
0.0
 10
6.804966728
 20
3.4590349514
 30
0.0
 10
6.8039447273
 20
3.459401562
 30
0.0
 10
6.8027698907
 20
3.4596859634
 30
0.0
 10
6.8014744552
 20
3.4598676436
 30
0.0
 10
6.8005723588
 20
3.4599090976
 30
0.0
 10
6.8001112587
 20
3.4599090976
 30
0.0
  0
SPLINE
  5
39F
100
AcDbEntity
  8
0
100
AcDbSpline
 62
7
  6
CONTINUOUS
 70
0
 71
3
 72
15
 73
11
 74
0
 42
0.0000001
 43
0.0000001
 44
0.0000000001
 40
0.0
 40
0.0
 40
0.0
 40
0.0
 40
0.0824471007
 40
0.1741472177
 40
0.2776972141
 40
0.3950844269
 40
0.5274277034
 40
0.6744415061
 40
0.8336697262
 40
1.0
 40
1.0
 40
1.0
 40
1.0
 10
6.8073779872
 20
3.4618941965
 30
0.0
 10
6.8072848075
 20
3.4621029697
 30
0.0
 10
6.8070352966
 20
3.4625215188
 30
0.0
 10
6.8065147056
 20
3.4630944527
 30
0.0
 10
6.8058278617
 20
3.4636295233
 30
0.0
 10
6.8049718637
 20
3.4641122661
 30
0.0
 10
6.8039488971
 20
3.4645246234
 30
0.0
 10
6.8027728077
 20
3.464844465
 30
0.0
 10
6.8014759918
 20
3.4650487562
 30
0.0
 10
6.8005724879
 20
3.4650953856
 30
0.0
 10
6.8001112587
 20
3.4650953856
 30
0.0
  0
SPLINE
  5
3A0
100
AcDbEntity
  8
0
100
AcDbSpline
 62
7
  6
CONTINUOUS
 70
0
 71
3
 72
15
 73
11
 74
0
 42
0.0000001
 43
0.0000001
 44
0.0000000001
 40
0.0
 40
0.0
 40
0.0
 40
0.0
 40
0.086997677
 40
0.1819990096
 40
0.2874357612
 40
0.4052516747
 40
0.5366171529
 40
0.6813980721
 40
0.8374192897
 40
1.0
 40
1.0
 40
1.0
 40
1.0
 10
6.8073779872
 20
3.4661950728
 30
0.0
 10
6.8072855942
 20
3.4664240131
 30
0.0
 10
6.8070393613
 20
3.46688278
 30
0.0
 10
6.8065199486
 20
3.4675172037
 30
0.0
 10
6.8058334201
 20
3.4681102191
 30
0.0
 10
6.8049770478
 20
3.4686454292
 30
0.0
 10
6.8039532304
 20
3.4691025996
 30
0.0
 10
6.8027759249
 20
3.4694571858
 30
0.0
 10
6.8014776547
 20
3.4696836628
 30
0.0
 10
6.800572628
 20
3.4697353772
 30
0.0
 10
6.8001112587
 20
3.4697353772
 30
0.0
  0
SPLINE
  5
3A1
100
AcDbEntity
  8
0
100
AcDbSpline
 62
7
  6
CONTINUOUS
 70
0
 71
3
 72
15
 73
11
 74
0
 42
0.0000001
 43
0.0000001
 44
0.0000000001
 40
0.0
 40
0.0
 40
0.0
 40
0.0
 40
0.0912712826
 40
0.1894526559
 40
0.2967737691
 40
0.4150863883
 40
0.5455699134
 40
0.6882119771
 40
0.8411043689
 40
1.0
 40
1.0
 40
1.0
 40
1.0
 10
6.8073759897
 20
3.4699540598
 30
0.0
 10
6.8072838908
 20
3.4702023928
 30
0.0
 10
6.8070398184
 20
3.4706994792
 30
0.0
 10
6.8065211993
 20
3.4713924246
 30
0.0
 10
6.8058350665
 20
3.4720407282
 30
0.0
 10
6.8049787031
 20
3.4726261262
 30
0.0
 10
6.8039546453
 20
3.4731262308
 30
0.0
 10
6.802776941
 20
3.473514126
 30
0.0
 10
6.8014782143
 20
3.4737618757
 30
0.0
 10
6.8005723599
 20
3.4738184725
 30
0.0
 10
6.8001112587
 20
3.4738184725
 30
0.0
  0
SPLINE
  5
3A2
100
AcDbEntity
  8
0
100
AcDbSpline
 62
7
  6
CONTINUOUS
 70
0
 71
3
 72
15
 73
11
 74
0
 42
0.0000001
 43
0.0000001
 44
0.0000000001
 40
0.0
 40
0.0
 40
0.0
 40
0.0
 40
0.0952095801
 40
0.196355622
 40
0.3054638294
 40
0.4242760621
 40
0.5539605452
 40
0.6946100193
 40
0.844567785
 40
1.0
 40
1.0
 40
1.0
 40
1.0
 10
6.8073779872
 20
3.4731386105
 30
0.0
 10
6.8072866869
 20
3.4734062656
 30
0.0
 10
6.8070453882
 20
3.4739414454
 30
0.0
 10
6.8065285509
 20
3.4746924539
 30
0.0
 10
6.805843409
 20
3.4753958081
 30
0.0
 10
6.8049870864
 20
3.4760314222
 30
0.0
 10
6.8039621121
 20
3.4765747059
 30
0.0
 10
6.8027825712
 20
3.4769962531
 30
0.0
 10
6.8014812839
 20
3.4772655707
 30
0.0
 10
6.8005729349
 20
3.4773271314
 30
0.0
 10
6.8001112587
 20
3.4773271314
 30
0.0
  0
SPLINE
  5
3A3
100
AcDbEntity
  8
0
100
AcDbSpline
 62
7
  6
CONTINUOUS
 70
0
 71
3
 72
15
 73
11
 74
0
 42
0.0000001
 43
0.0000001
 44
0.0000000001
 40
0.0
 40
0.0
 40
0.0
 40
0.0
 40
0.0988575115
 40
0.2028026152
 40
0.3136473292
 40
0.4329971001
 40
0.5619766737
 40
0.7007545293
 40
0.8479051852
 40
1.0
 40
1.0
 40
1.0
 40
1.0
 10
6.8073779872
 20
3.4757622403
 30
0.0
 10
6.8072870712
 20
3.4760483246
 30
0.0
 10
6.807047617
 20
3.476619652
 30
0.0
 10
6.806532015
 20
3.4774255656
 30
0.0
 10
6.8058477762
 20
3.4781809825
 30
0.0
 10
6.8049917997
 20
3.4788641593
 30
0.0
 10
6.8039665255
 20
3.4794484177
 30
0.0
 10
6.802786011
 20
3.4799019505
 30
0.0
 10
6.801483209
 20
3.4801917915
 30
0.0
 10
6.8005730983
 20
3.4802580855
 30
0.0
 10
6.8001112587
 20
3.4802580855
 30
0.0
  0
SPLINE
  5
3A4
100
AcDbEntity
  8
0
100
AcDbSpline
 62
7
  6
CONTINUOUS
 70
0
 71
3
 72
17
 73
13
 74
0
 42
0.0000001
 43
0.0000001
 44
0.0000000001
 40
0.0
 40
0.0
 40
0.0
 40
0.0
 40
0.1021867008
 40
0.1548508666
 40
0.2088049449
 40
0.3212771716
 40
0.4411503166
 40
0.5042694171
 40
0.5695854063
 40
0.7066025317
 40
0.8510874301
 40
1.0
 40
1.0
 40
1.0
 40
1.0
 10
6.8073779872
 20
3.4778103364
 30
0.0
 10
6.8072873815
 20
3.478114152
 30
0.0
 10
6.8071107244
 20
3.4785640178
 30
0.0
 10
6.806801534
 20
3.4791338705
 30
0.0
 10
6.8064291093
 20
3.4797033637
 30
0.0
 10
6.8058517407
 20
3.4803838731
 30
0.0
 10
6.805150738
 20
3.4809809644
 30
0.0
 10
6.8045092528
 20
3.4814087946
 30
0.0
 10
6.8037894619
 20
3.4818105824
 30
0.0
 10
6.8027893718
 20
3.4822206816
 30
0.0
 10
6.801485209
 20
3.482530285
 30
0.0
 10
6.8005732659
 20
3.4826011833
 30
0.0
 10
6.8001112587
 20
3.4826011833
 30
0.0
  0
SPLINE
  5
3A5
100
AcDbEntity
  8
0
100
AcDbSpline
 62
7
  6
CONTINUOUS
 70
0
 71
3
 72
17
 73
13
 74
0
 42
0.0000001
 43
0.0000001
 44
0.0000000001
 40
0.0
 40
0.0
 40
0.0
 40
0.0
 40
0.1052433451
 40
0.2141742196
 40
0.3281945651
 40
0.387577797
 40
0.448706285
 40
0.5764944557
 40
0.7119109337
 40
0.7822824707
 40
0.8540504249
 40
1.0
 40
1.0
 40
1.0
 40
1.0
 10
6.8073779872
 20
3.4792772852
 30
0.0
 10
6.8072876346
 20
3.4795980771
 30
0.0
 10
6.8070509735
 20
3.4802372801
 30
0.0
 10
6.8065376411
 20
3.4811457049
 30
0.0
 10
6.8059763598
 20
3.4818470526
 30
0.0
 10
6.8054461336
 20
3.4823680511
 30
0.0
 10
6.8048421472
 20
3.4828726986
 30
0.0
 10
6.8039750145
 20
3.4834320419
 30
0.0
 10
6.8030016984
 20
3.4838551445
 30
0.0
 10
6.8021583046
 20
3.4841056884
 30
0.0
 10
6.8012646885
 20
3.484292988
 30
0.0
 10
6.800573436
 20
3.4843500024
 30
0.0
 10
6.8001112587
 20
3.4843500024
 30
0.0
  0
SPLINE
  5
3A6
100
AcDbEntity
  8
0
100
AcDbSpline
 62
7
  6
CONTINUOUS
 70
0
 71
3
 72
18
 73
14
 74
0
 42
0.0000001
 43
0.0000001
 44
0.0000000001
 40
0.0
 40
0.0
 40
0.0
 40
0.0
 40
0.1080118356
 40
0.2191366497
 40
0.3345880244
 40
0.3943510221
 40
0.4556158849
 40
0.5829133965
 40
0.7168487042
 40
0.7861580698
 40
0.8566939709
 40
0.9281143673
 40
1.0
 40
1.0
 40
1.0
 40
1.0
 10
6.8073779872
 20
3.4801590659
 30
0.0
 10
6.8072878429
 20
3.4804960251
 30
0.0
 10
6.807052251
 20
3.4811667816
 30
0.0
 10
6.8065398642
 20
3.482122684
 30
0.0
 10
6.8059781708
 20
3.4828625934
 30
0.0
 10
6.8054470123
 20
3.4834122623
 30
0.0
 10
6.8048443891
 20
3.4839425528
 30
0.0
 10
6.8039790342
 20
3.4845310774
 30
0.0
 10
6.803003698
 20
3.4849780647
 30
0.0
 10
6.802159052
 20
3.4852423452
 30
0.0
 10
6.8014919508
 20
3.485389563
 30
0.0
 10
6.8008064461
 20
3.4854795716
 30
0.0
 10
6.800343403
 20
3.4854997494
 30
0.0
 10
6.8001112587
 20
3.4854997494
 30
0.0
  0
SPLINE
  5
3A7
100
AcDbEntity
  8
0
100
AcDbSpline
 62
7
  6
CONTINUOUS
 70
0
 71
3
 72
18
 73
14
 74
0
 42
0.0000001
 43
0.0000001
 44
0.0000000001
 40
0.0
 40
0.0
 40
0.0
 40
0.0
 40
0.110534804
 40
0.2236826029
 40
0.3404806045
 40
0.4006142784
 40
0.4620278226
 40
0.5889182102
 40
0.7215185423
 40
0.7898552491
 40
0.8592561643
 40
0.9294257021
 40
1.0
 40
1.0
 40
1.0
 40
1.0
 10
6.8073759897
 20
3.480461065
 30
0.0
 10
6.8072857108
 20
3.4808129577
 30
0.0
 10
6.807050488
 20
3.4815127863
 30
0.0
 10
6.8065384324
 20
3.4825122712
 30
0.0
 10
6.8059762489
 20
3.4832875686
 30
0.0
 10
6.8054442725
 20
3.4838635714
 30
0.0
 10
6.8048430271
 20
3.4844172202
 30
0.0
 10
6.8039797742
 20
3.4850322883
 30
0.0
 10
6.8030032305
 20
3.4855012252
 30
0.0
 10
6.8021579373
 20
3.4857780845
 30
0.0
 10
6.8014912045
 20
3.4859321173
 30
0.0
 10
6.8008060823
 20
3.4860262934
 30
0.0
 10
6.8003432265
 20
3.4860474099
 30
0.0
 10
6.8001112737
 20
3.4860474099
 30
0.0
  0
SPLINE
  5
3A8
100
AcDbEntity
  8
0
100
AcDbSpline
 62
7
  6
CONTINUOUS
 70
0
 71
3
 72
20
 73
16
 74
0
 42
0.0000001
 43
0.0000001
 44
0.0000000001
 40
0.0
 40
0.0
 40
0.0
 40
0.0
 40
0.0221792771
 40
0.0461375087
 40
0.0740019919
 40
0.1071381326
 40
0.1463283534
 40
0.1919873559
 40
0.2443136205
 40
0.3033611056
 40
0.3690868235
 40
0.4413753599
 40
0.6048761942
 40
0.7919291553
 40
1.0
 40
1.0
 40
1.0
 40
1.0
 10
6.599585211
 20
3.3420154756
 30
0.0
 10
6.5995590159
 20
3.3420170482
 30
0.0
 10
6.5995046587
 20
3.3420303944
 30
0.0
 10
6.5994308151
 20
3.3420798921
 30
0.0
 10
6.5993642895
 20
3.3421563365
 30
0.0
 10
6.5993041021
 20
3.3422590018
 30
0.0
 10
6.5992498364
 20
3.3423879336
 30
0.0
 10
6.599201483
 20
3.3425430603
 30
0.0
 10
6.5991591991
 20
3.3427241129
 30
0.0
 10
6.5991231608
 20
3.3429306223
 30
0.0
 10
6.5990935315
 20
3.3431619597
 30
0.0
 10
6.5990614795
 20
3.343517333
 30
0.0
 10
6.5990405696
 20
3.3440174783
 30
0.0
 10
6.599042951
 20
3.3446785827
 30
0.0
 10
6.5990615723
 20
3.345145822
 30
0.0
 10
6.599074904
 20
3.3453916483
 30
0.0
  0
SPLINE
  5
3A9
100
AcDbEntity
  8
0
100
AcDbSpline
 62
7
  6
CONTINUOUS
 70
0
 71
3
 72
23
 73
19
 74
0
 42
0.0000001
 43
0.0000001
 44
0.0000000001
 40
0.0
 40
0.0
 40
0.0
 40
0.0
 40
0.0111441726
 40
0.0227882883
 40
0.0352634137
 40
0.0488340722
 40
0.0799681491
 40
0.1172411725
 40
0.1610855309
 40
0.2116024955
 40
0.268679851
 40
0.3320520472
 40
0.4013313991
 40
0.4760256841
 40
0.5555505641
 40
0.6392394503
 40
0.8160786623
 40
1.0
 40
1.0
 40
1.0
 40
1.0
 10
6.6009163211
 20
3.2580115176
 30
0.0
 10
6.6008855921
 20
3.2580133839
 30
0.0
 10
6.6008229893
 20
3.2580234818
 30
0.0
 10
6.6007309113
 20
3.2580567105
 30
0.0
 10
6.6006397436
 20
3.2581078479
 30
0.0
 10
6.6005138608
 20
3.2582039648
 30
0.0
 10
6.6003605435
 20
3.2583729219
 30
0.0
 10
6.6001906722
 20
3.2586332413
 30
0.0
 10
6.6000274199
 20
3.2589588588
 30
0.0
 10
6.599872132
 20
3.2593477082
 30
0.0
 10
6.5997261584
 20
3.259797165
 30
0.0
 10
6.5995909532
 20
3.2603037563
 30
0.0
 10
6.5994678992
 20
3.2608633343
 30
0.0
 10
6.5993583056
 20
3.2614710709
 30
0.0
 10
6.5992633565
 20
3.2621215052
 30
0.0
 10
6.5991557653
 20
3.2630548323
 30
0.0
 10
6.5990664575
 20
3.2642799579
 30
0.0
 10
6.5990427914
 20
3.2652767037
 30
0.0
 10
6.5990427914
 20
3.2657847826
 30
0.0
  0
SPLINE
  5
3AA
100
AcDbEntity
  8
0
100
AcDbSpline
 62
7
  6
CONTINUOUS
 70
0
 71
3
 72
28
 73
24
 74
0
 42
0.0000001
 43
0.0000001
 44
0.0000000001
 40
0.0
 40
0.0
 40
0.0
 40
0.0
 40
0.0023530076
 40
0.0048443362
 40
0.0076140815
 40
0.0107648348
 40
0.0184547492
 40
0.0282453772
 40
0.0402688202
 40
0.0545751946
 40
0.0711731581
 40
0.0900439824
 40
0.1111524957
 40
0.1344478357
 40
0.1873421489
 40
0.2481215682
 40
0.3160450113
 40
0.3902611793
 40
0.4698281717
 40
0.5537313774
 40
0.6409023638
 40
0.8206102638
 40
1.0
 40
1.0
 40
1.0
 40
1.0
 10
6.5912139732
 20
3.3101936838
 30
0.0
 10
6.5912068235
 20
3.310194127
 30
0.0
 10
6.5911921599
 20
3.3101971005
 30
0.0
 10
6.5911712394
 20
3.3102075744
 30
0.0
 10
6.591151235
 20
3.3102238187
 30
0.0
 10
6.5911238648
 20
3.3102551242
 30
0.0
 10
6.5910925238
 20
3.3103101347
 30
0.0
 10
6.5910598634
 20
3.310393943
 30
0.0
 10
6.5910299192
 20
3.3104998945
 30
0.0
 10
6.5910028135
 20
3.310627801
 30
0.0
 10
6.5909786736
 20
3.3107774483
 30
0.0
 10
6.5909576094
 20
3.3109484277
 30
0.0
 10
6.590939717
 20
3.3111402494
 30
0.0
 10
6.5909193338
 20
3.3114357812
 30
0.0
 10
6.5909035016
 20
3.3118525593
 30
0.0
 10
6.59089841
 20
3.3124054354
 30
0.0
 10
6.5909067956
 20
3.3130231842
 30
0.0
 10
6.5909285906
 20
3.3136978211
 30
0.0
 10
6.5909635595
 20
3.3144206075
 30
0.0
 10
6.5910112542
 20
3.3151821831
 30
0.0
 10
6.5910918391
 20
3.3162470727
 30
0.0
 10
6.5912191014
 20
3.3175998344
 30
0.0
 10
6.5913461849
 20
3.3186857621
 30
0.0
 10
6.5914162913
 20
3.3192273719
 30
0.0
  0
SPLINE
  5
3AB
100
AcDbEntity
  8
0
100
AcDbSpline
 62
7
  6
CONTINUOUS
 70
0
 71
3
 72
116
 73
112
 74
0
 42
0.0000001
 43
0.0000001
 44
0.0000000001
 40
0.0
 40
0.0
 40
0.0
 40
0.0
 40
0.0259688909
 40
0.0399549928
 40
0.0545134024
 40
0.0695827778
 40
0.0851082695
 40
0.1173403922
 40
0.150885832
 40
0.1854891778
 40
0.2031222806
 40
0.2209467868
 40
0.2389432126
 40
0.2570939748
 40
0.2753829719
 40
0.2937954571
 40
0.3030437899
 40
0.3123180402
 40
0.321616665
 40
0.3309382744
 40
0.3402814164
 40
0.3496447832
 40
0.3590270727
 40
0.3684270652
 40
0.3778435342
 40
0.3872754346
 40
0.3967215014
 40
0.4061806705
 40
0.415651823
 40
0.425133666
 40
0.4346247866
 40
0.4393740439
 40
0.444125081
 40
0.448877678
 40
0.4536315728
 40
0.4583864004
 40
0.4631419863
 40
0.4655200031
 40
0.4678980085
 40
0.4726538187
 40
0.4774092131
 40
0.4821638265
 40
0.4869174662
 40
0.4916696765
 40
0.4964203034
 40
0.5011690287
 40
0.5059157884
 40
0.5106602596
 40
0.5154020952
 40
0.5201413843
 40
0.5248780415
 40
0.5296116947
 40
0.534342272
 40
0.5390695345
 40
0.5485139612
 40
0.5579440405
 40
0.5673585593
 40
0.5767563805
 40
0.5814487591
 40
0.5861364938
 40
0.5954974588
 40
0.604838055
 40
0.6141568987
 40
0.6234526428
 40
0.6327237642
 40
0.6511860674
 40
0.6695309793
 40
0.6877443442
 40
0.7058106291
 40
0.7237129282
 40
0.7414326172
 40
0.77623938
 40
0.8100370021
 40
0.8425824868
 40
0.8582927795
 40
0.873568776
 40
0.8883586852
 40
0.9026042182
 40
0.9162392568
 40
0.9291900904
 40
0.9413738521
 40
0.9526996191
 40
0.9630677501
 40
0.9678598101
 40
0.9723721763
 40
0.9765908017
 40
0.9805021038
 40
0.9840923685
 40
0.9873477252
 40
0.990254998
 40
0.9928024818
 40
0.9939378899
 40
0.9949792503
 40
0.995925243
 40
0.996774693
 40
0.9975264664
 40
0.9981797237
 40
0.9987338992
 40
0.9989736581
 40
0.9991884408
 40
0.9993781806
 40
0.9995428108
 40
0.9996822645
 40
0.9997964784
 40
0.9998854036
 40
0.999920369
 40
0.9999489955
 40
0.9999712774
 40
0.9999872092
 40
0.9999967853
 40
1.0
 40
1.0
 40
1.0
 40
1.0
 10
7.2954183332
 20
3.0955229047
 30
0.0
 10
7.2917890912
 20
3.0983723743
 30
0.0
 10
7.2862027288
 20
3.1027532864
 30
0.0
 10
7.2785745051
 20
3.1087223526
 30
0.0
 10
7.2724677658
 20
3.1134931982
 30
0.0
 10
7.2661406771
 20
3.1184262768
 30
0.0
 10
7.2573300523
 20
3.1252812364
 30
0.0
 10
7.2459118025
 20
3.1341307321
 30
0.0
 10
7.2317795239
 20
3.1450118383
 30
0.0
 10
7.219662288
 20
3.1542579344
 30
0.0
 10
7.2097319187
 20
3.1617649401
 30
0.0
 10
7.2021346519
 20
3.1674649895
 30
0.0
 10
7.1944387228
 20
3.1731866645
 30
0.0
 10
7.1866458764
 20
3.1789161154
 30
0.0
 10
7.1787553319
 20
3.1846371601
 30
0.0
 10
7.1721060947
 20
3.1893751106
 30
0.0
 10
7.1667311712
 20
3.1931406895
 30
0.0
 10
7.1626656292
 20
3.1959528409
 30
0.0
 10
7.1585697348
 20
3.1987438033
 30
0.0
 10
7.1544417578
 20
3.2015091717
 30
0.0
 10
7.1502787942
 20
3.204242641
 30
0.0
 10
7.1460777192
 20
3.2069372433
 30
0.0
 10
7.1418346516
 20
3.2095844394
 30
0.0
 10
7.1375448283
 20
3.2121736021
 30
0.0
 10
7.1332024839
 20
3.2146914878
 30
0.0
 10
7.1288005752
 20
3.2171210051
 30
0.0
 10
7.124331425
 20
3.219441439
 30
0.0
 10
7.1197870087
 20
3.2216275616
 30
0.0
 10
7.1151583501
 20
3.2236463936
 30
0.0
 10
7.1104366824
 20
3.2254544563
 30
0.0
 10
7.1064209121
 20
3.2267443019
 30
0.0
 10
7.1031612635
 20
3.2276191123
 30
0.0
 10
7.1006931415
 20
3.2281890868
 30
0.0
 10
7.0982038279
 20
3.2286627433
 30
0.0
 10
7.0956966581
 20
3.2290352998
 30
0.0
 10
7.093175605
 20
3.2293031438
 30
0.0
 10
7.0910666657
 20
3.2294358456
 30
0.0
 10
7.0893771909
 20
3.2294845082
 30
0.0
 10
7.0876869909
 20
3.2294932793
 30
0.0
 10
7.0855746589
 20
3.2294305867
 30
0.0
 10
7.0830458148
 20
3.2292467404
 30
0.0
 10
7.0805274817
 20
3.2289550889
 30
0.0
 10
7.0780242667
 20
3.2285576921
 30
0.0
 10
7.0755401829
 20
3.2280583394
 30
0.0
 10
7.0730775862
 20
3.2274661937
 30
0.0
 10
7.070637809
 20
3.2267900702
 30
0.0
 10
7.0682214995
 20
3.2260382771
 30
0.0
 10
7.0658292709
 20
3.2252169341
 30
0.0
 10
7.0634620538
 20
3.2243299582
 30
0.0
 10
7.0611192712
 20
3.2233842102
 30
0.0
 10
7.0587989651
 20
3.2223884133
 30
0.0
 10
7.0564997682
 20
3.2213486151
 30
0.0
 10
7.0542214521
 20
3.2202677462
 30
0.0
 10
7.0512117777
 20
3.2187768032
 30
0.0
 10
7.0474972433
 20
3.2168291313
 30
0.0
 10
7.0431022494
 20
3.2143892541
 30
0.0
 10
7.0387660297
 20
3.2118629192
 30
0.0
 10
7.035194886
 20
3.209697162
 30
0.0
 10
7.0323609783
 20
3.2079361037
 30
0.0
 10
7.0295440686
 20
3.2061602273
 30
0.0
 10
7.0260488316
 20
3.2039118323
 30
0.0
 10
7.0218901317
 20
3.2011743839
 30
0.0
 10
7.0177661126
 20
3.1984057262
 30
0.0
 10
7.0136743464
 20
3.195611481
 30
0.0
 10
7.0082660304
 20
3.1918645684
 30
0.0
 10
7.0015778767
 20
3.1871419531
 30
0.0
 10
6.9936436623
 20
3.1814302507
 30
0.0
 10
6.9858080945
 20
3.1757024423
 30
0.0
 10
6.9780694725
 20
3.1699756036
 30
0.0
 10
6.9704284881
 20
3.1642644915
 30
0.0
 10
6.9604345839
 20
3.156733179
 30
0.0
 10
6.9482301798
 20
3.1474425064
 30
0.0
 10
6.9339802565
 20
3.136490238
 30
0.0
 10
6.9224512268
 20
3.127566039
 30
0.0
 10
6.9135380479
 20
3.1206389625
 30
0.0
 10
6.9071215174
 20
3.1156405933
 30
0.0
 10
6.9009151683
 20
3.1107959278
 30
0.0
 10
6.8949425251
 20
3.1061257184
 30
0.0
 10
6.8892308796
 20
3.1016522185
 30
0.0
 10
6.8838102565
 20
3.0974012712
 30
0.0
 10
6.8787150309
 20
3.0934003108
 30
0.0
 10
6.8739824372
 20
3.0896805894
 30
0.0
 10
6.8702838136
 20
3.086770719
 30
0.0
 10
6.8675371981
 20
3.0846086981
 30
0.0
 10
6.8656494238
 20
3.0831221694
 30
0.0
 10
6.8638849271
 20
3.0817320438
 30
0.0
 10
6.8622492492
 20
3.0804431583
 30
0.0
 10
6.8607480486
 20
3.0792601505
 30
0.0
 10
6.8593871241
 20
3.0781873627
 30
0.0
 10
6.8581719525
 20
3.0772289699
 30
0.0
 10
6.8572525905
 20
3.0765037767
 30
0.0
 10
6.8565934645
 20
3.0759839983
 30
0.0
 10
6.8561577781
 20
3.0756404213
 30
0.0
 10
6.855762006
 20
3.0753282842
 30
0.0
 10
6.8554066731
 20
3.0750479627
 30
0.0
 10
6.8550922483
 20
3.0747997655
 30
0.0
 10
6.8548190675
 20
3.0745839954
 30
0.0
 10
6.8546172866
 20
3.0744246047
 30
0.0
 10
6.8544766127
 20
3.0743135436
 30
0.0
 10
6.8543867474
 20
3.0742426265
 30
0.0
 10
6.854307346
 20
3.0741799979
 30
0.0
 10
6.8542384373
 20
3.0741256794
 30
0.0
 10
6.8541800514
 20
3.0740796885
 30
0.0
 10
6.8541322107
 20
3.0740420495
 30
0.0
 10
6.8540989528
 20
3.0740158988
 30
0.0
 10
6.8540776328
 20
3.0739991724
 30
0.0
 10
6.8540656435
 20
3.0739897303
 30
0.0
 10
6.8540562629
 20
3.0739824579
 30
0.0
 10
6.8540496603
 20
3.0739770911
 30
0.0
 10
6.8540455002
 20
3.073974171
 30
0.0
 10
6.8540438573
 20
3.073972536
 30
0.0
 10
6.8540433453
 20
3.0739722826
 30
0.0
  0
LINE
  5
3AC
100
AcDbEntity
  8
0
100
AcDbLine
 62
7
  6
CONTINUOUS
 10
6.599074904
 20
3.1636338528
 11
6.5991833366
 21
3.1638020253
  0
SPLINE
  5
3AD
100
AcDbEntity
  8
0
100
AcDbSpline
 62
7
  6
CONTINUOUS
 70
0
 71
3
 72
17
 73
13
 74
0
 42
0.0000001
 43
0.0000001
 44
0.0000000001
 40
0.0
 40
0.0
 40
0.0
 40
0.0
 40
0.2020608826
 40
0.3808306628
 40
0.5358863001
 40
0.6673679002
 40
0.7760976541
 40
0.8225686203
 40
0.8642975011
 40
0.9360589811
 40
0.9683807291
 40
1.0
 40
1.0
 40
1.0
 40
1.0
 10
6.599074904
 20
3.1881916563
 30
0.0
 10
6.5990830538
 20
3.1882947229
 30
0.0
 10
6.5991020246
 20
3.1884887302
 30
0.0
 10
6.5991420569
 20
3.1887601176
 30
0.0
 10
6.5991916513
 20
3.1889932089
 30
0.0
 10
6.599250474
 20
3.1891869976
 30
0.0
 10
6.5993096647
 20
3.1893218818
 30
0.0
 10
6.5993629357
 20
3.1894076806
 30
0.0
 10
6.5994136919
 20
3.1894719224
 30
0.0
 10
6.5994720675
 20
3.1895211937
 30
0.0
 10
6.5995367943
 20
3.1895476592
 30
0.0
 10
6.5995693644
 20
3.1895531585
 30
0.0
 10
6.5995855152
 20
3.1895541075
 30
0.0
  0
SPLINE
  5
3AE
100
AcDbEntity
  8
0
100
AcDbSpline
 62
7
  6
CONTINUOUS
 70
0
 71
3
 72
20
 73
16
 74
0
 42
0.0000001
 43
0.0000001
 44
0.0000000001
 40
0.0
 40
0.0
 40
0.0
 40
0.0
 40
0.1996700475
 40
0.3799621659
 40
0.5386763592
 40
0.6094405924
 40
0.6742938151
 40
0.7331822127
 40
0.7861299902
 40
0.8332629243
 40
0.8748506909
 40
0.9113609448
 40
0.943553913
 40
0.9725760528
 40
1.0
 40
1.0
 40
1.0
 40
1.0
 10
6.599074904
 20
3.22456231
 30
0.0
 10
6.5990886613
 20
3.2248201264
 30
0.0
 10
6.5991240509
 20
3.2253103417
 30
0.0
 10
6.5992065455
 20
3.2260022374
 30
0.0
 10
6.5992994833
 20
3.2265243419
 30
0.0
 10
6.5993883031
 20
3.2268945255
 30
0.0
 10
6.5994580469
 20
3.2271362741
 30
0.0
 10
6.5995331705
 20
3.2273521786
 30
0.0
 10
6.5996133879
 20
3.2275416312
 30
0.0
 10
6.5996984293
 20
3.2277041631
 30
0.0
 10
6.5997880747
 20
3.2278394518
 30
0.0
 10
6.5998822534
 20
3.2279472489
 30
0.0
 10
6.5999811137
 20
3.2280272481
 30
0.0
 10
6.6000847515
 20
3.2280786619
 30
0.0
 10
6.6001573689
 20
3.2280931301
 30
0.0
 10
6.6001927688
 20
3.2280952027
 30
0.0
  0
LINE
  5
3AF
100
AcDbEntity
  8
0
100
AcDbLine
 62
7
  6
CONTINUOUS
 10
6.5925435299
 20
3.2069147416
 11
6.5924425823
 21
3.2071439475
  0
SPLINE
  5
3B0
100
AcDbEntity
  8
0
100
AcDbSpline
 62
7
  6
CONTINUOUS
 70
0
 71
3
 72
24
 73
20
 74
0
 42
0.0000001
 43
0.0000001
 44
0.0000000001
 40
0.0
 40
0.0
 40
0.0
 40
0.0
 40
0.0159775457
 40
0.0344830094
 40
0.0554386026
 40
0.0787464696
 40
0.1319500291
 40
0.193035569
 40
0.2607645898
 40
0.3337506475
 40
0.4893548765
 40
0.64679118
 40
0.7219448899
 40
0.7924982115
 40
0.8568921749
 40
0.9137125017
 40
0.9617376677
 40
0.9821387905
 40
1.0
 40
1.0
 40
1.0
 40
1.0
 10
6.5924425823
 20
3.2071439475
 30
0.0
 10
6.5924162008
 20
3.2072120098
 30
0.0
 10
6.5923635485
 20
3.2073605671
 30
0.0
 10
6.5922882768
 20
3.2076024464
 30
0.0
 10
6.5922112914
 20
3.2078787287
 30
0.0
 10
6.5921020775
 20
3.2083104568
 30
0.0
 10
6.5919663862
 20
3.2089244137
 30
0.0
 10
6.5918096264
 20
3.2097411609
 30
0.0
 10
6.5916561164
 20
3.2106503234
 30
0.0
 10
6.5914559687
 20
3.2119892984
 30
0.0
 10
6.5912394159
 20
3.2137398948
 30
0.0
 10
6.5910734043
 20
3.2155059378
 30
0.0
 10
6.5909774866
 20
3.216887639
 30
0.0
 10
6.5909282848
 20
3.2178463196
 30
0.0
 10
6.5909016462
 20
3.218722124
 30
0.0
 10
6.590898104
 20
3.2194954021
 30
0.0
 10
6.5909147024
 20
3.2200675758
 30
0.0
 10
6.5909417202
 20
3.2204609144
 30
0.0
 10
6.5909593947
 20
3.2206348792
 30
0.0
 10
6.5909695297
 20
3.2207158495
 30
0.0
  0
LINE
  5
3B1
100
AcDbEntity
  8
0
100
AcDbLine
 62
7
  6
CONTINUOUS
 10
6.5909695297
 20
3.2207158495
 11
6.5912141043
 21
3.2213758889
  0
LINE
  5
3B2
100
AcDbEntity
  8
0
100
AcDbLine
 62
7
  6
CONTINUOUS
 10
7.3007167313
 20
3.068448085
 11
7.2954183082
 21
3.095522952
  0
LINE
  5
3B3
100
AcDbEntity
  8
0
100
AcDbLine
 62
7
  6
CONTINUOUS
 10
6.5927539265
 20
3.206684959
 11
6.5925435299
 21
3.2069147416
  0
SPLINE
  5
3B4
100
AcDbEntity
  8
0
100
AcDbSpline
 62
7
  6
CONTINUOUS
 70
0
 71
3
 72
21
 73
17
 74
0
 42
0.0000001
 43
0.0000001
 44
0.0000000001
 40
0.0
 40
0.0
 40
0.0
 40
0.0
 40
0.0111679009
 40
0.0226292921
 40
0.0476543645
 40
0.0772181293
 40
0.1125322713
 40
0.1542203071
 40
0.2025443626
 40
0.2575376081
 40
0.3190749141
 40
0.3869107644
 40
0.460701548
 40
0.6243483723
 40
0.8058058513
 40
1.0
 40
1.0
 40
1.0
 40
1.0
 10
6.600192159
 20
3.3034743972
 30
0.0
 10
6.6001679683
 20
3.3034758515
 30
0.0
 10
6.6001191094
 20
3.3034834147
 30
0.0
 10
6.600021045
 20
3.3035178058
 30
0.0
 10
6.5999007201
 20
3.3036000321
 30
0.0
 10
6.5997714425
 20
3.3037478291
 30
0.0
 10
6.5996510432
 20
3.3039462303
 30
0.0
 10
6.5995396636
 20
3.3041948736
 30
0.0
 10
6.5994377025
 20
3.3044929074
 30
0.0
 10
6.5993459106
 20
3.3048389022
 30
0.0
 10
6.5992650185
 20
3.3052308853
 30
0.0
 10
6.599195705
 20
3.3056663998
 30
0.0
 10
6.5991168564
 20
3.306324267
 30
0.0
 10
6.5990545459
 20
3.307231729
 30
0.0
 10
6.599034178
 20
3.3084022041
 30
0.0
 10
6.5990556602
 20
3.30921737
 30
0.0
 10
6.599074904
 20
3.3096383326
 30
0.0
  0
SPLINE
  5
3B5
100
AcDbEntity
  8
0
100
AcDbSpline
 62
7
  6
CONTINUOUS
 70
0
 71
3
 72
22
 73
18
 74
0
 42
0.0000001
 43
0.0000001
 44
0.0000000001
 40
0.0
 40
0.0
 40
0.0
 40
0.0
 40
0.1320451943
 40
0.1977995755
 40
0.2631680293
 40
0.328042422
 40
0.3923308697
 40
0.4559619606
 40
0.5188876827
 40
0.5810859845
 40
0.6425624853
 40
0.7033512192
 40
0.7635142859
 40
0.823140004
 40
0.8823404147
 40
0.9412453025
 40
1.0
 40
1.0
 40
1.0
 40
1.0
 10
7.2954183332
 20
3.0955229069
 30
0.0
 10
7.2961527126
 20
3.0955229057
 30
0.0
 10
7.297256025
 20
3.0956189704
 30
0.0
 10
7.2986860712
 20
3.095936711
 30
0.0
 10
7.2997265865
 20
3.0962668038
 30
0.0
 10
7.3007256347
 20
3.0966857941
 30
0.0
 10
7.3016738166
 20
3.0971897083
 30
0.0
 10
7.3025619613
 20
3.0977737481
 30
0.0
 10
7.3033815251
 20
3.0984323525
 30
0.0
 10
7.3041245893
 20
3.0991592406
 30
0.0
 10
7.3047839568
 20
3.099947469
 30
0.0
 10
7.3053532175
 20
3.1007894894
 30
0.0
 10
7.3058268132
 20
3.1016772203
 30
0.0
 10
7.3062001033
 20
3.1026021001
 30
0.0
 10
7.3064694053
 20
3.1035552334
 30
0.0
 10
7.3066320659
 20
3.1045272288
 30
0.0
 10
7.3066683459
 20
3.1051821763
 30
0.0
 10
7.3066683453
 20
3.1055089451
 30
0.0
  0
SPLINE
  5
3B6
100
AcDbEntity
  8
0
100
AcDbSpline
 62
7
  6
CONTINUOUS
 70
0
 71
3
 72
19
 73
15
 74
0
 42
0.0000001
 43
0.0000001
 44
0.0000000001
 40
0.0
 40
0.0
 40
0.0
 40
0.0
 40
0.0193419875
 40
0.04042583
 40
0.065612198
 40
0.096319393
 40
0.1333262196
 40
0.1770545131
 40
0.2277287096
 40
0.2854712959
 40
0.4222774177
 40
0.5873854876
 40
0.7802693267
 40
1.0
 40
1.0
 40
1.0
 40
1.0
 10
6.5991832874
 20
3.3677675456
 30
0.0
 10
6.599174888
 20
3.3677680468
 30
0.0
 10
6.5991573487
 20
3.367772755
 30
0.0
 10
6.5991343967
 20
3.3677906273
 30
0.0
 10
6.5991146161
 20
3.3678180009
 30
0.0
 10
6.5990973865
 20
3.3678547261
 30
0.0
 10
6.5990825083
 20
3.3679009612
 30
0.0
 10
6.5990699429
 20
3.3679567858
 30
0.0
 10
6.5990596966
 20
3.368022212
 30
0.0
 10
6.5990485526
 20
3.3681283421
 30
0.0
 10
6.5990417651
 20
3.3682847831
 30
0.0
 10
6.5990432752
 20
3.3685000792
 30
0.0
 10
6.5990542732
 20
3.3687512103
 30
0.0
 10
6.5990670925
 20
3.3689302708
 30
0.0
 10
6.599074904
 20
3.3690255404
 30
0.0
  0
LINE
  5
3B7
100
AcDbEntity
  8
0
100
AcDbLine
 62
7
  6
CONTINUOUS
 10
6.6027041229
 20
3.1482516439
 11
6.6022846182
 21
3.1488644354
  0
SPLINE
  5
3B8
100
AcDbEntity
  8
0
100
AcDbSpline
 62
7
  6
CONTINUOUS
 70
0
 71
3
 72
24
 73
20
 74
0
 42
0.0000001
 43
0.0000001
 44
0.0000000001
 40
0.0
 40
0.0
 40
0.0
 40
0.0
 40
0.0180425708
 40
0.0386312603
 40
0.0869676214
 40
0.1439293205
 40
0.2082753608
 40
0.2786474152
 40
0.3535943509
 40
0.5110260104
 40
0.6675956505
 40
0.7413154353
 40
0.8097206695
 40
0.8711802471
 40
0.9241925484
 40
0.947116877
 40
0.9674648797
 40
0.9851218236
 40
1.0
 40
1.0
 40
1.0
 40
1.0
 10
6.6022846182
 20
3.1488644354
 30
0.0
 10
6.6022479049
 20
3.1489460806
 30
0.0
 10
6.602172855
 20
3.1491224961
 30
0.0
 10
6.6020152466
 20
3.1495242196
 30
0.0
 10
6.6018070923
 20
3.1501132877
 30
0.0
 10
6.6015497198
 20
3.1509147496
 30
0.0
 10
6.601279158
 20
3.151826559
 30
0.0
 10
6.601001233
 20
3.1528290662
 30
0.0
 10
6.6006225579
 20
3.1542827282
 30
0.0
 10
6.6001757581
 20
3.1561603416
 30
0.0
 10
6.5997785297
 20
3.1580428621
 30
0.0
 10
6.5995050672
 20
3.159499469
 30
0.0
 10
6.5993354932
 20
3.1604952995
 30
0.0
 10
6.5992013846
 20
3.1613927599
 30
0.0
 10
6.5991180659
 20
3.1620694872
 30
0.0
 10
6.5990735375
 20
3.1625451646
 30
0.0
 10
6.5990524776
 20
3.1628467756
 30
0.0
 10
6.5990421593
 20
3.1631089978
 30
0.0
 10
6.5990424125
 20
3.1632705092
 30
0.0
 10
6.599044955
 20
3.1633442848
 30
0.0
  0
LINE
  5
3B9
100
AcDbEntity
  8
0
100
AcDbLine
 62
7
  6
CONTINUOUS
 10
6.599044955
 20
3.1633442848
 11
6.599074904
 21
3.1636338528
  0
SPLINE
  5
3BA
100
AcDbEntity
  8
0
100
AcDbSpline
 62
7
  6
CONTINUOUS
 70
0
 71
3
 72
31
 73
27
 74
0
 42
0.0000001
 43
0.0000001
 44
0.0000000001
 40
0.0
 40
0.0
 40
0.0
 40
0.0
 40
0.0078424132
 40
0.0124122612
 40
0.0175243224
 40
0.0232337401
 40
0.0295759673
 40
0.0442325406
 40
0.0615772906
 40
0.0815986571
 40
0.1042352364
 40
0.1293927568
 40
0.1569529068
 40
0.1867787575
 40
0.2526007046
 40
0.3254860056
 40
0.4038691826
 40
0.4860166438
 40
0.5700453167
 40
0.6539484378
 40
0.73564093
 40
0.8130225319
 40
0.8840639672
 40
0.9469089237
 40
0.9747588649
 40
1.0
 40
1.0
 40
1.0
 40
1.0
 10
6.6022793603
 20
3.1740053183
 30
0.0
 10
6.6022406867
 20
3.1740077172
 30
0.0
 10
6.602180285
 20
3.1740265182
 30
0.0
 10
6.6021054844
 20
3.1740701395
 30
0.0
 10
6.6020448055
 20
3.1741163356
 30
0.0
 10
6.6019826955
 20
3.1741742088
 30
0.0
 10
6.6018935203
 20
3.1742716357
 30
0.0
 10
6.6017799356
 20
3.1744237835
 30
0.0
 10
6.601644486
 20
3.1746424581
 30
0.0
 10
6.6015048052
 20
3.1749041396
 30
0.0
 10
6.6013617296
 20
3.1752072319
 30
0.0
 10
6.60121613
 20
3.1755499783
 30
0.0
 10
6.6010688691
 20
3.1759303596
 30
0.0
 10
6.6008647107
 20
3.1765039163
 30
0.0
 10
6.6006139568
 20
3.1772982444
 30
0.0
 10
6.6003288161
 20
3.1783324434
 30
0.0
 10
6.6000573037
 20
3.1794534695
 30
0.0
 10
6.5998060463
 20
3.1806355306
 30
0.0
 10
6.5995814119
 20
3.1818506802
 30
0.0
 10
6.5993892847
 20
3.1830691207
 30
0.0
 10
6.5992348997
 20
3.184259818
 30
0.0
 10
6.5991225377
 20
3.1853914142
 30
0.0
 10
6.5990554019
 20
3.1864333053
 30
0.0
 10
6.5990376398
 20
3.1872325997
 30
0.0
 10
6.5990502505
 20
3.1878053593
 30
0.0
 10
6.5990650733
 20
3.1880673327
 30
0.0
 10
6.599074904
 20
3.1881916563
 30
0.0
  0
SPLINE
  5
3BB
100
AcDbEntity
  8
0
100
AcDbSpline
 62
7
  6
CONTINUOUS
 70
0
 71
3
 72
152
 73
148
 74
0
 42
0.0000001
 43
0.0000001
 44
0.0000000001
 40
0.0
 40
0.0
 40
0.0
 40
0.0
 40
0.0000009773
 40
0.0000038958
 40
0.0000087539
 40
0.0000155503
 40
0.0000349519
 40
0.0000620889
 40
0.0000969496
 40
0.0001395224
 40
0.0001897955
 40
0.0002477574
 40
0.0003867024
 40
0.0005562917
 40
0.0007564823
 40
0.0009872322
 40
0.0012484988
 40
0.0015402166
 40
0.0022144358
 40
0.0030086797
 40
0.0039216947
 40
0.0049521749
 40
0.0060987159
 40
0.0073595393
 40
0.0087327722
 40
0.0102165297
 40
0.0118089169
 40
0.0153112076
 40
0.0192216795
 40
0.02352203
 40
0.0281935844
 40
0.0332172309
 40
0.0385738642
 40
0.0442451617
 40
0.0502130329
 40
0.056459908
 40
0.0697246905
 40
0.0839154959
 40
0.0989213674
 40
0.1146443364
 40
0.130998581
 40
0.1479090137
 40
0.1653102968
 40
0.183145373
 40
0.2013643493
 40
0.2199236009
 40
0.2387847476
 40
0.2579138675
 40
0.2772808965
 40
0.2968590965
 40
0.3166244514
 40
0.3365553433
 40
0.3566323278
 40
0.366720135
 40
0.3768380538
 40
0.3869841472
 40
0.3971566111
 40
0.4073536365
 40
0.4175736472
 40
0.4278151535
 40
0.4380766602
 40
0.4432149053
 40
0.4483576589
 40
0.4535049587
 40
0.4586566322
 40
0.4638124831
 40
0.4689724451
 40
0.474136271
 40
0.4793036505
 40
0.4844741938
 40
0.4870610225
 40
0.4896485017
 40
0.4922365091
 40
0.4948249143
 40
0.49741363
 40
0.5000024453
 40
0.5051784769
 40
0.5103535343
 40
0.5155266756
 40
0.5206972194
 40
0.5258645983
 40
0.5310284053
 40
0.5361883365
 40
0.541344158
 40
0.546495863
 40
0.5516431236
 40
0.5567858693
 40
0.5619240847
 40
0.5721856057
 40
0.5824270546
 40
0.5926470602
 40
0.5977486393
 40
0.6028442181
 40
0.6130166183
 40
0.6231626971
 40
0.633280634
 40
0.6433684295
 40
0.6634453822
 40
0.6833762567
 40
0.7031415854
 40
0.7227197618
 40
0.7420867946
 40
0.761215917
 40
0.7800770663
 40
0.7986363129
 40
0.8168552902
 40
0.8346903678
 40
0.8520916491
 40
0.8690020853
 40
0.8853563327
 40
0.9010793147
 40
0.9160851843
 40
0.9302759886
 40
0.943540773
 40
0.9557554981
 40
0.9614268086
 40
0.966783599
 40
0.9718071493
 40
0.9764784921
 40
0.9807788989
 40
0.9846896061
 40
0.9881916276
 40
0.9897838992
 40
0.9912676299
 40
0.9926409101
 40
0.9939018329
 40
0.9950484921
 40
0.9960790453
 40
0.9969919593
 40
0.9977858251
 40
0.9984595907
 40
0.9987511805
 40
0.9990124404
 40
0.9992432758
 40
0.9994435945
 40
0.9996133044
 40
0.9997523137
 40
0.9998102804
 40
0.9998605453
 40
0.9999031013
 40
0.9999379413
 40
0.9999650583
 40
0.9999844451
 40
0.9999912375
 40
0.9999960947
 40
0.9999990158
 40
1.0
 40
1.0
 40
1.0
 40
1.0
 10
7.2759183453
 20
3.0270967758
 30
0.0
 10
7.2759182844
 20
3.0270969428
 30
0.0
 10
7.2759177181
 20
3.0270974266
 30
0.0
 10
7.2759168352
 20
3.0270987324
 30
0.0
 10
7.2759151033
 20
3.0271007586
 30
0.0
 10
7.2759115925
 20
3.0271051775
 30
0.0
 10
7.2759054606
 20
3.0271127079
 30
0.0
 10
7.2758961566
 20
3.02712423
 30
0.0
 10
7.2758841728
 20
3.0271390125
 30
0.0
 10
7.275869538
 20
3.0271570639
 30
0.0
 10
7.2758522429
 20
3.0271783708
 30
0.0
 10
7.275823881
 20
3.0272132815
 30
0.0
 10
7.2757817879
 20
3.027265011
 30
0.0
 10
7.2757233159
 20
3.0273367801
 30
0.0
 10
7.2756542718
 20
3.0274214842
 30
0.0
 10
7.2755746824
 20
3.0275191152
 30
0.0
 10
7.2754845789
 20
3.0276296634
 30
0.0
 10
7.2753435195
 20
3.0278027874
 30
0.0
 10
7.2751412226
 20
3.0280511199
 30
0.0
 10
7.2748674855
 20
3.0283870789
 30
0.0
 10
7.2745527408
 20
3.0287732493
 30
0.0
 10
7.2741974957
 20
3.029209114
 30
0.0
 10
7.2738022978
 20
3.0296940657
 30
0.0
 10
7.2733676791
 20
3.030227351
 30
0.0
 10
7.2728942197
 20
3.030808143
 30
0.0
 10
7.2723825812
 20
3.0314356541
 30
0.0
 10
7.271626114
 20
3.0323634284
 30
0.0
 10
7.270590592
 20
3.0336334472
 30
0.0
 10
7.2692433165
 20
3.035285084
 30
0.0
 10
7.2677612664
 20
3.0371013652
 30
0.0
 10
7.2661509075
 20
3.0390743935
 30
0.0
 10
7.2644186447
 20
3.0411960331
 30
0.0
 10
7.262570717
 20
3.0434580956
 30
0.0
 10
7.2606136597
 20
3.0458528743
 30
0.0
 10
7.2585535148
 20
3.0483726202
 30
0.0
 10
7.2556177318
 20
3.0519612954
 30
0.0
 10
7.2517324291
 20
3.0567064452
 30
0.0
 10
7.2468334421
 20
3.0626816047
 30
0.0
 10
7.2416459675
 20
3.0689986797
 30
0.0
 10
7.2362026581
 20
3.0756150745
 30
0.0
 10
7.2305321181
 20
3.08249331
 30
0.0
 10
7.2246585881
 20
3.0895999985
 30
0.0
 10
7.2186031504
 20
3.0969059226
 30
0.0
 10
7.2123834126
 20
3.1043849277
 30
0.0
 10
7.2060139615
 20
3.1120134666
 30
0.0
 10
7.1995068732
 20
3.1197702958
 30
0.0
 10
7.1928715237
 20
3.1276356618
 30
0.0
 10
7.1861145515
 20
3.1355906697
 30
0.0
 10
7.1792398387
 20
3.1436167676
 30
0.0
 10
7.1722483181
 20
3.151695097
 30
0.0
 10
7.1651369118
 20
3.1598051243
 30
0.0
 10
7.1578974819
 20
3.1679231659
 30
0.0
 10
7.1517553036
 20
3.1746595988
 30
0.0
 10
7.1467555445
 20
3.1800202409
 30
0.0
 10
7.1429524073
 20
3.184025518
 30
0.0
 10
7.1390961068
 20
3.1880011745
 30
0.0
 10
7.1351789538
 20
3.1919373109
 30
0.0
 10
7.1311902481
 20
3.1958203686
 30
0.0
 10
7.127117042
 20
3.1996333316
 30
0.0
 10
7.1229435512
 20
3.2033542461
 30
0.0
 10
7.1193624866
 20
3.2063472392
 30
0.0
 10
7.1164219312
 20
3.2086556703
 30
0.0
 10
7.1141724071
 20
3.2103359966
 30
0.0
 10
7.1118744879
 20
3.2119539347
 30
0.0
 10
7.1095234973
 20
3.2134983272
 30
0.0
 10
7.1071140852
 20
3.2149548044
 30
0.0
 10
7.104639483
 20
3.2163028043
 30
0.0
 10
7.1020957477
 20
3.2175211129
 30
0.0
 10
7.0994806171
 20
3.2185837734
 30
0.0
 10
7.0972421634
 20
3.2193137006
 30
0.0
 10
7.095419773
 20
3.2197873764
 30
0.0
 10
7.0940382886
 20
3.2200840175
 30
0.0
 10
7.0926447358
 20
3.2203193166
 30
0.0
 10
7.0912415925
 20
3.2204903994
 30
0.0
 10
7.0898316814
 20
3.2205945785
 30
0.0
 10
7.087947533
 20
3.2206403766
 30
0.0
 10
7.0855917701
 20
3.2205223561
 30
0.0
 10
7.0827923059
 20
3.2201156909
 30
0.0
 10
7.0800419171
 20
3.2194598505
 30
0.0
 10
7.0773561609
 20
3.2185830452
 30
0.0
 10
7.0747408185
 20
3.2175207515
 30
0.0
 10
7.0721968225
 20
3.2163030499
 30
0.0
 10
7.0697220451
 20
3.214955379
 30
0.0
 10
7.0673126879
 20
3.2134987985
 30
0.0
 10
7.0649622428
 20
3.2119535927
 30
0.0
 10
7.0626641457
 20
3.2103359353
 30
0.0
 10
7.0604141863
 20
3.2086562116
 30
0.0
 10
7.0574735621
 20
3.2063478534
 30
0.0
 10
7.0538936923
 20
3.2033534725
 30
0.0
 10
7.0497187745
 20
3.1996342063
 30
0.0
 10
7.0463230658
 20
3.1964543405
 30
0.0
 10
7.0436488265
 20
3.193875126
 30
0.0
 10
7.0410029671
 20
3.1912791484
 30
0.0
 10
7.037740186
 20
3.1880015021
 30
0.0
 10
7.0338840006
 20
3.1840257533
 30
0.0
 10
7.0300811464
 20
3.1800202086
 30
0.0
 10
7.0250813575
 20
3.1746596028
 30
0.0
 10
7.0189391187
 20
3.1679232384
 30
0.0
 10
7.011699799
 20
3.1598051167
 30
0.0
 10
7.0045884035
 20
3.1516950969
 30
0.0
 10
6.9975968318
 20
3.1436168225
 30
0.0
 10
6.9907221847
 20
3.1355906725
 30
0.0
 10
6.9839651809
 20
3.1276356894
 30
0.0
 10
6.9773298413
 20
3.1197703149
 30
0.0
 10
6.9708227446
 20
3.1120134931
 30
0.0
 10
6.9644532949
 20
3.1043849538
 30
0.0
 10
6.958233565
 20
3.096905942
 30
0.0
 10
6.9521781129
 20
3.089600029
 30
0.0
 10
6.9463045946
 20
3.0824933298
 30
0.0
 10
6.9406340398
 20
3.075615102
 30
0.0
 10
6.9351907521
 20
3.068998686
 30
0.0
 10
6.9300032587
 20
3.062681624
 30
0.0
 10
6.9251042779
 20
3.0567064598
 30
0.0
 10
6.920530968
 20
3.0511210797
 30
0.0
 10
6.9169423677
 20
3.0467331087
 30
0.0
 10
6.9142659373
 20
3.0434581245
 30
0.0
 10
6.9124181322
 20
3.0411959445
 30
0.0
 10
6.9106858255
 20
3.0390743761
 30
0.0
 10
6.90907537
 20
3.0371014858
 30
0.0
 10
6.9075933169
 20
3.0352851881
 30
0.0
 10
6.9062462318
 20
3.0336333907
 30
0.0
 10
6.9052105767
 20
3.0323635157
 30
0.0
 10
6.9044540894
 20
3.0314358544
 30
0.0
 10
6.9039424544
 20
3.0308083627
 30
0.0
 10
6.9034689986
 20
3.0302275396
 30
0.0
 10
6.9030343882
 20
3.0296941854
 30
0.0
 10
6.9026392026
 20
3.0292091556
 30
0.0
 10
6.9022839808
 20
3.0287732506
 30
0.0
 10
6.9019692648
 20
3.0283871521
 30
0.0
 10
6.9016954976
 20
3.0280514367
 30
0.0
 10
6.901493151
 20
3.02780337
 30
0.0
 10
6.9013520887
 20
3.0276303865
 30
0.0
 10
6.9012619875
 20
3.027519848
 30
0.0
 10
6.9011824048
 20
3.0274221629
 30
0.0
 10
6.9011133687
 20
3.0273373739
 30
0.0
 10
6.9010549071
 20
3.0272655229
 30
0.0
 10
6.9010128163
 20
3.0272137469
 30
0.0
 10
6.9009844518
 20
3.0271788241
 30
0.0
 10
6.9009671577
 20
3.0271575212
 30
0.0
 10
6.9009525236
 20
3.0271394799
 30
0.0
 10
6.9009405403
 20
3.0271247105
 30
0.0
 10
6.9009312355
 20
3.027113202
 30
0.0
 10
6.9009251036
 20
3.0271056808
 30
0.0
 10
6.9009215905
 20
3.0271012681
 30
0.0
 10
6.9009198597
 20
3.0270992421
 30
0.0
 10
6.9009189716
 20
3.0270979375
 30
0.0
 10
6.9009184077
 20
3.0270974505
 30
0.0
 10
6.9009183453
 20
3.0270972826
 30
0.0
  0
SPLINE
  5
3BC
100
AcDbEntity
  8
0
100
AcDbSpline
 62
7
  6
CONTINUOUS
 70
0
 71
3
 72
21
 73
17
 74
0
 42
0.0000001
 43
0.0000001
 44
0.0000000001
 40
0.0
 40
0.0
 40
0.0
 40
0.0
 40
0.1900816047
 40
0.3683556432
 40
0.5299297448
 40
0.6031746337
 40
0.6708273693
 40
0.7325642491
 40
0.7881499929
 40
0.8374566193
 40
0.8804961046
 40
0.9174796443
 40
0.9489250222
 40
0.9758363021
 40
0.9881322749
 40
1.0
 40
1.0
 40
1.0
 40
1.0
 10
6.599074904
 20
3.2672087114
 30
0.0
 10
6.5990946687
 20
3.2676431591
 30
0.0
 10
6.5991509171
 20
3.2684844073
 30
0.0
 10
6.5992889524
 20
3.269689427
 30
0.0
 10
6.5994475513
 20
3.2706218532
 30
0.0
 10
6.5995994989
 20
3.2712971557
 30
0.0
 10
6.5997192002
 20
3.271745202
 30
0.0
 10
6.5998474048
 20
3.2721487207
 30
0.0
 10
6.5999831356
 20
3.2725052398
 30
0.0
 10
6.6001254077
 20
3.2728127244
 30
0.0
 10
6.6002732663
 20
3.2730696033
 30
0.0
 10
6.6004260878
 20
3.2732747885
 30
0.0
 10
6.6005834542
 20
3.2734275256
 30
0.0
 10
6.6007235445
 20
3.2735124175
 30
0.0
 10
6.6008351925
 20
3.2735484286
 30
0.0
 10
6.6008902043
 20
3.2735565187
 30
0.0
 10
6.6009173106
 20
3.2735581069
 30
0.0
  0
SPLINE
  5
3BD
100
AcDbEntity
  8
0
100
AcDbSpline
 62
7
  6
CONTINUOUS
 70
0
 71
3
 72
17
 73
13
 74
0
 42
0.0000001
 43
0.0000001
 44
0.0000000001
 40
0.0
 40
0.0
 40
0.0
 40
0.0
 40
0.2004472316
 40
0.378649081
 40
0.5341800543
 40
0.6670392334
 40
0.7776940319
 40
0.8674591104
 40
0.9054254539
 40
0.9395281566
 40
0.9706607555
 40
1.0
 40
1.0
 40
1.0
 40
1.0
 10
6.5914162913
 20
3.2720335675
 30
0.0
 10
6.5914362321
 20
3.2721167698
 30
0.0
 10
6.5914764472
 20
3.2722733537
 30
0.0
 10
6.591542466
 20
3.2724916845
 30
0.0
 10
6.5916103675
 20
3.2726790345
 30
0.0
 10
6.5916798427
 20
3.2728347934
 30
0.0
 10
6.5917505844
 20
3.2729584999
 30
0.0
 10
6.5918138538
 20
3.2730391042
 30
0.0
 10
6.5918658031
 20
3.2730849303
 30
0.0
 10
6.5919029493
 20
3.2731089796
 30
0.0
 10
6.5919404712
 20
3.2731245354
 30
0.0
 10
6.5919661296
 20
3.2731291444
 30
0.0
 10
6.5919786299
 20
3.2731299004
 30
0.0
  0
SPLINE
  5
3BE
100
AcDbEntity
  8
0
100
AcDbSpline
 62
7
  6
CONTINUOUS
 70
0
 71
3
 72
14
 73
10
 74
0
 42
0.0000001
 43
0.0000001
 44
0.0000000001
 40
0.0
 40
0.0
 40
0.0
 40
0.0
 40
0.2951025059
 40
0.4366784957
 40
0.5712192907
 40
0.6966169052
 40
0.8109561636
 40
0.9125517864
 40
1.0
 40
1.0
 40
1.0
 40
1.0
 10
6.5909005709
 20
3.2657847826
 30
0.0
 10
6.5909005709
 20
3.2664026379
 30
0.0
 10
6.5909173115
 20
3.2673170588
 30
0.0
 10
6.5909750948
 20
3.2685116842
 30
0.0
 10
6.5910338849
 20
3.2693503537
 30
0.0
 10
6.5911076241
 20
3.2701305853
 30
0.0
 10
6.5911949816
 20
3.2708399976
 30
0.0
 10
6.5912943796
 20
3.2714674948
 30
0.0
 10
6.591373619
 20
3.2718555196
 30
0.0
 10
6.5914162913
 20
3.2720335675
 30
0.0
  0
SPLINE
  5
3BF
100
AcDbEntity
  8
0
100
AcDbSpline
 62
7
  6
CONTINUOUS
 70
0
 71
3
 72
24
 73
20
 74
0
 42
0.0000001
 43
0.0000001
 44
0.0000000001
 40
0.0
 40
0.0
 40
0.0
 40
0.0
 40
0.1996613987
 40
0.386086095
 40
0.5543493107
 40
0.6302730816
 40
0.7000536385
 40
0.7632428836
 40
0.8194425887
 40
0.8683138524
 40
0.9095909337
 40
0.9273281291
 40
0.9431166709
 40
0.956963638
 40
0.9688976649
 40
0.9789800197
 40
0.9873344827
 40
0.9941955672
 40
1.0
 40
1.0
 40
1.0
 40
1.0
 10
6.5914162913
 20
3.3192273719
 30
0.0
 10
6.591466524
 20
3.3196154471
 30
0.0
 10
6.5915702546
 20
3.3203650414
 30
0.0
 10
6.5917405183
 20
3.3214381479
 30
0.0
 10
6.5918920598
 20
3.3222684944
 30
0.0
 10
6.5920164492
 20
3.3228711556
 30
0.0
 10
6.5921062445
 20
3.3232706197
 30
0.0
 10
6.5921951329
 20
3.3236305887
 30
0.0
 10
6.5922824688
 20
3.3239486361
 30
0.0
 10
6.5923676241
 20
3.3242225873
 30
0.0
 10
6.5924393495
 20
3.3244216271
 30
0.0
 10
6.592496106
 20
3.3245568351
 30
0.0
 10
6.5925355938
 20
3.3246409013
 30
0.0
 10
6.5925741092
 20
3.3247127489
 30
0.0
 10
6.5926115962
 20
3.3247722948
 30
0.0
 10
6.5926480296
 20
3.3248195197
 30
0.0
 10
6.59268352
 20
3.3248544548
 30
0.0
 10
6.592718344
 20
3.3248771677
 30
0.0
 10
6.5927428717
 20
3.3248839491
 30
0.0
 10
6.5927542276
 20
3.3248846252
 30
0.0
  0
SPLINE
  5
3C0
100
AcDbEntity
  8
0
100
AcDbSpline
 62
7
  6
CONTINUOUS
 70
0
 71
3
 72
28
 73
24
 74
0
 42
0.0000001
 43
0.0000001
 44
0.0000000001
 40
0.0
 40
0.0
 40
0.0
 40
0.0
 40
0.0095658704
 40
0.0201654201
 40
0.0322603647
 40
0.0461412595
 40
0.0619759509
 40
0.07985032
 40
0.099797175
 40
0.1218124985
 40
0.1458652271
 40
0.1719045535
 40
0.2296508402
 40
0.2943578784
 40
0.3651381641
 40
0.4409431053
 40
0.5205794267
 40
0.6027280771
 40
0.685968105
 40
0.7688108421
 40
0.8497429218
 40
0.9272743774
 40
1.0
 40
1.0
 40
1.0
 40
1.0
 10
6.6016498204
 20
3.2125479832
 30
0.0
 10
6.6016095967
 20
3.2125504541
 30
0.0
 10
6.6015253187
 20
3.2125685337
 30
0.0
 10
6.6014026556
 20
3.212629336
 30
0.0
 10
6.6012794292
 20
3.2127230142
 30
0.0
 10
6.6011555716
 20
3.2128488764
 30
0.0
 10
6.6010311281
 20
3.2130064558
 30
0.0
 10
6.6009064145
 20
3.2131952349
 30
0.0
 10
6.6007818544
 20
3.2134145689
 30
0.0
 10
6.6006579291
 20
3.2136636705
 30
0.0
 10
6.6005351248
 20
3.2139416172
 30
0.0
 10
6.6003677612
 20
3.2143640715
 30
0.0
 10
6.6001673633
 20
3.2149571191
 30
0.0
 10
6.5999466349
 20
3.2157409622
 30
0.0
 10
6.5997421175
 20
3.2166075375
 30
0.0
 10
6.599557586
 20
3.2175427335
 30
0.0
 10
6.5993965959
 20
3.2185308068
 30
0.0
 10
6.599262344
 20
3.2195544536
 30
0.0
 10
6.5991575825
 20
3.2205951123
 30
0.0
 10
6.5990845146
 20
3.2216333403
 30
0.0
 10
6.5990446954
 20
3.2226493258
 30
0.0
 10
6.5990389442
 20
3.2236234546
 30
0.0
 10
6.5990585784
 20
3.2242563632
 30
0.0
 10
6.599074904
 20
3.22456231
 30
0.0
  0
SPLINE
  5
3C1
100
AcDbEntity
  8
0
100
AcDbSpline
 62
7
  6
CONTINUOUS
 70
0
 71
3
 72
29
 73
25
 74
0
 42
0.0000001
 43
0.0000001
 44
0.0000000001
 40
0.0
 40
0.0
 40
0.0
 40
0.0
 40
0.0522906301
 40
0.1148818448
 40
0.1860255372
 40
0.2637694733
 40
0.3460538178
 40
0.4307838422
 40
0.5158835755
 40
0.5993295067
 40
0.6791734616
 40
0.7535571202
 40
0.820725698
 40
0.8790513579
 40
0.9044338134
 40
0.9270728967
 40
0.9468230264
 40
0.9635613722
 40
0.9771975407
 40
0.9828398248
 40
0.9877009312
 40
0.9917960336
 40
0.9951589499
 40
1.0
 40
1.0
 40
1.0
 40
1.0
 10
6.599074904
 20
3.3690255404
 30
0.0
 10
6.599096046
 20
3.3692833896
 30
0.0
 10
6.5991576449
 20
3.3698486242
 30
0.0
 10
6.5992857415
 20
3.3707601295
 30
0.0
 10
6.5994555596
 20
3.3717926609
 30
0.0
 10
6.5996623498
 20
3.3729176192
 30
0.0
 10
6.5999005532
 20
3.3741049827
 30
0.0
 10
6.600163928
 20
3.375324271
 30
0.0
 10
6.6004458322
 20
3.3765453069
 30
0.0
 10
6.6007393587
 20
3.3777387231
 30
0.0
 10
6.6010374593
 20
3.3788762806
 30
0.0
 10
6.6013329681
 20
3.3799311197
 30
0.0
 10
6.601618747
 20
3.3808779198
 30
0.0
 10
6.6018523209
 20
3.3815870579
 30
0.0
 10
6.6020307778
 20
3.3820820735
 30
0.0
 10
6.6021515612
 20
3.3823949083
 30
0.0
 10
6.6022647045
 20
3.382664747
 30
0.0
 10
6.6023694207
 20
3.3828896263
 30
0.0
 10
6.6024533767
 20
3.3830469925
 30
0.0
 10
6.6025169109
 20
3.3831482233
 30
0.0
 10
6.6025588807
 20
3.3832069861
 30
0.0
 10
6.6025984947
 20
3.3832537169
 30
0.0
 10
6.6026425316
 20
3.3832949075
 30
0.0
 10
6.6026805377
 20
3.3833165546
 30
0.0
 10
6.6027044493
 20
3.3833179399
 30
0.0
  0
SPLINE
  5
3C2
100
AcDbEntity
  8
0
100
AcDbSpline
 62
7
  6
CONTINUOUS
 70
0
 71
3
 72
27
 73
23
 74
0
 42
0.0000001
 43
0.0000001
 44
0.0000000001
 40
0.0
 40
0.0
 40
0.0
 40
0.0
 40
0.0720365348
 40
0.1492116628
 40
0.2300419973
 40
0.3129952784
 40
0.3965445336
 40
0.4792026168
 40
0.5595492734
 40
0.6362498542
 40
0.708066696
 40
0.7738690723
 40
0.8326431901
 40
0.8835096775
 40
0.9057521098
 40
0.9257703982
 40
0.9435181406
 40
0.9589774016
 40
0.9721749664
 40
0.9832131408
 40
0.992328445
 40
1.0
 40
1.0
 40
1.0
 40
1.0
 10
6.599074904
 20
3.3453916483
 30
0.0
 10
6.5990915591
 20
3.3456987568
 30
0.0
 10
6.5991374756
 20
3.3463342883
 30
0.0
 10
6.5992366575
 20
3.3473115419
 30
0.0
 10
6.5993668963
 20
3.3483321459
 30
0.0
 10
6.5995254858
 20
3.3493762516
 30
0.0
 10
6.5997092149
 20
3.3504241488
 30
0.0
 10
6.5999144855
 20
3.3514566965
 30
0.0
 10
6.6001374182
 20
3.3524556421
 30
0.0
 10
6.6003739303
 20
3.3534038362
 30
0.0
 10
6.6006198033
 20
3.3542853548
 30
0.0
 10
6.6008706924
 20
3.3550856288
 30
0.0
 10
6.601122243
 20
3.3557913887
 30
0.0
 10
6.6013371785
 20
3.3563122377
 30
0.0
 10
6.6015084423
 20
3.3566711728
 30
0.0
 10
6.6016286018
 20
3.3568975626
 30
0.0
 10
6.6017457424
 20
3.3570924469
 30
0.0
 10
6.6018593899
 20
3.3572549854
 30
0.0
 10
6.6019691103
 20
3.3573845718
 30
0.0
 10
6.6020748601
 20
3.3574807854
 30
0.0
 10
6.6021769052
 20
3.35754341
 30
0.0
 10
6.6022477132
 20
3.3575624226
 30
0.0
 10
6.6022804125
 20
3.3575643093
 30
0.0
  0
SPLINE
  5
3C3
100
AcDbEntity
  8
0
100
AcDbSpline
 62
7
  6
CONTINUOUS
 70
0
 71
3
 72
25
 73
21
 74
0
 42
0.0000001
 43
0.0000001
 44
0.0000000001
 40
0.0
 40
0.0
 40
0.0
 40
0.0
 40
0.1736075012
 40
0.3466294795
 40
0.4302994046
 40
0.5107728088
 40
0.5871660578
 40
0.6586792119
 40
0.7246045536
 40
0.7843348047
 40
0.8373763314
 40
0.8833739037
 40
0.9036767082
 40
0.9221770319
 40
0.9389023077
 40
0.953911288
 40
0.9673091674
 40
0.9792652414
 40
0.9900388301
 40
1.0
 40
1.0
 40
1.0
 40
1.0
 10
6.599074904
 20
3.3096383326
 30
0.0
 10
6.5991013509
 20
3.3102168677
 30
0.0
 10
6.5991847912
 20
3.3113707463
 30
0.0
 10
6.5993584472
 20
3.3127962759
 30
0.0
 10
6.5995379508
 20
3.3139067332
 30
0.0
 10
6.5996877266
 20
3.3146951529
 30
0.0
 10
6.5998521189
 20
3.3154391858
 30
0.0
 10
6.6000290173
 20
3.3161303809
 30
0.0
 10
6.6002162004
 20
3.3167611082
 30
0.0
 10
6.6004113661
 20
3.3173246436
 30
0.0
 10
6.6006121928
 20
3.3178150488
 30
0.0
 10
6.6007889066
 20
3.318172398
 30
0.0
 10
6.6009331878
 20
3.3184158767
 30
0.0
 10
6.6010369035
 20
3.3185695114
 30
0.0
 10
6.6011403939
 20
3.3187015322
 30
0.0
 10
6.601243464
 20
3.3188116038
 30
0.0
 10
6.6013459464
 20
3.3188994497
 30
0.0
 10
6.6014478249
 20
3.3189647517
 30
0.0
 10
6.6015490285
 20
3.3190070573
 30
0.0
 10
6.601617761
 20
3.3190197016
 30
0.0
 10
6.6016509334
 20
3.3190216493
 30
0.0
  0
SPLINE
  5
3C4
100
AcDbEntity
  8
0
100
AcDbSpline
 62
7
  6
CONTINUOUS
 70
0
 71
3
 72
15
 73
11
 74
0
 42
0.0000001
 43
0.0000001
 44
0.0000000001
 40
0.0
 40
0.0
 40
0.0
 40
0.0
 40
0.1128524498
 40
0.2278733081
 40
0.3459422006
 40
0.4679189599
 40
0.5945022247
 40
0.7259513083
 40
0.8616854922
 40
1.0
 40
1.0
 40
1.0
 40
1.0
 10
6.8073779872
 20
3.0514104993
 30
0.0
 10
6.8072881595
 20
3.0510438333
 30
0.0
 10
6.8070542438
 20
3.0503151672
 30
0.0
 10
6.8065433627
 20
3.0492723295
 30
0.0
 10
6.8058637217
 20
3.0482924381
 30
0.0
 10
6.8050109869
 20
3.0474035224
 30
0.0
 10
6.8039863603
 20
3.0466408035
 30
0.0
 10
6.8028027416
 20
3.0460467323
 30
0.0
 10
6.8014930694
 20
3.0456659507
 30
0.0
 10
6.8005739422
 20
3.0455784929
 30
0.0
 10
6.8001112587
 20
3.0455784929
 30
0.0
  0
SPLINE
  5
3C5
100
AcDbEntity
  8
0
100
AcDbSpline
 62
7
  6
CONTINUOUS
 70
0
 71
3
 72
18
 73
14
 74
0
 42
0.0000001
 43
0.0000001
 44
0.0000000001
 40
0.0
 40
0.0
 40
0.0
 40
0.0
 40
0.114849252
 40
0.2314794819
 40
0.3506248079
 40
0.4114183492
 40
0.4731111091
 40
0.5993395995
 40
0.7296502913
 40
0.7963016396
 40
0.8637279201
 40
0.9317157111
 40
1.0
 40
1.0
 40
1.0
 40
1.0
 10
6.8073779872
 20
3.05229228
 30
0.0
 10
6.80728828
 20
3.0519121665
 30
0.0
 10
6.8070549885
 20
3.0511572722
 30
0.0
 10
6.8065448442
 20
3.0500753397
 30
0.0
 10
6.8059824603
 20
3.0492330083
 30
0.0
 10
6.8054491594
 20
3.0486068936
 30
0.0
 10
6.8048500337
 20
3.0480087577
 30
0.0
 10
6.8039897112
 20
3.0473430707
 30
0.0
 10
6.8030093595
 20
3.046831811
 30
0.0
 10
6.8021610214
 20
3.0465306338
 30
0.0
 10
6.8014933674
 20
3.0463634343
 30
0.0
 10
6.8008072004
 20
3.0462611944
 30
0.0
 10
6.8003434658
 20
3.0462382636
 30
0.0
 10
6.8001112587
 20
3.0462382636
 30
0.0
  0
SPLINE
  5
3C6
100
AcDbEntity
  8
0
100
AcDbSpline
 62
7
  6
CONTINUOUS
 70
0
 71
3
 72
18
 73
14
 74
0
 42
0.0000001
 43
0.0000001
 44
0.0000000001
 40
0.0
 40
0.0
 40
0.0
 40
0.0
 40
0.1167050302
 40
0.234930811
 40
0.3552518405
 40
0.4164183431
 40
0.4783157011
 40
0.6043791917
 40
0.733687856
 40
0.7995342212
 40
0.8659870978
 40
0.9328785842
 40
1.0
 40
1.0
 40
1.0
 40
1.0
 10
6.8072980307
 20
3.0534361685
 30
0.0
 10
6.8071974734
 20
3.0530595052
 30
0.0
 10
6.8069458781
 20
3.0523133323
 30
0.0
 10
6.8064180052
 20
3.0512465731
 30
0.0
 10
6.8058489786
 20
3.0504179597
 30
0.0
 10
6.8053154099
 20
3.0498035553
 30
0.0
 10
6.804721565
 20
3.0492194439
 30
0.0
 10
6.8038763002
 20
3.0485713478
 30
0.0
 10
6.8029183276
 20
3.048074021
 30
0.0
 10
6.8020934452
 20
3.0477821302
 30
0.0
 10
6.801446837
 20
3.0476205819
 30
0.0
 10
6.8007834673
 20
3.0475219159
 30
0.0
 10
6.800335479
 20
3.0474997962
 30
0.0
 10
6.8001112587
 20
3.0474997962
 30
0.0
  0
SPLINE
  5
3C7
100
AcDbEntity
  8
0
100
AcDbSpline
 62
7
  6
CONTINUOUS
 70
0
 71
3
 72
19
 73
15
 74
0
 42
0.0000001
 43
0.0000001
 44
0.0000000001
 40
0.0
 40
0.0
 40
0.0
 40
0.0
 40
0.118279487
 40
0.2377092223
 40
0.2980473841
 40
0.3588595877
 40
0.4202088844
 40
0.4821526991
 40
0.607890924
 40
0.7363591521
 40
0.8016316046
 40
0.8674313787
 40
0.9336142568
 40
1.0
 40
1.0
 40
1.0
 40
1.0
 10
6.8073779872
 20
3.0558073249
 30
0.0
 10
6.8072884661
 20
3.0554033335
 30
0.0
 10
6.8070562443
 20
3.0546020052
 30
0.0
 10
6.8066330868
 20
3.0536451873
 30
0.0
 10
6.8062122311
 20
3.0529155647
 30
0.0
 10
6.8058528113
 20
3.0523871361
 30
0.0
 10
6.8054502163
 20
3.0518835004
 30
0.0
 10
6.8048529315
 20
3.0512481772
 30
0.0
 10
6.8039955286
 20
3.0505402328
 30
0.0
 10
6.8030126165
 20
3.0499931222
 30
0.0
 10
6.8021621793
 20
3.0496713814
 30
0.0
 10
6.8014942149
 20
3.0494931138
 30
0.0
 10
6.8008076562
 20
3.0493840918
 30
0.0
 10
6.8003435038
 20
3.0493596326
 30
0.0
 10
6.8001112587
 20
3.0493596326
 30
0.0
  0
SPLINE
  5
3C8
100
AcDbEntity
  8
0
100
AcDbSpline
 62
7
  6
CONTINUOUS
 70
0
 71
3
 72
18
 73
14
 74
0
 42
0.0000001
 43
0.0000001
 44
0.0000000001
 40
0.0
 40
0.0
 40
0.0
 40
0.0
 40
0.119705099
 40
0.2403071571
 40
0.3621906558
 40
0.4857434389
 40
0.6113001832
 40
0.6749606187
 40
0.7391622988
 40
0.8038626417
 40
0.8689836889
 40
0.9344107052
 40
1.0
 40
1.0
 40
1.0
 40
1.0
 10
6.8073779872
 20
3.0584309547
 30
0.0
 10
6.8072885373
 20
3.0580166048
 30
0.0
 10
6.8070566519
 20
3.0571950147
 30
0.0
 10
6.8065479368
 20
3.0560135437
 30
0.0
 10
6.8058709102
 20
3.0549026834
 30
0.0
 10
6.805021017
 20
3.0538938196
 30
0.0
 10
6.8041713895
 20
3.053173532
 30
0.0
 10
6.8034130454
 20
3.0526915938
 30
0.0
 10
6.8028041873
 20
3.0523820599
 30
0.0
 10
6.802162669
 20
3.052132818
 30
0.0
 10
6.8014946034
 20
3.0519497731
 30
0.0
 10
6.8008078604
 20
3.0518377973
 30
0.0
 10
6.800343521
 20
3.0518126754
 30
0.0
 10
6.8001112587
 20
3.0518126754
 30
0.0
  0
SPLINE
  5
3C9
100
AcDbEntity
  8
0
100
AcDbSpline
 62
7
  6
CONTINUOUS
 70
0
 71
3
 72
18
 73
14
 74
0
 42
0.0000001
 43
0.0000001
 44
0.0000000001
 40
0.0
 40
0.0
 40
0.0
 40
0.0
 40
0.1209409769
 40
0.2425630633
 40
0.365160849
 40
0.4890316173
 40
0.6144337632
 40
0.6778277277
 40
0.7416391036
 40
0.8058355388
 40
0.8703572712
 40
0.9351157465
 40
1.0
 40
1.0
 40
1.0
 40
1.0
 10
6.8073759897
 20
3.0616155054
 30
0.0
 10
6.8072862954
 20
3.0611923492
 30
0.0
 10
6.8070542121
 20
3.0603536539
 30
0.0
 10
6.8065453486
 20
3.0591468076
 30
0.0
 10
6.8058685737
 20
3.0580121167
 30
0.0
 10
6.8050193007
 20
3.0569815313
 30
0.0
 10
6.8041695016
 20
3.056244816
 30
0.0
 10
6.8034108799
 20
3.0557520003
 30
0.0
 10
6.8028024164
 20
3.0554357825
 30
0.0
 10
6.8021613238
 20
3.0551811482
 30
0.0
 10
6.8014937004
 20
3.0549941356
 30
0.0
 10
6.8008074105
 20
3.0548797286
 30
0.0
 10
6.8003433239
 20
3.0548540584
 30
0.0
 10
6.8001112587
 20
3.0548540584
 30
0.0
  0
SPLINE
  5
3CA
100
AcDbEntity
  8
0
100
AcDbSpline
 62
7
  6
CONTINUOUS
 70
0
 71
3
 72
18
 73
14
 74
0
 42
0.0000001
 43
0.0000001
 44
0.0000000001
 40
0.0
 40
0.0
 40
0.0
 40
0.0
 40
0.1220005542
 40
0.2444974641
 40
0.3677089619
 40
0.4918545822
 40
0.6171262745
 40
0.6802923993
 40
0.7437691627
 40
0.8075328601
 40
0.871539329
 40
0.9357225863
 40
1.0
 40
1.0
 40
1.0
 40
1.0
 10
6.8073779872
 20
3.0653744925
 30
0.0
 10
6.807288646
 20
3.0649427412
 30
0.0
 10
6.8070573557
 20
3.0640872425
 30
0.0
 10
6.8065493186
 20
3.0628553573
 30
0.0
 10
6.8058731971
 20
3.0616969588
 30
0.0
 10
6.8050243376
 20
3.0606445821
 30
0.0
 10
6.804173781
 20
3.0598913199
 30
0.0
 10
6.8034141005
 20
3.0593874479
 30
0.0
 10
6.8028052028
 20
3.0590643675
 30
0.0
 10
6.8021635543
 20
3.058804171
 30
0.0
 10
6.8014952618
 20
3.0586130499
 30
0.0
 10
6.8008082183
 20
3.058496118
 30
0.0
 10
6.8003435509
 20
3.0584698778
 30
0.0
 10
6.8001112587
 20
3.0584698778
 30
0.0
  0
SPLINE
  5
3CB
100
AcDbEntity
  8
0
100
AcDbSpline
 62
7
  6
CONTINUOUS
 70
0
 71
3
 72
18
 73
14
 74
0
 42
0.0000001
 43
0.0000001
 44
0.0000000001
 40
0.0
 40
0.0
 40
0.0
 40
0.0
 40
0.1228915291
 40
0.2461267236
 40
0.3698592121
 40
0.4942418733
 40
0.6194084157
 40
0.6823836459
 40
0.7455782684
 40
0.8089756543
 40
0.872544788
 40
0.9362389823
 40
1.0
 40
1.0
 40
1.0
 40
1.0
 10
6.8073779872
 20
3.0696753687
 30
0.0
 10
6.8072886862
 20
3.0692366261
 30
0.0
 10
6.807057617
 20
3.0683675031
 30
0.0
 10
6.8065498375
 20
3.0671153842
 30
0.0
 10
6.8058740688
 20
3.0659379178
 30
0.0
 10
6.8050256271
 20
3.0648680978
 30
0.0
 10
6.8041747296
 20
3.0641015902
 30
0.0
 10
6.8034145237
 20
3.0635888938
 30
0.0
 10
6.8028056142
 20
3.0632603729
 30
0.0
 10
6.802163916
 20
3.0629957744
 30
0.0
 10
6.8014955326
 20
3.0628014063
 30
0.0
 10
6.8008083662
 20
3.0626824808
 30
0.0
 10
6.8003435633
 20
3.0626557906
 30
0.0
 10
6.8001112587
 20
3.0626557906
 30
0.0
  0
SPLINE
  5
3CC
100
AcDbEntity
  8
0
100
AcDbSpline
 62
7
  6
CONTINUOUS
 70
0
 71
3
 72
18
 73
14
 74
0
 42
0.0000001
 43
0.0000001
 44
0.0000000001
 40
0.0
 40
0.0
 40
0.0
 40
0.0
 40
0.1236203719
 40
0.2474606472
 40
0.371621598
 40
0.4962010583
 40
0.6212839295
 40
0.6841034448
 40
0.7470669812
 40
0.8101635816
 40
0.873372989
 40
0.9366644561
 40
1.0
 40
1.0
 40
1.0
 40
1.0
 10
6.8073779872
 20
3.0745137673
 30
0.0
 10
6.8072887182
 20
3.0740692014
 30
0.0
 10
6.8070578261
 20
3.07318873
 30
0.0
 10
6.8065502548
 20
3.0719197666
 30
0.0
 10
6.805874775
 20
3.0707264307
 30
0.0
 10
6.8050266819
 20
3.0696420983
 30
0.0
 10
6.804175514
 20
3.0688645601
 30
0.0
 10
6.8034148757
 20
3.0683445088
 30
0.0
 10
6.8028059581
 20
3.0680114572
 30
0.0
 10
6.8021642197
 20
3.067743192
 30
0.0
 10
6.8014957609
 20
3.0675461183
 30
0.0
 10
6.8008084911
 20
3.0674255312
 30
0.0
 10
6.8003435737
 20
3.0673984658
 30
0.0
 10
6.8001112587
 20
3.0673984658
 30
0.0
  0
SPLINE
  5
3CD
100
AcDbEntity
  8
0
100
AcDbSpline
 62
7
  6
CONTINUOUS
 70
0
 71
3
 72
18
 73
14
 74
0
 42
0.0000001
 43
0.0000001
 44
0.0000000001
 40
0.0
 40
0.0
 40
0.0
 40
0.0
 40
0.1241924069
 40
0.2485082885
 40
0.3730069406
 40
0.4977426898
 40
0.6227613959
 40
0.6854589915
 40
0.7482409853
 40
0.811100804
 40
0.8740266305
 40
0.937000327
 40
1.0
 40
1.0
 40
1.0
 40
1.0
 10
6.8073779872
 20
3.0798764264
 30
0.0
 10
6.8072887429
 20
3.0794272224
 30
0.0
 10
6.8070579872
 20
3.078537712
 30
0.0
 10
6.8065505779
 20
3.0772553376
 30
0.0
 10
6.805875325
 20
3.0760493702
 30
0.0
 10
6.8050275094
 20
3.0749534893
 30
0.0
 10
6.8041761349
 20
3.074167167
 30
0.0
 10
6.8034151556
 20
3.0736412544
 30
0.0
 10
6.8028062327
 20
3.0733045949
 30
0.0
 10
6.8021644633
 20
3.0730334091
 30
0.0
 10
6.8014959445
 20
3.0728341798
 30
0.0
 10
6.8008085918
 20
3.0727122687
 30
0.0
 10
6.8003435822
 20
3.072684904
 30
0.0
 10
6.8001112587
 20
3.072684904
 30
0.0
  0
SPLINE
  5
3CE
100
AcDbEntity
  8
0
100
AcDbSpline
 62
7
  6
CONTINUOUS
 70
0
 71
3
 72
18
 73
14
 74
0
 42
0.0000001
 43
0.0000001
 44
0.0000000001
 40
0.0
 40
0.0
 40
0.0
 40
0.0
 40
0.1246118016
 40
0.249276786
 40
0.3740238327
 40
0.4988751836
 40
0.6238476844
 40
0.6864560615
 40
0.7491048738
 40
0.8117907002
 40
0.8745079154
 40
0.9372476786
 40
1.0
 40
1.0
 40
1.0
 40
1.0
 10
6.8073779872
 20
3.0857486474
 30
0.0
 10
6.8072887607
 20
3.0852960041
 30
0.0
 10
6.8070581038
 20
3.0843997907
 30
0.0
 10
6.8065508124
 20
3.0831074745
 30
0.0
 10
6.8058757258
 20
3.0818921447
 30
0.0
 10
6.805028116
 20
3.080787706
 30
0.0
 10
6.8041765932
 20
3.0799948708
 30
0.0
 10
6.803415363
 20
3.0794646102
 30
0.0
 10
6.8028064368
 20
3.0791252756
 30
0.0
 10
6.8021646447
 20
3.0788519238
 30
0.0
 10
6.8014960816
 20
3.0786510958
 30
0.0
 10
6.8008086671
 20
3.0785282023
 30
0.0
 10
6.8003435884
 20
3.0785006157
 30
0.0
 10
6.8001112587
 20
3.0785006157
 30
0.0
  0
SPLINE
  5
3CF
100
AcDbEntity
  8
0
100
AcDbSpline
 62
7
  6
CONTINUOUS
 70
0
 71
3
 72
18
 73
14
 74
0
 42
0.0000001
 43
0.0000001
 44
0.0000000001
 40
0.0
 40
0.0
 40
0.0
 40
0.0
 40
0.1248816208
 40
0.2497714107
 40
0.3746786756
 40
0.499604945
 40
0.6245482187
 40
0.6870992539
 40
0.7496623081
 40
0.8122359743
 40
0.8748186062
 40
0.9374073766
 40
1.0
 40
1.0
 40
1.0
 40
1.0
 10
6.8073759897
 20
3.0921080219
 30
0.0
 10
6.8072864718
 20
3.0916536403
 30
0.0
 10
6.8070553576
 20
3.0907540949
 30
0.0
 10
6.8065476251
 20
3.0894569088
 30
0.0
 10
6.8058724085
 20
3.0882371046
 30
0.0
 10
6.8050249988
 20
3.0871286818
 30
0.0
 10
6.8041737174
 20
3.086332838
 30
0.0
 10
6.8034127667
 20
3.0858006135
 30
0.0
 10
6.8028042556
 20
3.0854601123
 30
0.0
 10
6.8021629453
 20
3.0851858282
 30
0.0
 10
6.8014949172
 20
3.0849843194
 30
0.0
 10
6.8008080759
 20
3.0848610108
 30
0.0
 10
6.8003433795
 20
3.0848333305
 30
0.0
 10
6.8001112587
 20
3.0848333305
 30
0.0
  0
SPLINE
  5
3D0
100
AcDbEntity
  8
0
100
AcDbSpline
 62
7
  6
CONTINUOUS
 70
0
 71
3
 72
18
 73
14
 74
0
 42
0.0000001
 43
0.0000001
 44
0.0000000001
 40
0.0
 40
0.0
 40
0.0
 40
0.0
 40
0.1250038981
 40
0.2499955564
 40
0.3749754295
 40
0.499935644
 40
0.6248656062
 40
0.6873907066
 40
0.749914937
 40
0.812437796
 40
0.8749594418
 40
0.9374797684
 40
1.0
 40
1.0
 40
1.0
 40
1.0
 10
6.8073779872
 20
3.0989560411
 30
0.0
 10
6.8072887772
 20
3.0985001521
 30
0.0
 10
6.8070582115
 20
3.0975976129
 30
0.0
 10
6.8065510297
 20
3.0962959168
 30
0.0
 10
6.8058760987
 20
3.095071755
 30
0.0
 10
6.8050286829
 20
3.0939592449
 30
0.0
 10
6.8041770238
 20
3.0931602642
 30
0.0
 10
6.8034155585
 20
3.092625899
 30
0.0
 10
6.8028066297
 20
3.0922840401
 30
0.0
 10
6.8021648167
 20
3.0920086443
 30
0.0
 10
6.8014962117
 20
3.0918063071
 30
0.0
 10
6.8008087386
 20
3.0916824863
 30
0.0
 10
6.8003435944
 20
3.0916546901
 30
0.0
 10
6.8001112587
 20
3.0916546901
 30
0.0
  0
SPLINE
  5
3D1
100
AcDbEntity
  8
0
100
AcDbSpline
 62
7
  6
CONTINUOUS
 70
0
 71
3
 72
18
 73
14
 74
0
 42
0.0000001
 43
0.0000001
 44
0.0000000001
 40
0.0
 40
0.0
 40
0.0
 40
0.0
 40
0.1249794667
 40
0.2499507616
 40
0.3749161103
 40
0.4998695194
 40
0.6248021136
 40
0.6873323992
 40
0.7498643939
 40
0.8123974159
 40
0.8749312627
 40
0.9374652831
 40
1.0
 40
1.0
 40
1.0
 40
1.0
 10
6.8073779872
 20
3.1062550133
 30
0.0
 10
6.8072887762
 20
3.1057993273
 30
0.0
 10
6.8070582048
 20
3.104897184
 30
0.0
 10
6.8065510162
 20
3.1035960748
 30
0.0
 10
6.8058760755
 20
3.1023724656
 30
0.0
 10
6.8050286476
 20
3.1012604604
 30
0.0
 10
6.8041769969
 20
3.1004618642
 30
0.0
 10
6.8034155462
 20
3.0999277559
 30
0.0
 10
6.8028066176
 20
3.099586055
 30
0.0
 10
6.8021648059
 20
3.0993107872
 30
0.0
 10
6.8014962036
 20
3.0991085444
 30
0.0
 10
6.8008087342
 20
3.0989847816
 30
0.0
 10
6.8003435941
 20
3.0989569985
 30
0.0
 10
6.8001112587
 20
3.0989569985
 30
0.0
  0
SPLINE
  5
3D2
100
AcDbEntity
  8
0
100
AcDbSpline
 62
7
  6
CONTINUOUS
 70
0
 71
3
 72
18
 73
14
 74
0
 42
0.0000001
 43
0.0000001
 44
0.0000000001
 40
0.0
 40
0.0
 40
0.0
 40
0.0
 40
0.1248081684
 40
0.249636719
 40
0.374500295
 40
0.4994060714
 40
0.624357189
 40
0.6869238438
 40
0.7495102716
 40
0.812114518
 40
0.8747338545
 40
0.9373638099
 40
1.0
 40
1.0
 40
1.0
 40
1.0
 10
6.8073779872
 20
3.1139912454
 30
0.0
 10
6.807288769
 20
3.1135369803
 30
0.0
 10
6.8070581579
 20
3.1126376061
 30
0.0
 10
6.8065509214
 20
3.1113406027
 30
0.0
 10
6.8058759128
 20
3.1101208594
 30
0.0
 10
6.8050284
 20
3.109012387
 30
0.0
 10
6.8041768085
 20
3.108216481
 30
0.0
 10
6.8034154607
 20
3.1076841696
 30
0.0
 10
6.8028065331
 20
3.1073435736
 30
0.0
 10
6.8021647306
 20
3.1070692005
 30
0.0
 10
6.8014961465
 20
3.1068676184
 30
0.0
 10
6.8008087028
 20
3.1067442616
 30
0.0
 10
6.8003435914
 20
3.1067165703
 30
0.0
 10
6.8001112587
 20
3.1067165703
 30
0.0
  0
SPLINE
  5
3D3
100
AcDbEntity
  8
0
100
AcDbSpline
 62
7
  6
CONTINUOUS
 70
0
 71
3
 72
18
 73
14
 74
0
 42
0.0000001
 43
0.0000001
 44
0.0000000001
 40
0.0
 40
0.0
 40
0.0
 40
0.0
 40
0.1244887484
 40
0.2490512711
 40
0.3737253695
 40
0.4985427113
 40
0.6235286929
 40
0.6861632319
 40
0.7488511295
 40
0.8115880411
 40
0.8743665255
 40
0.9371750093
 40
1.0
 40
1.0
 40
1.0
 40
1.0
 10
6.8073779872
 20
3.1221435331
 30
0.0
 10
6.8072887555
 20
3.1216919023
 30
0.0
 10
6.8070580697
 20
3.1207976623
 30
0.0
 10
6.8065507438
 20
3.1195082728
 30
0.0
 10
6.8058756085
 20
3.118295699
 30
0.0
 10
6.8050279381
 20
3.1171937792
 30
0.0
 10
6.8041764585
 20
3.1164028614
 30
0.0
 10
6.803415302
 20
3.115873881
 30
0.0
 10
6.8028063767
 20
3.1155353339
 30
0.0
 10
6.8021645912
 20
3.1152626198
 30
0.0
 10
6.8014960411
 20
3.1150622625
 30
0.0
 10
6.8008086448
 20
3.1149396582
 30
0.0
 10
6.8003435866
 20
3.114912137
 30
0.0
 10
6.8001112587
 20
3.114912137
 30
0.0
  0
SPLINE
  5
3D4
100
AcDbEntity
  8
0
100
AcDbSpline
 62
7
  6
CONTINUOUS
 70
0
 71
3
 72
18
 73
14
 74
0
 42
0.0000001
 43
0.0000001
 44
0.0000000001
 40
0.0
 40
0.0
 40
0.0
 40
0.0
 40
0.1240188675
 40
0.2481904021
 40
0.372586477
 40
0.4972746402
 40
0.6223126682
 40
0.6850472224
 40
0.7478843095
 40
0.8108160271
 40
0.8738280001
 40
0.9368982555
 40
1.0
 40
1.0
 40
1.0
 40
1.0
 10
6.8073779872
 20
3.1306895315
 30
0.0
 10
6.8072887355
 20
3.1302417409
 30
0.0
 10
6.8070579386
 20
3.1293549851
 30
0.0
 10
6.8065504803
 20
3.1280766972
 30
0.0
 10
6.8058751586
 20
3.1268745784
 30
0.0
 10
6.8050272584
 20
3.1257822159
 30
0.0
 10
6.8041759461
 20
3.1249985704
 30
0.0
 10
6.8034150703
 20
3.1244744443
 30
0.0
 10
6.8028061489
 20
3.1241388842
 30
0.0
 10
6.8021643889
 20
3.1238685884
 30
0.0
 10
6.8014958884
 20
3.1236700161
 30
0.0
 10
6.800808561
 20
3.1235485085
 30
0.0
 10
6.8003435796
 20
3.1235212351
 30
0.0
 10
6.8001112587
 20
3.1235212351
 30
0.0
  0
LINE
  5
3D5
100
AcDbEntity
  8
0
100
AcDbLine
 62
7
  6
CONTINUOUS
 10
6.8001112587
 20
3.130816977
 11
6.8073779872
 21
3.1306895315
  0
SPLINE
  5
3D6
100
AcDbEntity
  8
0
100
AcDbSpline
 62
7
  6
CONTINUOUS
 70
0
 71
3
 72
18
 73
14
 74
0
 42
0.0000001
 43
0.0000001
 44
0.0000000001
 40
0.0
 40
0.0
 40
0.0
 40
0.0
 40
0.1233950293
 40
0.2470485679
 40
0.3710775659
 40
0.4955967121
 40
0.6207058266
 40
0.6835734699
 40
0.74660832
 40
0.8097976601
 40
0.8731179119
 40
0.9365334291
 40
1.0
 40
1.0
 40
1.0
 40
1.0
 10
6.8073759897
 20
3.1396012298
 30
0.0
 10
6.8072864077
 20
3.1391589524
 30
0.0
 10
6.80705494
 20
3.138282996
 30
0.0
 10
6.8065467882
 20
3.1370208027
 30
0.0
 10
6.8058709828
 20
3.1358339524
 30
0.0
 10
6.8050228498
 20
3.1347556519
 30
0.0
 10
6.804172101
 20
3.1339827224
 30
0.0
 10
6.8034120369
 20
3.1334657895
 30
0.0
 10
6.8028035388
 20
3.1331346986
 30
0.0
 10
6.802162309
 20
3.1328680324
 30
0.0
 10
6.8014944372
 20
3.132672146
 30
0.0
 10
6.8008078125
 20
3.1325522914
 30
0.0
 10
6.8003433575
 20
3.1325253915
 30
0.0
 10
6.8001112587
 20
3.1325253915
 30
0.0
  0
SPLINE
  5
3D7
100
AcDbEntity
  8
0
100
AcDbSpline
 62
7
  6
CONTINUOUS
 70
0
 71
3
 72
18
 73
14
 74
0
 42
0.0000001
 43
0.0000001
 44
0.0000000001
 40
0.0
 40
0.0
 40
0.0
 40
0.0
 40
0.1891744315
 40
0.3683250305
 40
0.5299434933
 40
0.6698458315
 40
0.7864779138
 40
0.8360312161
 40
0.879836386
 40
0.9180012916
 40
0.9506523471
 40
0.9779334454
 40
1.0
 40
1.0
 40
1.0
 40
1.0
 10
6.8001112587
 20
3.1401099258
 30
0.0
 10
6.8005714586
 20
3.1401099258
 30
0.0
 10
6.8014674927
 20
3.1401026101
 30
0.0
 10
6.8027563332
 20
3.1400705113
 30
0.0
 10
6.8039246491
 20
3.1400203409
 30
0.0
 10
6.8049399029
 20
3.1399557988
 30
0.0
 10
6.805681739
 20
3.1398901697
 30
0.0
 10
6.8061892656
 20
3.1398318558
 30
0.0
 10
6.8065063545
 20
3.1397889348
 30
0.0
 10
6.8067816973
 20
3.139744734
 30
0.0
 10
6.8070160759
 20
3.1396995374
 30
0.0
 10
6.8072102488
 20
3.1396536076
 30
0.0
 10
6.807325401
 20
3.1396191857
 30
0.0
 10
6.8073759897
 20
3.1396012298
 30
0.0
  0
SPLINE
  5
3D8
100
AcDbEntity
  8
0
100
AcDbSpline
 62
7
  6
CONTINUOUS
 70
0
 71
3
 72
18
 73
14
 74
0
 42
0.0000001
 43
0.0000001
 44
0.0000000001
 40
0.0
 40
0.0
 40
0.0
 40
0.0
 40
0.122612848
 40
0.2456169543
 40
0.3691861562
 40
0.4934942574
 40
0.6186933523
 40
0.6817282284
 40
0.7450111423
 40
0.808523268
 40
0.8722294772
 40
0.9360770245
 40
1.0
 40
1.0
 40
1.0
 40
1.0
 10
6.8073779872
 20
3.1488679494
 30
0.0
 10
6.8072886737
 20
3.1484314084
 30
0.0
 10
6.807057536
 20
3.1475665758
 30
0.0
 10
6.8065496762
 20
3.1463208273
 30
0.0
 10
6.8058737971
 20
3.1451493636
 30
0.0
 10
6.8050252238
 20
3.1440850342
 30
0.0
 10
6.8041744317
 20
3.1433226974
 30
0.0
 10
6.8034143905
 20
3.1428127806
 30
0.0
 10
6.8028054845
 20
3.1424859728
 30
0.0
 10
6.8021638017
 20
3.1422227605
 30
0.0
 10
6.801495447
 20
3.142029415
 30
0.0
 10
6.8008083194
 20
3.1419111175
 30
0.0
 10
6.8003435594
 20
3.1418845691
 30
0.0
 10
6.8001112587
 20
3.1418845691
 30
0.0
  0
SPLINE
  5
3D9
100
AcDbEntity
  8
0
100
AcDbSpline
 62
7
  6
CONTINUOUS
 70
0
 71
3
 72
18
 73
14
 74
0
 42
0.0000001
 43
0.0000001
 44
0.0000000001
 40
0.0
 40
0.0
 40
0.0
 40
0.0
 40
0.1875895913
 40
0.3653281084
 40
0.5258553654
 40
0.6651062172
 40
0.78163095
 40
0.8313776395
 40
0.875566058
 40
0.9143339074
 40
0.9478497839
 40
0.976320286
 40
1.0
 40
1.0
 40
1.0
 40
1.0
 10
6.8001112587
 20
3.1497578958
 30
0.0
 10
6.8005719
 20
3.1497578958
 30
0.0
 10
6.8014690508
 20
3.1497450841
 30
0.0
 10
6.8027592909
 20
3.1496888785
 30
0.0
 10
6.8039288051
 20
3.1496010196
 30
0.0
 10
6.8049450273
 20
3.1494879838
 30
0.0
 10
6.8056867785
 20
3.1493730904
 30
0.0
 10
6.8061935133
 20
3.14927118
 30
0.0
 10
6.806510668
 20
3.1491960125
 30
0.0
 10
6.8067860866
 20
3.1491185604
 30
0.0
 10
6.8070206079
 20
3.1490392614
 30
0.0
 10
6.8072150382
 20
3.1489585284
 30
0.0
 10
6.8073286313
 20
3.1488986923
 30
0.0
 10
6.8073779872
 20
3.1488679494
 30
0.0
  0
SPLINE
  5
3DA
100
AcDbEntity
  8
0
100
AcDbSpline
 62
7
  6
CONTINUOUS
 70
0
 71
3
 72
18
 73
14
 74
0
 42
0.0000001
 43
0.0000001
 44
0.0000000001
 40
0.0
 40
0.0
 40
0.0
 40
0.0
 40
0.1216664513
 40
0.2438869098
 40
0.3669038321
 40
0.490961569
 40
0.6162734974
 40
0.6795113523
 40
0.743093806
 40
0.8069944697
 40
0.8711642515
 40
0.9355299872
 40
1.0
 40
1.0
 40
1.0
 40
1.0
 10
6.8073779872
 20
3.1584505431
 30
0.0
 10
6.8072886307
 20
3.1580213785
 30
0.0
 10
6.807057256
 20
3.1571709202
 30
0.0
 10
6.8065491215
 20
3.1559465237
 30
0.0
 10
6.8058728679
 20
3.1547951842
 30
0.0
 10
6.805023854
 20
3.1537492664
 30
0.0
 10
6.8041734282
 20
3.1530009052
 30
0.0
 10
6.8034139437
 20
3.1525002962
 30
0.0
 10
6.8028050511
 20
3.152179229
 30
0.0
 10
6.8021634214
 20
3.1519206609
 30
0.0
 10
6.8014951625
 20
3.1517307408
 30
0.0
 10
6.8008081642
 20
3.151614546
 30
0.0
 10
6.8003435464
 20
3.1515884723
 30
0.0
 10
6.8001112587
 20
3.1515884723
 30
0.0
  0
SPLINE
  5
3DB
100
AcDbEntity
  8
0
100
AcDbSpline
 62
7
  6
CONTINUOUS
 70
0
 71
3
 72
19
 73
15
 74
0
 42
0.0000001
 43
0.0000001
 44
0.0000000001
 40
0.0
 40
0.0
 40
0.0
 40
0.0
 40
0.1851512472
 40
0.3607375076
 40
0.5196356442
 40
0.6579590314
 40
0.718934573
 40
0.7744249111
 40
0.8245082983
 40
0.8693159889
 40
0.9090220473
 40
0.9438439091
 40
0.9740552036
 40
1.0
 40
1.0
 40
1.0
 40
1.0
 10
6.8001112587
 20
3.1597186025
 30
0.0
 10
6.80057195
 20
3.1597186025
 30
0.0
 10
6.8014696471
 20
3.1597003251
 30
0.0
 10
6.8027605045
 20
3.1596201812
 30
0.0
 10
6.8039306484
 20
3.1594947973
 30
0.0
 10
6.8048114522
 20
3.1593552546
 30
0.0
 10
6.8054322674
 20
3.1592262885
 30
0.0
 10
6.8058349276
 20
3.1591279184
 30
0.0
 10
6.8061947094
 20
3.159024718
 30
0.0
 10
6.8065121259
 20
3.1589174644
 30
0.0
 10
6.8067878792
 20
3.1588068587
 30
0.0
 10
6.807022828
 20
3.1586934776
 30
0.0
 10
6.8072177828
 20
3.1585778389
 30
0.0
 10
6.8073297051
 20
3.1584933948
 30
0.0
 10
6.8073779872
 20
3.1584505431
 30
0.0
  0
SPLINE
  5
3DC
100
AcDbEntity
  8
0
100
AcDbSpline
 62
7
  6
CONTINUOUS
 70
0
 71
3
 72
18
 73
14
 74
0
 42
0.0000001
 43
0.0000001
 44
0.0000000001
 40
0.0
 40
0.0
 40
0.0
 40
0.0
 40
0.1205490104
 40
0.2418464765
 40
0.3642158055
 40
0.4879835568
 40
0.6134331708
 40
0.6769114804
 40
0.7408469989
 40
0.805204186
 40
0.869917491
 40
0.9348899411
 40
1.0
 40
1.0
 40
1.0
 40
1.0
 10
6.8073779872
 20
3.1683273326
 30
0.0
 10
6.8072885782
 20
3.1679066842
 30
0.0
 10
6.8070569159
 20
3.1670728209
 30
0.0
 10
6.8065484524
 20
3.165873093
 30
0.0
 10
6.8058717578
 20
3.1647450125
 30
0.0
 10
6.8050222373
 20
3.1637203826
 30
0.0
 10
6.8041722599
 20
3.1629881589
 30
0.0
 10
6.8034134275
 20
3.1624982867
 30
0.0
 10
6.8028045534
 20
3.1621838488
 30
0.0
 10
6.802162987
 20
3.1619306421
 30
0.0
 10
6.8014948391
 20
3.1617446748
 30
0.0
 10
6.8008079883
 20
3.161630906
 30
0.0
 10
6.8003435317
 20
3.1616053797
 30
0.0
 10
6.8001112587
 20
3.1616053797
 30
0.0
  0
SPLINE
  5
3DD
100
AcDbEntity
  8
0
100
AcDbSpline
 62
7
  6
CONTINUOUS
 70
0
 71
3
 72
19
 73
15
 74
0
 42
0.0000001
 43
0.0000001
 44
0.0000000001
 40
0.0
 40
0.0
 40
0.0
 40
0.0
 40
0.182152402
 40
0.3551022092
 40
0.5120258502
 40
0.6492600545
 40
0.7100844786
 40
0.7657128543
 40
0.8162483605
 40
0.8618517417
 40
0.902733059
 40
0.9391540828
 40
0.9714422561
 40
1.0
 40
1.0
 40
1.0
 40
1.0
 10
6.8001112587
 20
3.1699700294
 30
0.0
 10
6.8005720169
 20
3.1699700294
 30
0.0
 10
6.8014704468
 20
3.169946321
 30
0.0
 10
6.8027621036
 20
3.1698423663
 30
0.0
 10
6.8039331004
 20
3.16967971
 30
0.0
 10
6.8048135044
 20
3.1694988238
 30
0.0
 10
6.8054333119
 20
3.1693319625
 30
0.0
 10
6.8058361553
 20
3.169204416
 30
0.0
 10
6.8061961529
 20
3.1690705669
 30
0.0
 10
6.8065138219
 20
3.1689314034
 30
0.0
 10
6.8067898651
 20
3.1687878039
 30
0.0
 10
6.8070251214
 20
3.1686404783
 30
0.0
 10
6.8072203545
 20
3.1684900592
 30
0.0
 10
6.8073305804
 20
3.168381838
 30
0.0
 10
6.8073779872
 20
3.1683273326
 30
0.0
  0
SPLINE
  5
3DE
100
AcDbEntity
  8
0
100
AcDbSpline
 62
7
  6
CONTINUOUS
 70
0
 71
3
 72
20
 73
16
 74
0
 42
0.0000001
 43
0.0000001
 44
0.0000000001
 40
0.0
 40
0.0
 40
0.0
 40
0.0
 40
0.1192297322
 40
0.179218861
 40
0.2395067256
 40
0.3611076188
 40
0.4845229934
 40
0.5470866932
 40
0.6102347797
 40
0.6739809162
 40
0.738312903
 40
0.8031843458
 40
0.8685106578
 40
0.9341676777
 40
1.0
 40
1.0
 40
1.0
 40
1.0
 10
6.8073779872
 20
3.1784712461
 30
0.0
 10
6.807288515
 20
3.1780602287
 30
0.0
 10
6.8071147689
 20
3.1774498864
 30
0.0
 10
6.8068039709
 20
3.1766636207
 30
0.0
 10
6.8064366257
 20
3.1758927242
 30
0.0
 10
6.8058705581
 20
3.1749716255
 30
0.0
 10
6.8051645354
 20
3.1741409327
 30
0.0
 10
6.8045156387
 20
3.1735467363
 30
0.0
 10
6.8039843906
 20
3.1731395769
 30
0.0
 10
6.8034128233
 20
3.1727793311
 30
0.0
 10
6.8028039997
 20
3.1724724207
 30
0.0
 10
6.8021625006
 20
3.1722252688
 30
0.0
 10
6.8014944802
 20
3.1720437717
 30
0.0
 10
6.8008077933
 20
3.1719327435
 30
0.0
 10
6.8003435154
 20
3.1719078356
 30
0.0
 10
6.8001112587
 20
3.1719078356
 30
0.0
  0
SPLINE
  5
3DF
100
AcDbEntity
  8
0
100
AcDbSpline
 62
7
  6
CONTINUOUS
 70
0
 71
3
 72
19
 73
15
 74
0
 42
0.0000001
 43
0.0000001
 44
0.0000000001
 40
0.0
 40
0.0
 40
0.0
 40
0.0
 40
0.178775998
 40
0.2653608754
 40
0.3487973214
 40
0.5035382378
 40
0.6396166188
 40
0.7003161657
 40
0.7561494249
 40
0.8072438534
 40
0.8537869959
 40
0.8960188492
 40
0.9342338508
 40
1.0
 40
1.0
 40
1.0
 40
1.0
 10
6.8001112587
 20
3.1804840777
 30
0.0
 10
6.8005720999
 20
3.1804840777
 30
0.0
 10
6.801256438
 20
3.1804619606
 30
0.0
 10
6.8021526119
 20
3.1803877045
 30
0.0
 10
6.8029841851
 20
3.1802899293
 30
0.0
 10
6.8039360843
 20
3.1801277481
 30
0.0
 10
6.8048159245
 20
3.1799059627
 30
0.0
 10
6.8054345205
 20
3.1797018104
 30
0.0
 10
6.8058375396
 20
3.1795453797
 30
0.0
 10
6.806197741
 20
3.1793811675
 30
0.0
 10
6.8065155808
 20
3.179210414
 30
0.0
 10
6.8067919235
 20
3.1790340449
 30
0.0
 10
6.8070907842
 20
3.1788043248
 30
0.0
 10
6.8072798593
 20
3.1786094889
 30
0.0
 10
6.8073779872
 20
3.1784712461
 30
0.0
  0
SPLINE
  5
3E0
100
AcDbEntity
  8
0
100
AcDbSpline
 62
7
  6
CONTINUOUS
 70
0
 71
3
 72
19
 73
15
 74
0
 42
0.0000001
 43
0.0000001
 44
0.0000000001
 40
0.0
 40
0.0
 40
0.0
 40
0.0
 40
0.1177627752
 40
0.2367689109
 40
0.2969420777
 40
0.3576265072
 40
0.4188897312
 40
0.480793251
 40
0.6066008146
 40
0.7353442445
 40
0.8008244557
 40
0.866870104
 40
0.9333263849
 40
1.0
 40
1.0
 40
1.0
 40
1.0
 10
6.8073779872
 20
3.18885448
 30
0.0
 10
6.8072884394
 20
3.1884541797
 30
0.0
 10
6.8070560734
 20
3.1876600432
 30
0.0
 10
6.8066328976
 20
3.1867123865
 30
0.0
 10
6.8062121241
 20
3.185989825
 30
0.0
 10
6.8058526782
 20
3.1854663705
 30
0.0
 10
6.8054500568
 20
3.1849674819
 30
0.0
 10
6.8048524956
 20
3.184337899
 30
0.0
 10
6.8039946353
 20
3.1836364637
 30
0.0
 10
6.8030121083
 20
3.183094908
 30
0.0
 10
6.8021619973
 20
3.182776353
 30
0.0
 10
6.801494081
 20
3.1825997971
 30
0.0
 10
6.800807584
 20
3.1824918243
 30
0.0
 10
6.8003434978
 20
3.1824676017
 30
0.0
 10
6.8001112587
 20
3.1824676017
 30
0.0
  0
SPLINE
  5
3E1
100
AcDbEntity
  8
0
100
AcDbSpline
 62
7
  6
CONTINUOUS
 70
0
 71
3
 72
19
 73
15
 74
0
 42
0.0000001
 43
0.0000001
 44
0.0000000001
 40
0.0
 40
0.0
 40
0.0
 40
0.0
 40
0.1751311765
 40
0.2600478597
 40
0.3419872354
 40
0.4944098644
 40
0.6293036114
 40
0.689906156
 40
0.7459987947
 40
0.7977300976
 40
0.8453087384
 40
0.8889953924
 40
0.9291029335
 40
1.0
 40
1.0
 40
1.0
 40
1.0
 10
6.8001112587
 20
3.1912319294
 30
0.0
 10
6.8005721981
 20
3.1912319294
 30
0.0
 10
6.8012570548
 20
3.1912057614
 30
0.0
 10
6.8021530508
 20
3.1911180467
 30
0.0
 10
6.8029855872
 20
3.1910024036
 30
0.0
 10
6.8039395112
 20
3.1908102501
 30
0.0
 10
6.8048186244
 20
3.1905481172
 30
0.0
 10
6.8054358366
 20
3.1903074033
 30
0.0
 10
6.8058390123
 20
3.190122464
 30
0.0
 10
6.8061993613
 20
3.1899282907
 30
0.0
 10
6.8065173423
 20
3.1897263417
 30
0.0
 10
6.8067937496
 20
3.1895177192
 30
0.0
 10
6.8070951495
 20
3.1892437416
 30
0.0
 10
6.8072818699
 20
3.1890144192
 30
0.0
 10
6.8073779872
 20
3.18885448
 30
0.0
  0
SPLINE
  5
3E2
100
AcDbEntity
  8
0
100
AcDbSpline
 62
7
  6
CONTINUOUS
 70
0
 71
3
 72
19
 73
15
 74
0
 42
0.0000001
 43
0.0000001
 44
0.0000000001
 40
0.0
 40
0.0
 40
0.0
 40
0.0
 40
0.1160790628
 40
0.2337113405
 40
0.2933520847
 40
0.3536263133
 40
0.4146156611
 40
0.476394275
 40
0.6024371623
 40
0.7320765706
 40
0.798228128
 40
0.8650659654
 40
0.9324014817
 40
1.0
 40
1.0
 40
1.0
 40
1.0
 10
6.8073759897
 20
3.1994461631
 30
0.0
 10
6.8072860465
 20
3.1990580493
 30
0.0
 10
6.8070526689
 20
3.1982877117
 30
0.0
 10
6.8066290123
 20
3.1973704237
 30
0.0
 10
6.806208313
 20
3.1966712966
 30
0.0
 10
6.8058487034
 20
3.1961643926
 30
0.0
 10
6.8054459951
 20
3.1956813229
 30
0.0
 10
6.804847644
 20
3.195070958
 30
0.0
 10
6.8039886875
 20
3.1943913747
 30
0.0
 10
6.8030080406
 20
3.1938683621
 30
0.0
 10
6.8021596145
 20
3.1935604758
 30
0.0
 10
6.8014924137
 20
3.1933896779
 30
0.0
 10
6.8008067212
 20
3.1932852366
 30
0.0
 10
6.8003432662
 20
3.1932618101
 30
0.0
 10
6.8001112587
 20
3.1932618101
 30
0.0
  0
SPLINE
  5
3E3
100
AcDbEntity
  8
0
100
AcDbSpline
 62
7
  6
CONTINUOUS
 70
0
 71
3
 72
16
 73
12
 74
0
 42
0.0000001
 43
0.0000001
 44
0.0000000001
 40
0.0
 40
0.0
 40
0.0
 40
0.0
 40
0.1713232108
 40
0.3348552818
 40
0.4849241591
 40
0.6186885185
 40
0.7356224272
 40
0.8367077316
 40
0.8819307181
 40
0.9239898492
 40
1.0
 40
1.0
 40
1.0
 40
1.0
 10
6.8001112587
 20
3.202177965
 30
0.0
 10
6.8005719005
 20
3.202177965
 30
0.0
 10
6.8014727745
 20
3.2021383229
 30
0.0
 10
6.8027667367
 20
3.2019645607
 30
0.0
 10
6.8039404087
 20
3.2016925444
 30
0.0
 10
6.804961621
 20
3.2013419012
 30
0.0
 10
6.8058164322
 20
3.200931584
 30
0.0
 10
6.8064091657
 20
3.2005392318
 30
0.0
 10
6.8067923103
 20
3.2002068774
 30
0.0
 10
6.8070960923
 20
3.1998894965
 30
0.0
 10
6.8072810435
 20
3.1996271399
 30
0.0
 10
6.8073759897
 20
3.1994461631
 30
0.0
  0
SPLINE
  5
3E4
100
AcDbEntity
  8
0
100
AcDbSpline
 62
7
  6
CONTINUOUS
 70
0
 71
3
 72
15
 73
11
 74
0
 42
0.0000001
 43
0.0000001
 44
0.0000000001
 40
0.0
 40
0.0
 40
0.0
 40
0.0
 40
0.1142407157
 40
0.2303863131
 40
0.3492179851
 40
0.471505419
 40
0.5978822326
 40
0.7285957427
 40
0.8631414013
 40
1.0
 40
1.0
 40
1.0
 40
1.0
 10
6.8073779872
 20
3.2102244919
 30
0.0
 10
6.8072882422
 20
3.2098487525
 30
0.0
 10
6.8070547664
 20
3.2091024019
 30
0.0
 10
6.8065443308
 20
3.2080331179
 30
0.0
 10
6.8058652122
 20
3.2070282216
 30
0.0
 10
6.8050129592
 20
3.2061163719
 30
0.0
 10
6.8039885898
 20
3.2053336655
 30
0.0
 10
6.8028047658
 20
3.2047237191
 30
0.0
 10
6.8014943225
 20
3.204332562
 30
0.0
 10
6.8005740503
 20
3.2042426642
 30
0.0
 10
6.8001112587
 20
3.2042426642
 30
0.0
  0
SPLINE
  5
3E5
100
AcDbEntity
  8
0
100
AcDbSpline
 62
7
  6
CONTINUOUS
 70
0
 71
3
 72
15
 73
11
 74
0
 42
0.0000001
 43
0.0000001
 44
0.0000000001
 40
0.0
 40
0.0
 40
0.0
 40
0.0
 40
0.1675923708
 40
0.3279049279
 40
0.4756819043
 40
0.6083713885
 40
0.725630144
 40
0.8285530806
 40
0.9191292501
 40
1.0
 40
1.0
 40
1.0
 40
1.0
 10
6.8001112587
 20
3.2133106462
 30
0.0
 10
6.8005724355
 20
3.2133106462
 30
0.0
 10
6.8014754443
 20
3.2132657328
 30
0.0
 10
6.8027717767
 20
3.2130689394
 30
0.0
 10
6.8039474524
 20
3.2127608447
 30
0.0
 10
6.8049701037
 20
3.212363647
 30
0.0
 10
6.8058259197
 20
3.2118986763
 30
0.0
 10
6.8065127981
 20
3.2113832788
 30
0.0
 10
6.8070337419
 20
3.2108312818
 30
0.0
 10
6.8072844947
 20
3.2104264385
 30
0.0
 10
6.8073779872
 20
3.2102244919
 30
0.0
  0
SPLINE
  5
3E6
100
AcDbEntity
  8
0
100
AcDbSpline
 62
7
  6
CONTINUOUS
 70
0
 71
3
 72
15
 73
11
 74
0
 42
0.0000001
 43
0.0000001
 44
0.0000000001
 40
0.0
 40
0.0
 40
0.0
 40
0.0
 40
0.1121198413
 40
0.2265489114
 40
0.3442185106
 40
0.4660350225
 40
0.5927297499
 40
0.7245666192
 40
0.8609239241
 40
1.0
 40
1.0
 40
1.0
 40
1.0
 10
6.8073779872
 20
3.2211526962
 30
0.0
 10
6.8072881144
 20
3.2207907263
 30
0.0
 10
6.8070539595
 20
3.2200712144
 30
0.0
 10
6.8065428409
 20
3.2190420789
 30
0.0
 10
6.8058629276
 20
3.218075148
 30
0.0
 10
6.8050099497
 20
3.2171981203
 30
0.0
 10
6.8039852032
 20
3.2164457567
 30
0.0
 10
6.8028017033
 20
3.2158598994
 30
0.0
 10
6.8014924319
 20
3.2154844765
 30
0.0
 10
6.8005738873
 20
3.2153982766
 30
0.0
 10
6.8001112587
 20
3.2153982766
 30
0.0
  0
SPLINE
  5
3E7
100
AcDbEntity
  8
0
100
AcDbSpline
 62
7
  6
CONTINUOUS
 70
0
 71
3
 72
15
 73
11
 74
0
 42
0.0000001
 43
0.0000001
 44
0.0000000001
 40
0.0
 40
0.0
 40
0.0
 40
0.0
 40
0.1638182056
 40
0.3208967025
 40
0.4664109639
 40
0.5980933877
 40
0.715760089
 40
0.8205705026
 40
0.9144868171
 40
1.0
 40
1.0
 40
1.0
 40
1.0
 10
6.8001112587
 20
3.224580995
 30
0.0
 10
6.8005725721
 20
3.224580995
 30
0.0
 10
6.8014770667
 20
3.2245309653
 30
0.0
 10
6.8027748329
 20
3.2243118376
 30
0.0
 10
6.8039517369
 20
3.2239687561
 30
0.0
 10
6.804975294
 20
3.2235264116
 30
0.0
 10
6.8058315817
 20
3.22300854
 30
0.0
 10
6.8065182602
 20
3.2224346487
 30
0.0
 10
6.8070380931
 20
3.221820488
 30
0.0
 10
6.8072853532
 20
3.2213749717
 30
0.0
 10
6.8073779872
 20
3.2211526962
 30
0.0
  0
SPLINE
  5
3E8
100
AcDbEntity
  8
0
100
AcDbSpline
 62
7
  6
CONTINUOUS
 70
0
 71
3
 72
18
 73
14
 74
0
 42
0.0000001
 43
0.0000001
 44
0.0000000001
 40
0.0
 40
0.0
 40
0.0
 40
0.0
 40
0.1097204468
 40
0.2222107433
 40
0.3385665988
 40
0.3985766164
 40
0.4599384558
 40
0.5869553389
 40
0.7199878258
 40
0.7886420733
 40
0.8584147402
 40
0.9289948402
 40
1.0
 40
1.0
 40
1.0
 40
1.0
 10
6.8073779872
 20
3.2322032339
 30
0.0
 10
6.8072879615
 20
3.2318559713
 30
0.0
 10
6.8070529862
 20
3.2311651176
 30
0.0
 10
6.8065411721
 20
3.2301790397
 30
0.0
 10
6.8059792653
 20
3.2294146105
 30
0.0
 10
6.805447551
 20
3.2288466774
 30
0.0
 10
6.8048457837
 20
3.2283001126
 30
0.0
 10
6.8039815922
 20
3.2276930683
 30
0.0
 10
6.8030050194
 20
3.2272308024
 30
0.0
 10
6.8021595069
 20
3.2269577426
 30
0.0
 10
6.8014922752
 20
3.2268057558
 30
0.0
 10
6.800806618
 20
3.2267128292
 30
0.0
 10
6.8003434173
 20
3.226691995
 30
0.0
 10
6.8001112587
 20
3.226691995
 30
0.0
  0
SPLINE
  5
3E9
100
AcDbEntity
  8
0
100
AcDbSpline
 62
7
  6
CONTINUOUS
 70
0
 71
3
 72
15
 73
11
 74
0
 42
0.0000001
 43
0.0000001
 44
0.0000000001
 40
0.0
 40
0.0
 40
0.0
 40
0.0
 40
0.1601339814
 40
0.3140730217
 40
0.4574225051
 40
0.5881875029
 40
0.7063189795
 40
0.8130030556
 40
0.9101289269
 40
1.0
 40
1.0
 40
1.0
 40
1.0
 10
6.8001112587
 20
3.2359642805
 30
0.0
 10
6.8005727187
 20
3.2359642805
 30
0.0
 10
6.8014788036
 20
3.2359092333
 30
0.0
 10
6.8027780566
 20
3.2356682391
 30
0.0
 10
6.8039561421
 20
3.2352909372
 30
0.0
 10
6.8049804328
 20
3.2348045048
 30
0.0
 10
6.8058369066
 20
3.2342351055
 30
0.0
 10
6.8065230711
 20
3.2336044399
 30
0.0
 10
6.8070416407
 20
3.2329301759
 30
0.0
 10
6.8072860169
 20
3.232445336
 30
0.0
 10
6.8073779872
 20
3.2322032339
 30
0.0
  0
SPLINE
  5
3EA
100
AcDbEntity
  8
0
100
AcDbSpline
 62
7
  6
CONTINUOUS
 70
0
 71
3
 72
17
 73
13
 74
0
 42
0.0000001
 43
0.0000001
 44
0.0000000001
 40
0.0
 40
0.0
 40
0.0
 40
0.0
 40
0.1071284821
 40
0.2175534852
 40
0.3325500188
 40
0.3921939462
 40
0.453418569
 40
0.5808837272
 40
0.7153100506
 40
0.7849702907
 40
0.8559128315
 40
1.0
 40
1.0
 40
1.0
 40
1.0
 10
6.8073779872
 20
3.2433458164
 30
0.0
 10
6.8072877779
 20
3.2430141532
 30
0.0
 10
6.8070518501
 20
3.24235373
 30
0.0
 10
6.8065391597
 20
3.2414133618
 30
0.0
 10
6.8059775904
 20
3.2406860724
 30
0.0
 10
6.8054467287
 20
3.2401457938
 30
0.0
 10
6.8048436628
 20
3.2396238886
 30
0.0
 10
6.803977709
 20
3.2390449065
 30
0.0
 10
6.8030030594
 20
3.2386057563
 30
0.0
 10
6.8021587636
 20
3.2383459786
 30
0.0
 10
6.8012653828
 20
3.2381520165
 30
0.0
 10
6.8005735498
 20
3.238092864
 30
0.0
 10
6.8001112587
 20
3.238092864
 30
0.0
  0
SPLINE
  5
3EB
100
AcDbEntity
  8
0
100
AcDbSpline
 62
7
  6
CONTINUOUS
 70
0
 71
3
 72
15
 73
11
 74
0
 42
0.0000001
 43
0.0000001
 44
0.0000000001
 40
0.0
 40
0.0
 40
0.0
 40
0.0
 40
0.1565799892
 40
0.3075074414
 40
0.4488102452
 40
0.5787502265
 40
0.6973874842
 40
0.8059011403
 40
0.9060731548
 40
1.0
 40
1.0
 40
1.0
 40
1.0
 10
6.8001112587
 20
3.247429302
 30
0.0
 10
6.8005728736
 20
3.247429302
 30
0.0
 10
6.8014806351
 20
3.2473693496
 30
0.0
 10
6.8027814024
 20
3.2471070206
 30
0.0
 10
6.8039605944
 20
3.2466963792
 30
0.0
 10
6.8049854325
 20
3.2461670861
 30
0.0
 10
6.8058418364
 20
3.2455477378
 30
0.0
 10
6.8065272664
 20
3.2448622131
 30
0.0
 10
6.8070445391
 20
3.2441300122
 30
0.0
 10
6.8072865375
 20
3.2436071863
 30
0.0
 10
6.8073779872
 20
3.2433458164
 30
0.0
  0
SPLINE
  5
3EC
100
AcDbEntity
  8
0
100
AcDbSpline
 62
7
  6
CONTINUOUS
 70
0
 71
3
 72
17
 73
13
 74
0
 42
0.0000001
 43
0.0000001
 44
0.0000000001
 40
0.0
 40
0.0
 40
0.0
 40
0.0
 40
0.1042551642
 40
0.2124064736
 40
0.3259214055
 40
0.3851713832
 40
0.4462525835
 40
0.5742139328
 40
0.7101480108
 40
0.7808894015
 40
0.8530856579
 40
1.0
 40
1.0
 40
1.0
 40
1.0
 10
6.8073779872
 20
3.2545499025
 30
0.0
 10
6.8072875558
 20
3.2542346821
 30
0.0
 10
6.8070504943
 20
3.2536063596
 30
0.0
 10
6.8065368232
 20
3.2527143366
 30
0.0
 10
6.8059757085
 20
3.2520263029
 30
0.0
 10
6.8054458216
 20
3.2515151873
 30
0.0
 10
6.8048413595
 20
3.2510194085
 30
0.0
 10
6.8039736367
 20
3.250470156
 30
0.0
 10
6.8030010111
 20
3.2500552576
 30
0.0
 10
6.8021580738
 20
3.2498094387
 30
0.0
 10
6.8012643411
 20
3.2496255567
 30
0.0
 10
6.8005733792
 20
3.2495696346
 30
0.0
 10
6.8001112587
 20
3.2495696346
 30
0.0
  0
SPLINE
  5
3ED
100
AcDbEntity
  8
0
100
AcDbSpline
 62
7
  6
CONTINUOUS
 70
0
 71
3
 72
15
 73
11
 74
0
 42
0.0000001
 43
0.0000001
 44
0.0000000001
 40
0.0
 40
0.0
 40
0.0
 40
0.0
 40
0.1531849206
 40
0.3012514458
 40
0.4406376651
 40
0.5698433532
 40
0.6890124756
 40
0.7992888446
 40
0.9023237212
 40
1.0
 40
1.0
 40
1.0
 40
1.0
 10
6.8001112587
 20
3.2589446346
 30
0.0
 10
6.8005730352
 20
3.2589446346
 30
0.0
 10
6.8014825403
 20
3.2588799034
 30
0.0
 10
6.802784826
 20
3.2585968374
 30
0.0
 10
6.8039650276
 20
3.2581538532
 30
0.0
 10
6.8049902261
 20
3.2575830882
 30
0.0
 10
6.8058463454
 20
3.256915553
 30
0.0
 10
6.8065309028
 20
3.2561772434
 30
0.0
 10
6.8070469172
 20
3.255389364
 30
0.0
 10
6.8072869513
 20
3.2548299214
 30
0.0
 10
6.8073779872
 20
3.2545499025
 30
0.0
  0
SPLINE
  5
3EE
100
AcDbEntity
  8
0
100
AcDbSpline
 62
7
  6
CONTINUOUS
 70
0
 71
3
 72
16
 73
12
 74
0
 42
0.0000001
 43
0.0000001
 44
0.0000000001
 40
0.0
 40
0.0
 40
0.0
 40
0.0
 40
0.1011195525
 40
0.2068244569
 40
0.3187822507
 40
0.4384960221
 40
0.5016749777
 40
0.5671437565
 40
0.7047302738
 40
0.8500702978
 40
1.0
 40
1.0
 40
1.0
 40
1.0
 10
6.8073759897
 20
3.2657847826
 30
0.0
 10
6.8072849761
 20
3.2654871067
 30
0.0
 10
6.8070460398
 20
3.2648931479
 30
0.0
 10
6.8065306912
 20
3.2640529754
 30
0.0
 10
6.8058469458
 20
3.2632651885
 30
0.0
 10
6.805146398
 20
3.2626815929
 30
0.0
 10
6.8045055972
 20
3.2622634072
 30
0.0
 10
6.8037856966
 20
3.2618701662
 30
0.0
 10
6.802785944
 20
3.2614690999
 30
0.0
 10
6.8014833239
 20
3.2611665457
 30
0.0
 10
6.8005727909
 20
3.2610972826
 30
0.0
 10
6.8001112587
 20
3.2610972826
 30
0.0
  0
SPLINE
  5
3EF
100
AcDbEntity
  8
0
100
AcDbSpline
 62
7
  6
CONTINUOUS
 70
0
 71
3
 72
16
 73
12
 74
0
 42
0.0000001
 43
0.0000001
 44
0.0000000001
 40
0.0
 40
0.0
 40
0.0
 40
0.0
 40
0.1499292053
 40
0.2952690675
 40
0.4328555743
 40
0.4983243597
 40
0.5615032878
 40
0.6812172031
 40
0.7931752269
 40
0.8988803904
 40
1.0
 40
1.0
 40
1.0
 40
1.0
 10
6.8001112587
 20
3.2704722826
 30
0.0
 10
6.8005727894
 20
3.2704722826
 30
0.0
 10
6.8014833203
 20
3.2704030198
 30
0.0
 10
6.8027859386
 20
3.270100467
 30
0.0
 10
6.803785691
 20
3.2696994015
 30
0.0
 10
6.8045055919
 20
3.2693061614
 30
0.0
 10
6.8051463932
 20
3.2688879756
 30
0.0
 10
6.8058469425
 20
3.2683043802
 30
0.0
 10
6.8065306896
 20
3.2675165922
 30
0.0
 10
6.8070460394
 20
3.2666764184
 30
0.0
 10
6.8072849761
 20
3.2660824587
 30
0.0
 10
6.8073759897
 20
3.2657847826
 30
0.0
  0
SPLINE
  5
3F0
100
AcDbEntity
  8
0
100
AcDbSpline
 62
7
  6
CONTINUOUS
 70
0
 71
3
 72
15
 73
11
 74
0
 42
0.0000001
 43
0.0000001
 44
0.0000000001
 40
0.0
 40
0.0
 40
0.0
 40
0.0
 40
0.0976752157
 40
0.2007087792
 40
0.3109837768
 40
0.4301528121
 40
0.5593576991
 40
0.6987443268
 40
0.8468124101
 40
1.0
 40
1.0
 40
1.0
 40
1.0
 10
6.8073779872
 20
3.2770196627
 30
0.0
 10
6.8072869523
 20
3.2767396468
 30
0.0
 10
6.8070469214
 20
3.2761802108
 30
0.0
 10
6.8065309161
 20
3.2753923391
 30
0.0
 10
6.8058463677
 20
3.2746540326
 30
0.0
 10
6.8049902564
 20
3.2739864981
 30
0.0
 10
6.8039650623
 20
3.2734157284
 30
0.0
 10
6.8027848601
 20
3.2729727354
 30
0.0
 10
6.8014825613
 20
3.2726896624
 30
0.0
 10
6.8005730432
 20
3.2726249307
 30
0.0
 10
6.8001112587
 20
3.2726249307
 30
0.0
  0
SPLINE
  5
3F1
100
AcDbEntity
  8
0
100
AcDbSpline
 62
7
  6
CONTINUOUS
 70
0
 71
3
 72
17
 73
13
 74
0
 42
0.0000001
 43
0.0000001
 44
0.0000000001
 40
0.0
 40
0.0
 40
0.0
 40
0.0
 40
0.1469117828
 40
0.2191073415
 40
0.2898478991
 40
0.4257815088
 40
0.5537435764
 40
0.6148249386
 40
0.6740747715
 40
0.7875910554
 40
0.895743707
 40
1.0
 40
1.0
 40
1.0
 40
1.0
 10
6.8001112587
 20
3.2819999307
 30
0.0
 10
6.8005733711
 20
3.2819999307
 30
0.0
 10
6.8012643225
 20
3.2819440087
 30
0.0
 10
6.8021580432
 20
3.2817601326
 30
0.0
 10
6.8030009752
 20
3.2815143183
 30
0.0
 10
6.8039736018
 20
3.2810994277
 30
0.0
 10
6.8048413295
 20
3.28055018
 30
0.0
 10
6.8054457942
 20
3.2800544009
 30
0.0
 10
6.8059756877
 20
3.279543286
 30
0.0
 10
6.8065368099
 20
3.2788552479
 30
0.0
 10
6.8070504902
 20
3.2779632163
 30
0.0
 10
6.8072875548
 20
3.2773348866
 30
0.0
 10
6.8073779872
 20
3.2770196627
 30
0.0
  0
SPLINE
  5
3F2
100
AcDbEntity
  8
0
100
AcDbSpline
 62
7
  6
CONTINUOUS
 70
0
 71
3
 72
15
 73
11
 74
0
 42
0.0000001
 43
0.0000001
 44
0.0000000001
 40
0.0
 40
0.0
 40
0.0
 40
0.0
 40
0.0939258186
 40
0.1940965346
 40
0.3026088063
 40
0.4212459409
 40
0.5511850754
 40
0.6924882557
 40
0.8434172825
 40
1.0
 40
1.0
 40
1.0
 40
1.0
 10
6.8073779872
 20
3.2882237488
 30
0.0
 10
6.8072865385
 20
3.2879623818
 30
0.0
 10
6.8070445434
 20
3.2874395621
 30
0.0
 10
6.8065272798
 20
3.2867073682
 30
0.0
 10
6.8058418587
 20
3.2860218463
 30
0.0
 10
6.8049854629
 20
3.2854024987
 30
0.0
 10
6.8039606292
 20
3.2848732012
 30
0.0
 10
6.8027814364
 20
3.2844625515
 30
0.0
 10
6.801480656
 20
3.2842002162
 30
0.0
 10
6.8005728817
 20
3.2841402632
 30
0.0
 10
6.8001112587
 20
3.2841402632
 30
0.0
  0
SPLINE
  5
3F3
100
AcDbEntity
  8
0
100
AcDbSpline
 62
7
  6
CONTINUOUS
 70
0
 71
3
 72
17
 73
13
 74
0
 42
0.0000001
 43
0.0000001
 44
0.0000000001
 40
0.0
 40
0.0
 40
0.0
 40
0.0
 40
0.1440846583
 40
0.2150265088
 40
0.2846859205
 40
0.4191117467
 40
0.5465775853
 40
0.6078023604
 40
0.6674461239
 40
0.7824440019
 40
0.8928703607
 40
1.0
 40
1.0
 40
1.0
 40
1.0
 10
6.8001112587
 20
3.2934767013
 30
0.0
 10
6.8005735418
 20
3.2934767013
 30
0.0
 10
6.8012653642
 20
3.2934175489
 30
0.0
 10
6.8021587329
 20
3.2932235931
 30
0.0
 10
6.8030030234
 20
3.2929638202
 30
0.0
 10
6.8039776741
 20
3.2925246783
 30
0.0
 10
6.8048436328
 20
3.2919457011
 30
0.0
 10
6.8054467013
 20
3.2914237957
 30
0.0
 10
6.8059775697
 20
3.2908835177
 30
0.0
 10
6.8065391465
 20
3.2901562237
 30
0.0
 10
6.8070518461
 20
3.2892158464
 30
0.0
 10
6.8072877769
 20
3.2885554156
 30
0.0
 10
6.8073779872
 20
3.2882237488
 30
0.0
  0
SPLINE
  5
3F4
100
AcDbEntity
  8
0
100
AcDbSpline
 62
7
  6
CONTINUOUS
 70
0
 71
3
 72
15
 73
11
 74
0
 42
0.0000001
 43
0.0000001
 44
0.0000000001
 40
0.0
 40
0.0
 40
0.0
 40
0.0
 40
0.0898700857
 40
0.1869946728
 40
0.2936773494
 40
0.4118086648
 40
0.5425727678
 40
0.6859225952
 40
0.8398632283
 40
1.0
 40
1.0
 40
1.0
 40
1.0
 10
6.8073779872
 20
3.2993663313
 30
0.0
 10
6.8072860179
 20
3.2991242318
 30
0.0
 10
6.8070416451
 20
3.2986393978
 30
0.0
 10
6.8065230846
 20
3.2979651402
 30
0.0
 10
6.8058369289
 20
3.2973344771
 30
0.0
 10
6.8049804632
 20
3.2967650784
 30
0.0
 10
6.8039561768
 20
3.2962786419
 30
0.0
 10
6.8027780904
 20
3.2959013324
 30
0.0
 10
6.8014788244
 20
3.2956603324
 30
0.0
 10
6.8005727267
 20
3.2956052847
 30
0.0
 10
6.8001112587
 20
3.2956052847
 30
0.0
  0
SPLINE
  5
3F5
100
AcDbEntity
  8
0
100
AcDbSpline
 62
7
  6
CONTINUOUS
 70
0
 71
3
 72
18
 73
14
 74
0
 42
0.0000001
 43
0.0000001
 44
0.0000000001
 40
0.0
 40
0.0
 40
0.0
 40
0.0
 40
0.0710045161
 40
0.1415827942
 40
0.2113547774
 40
0.2800082011
 40
0.4130401637
 40
0.5400576922
 40
0.6014196752
 40
0.6614295118
 40
0.777786705
 40
0.89027837
 40
1.0
 40
1.0
 40
1.0
 40
1.0
 10
6.8001112587
 20
3.3048775702
 30
0.0
 10
6.8003434152
 20
3.3048775702
 30
0.0
 10
6.8008066079
 20
3.3048567371
 30
0.0
 10
6.8014922546
 20
3.3047638108
 30
0.0
 10
6.8021594762
 20
3.3046118295
 30
0.0
 10
6.8030049833
 20
3.3043387747
 30
0.0
 10
6.8039815573
 20
3.3038765176
 30
0.0
 10
6.8048457538
 20
3.3032694783
 30
0.0
 10
6.8054475236
 20
3.3027229133
 30
0.0
 10
6.8059792446
 20
3.3021549809
 30
0.0
 10
6.8065411589
 20
3.3013905467
 30
0.0
 10
6.8070529822
 20
3.3004044592
 30
0.0
 10
6.8072879606
 20
3.2997135976
 30
0.0
 10
6.8073779872
 20
3.2993663313
 30
0.0
  0
SPLINE
  5
3F6
100
AcDbEntity
  8
0
100
AcDbSpline
 62
7
  6
CONTINUOUS
 70
0
 71
3
 72
15
 73
11
 74
0
 42
0.0000001
 43
0.0000001
 44
0.0000000001
 40
0.0
 40
0.0
 40
0.0
 40
0.0
 40
0.0855122372
 40
0.1794272813
 40
0.284236278
 40
0.401902778
 40
0.5335842578
 40
0.679098831
 40
0.8361789402
 40
1.0
 40
1.0
 40
1.0
 40
1.0
 10
6.8073779872
 20
3.310416869
 30
0.0
 10
6.8072853542
 20
3.310194596
 30
0.0
 10
6.8070380976
 20
3.309749085
 30
0.0
 10
6.8065182738
 20
3.3091349302
 30
0.0
 10
6.805831604
 20
3.3085610411
 30
0.0
 10
6.8049753244
 20
3.3080431701
 30
0.0
 10
6.8039517716
 20
3.3076008217
 30
0.0
 10
6.8027748667
 20
3.3072577334
 30
0.0
 10
6.8014770874
 20
3.3070386004
 30
0.0
 10
6.8005725802
 20
3.3069885702
 30
0.0
 10
6.8001112587
 20
3.3069885702
 30
0.0
  0
SPLINE
  5
3F7
100
AcDbEntity
  8
0
100
AcDbSpline
 62
7
  6
CONTINUOUS
 70
0
 71
3
 72
15
 73
11
 74
0
 42
0.0000001
 43
0.0000001
 44
0.0000000001
 40
0.0
 40
0.0
 40
0.0
 40
0.0
 40
0.1390736512
 40
0.2754294597
 40
0.4072657773
 40
0.5339611168
 40
0.655777572
 40
0.773448503
 40
0.8878789528
 40
1.0
 40
1.0
 40
1.0
 40
1.0
 10
6.8001112587
 20
3.3161712886
 30
0.0
 10
6.8005738792
 20
3.3161712886
 30
0.0
 10
6.8014924105
 20
3.3160850895
 30
0.0
 10
6.8028016685
 20
3.3157096761
 30
0.0
 10
6.8039851685
 20
3.3151238302
 30
0.0
 10
6.8050099196
 20
3.3143714724
 30
0.0
 10
6.8058629055
 20
3.3134944438
 30
0.0
 10
6.806542828
 20
3.3125275085
 30
0.0
 10
6.8070539556
 20
3.3114983629
 30
0.0
 10
6.8072881134
 20
3.3107788427
 30
0.0
 10
6.8073779872
 20
3.310416869
 30
0.0
  0
SPLINE
  5
3F8
100
AcDbEntity
  8
0
100
AcDbSpline
 62
7
  6
CONTINUOUS
 70
0
 71
3
 72
15
 73
11
 74
0
 42
0.0000001
 43
0.0000001
 44
0.0000000001
 40
0.0
 40
0.0
 40
0.0
 40
0.0
 40
0.0808698481
 40
0.1714447597
 40
0.2743662598
 40
0.3916247726
 40
0.5243132624
 40
0.6720905189
 40
0.8324047091
 40
1.0
 40
1.0
 40
1.0
 40
1.0
 10
6.8073779872
 20
3.3213450734
 30
0.0
 10
6.8072844958
 20
3.321143129
 30
0.0
 10
6.8070337465
 20
3.3207382906
 30
0.0
 10
6.8065128119
 20
3.3201862988
 30
0.0
 10
6.8058259421
 20
3.3196709032
 30
0.0
 10
6.8049701342
 20
3.319205933
 30
0.0
 10
6.8039474871
 20
3.3188087319
 30
0.0
 10
6.8027718103
 20
3.318500631
 30
0.0
 10
6.8014754649
 20
3.3183038328
 30
0.0
 10
6.8005724436
 20
3.318258919
 30
0.0
 10
6.8001112587
 20
3.318258919
 30
0.0
  0
SPLINE
  5
3F9
100
AcDbEntity
  8
0
100
AcDbSpline
 62
7
  6
CONTINUOUS
 70
0
 71
3
 72
15
 73
11
 74
0
 42
0.0000001
 43
0.0000001
 44
0.0000000001
 40
0.0
 40
0.0
 40
0.0
 40
0.0
 40
0.1368562123
 40
0.2714003831
 40
0.4021133175
 40
0.5284907139
 40
0.6507780696
 40
0.769611069
 40
0.8857580571
 40
1.0
 40
1.0
 40
1.0
 40
1.0
 10
6.8001112587
 20
3.327326901
 30
0.0
 10
6.8005740422
 20
3.327326901
 30
0.0
 10
6.8014943011
 20
3.3272370041
 30
0.0
 10
6.802804731
 20
3.3268458569
 30
0.0
 10
6.8039885551
 20
3.3262359222
 30
0.0
 10
6.8050129291
 20
3.3254532218
 30
0.0
 10
6.8058651902
 20
3.3245413712
 30
0.0
 10
6.8065443179
 20
3.3235364703
 30
0.0
 10
6.8070547624
 20
3.3224671757
 30
0.0
 10
6.8072882412
 20
3.3217208168
 30
0.0
 10
6.8073779872
 20
3.3213450734
 30
0.0
  0
SPLINE
  5
3FA
100
AcDbEntity
  8
0
100
AcDbSpline
 62
7
  6
CONTINUOUS
 70
0
 71
3
 72
16
 73
12
 74
0
 42
0.0000001
 43
0.0000001
 44
0.0000000001
 40
0.0
 40
0.0
 40
0.0
 40
0.0
 40
0.0760101068
 40
0.11806917
 40
0.1632919949
 40
0.264377062
 40
0.3813107812
 40
0.5150751242
 40
0.6651439895
 40
0.8286762252
 40
1.0
 40
1.0
 40
1.0
 40
1.0
 10
6.8073759897
 20
3.3321234021
 30
0.0
 10
6.8072810436
 20
3.3319424254
 30
0.0
 10
6.8070960926
 20
3.3316800691
 30
0.0
 10
6.8067923111
 20
3.3313626887
 30
0.0
 10
6.8064091677
 20
3.3310303349
 30
0.0
 10
6.8058164356
 20
3.3306379832
 30
0.0
 10
6.8049616259
 20
3.3302276659
 30
0.0
 10
6.8039404143
 20
3.3298770224
 30
0.0
 10
6.802766742
 20
3.3296050054
 30
0.0
 10
6.801472778
 20
3.3294312425
 30
0.0
 10
6.800571902
 20
3.3293916003
 30
0.0
 10
6.8001112587
 20
3.3293916003
 30
0.0
  0
SPLINE
  5
3FB
100
AcDbEntity
  8
0
100
AcDbSpline
 62
7
  6
CONTINUOUS
 70
0
 71
3
 72
19
 73
15
 74
0
 42
0.0000001
 43
0.0000001
 44
0.0000000001
 40
0.0
 40
0.0
 40
0.0
 40
0.0
 40
0.0675983801
 40
0.1349335866
 40
0.2017713183
 40
0.2679228209
 40
0.3975621925
 40
0.5236050348
 40
0.5853837212
 40
0.6463731153
 40
0.7066474197
 40
0.7662883141
 40
0.8839208724
 40
1.0
 40
1.0
 40
1.0
 40
1.0
 10
6.8001112587
 20
3.3383077551
 30
0.0
 10
6.8003432657
 20
3.3383077551
 30
0.0
 10
6.8008067192
 20
3.3382843288
 30
0.0
 10
6.8014924098
 20
3.3381798879
 30
0.0
 10
6.8021596092
 20
3.338009091
 30
0.0
 10
6.8030080349
 20
3.3377012057
 30
0.0
 10
6.8039886819
 20
3.3371781943
 30
0.0
 10
6.8048476389
 20
3.3364986116
 30
0.0
 10
6.8054459908
 20
3.3358882472
 30
0.0
 10
6.8058486999
 20
3.3354051773
 30
0.0
 10
6.8062083103
 20
3.3348982727
 30
0.0
 10
6.806629011
 20
3.3341991444
 30
0.0
 10
6.8070526685
 20
3.3332818549
 30
0.0
 10
6.8072860464
 20
3.3325115162
 30
0.0
 10
6.8073759897
 20
3.3321234021
 30
0.0
  0
SPLINE
  5
3FC
100
AcDbEntity
  8
0
100
AcDbSpline
 62
7
  6
CONTINUOUS
 70
0
 71
3
 72
19
 73
15
 74
0
 42
0.0000001
 43
0.0000001
 44
0.0000000001
 40
0.0
 40
0.0
 40
0.0
 40
0.0
 40
0.0708962566
 40
0.1110033611
 40
0.1546892203
 40
0.2022671059
 40
0.2539976755
 40
0.3100902553
 40
0.3706925358
 40
0.5055851882
 40
0.6580080373
 40
0.7399483099
 40
0.8248657731
 40
1.0
 40
1.0
 40
1.0
 40
1.0
 10
6.8073779872
 20
3.3427150853
 30
0.0
 10
6.807281871
 20
3.3425551478
 30
0.0
 10
6.8070951525
 20
3.3423258284
 30
0.0
 10
6.8067937588
 20
3.3420518519
 30
0.0
 10
6.8065173555
 20
3.3418432327
 30
0.0
 10
6.8061993801
 20
3.3416412863
 30
0.0
 10
6.8058390358
 20
3.3414471128
 30
0.0
 10
6.8054358634
 20
3.3412621727
 30
0.0
 10
6.8048186551
 20
3.3410214593
 30
0.0
 10
6.8039395459
 20
3.3407593237
 30
0.0
 10
6.8029856225
 20
3.3405671666
 30
0.0
 10
6.8021530812
 20
3.3404515214
 30
0.0
 10
6.801257073
 20
3.3403638039
 30
0.0
 10
6.8005722062
 20
3.3403376358
 30
0.0
 10
6.8001112587
 20
3.3403376358
 30
0.0
  0
SPLINE
  5
3FD
100
AcDbEntity
  8
0
100
AcDbSpline
 62
7
  6
CONTINUOUS
 70
0
 71
3
 72
19
 73
15
 74
0
 42
0.0000001
 43
0.0000001
 44
0.0000000001
 40
0.0
 40
0.0
 40
0.0
 40
0.0
 40
0.0666730103
 40
0.1331275758
 40
0.19917256
 40
0.2646519585
 40
0.393394771
 40
0.5192028671
 40
0.5811065023
 40
0.6423694908
 40
0.7030544389
 40
0.7632284163
 40
0.8822359618
 40
1.0
 40
1.0
 40
1.0
 40
1.0
 10
6.8001112587
 20
3.3491019635
 30
0.0
 10
6.8003434957
 20
3.3491019635
 30
0.0
 10
6.8008075738
 20
3.3490777421
 30
0.0
 10
6.8014940603
 20
3.3489697697
 30
0.0
 10
6.8021619666
 20
3.3487932202
 30
0.0
 10
6.803012072
 20
3.3484746711
 30
0.0
 10
6.8039946005
 20
3.3479331256
 30
0.0
 10
6.8048524659
 20
3.3472316957
 30
0.0
 10
6.8054500293
 20
3.3466021131
 30
0.0
 10
6.8058526546
 20
3.3461032259
 30
0.0
 10
6.8062121063
 20
3.3455797707
 30
0.0
 10
6.8066328853
 20
3.3448572014
 30
0.0
 10
6.8070560698
 20
3.3439095353
 30
0.0
 10
6.8072884385
 20
3.3431153898
 30
0.0
 10
6.8073779872
 20
3.3427150853
 30
0.0
  0
SPLINE
  5
3FE
100
AcDbEntity
  8
0
100
AcDbSpline
 62
7
  6
CONTINUOUS
 70
0
 71
3
 72
19
 73
15
 74
0
 42
0.0000001
 43
0.0000001
 44
0.0000000001
 40
0.0
 40
0.0
 40
0.0
 40
0.0
 40
0.0657653854
 40
0.1039799366
 40
0.1462110141
 40
0.1927534023
 40
0.2438470728
 40
0.2996802461
 40
0.3603795155
 40
0.496456755
 40
0.6511978652
 40
0.7346352185
 40
0.8212208879
 40
1.0
 40
1.0
 40
1.0
 40
1.0
 10
6.8073779872
 20
3.3530983191
 30
0.0
 10
6.8072798604
 20
3.3529600779
 30
0.0
 10
6.8070907874
 20
3.3527652446
 30
0.0
 10
6.8067919327
 20
3.3525355252
 30
0.0
 10
6.806515594
 20
3.3523591591
 30
0.0
 10
6.8061977598
 20
3.3521884077
 30
0.0
 10
6.8058375631
 20
3.3520241952
 30
0.0
 10
6.8054345473
 20
3.3518677639
 30
0.0
 10
6.8048159552
 20
3.3516636121
 30
0.0
 10
6.8039361189
 20
3.3514418244
 30
0.0
 10
6.8029842203
 20
3.3512796401
 30
0.0
 10
6.8021526423
 20
3.3511818632
 30
0.0
 10
6.8012564561
 20
3.3511076046
 30
0.0
 10
6.800572108
 20
3.3510854875
 30
0.0
 10
6.8001112587
 20
3.3510854875
 30
0.0
  0
SPLINE
  5
3FF
100
AcDbEntity
  8
0
100
AcDbSpline
 62
7
  6
CONTINUOUS
 70
0
 71
3
 72
20
 73
16
 74
0
 42
0.0000001
 43
0.0000001
 44
0.0000000001
 40
0.0
 40
0.0
 40
0.0
 40
0.0
 40
0.0658317253
 40
0.1314870508
 40
0.1968127026
 40
0.2616833347
 40
0.3260147097
 40
0.3897608194
 40
0.4529091455
 40
0.5154731266
 40
0.6388883721
 40
0.7604905833
 40
0.8207794796
 40
0.8807689899
 40
1.0
 40
1.0
 40
1.0
 40
1.0
 10
6.8001112587
 20
3.3596617296
 30
0.0
 10
6.8003435133
 20
3.3596617296
 30
0.0
 10
6.8008077832
 20
3.3596368229
 30
0.0
 10
6.8014944595
 20
3.3595257951
 30
0.0
 10
6.8021624699
 20
3.3593443047
 30
0.0
 10
6.8028039631
 20
3.359097158
 30
0.0
 10
6.8034127844
 20
3.3587902547
 30
0.0
 10
6.8039843533
 20
3.3584300142
 30
0.0
 10
6.8045156064
 20
3.3580228584
 30
0.0
 10
6.8051645063
 20
3.3574286634
 30
0.0
 10
6.8058705359
 20
3.35659797
 30
0.0
 10
6.8064366125
 20
3.3556768674
 30
0.0
 10
6.8068039612
 20
3.3549059619
 30
0.0
 10
6.8071147672
 20
3.3541196892
 30
0.0
 10
6.807288514
 20
3.3535093409
 30
0.0
 10
6.8073779872
 20
3.3530983191
 30
0.0
  0
SPLINE
  5
400
100
AcDbEntity
  8
0
100
AcDbSpline
 62
7
  6
CONTINUOUS
 70
0
 71
3
 72
19
 73
15
 74
0
 42
0.0000001
 43
0.0000001
 44
0.0000000001
 40
0.0
 40
0.0
 40
0.0
 40
0.0
 40
0.0285567599
 40
0.0608451938
 40
0.0972657523
 40
0.1381463111
 40
0.1837489383
 40
0.234283663
 40
0.2899119281
 40
0.3507360626
 40
0.4879690831
 40
0.6448928956
 40
0.8178444235
 40
1.0
 40
1.0
 40
1.0
 40
1.0
 10
6.8073779872
 20
3.3632422327
 30
0.0
 10
6.8073305821
 20
3.3631877291
 30
0.0
 10
6.8072203577
 20
3.363079509
 30
0.0
 10
6.8070251272
 20
3.3629290913
 30
0.0
 10
6.8067898741
 20
3.3627817652
 30
0.0
 10
6.8065138352
 20
3.3626381683
 30
0.0
 10
6.8061961718
 20
3.3624990065
 30
0.0
 10
6.8058361788
 20
3.3623651571
 30
0.0
 10
6.8054333387
 20
3.3622376102
 30
0.0
 10
6.8048135352
 20
3.3620707493
 30
0.0
 10
6.803933135
 20
3.3618898611
 30
0.0
 10
6.8027621367
 20
3.3617272017
 30
0.0
 10
6.8014704672
 20
3.3616232444
 30
0.0
 10
6.800572025
 20
3.3615995359
 30
0.0
 10
6.8001112587
 20
3.3615995359
 30
0.0
  0
SPLINE
  5
401
100
AcDbEntity
  8
0
100
AcDbSpline
 62
7
  6
CONTINUOUS
 70
0
 71
3
 72
18
 73
14
 74
0
 42
0.0000001
 43
0.0000001
 44
0.0000000001
 40
0.0
 40
0.0
 40
0.0
 40
0.0
 40
0.0651094686
 40
0.1300802424
 40
0.1947928905
 40
0.2591492687
 40
0.3230841704
 40
0.3865624423
 40
0.5120125498
 40
0.6357801594
 40
0.7581508052
 40
0.8794496978
 40
1.0
 40
1.0
 40
1.0
 40
1.0
 10
6.8001112587
 20
3.3699641855
 30
0.0
 10
6.8003435296
 20
3.3699641855
 30
0.0
 10
6.8008079781
 20
3.3699386604
 30
0.0
 10
6.8014948183
 20
3.3698248921
 30
0.0
 10
6.8021629562
 20
3.3696389316
 30
0.0
 10
6.8028045168
 20
3.3693857302
 30
0.0
 10
6.8034133885
 20
3.3690712995
 30
0.0
 10
6.8041722247
 20
3.3685814342
 30
0.0
 10
6.8050222073
 20
3.3678492146
 30
0.0
 10
6.8058717359
 20
3.3668245837
 30
0.0
 10
6.8065484397
 20
3.3656964979
 30
0.0
 10
6.807056912
 20
3.3644967581
 30
0.0
 10
6.8072885772
 20
3.3636628855
 30
0.0
 10
6.8073779872
 20
3.3632422327
 30
0.0
  0
SPLINE
  5
402
100
AcDbEntity
  8
0
100
AcDbSpline
 62
7
  6
CONTINUOUS
 70
0
 71
3
 72
19
 73
15
 74
0
 42
0.0000001
 43
0.0000001
 44
0.0000000001
 40
0.0
 40
0.0
 40
0.0
 40
0.0
 40
0.0259438901
 40
0.0561554074
 40
0.0909767885
 40
0.1306821026
 40
0.1754890376
 40
0.2255716219
 40
0.2810618293
 40
0.3420370696
 40
0.480359237
 40
0.639257523
 40
0.8148455248
 40
1.0
 40
1.0
 40
1.0
 40
1.0
 10
6.8073779872
 20
3.3731190221
 30
0.0
 10
6.8073297068
 20
3.3730761719
 30
0.0
 10
6.807217786
 20
3.3729917286
 30
0.0
 10
6.8070228339
 20
3.372876091
 30
0.0
 10
6.8067878881
 20
3.3727627095
 30
0.0
 10
6.8065121393
 20
3.3726521059
 30
0.0
 10
6.8061947284
 20
3.3725448536
 30
0.0
 10
6.805834951
 20
3.3724416529
 30
0.0
 10
6.8054322941
 20
3.3723432825
 30
0.0
 10
6.804811483
 20
3.3722143167
 30
0.0
 10
6.8039306829
 20
3.3720747724
 30
0.0
 10
6.8027605376
 20
3.3719493861
 30
0.0
 10
6.8014696675
 20
3.3718692403
 30
0.0
 10
6.8005719581
 20
3.3718509627
 30
0.0
 10
6.8001112587
 20
3.3718509627
 30
0.0
  0
SPLINE
  5
403
100
AcDbEntity
  8
0
100
AcDbSpline
 62
7
  6
CONTINUOUS
 70
0
 71
3
 72
18
 73
14
 74
0
 42
0.0000001
 43
0.0000001
 44
0.0000000001
 40
0.0
 40
0.0
 40
0.0
 40
0.0
 40
0.0644694274
 40
0.1288335017
 40
0.1930026296
 40
0.2569024846
 40
0.3204843203
 40
0.3837221301
 40
0.5090345332
 40
0.6330921141
 40
0.7561103539
 40
0.8783322458
 40
1.0
 40
1.0
 40
1.0
 40
1.0
 10
6.8001112587
 20
3.3799810929
 30
0.0
 10
6.8003435443
 20
3.3799810929
 30
0.0
 10
6.8008081541
 20
3.3799550205
 30
0.0
 10
6.8014951417
 20
3.3798388262
 30
0.0
 10
6.8021633906
 20
3.379648913
 30
0.0
 10
6.8028050144
 20
3.3793903503
 30
0.0
 10
6.8034139048
 20
3.3790692905
 30
0.0
 10
6.804173393
 20
3.3785686885
 30
0.0
 10
6.8050238241
 20
3.3778203314
 30
0.0
 10
6.805872846
 20
3.3767744127
 30
0.0
 10
6.8065491088
 20
3.3756230678
 30
0.0
 10
6.8070572522
 20
3.3743986591
 30
0.0
 10
6.8072886297
 20
3.3735481913
 30
0.0
 10
6.8073779872
 20
3.3731190221
 30
0.0
  0
SPLINE
  5
404
100
AcDbEntity
  8
0
100
AcDbSpline
 62
7
  6
CONTINUOUS
 70
0
 71
3
 72
18
 73
14
 74
0
 42
0.0000001
 43
0.0000001
 44
0.0000000001
 40
0.0
 40
0.0
 40
0.0
 40
0.0
 40
0.0236788742
 40
0.0521495661
 40
0.0856649471
 40
0.1244320639
 40
0.1686197266
 40
0.2183655952
 40
0.3348898683
 40
0.4741394693
 40
0.6346668643
 40
0.8124071385
 40
1.0
 40
1.0
 40
1.0
 40
1.0
 10
6.8073779872
 20
3.3827016158
 30
0.0
 10
6.8073286331
 20
3.382670874
 30
0.0
 10
6.8072150415
 20
3.3826110384
 30
0.0
 10
6.8070206139
 20
3.3825303063
 30
0.0
 10
6.8067860954
 20
3.3824510068
 30
0.0
 10
6.8065106814
 20
3.3823735562
 30
0.0
 10
6.8061935324
 20
3.3822983897
 30
0.0
 10
6.8056868027
 20
3.3821964788
 30
0.0
 10
6.8049450578
 20
3.3820815857
 30
0.0
 10
6.8039288396
 20
3.3819685488
 30
0.0
 10
6.8027593239
 20
3.3818806882
 30
0.0
 10
6.8014690712
 20
3.3818244812
 30
0.0
 10
6.800571908
 20
3.3818116694
 30
0.0
 10
6.8001112587
 20
3.3818116694
 30
0.0
  0
SPLINE
  5
405
100
AcDbEntity
  8
0
100
AcDbSpline
 62
7
  6
CONTINUOUS
 70
0
 71
3
 72
18
 73
14
 74
0
 42
0.0000001
 43
0.0000001
 44
0.0000000001
 40
0.0
 40
0.0
 40
0.0
 40
0.0
 40
0.0639223961
 40
0.1277682964
 40
0.1914738535
 40
0.2549851728
 40
0.3182674613
 40
0.3813022817
 40
0.5065018401
 40
0.6308097786
 40
0.7543802945
 40
0.8773858391
 40
1.0
 40
1.0
 40
1.0
 40
1.0
 10
6.8001112587
 20
3.3896849961
 30
0.0
 10
6.8003435573
 20
3.3896849961
 30
0.0
 10
6.8008083092
 20
3.389658449
 30
0.0
 10
6.8014954261
 20
3.3895401519
 30
0.0
 10
6.802163771
 20
3.3893468135
 30
0.0
 10
6.8028054478
 20
3.3890836068
 30
0.0
 10
6.8034143515
 20
3.3887568065
 30
0.0
 10
6.8041743965
 20
3.3882468968
 30
0.0
 10
6.8050251939
 20
3.3874845642
 30
0.0
 10
6.8058737752
 20
3.3864202338
 30
0.0
 10
6.8065496635
 20
3.3852487646
 30
0.0
 10
6.8070575321
 20
3.3840030037
 30
0.0
 10
6.8072886728
 20
3.3831381615
 30
0.0
 10
6.8073779872
 20
3.3827016158
 30
0.0
  0
SPLINE
  5
406
100
AcDbEntity
  8
0
100
AcDbSpline
 62
7
  6
CONTINUOUS
 70
0
 71
3
 72
18
 73
14
 74
0
 42
0.0000001
 43
0.0000001
 44
0.0000000001
 40
0.0
 40
0.0
 40
0.0
 40
0.0
 40
0.0220665477
 40
0.0493476214
 40
0.0819986205
 40
0.1201633753
 40
0.1639683944
 40
0.2135215951
 40
0.3301534488
 40
0.4700557443
 40
0.6316741766
 40
0.8108249468
 40
1.0
 40
1.0
 40
1.0
 40
1.0
 10
6.8073759897
 20
3.3919683354
 30
0.0
 10
6.8073254011
 20
3.3919503795
 30
0.0
 10
6.8072102489
 20
3.3919159576
 30
0.0
 10
6.8070160762
 20
3.3918700279
 30
0.0
 10
6.8067816982
 20
3.3918248314
 30
0.0
 10
6.8065063562
 20
3.3917806306
 30
0.0
 10
6.8061892683
 20
3.3917377098
 30
0.0
 10
6.8056817429
 20
3.391679396
 30
0.0
 10
6.8049399077
 20
3.3916137668
 30
0.0
 10
6.8039246547
 20
3.3915492246
 30
0.0
 10
6.8027563384
 20
3.3914990541
 30
0.0
 10
6.8014674961
 20
3.3914669551
 30
0.0
 10
6.8005714601
 20
3.3914596394
 30
0.0
 10
6.8001112587
 20
3.3914596394
 30
0.0
  0
SPLINE
  5
407
100
AcDbEntity
  8
0
100
AcDbSpline
 62
7
  6
CONTINUOUS
 70
0
 71
3
 72
18
 73
14
 74
0
 42
0.0000001
 43
0.0000001
 44
0.0000000001
 40
0.0
 40
0.0
 40
0.0
 40
0.0
 40
0.063466441
 40
0.1268816656
 40
0.1902018135
 40
0.2533910959
 40
0.3164257417
 40
0.3792935411
 40
0.5044025966
 40
0.6289218476
 40
0.7529510715
 40
0.876604902
 40
1.0
 40
1.0
 40
1.0
 40
1.0
 10
6.8001112587
 20
3.3990441737
 30
0.0
 10
6.800343357
 20
3.3990441737
 30
0.0
 10
6.8008078105
 20
3.3990172741
 30
0.0
 10
6.8014944333
 20
3.3988974199
 30
0.0
 10
6.8021623037
 20
3.3987015347
 30
0.0
 10
6.8028035325
 20
3.3984348695
 30
0.0
 10
6.8034120307
 20
3.3981037796
 30
0.0
 10
6.804172095
 20
3.3975868476
 30
0.0
 10
6.805022845
 20
3.3968139184
 30
0.0
 10
6.8058709796
 20
3.395735618
 30
0.0
 10
6.8065467867
 20
3.3945487659
 30
0.0
 10
6.8070549396
 20
3.3932865707
 30
0.0
 10
6.8072864077
 20
3.3924106131
 30
0.0
 10
6.8073759897
 20
3.3919683354
 30
0.0
  0
LINE
  5
408
100
AcDbEntity
  8
0
100
AcDbLine
 62
7
  6
CONTINUOUS
 10
6.8073779872
 20
3.4008800337
 11
6.8001112587
 21
3.4007525882
  0
SPLINE
  5
409
100
AcDbEntity
  8
0
100
AcDbSpline
 62
7
  6
CONTINUOUS
 70
0
 71
3
 72
18
 73
14
 74
0
 42
0.0000001
 43
0.0000001
 44
0.0000000001
 40
0.0
 40
0.0
 40
0.0
 40
0.0
 40
0.0631011725
 40
0.126169801
 40
0.1891811253
 40
0.252112038
 40
0.3149484937
 40
0.3776829796
 40
0.5027214507
 40
0.6274094367
 40
0.751806824
 40
0.8759798054
 40
1.0
 40
1.0
 40
1.0
 40
1.0
 10
6.8001112587
 20
3.4080483301
 30
0.0
 10
6.8003435775
 20
3.4080483301
 30
0.0
 10
6.8008085509
 20
3.408021058
 30
0.0
 10
6.8014958675
 20
3.4078995509
 30
0.0
 10
6.8021643582
 20
3.4077009859
 30
0.0
 10
6.8028061122
 20
3.4074306958
 30
0.0
 10
6.8034150314
 20
3.4070951434
 30
0.0
 10
6.804175911
 20
3.4065710246
 30
0.0
 10
6.8050272286
 20
3.4057873834
 30
0.0
 10
6.8058751367
 20
3.4046950198
 30
0.0
 10
6.8065504676
 20
3.4034928953
 30
0.0
 10
6.8070579348
 20
3.4022145947
 30
0.0
 10
6.8072887345
 20
3.4013278291
 30
0.0
 10
6.8073779872
 20
3.4008800337
 30
0.0
  0
SPLINE
  5
40A
100
AcDbEntity
  8
0
100
AcDbSpline
 62
7
  6
CONTINUOUS
 70
0
 71
3
 72
18
 73
14
 74
0
 42
0.0000001
 43
0.0000001
 44
0.0000000001
 40
0.0
 40
0.0
 40
0.0
 40
0.0
 40
0.0628244213
 40
0.125631285
 40
0.1884091219
 40
0.251145229
 40
0.3138324932
 40
0.3764669596
 40
0.5014533774
 40
0.6262705373
 40
0.7509459474
 40
0.8755099197
 40
1.0
 40
1.0
 40
1.0
 40
1.0
 10
6.8001112587
 20
3.4166574283
 30
0.0
 10
6.8003435845
 20
3.4166574283
 30
0.0
 10
6.8008086347
 20
3.4166299084
 30
0.0
 10
6.8014960202
 20
3.4165073046
 30
0.0
 10
6.8021645605
 20
3.4163069545
 30
0.0
 10
6.8028063399
 20
3.4160342462
 30
0.0
 10
6.803415263
 20
3.4156957069
 30
0.0
 10
6.8041764233
 20
3.4151667339
 30
0.0
 10
6.8050279082
 20
3.4143758204
 30
0.0
 10
6.8058755866
 20
3.4132738996
 30
0.0
 10
6.8065507311
 20
3.4120613199
 30
0.0
 10
6.8070580659
 20
3.4107719176
 30
0.0
 10
6.8072887546
 20
3.4098776677
 30
0.0
 10
6.8073779872
 20
3.4094260321
 30
0.0
  0
SPLINE
  5
40B
100
AcDbEntity
  8
0
100
AcDbSpline
 62
7
  6
CONTINUOUS
 70
0
 71
3
 72
18
 73
14
 74
0
 42
0.0000001
 43
0.0000001
 44
0.0000000001
 40
0.0
 40
0.0
 40
0.0
 40
0.0
 40
0.0626356224
 40
0.1252639622
 40
0.1878826519
 40
0.2504860943
 40
0.3130718872
 40
0.3756384665
 40
0.5005900156
 40
0.6254956068
 40
0.7503604943
 40
0.8751904964
 40
1.0
 40
1.0
 40
1.0
 40
1.0
 10
6.8001112587
 20
3.4248529949
 30
0.0
 10
6.8003435893
 20
3.4248529949
 30
0.0
 10
6.8008086926
 20
3.424825305
 30
0.0
 10
6.8014961256
 20
3.4247019486
 30
0.0
 10
6.8021646998
 20
3.4245003739
 30
0.0
 10
6.8028064964
 20
3.4242260066
 30
0.0
 10
6.8034154217
 20
3.4238854185
 30
0.0
 10
6.8041767734
 20
3.4233531144
 30
0.0
 10
6.8050283701
 20
3.4225572128
 30
0.0
 10
6.8058758909
 20
3.4214487394
 30
0.0
 10
6.8065509087
 20
3.4202289902
 30
0.0
 10
6.8070581541
 20
3.418931974
 30
0.0
 10
6.8072887681
 20
3.4180325898
 30
0.0
 10
6.8073779872
 20
3.4175783198
 30
0.0
  0
SPLINE
  5
40C
100
AcDbEntity
  8
0
100
AcDbSpline
 62
7
  6
CONTINUOUS
 70
0
 71
3
 72
18
 73
14
 74
0
 42
0.0000001
 43
0.0000001
 44
0.0000000001
 40
0.0
 40
0.0
 40
0.0
 40
0.0
 40
0.0625341502
 40
0.1250665577
 40
0.1875997581
 40
0.250131976
 40
0.3126633351
 40
0.3751935437
 40
0.5001265669
 40
0.625079789
 40
0.750046449
 40
0.8750191964
 40
1.0
 40
1.0
 40
1.0
 40
1.0
 10
6.8001112587
 20
3.4326125667
 30
0.0
 10
6.8003435919
 20
3.4326125667
 30
0.0
 10
6.800808724
 20
3.432584785
 30
0.0
 10
6.8014961827
 20
3.4324610227
 30
0.0
 10
6.8021647752
 20
3.4322587873
 30
0.0
 10
6.8028065808
 20
3.4319835252
 30
0.0
 10
6.8034155072
 20
3.4316418322
 30
0.0
 10
6.8041769618
 20
3.4311077313
 30
0.0
 10
6.8050286178
 20
3.4303091395
 30
0.0
 10
6.8058760537
 20
3.4291971333
 30
0.0
 10
6.8065510035
 20
3.4279735182
 30
0.0
 10
6.807058201
 20
3.4266723961
 30
0.0
 10
6.8072887752
 20
3.4257702427
 30
0.0
 10
6.8073779872
 20
3.425314552
 30
0.0
  0
SPLINE
  5
40D
100
AcDbEntity
  8
0
100
AcDbSpline
 62
7
  6
CONTINUOUS
 70
0
 71
3
 72
18
 73
14
 74
0
 42
0.0000001
 43
0.0000001
 44
0.0000000001
 40
0.0
 40
0.0
 40
0.0
 40
0.0
 40
0.062519665
 40
0.125038379
 40
0.1875593784
 40
0.2500814335
 40
0.312605028
 40
0.3751300513
 40
0.5000604422
 40
0.6250204694
 40
0.7500016538
 40
0.8749947648
 40
1.0
 40
1.0
 40
1.0
 40
1.0
 10
6.8001112587
 20
3.4399148751
 30
0.0
 10
6.8003435923
 20
3.4399148751
 30
0.0
 10
6.8008087285
 20
3.4398870803
 30
0.0
 10
6.8014961908
 20
3.4397632599
 30
0.0
 10
6.8021647859
 20
3.4395609301
 30
0.0
 10
6.8028065929
 20
3.4392855401
 30
0.0
 10
6.8034155195
 20
3.4389436892
 30
0.0
 10
6.8041769887
 20
3.4384093313
 30
0.0
 10
6.8050286531
 20
3.4376103551
 30
0.0
 10
6.8058760768
 20
3.4364978438
 30
0.0
 10
6.806551017
 20
3.4352736762
 30
0.0
 10
6.8070582077
 20
3.4339719672
 30
0.0
 10
6.8072887762
 20
3.433069418
 30
0.0
 10
6.8073779872
 20
3.4326135241
 30
0.0
  0
SPLINE
  5
40E
100
AcDbEntity
  8
0
100
AcDbSpline
 62
7
  6
CONTINUOUS
 70
0
 71
3
 72
18
 73
14
 74
0
 42
0.0000001
 43
0.0000001
 44
0.0000000001
 40
0.0
 40
0.0
 40
0.0
 40
0.0
 40
0.0625924953
 40
0.1251809766
 40
0.187763505
 40
0.2503371128
 40
0.3128999625
 40
0.3754511514
 40
0.5003943631
 40
0.6253207347
 40
0.7502282255
 40
0.8751183098
 40
1.0
 40
1.0
 40
1.0
 40
1.0
 10
6.8001112587
 20
3.4467362347
 30
0.0
 10
6.800343379
 20
3.4467362347
 30
0.0
 10
6.8008080738
 20
3.4467085547
 30
0.0
 10
6.8014949133
 20
3.4465852466
 30
0.0
 10
6.8021629399
 20
3.4463837389
 30
0.0
 10
6.8028042493
 20
3.4461094559
 30
0.0
 10
6.8034127605
 20
3.4457689558
 30
0.0
 10
6.8041737113
 20
3.4452367321
 30
0.0
 10
6.805024994
 20
3.4444408886
 30
0.0
 10
6.8058724053
 20
3.4433324659
 30
0.0
 10
6.8065476235
 20
3.4421126599
 30
0.0
 10
6.8070553572
 20
3.4408154719
 30
0.0
 10
6.8072864718
 20
3.4399159251
 30
0.0
 10
6.8073759897
 20
3.4394615433
 30
0.0
  0
SPLINE
  5
40F
100
AcDbEntity
  8
0
100
AcDbSpline
 62
7
  6
CONTINUOUS
 70
0
 71
3
 72
18
 73
14
 74
0
 42
0.0000001
 43
0.0000001
 44
0.0000000001
 40
0.0
 40
0.0
 40
0.0
 40
0.0
 40
0.0627517526
 40
0.1254898975
 40
0.1882064653
 40
0.2508914874
 40
0.3135396658
 40
0.3761479692
 40
0.5011209045
 40
0.6259720721
 40
0.7507204305
 40
0.8753868652
 40
1.0
 40
1.0
 40
1.0
 40
1.0
 10
6.8001112587
 20
3.4530689495
 30
0.0
 10
6.8003435863
 20
3.4530689495
 30
0.0
 10
6.8008086569
 20
3.4530413643
 30
0.0
 10
6.8014960607
 20
3.4529184713
 30
0.0
 10
6.802164614
 20
3.4527176505
 30
0.0
 10
6.8028064
 20
3.4524443045
 30
0.0
 10
6.803415324
 20
3.4521049777
 30
0.0
 10
6.804176558
 20
3.4515747245
 30
0.0
 10
6.8050280862
 20
3.4507818937
 30
0.0
 10
6.805875704
 20
3.4496774539
 30
0.0
 10
6.8065507997
 20
3.4484621183
 30
0.0
 10
6.8070581
 20
3.4471697893
 30
0.0
 10
6.8072887598
 20
3.446273566
 30
0.0
 10
6.8073779872
 20
3.4458209178
 30
0.0
  0
SPLINE
  5
410
100
AcDbEntity
  8
0
100
AcDbSpline
 62
7
  6
CONTINUOUS
 70
0
 71
3
 72
18
 73
14
 74
0
 42
0.0000001
 43
0.0000001
 44
0.0000000001
 40
0.0
 40
0.0
 40
0.0
 40
0.0
 40
0.0629991006
 40
0.1259711715
 40
0.1888963503
 40
0.2517553628
 40
0.314536729
 40
0.3772342577
 40
0.502253401
 40
0.6269889673
 40
0.7514889348
 40
0.8758062649
 40
1.0
 40
1.0
 40
1.0
 40
1.0
 10
6.8001112587
 20
3.4588846612
 30
0.0
 10
6.80034358
 20
3.4588846612
 30
0.0
 10
6.8008085816
 20
3.4588572979
 30
0.0
 10
6.8014959236
 20
3.4587353872
 30
0.0
 10
6.8021644325
 20
3.4585361652
 30
0.0
 10
6.8028061959
 20
3.4582649851
 30
0.0
 10
6.8034151166
 20
3.4579283333
 30
0.0
 10
6.8041760998
 20
3.4574024281
 30
0.0
 10
6.8050274796
 20
3.4566161101
 30
0.0
 10
6.8058753031
 20
3.4555202282
 30
0.0
 10
6.8065505652
 20
3.454314255
 30
0.0
 10
6.8070579834
 20
3.4530318679
 30
0.0
 10
6.807288742
 20
3.4521423476
 30
0.0
 10
6.8073779872
 20
3.4516931388
 30
0.0
  0
SPLINE
  5
411
100
AcDbEntity
  8
0
100
AcDbSpline
 62
7
  6
CONTINUOUS
 70
0
 71
3
 72
18
 73
14
 74
0
 42
0.0000001
 43
0.0000001
 44
0.0000000001
 40
0.0
 40
0.0
 40
0.0
 40
0.0
 40
0.0633349698
 40
0.1266248042
 40
0.1898335619
 40
0.252929357
 40
0.3158922638
 40
0.3787117144
 40
0.5037950346
 40
0.6283743218
 40
0.7525365853
 40
0.876378305
 40
1.0
 40
1.0
 40
1.0
 40
1.0
 10
6.8001112587
 20
3.4641710995
 30
0.0
 10
6.8003435716
 20
3.4641710995
 30
0.0
 10
6.800808481
 20
3.4641440353
 30
0.0
 10
6.80149574
 20
3.4640234487
 30
0.0
 10
6.802164189
 20
3.4638263822
 30
0.0
 10
6.8028059213
 20
3.4635581227
 30
0.0
 10
6.8034148367
 20
3.4632250787
 30
0.0
 10
6.8041754789
 20
3.4627050346
 30
0.0
 10
6.805026652
 20
3.4619275008
 30
0.0
 10
6.8058747531
 20
3.4608431673
 30
0.0
 10
6.8065502421
 20
3.4596498257
 30
0.0
 10
6.8070578222
 20
3.4583808497
 30
0.0
 10
6.8072887173
 20
3.4575003686
 30
0.0
 10
6.8073779872
 20
3.4570557979
 30
0.0
  0
SPLINE
  5
412
100
AcDbEntity
  8
0
100
AcDbSpline
 62
7
  6
CONTINUOUS
 70
0
 71
3
 72
18
 73
14
 74
0
 42
0.0000001
 43
0.0000001
 44
0.0000000001
 40
0.0
 40
0.0
 40
0.0
 40
0.0
 40
0.0637604399
 40
0.1274529911
 40
0.1910214734
 40
0.2544180531
 40
0.3176120491
 40
0.3805872211
 40
0.505754223
 40
0.6301367185
 40
0.7538705207
 40
0.8771071553
 40
1.0
 40
1.0
 40
1.0
 40
1.0
 10
6.8001112587
 20
3.4689137746
 30
0.0
 10
6.8003435612
 20
3.4689137746
 30
0.0
 10
6.800808356
 20
3.4688870857
 30
0.0
 10
6.8014955118
 20
3.4687681607
 30
0.0
 10
6.8021638853
 20
3.4685737997
 30
0.0
 10
6.8028055775
 20
3.4683092068
 30
0.0
 10
6.8034144847
 20
3.4679806934
 30
0.0
 10
6.8041746944
 20
3.4674680042
 30
0.0
 10
6.8050255972
 20
3.4667015008
 30
0.0
 10
6.8058740468
 20
3.4656316798
 30
0.0
 10
6.8065498248
 20
3.4644542078
 30
0.0
 10
6.8070576132
 20
3.4632020764
 30
0.0
 10
6.8072886852
 20
3.4623329438
 30
0.0
 10
6.8073779872
 20
3.4618941965
 30
0.0
  0
SPLINE
  5
413
100
AcDbEntity
  8
0
100
AcDbSpline
 62
7
  6
CONTINUOUS
 70
0
 71
3
 72
18
 73
14
 74
0
 42
0.0000001
 43
0.0000001
 44
0.0000000001
 40
0.0
 40
0.0
 40
0.0
 40
0.0
 40
0.0642768312
 40
0.1284584326
 40
0.1924642481
 40
0.2562271383
 40
0.3197032789
 40
0.3828693534
 40
0.5081415182
 40
0.6322869819
 40
0.7554997945
 40
0.8779981392
 40
1.0
 40
1.0
 40
1.0
 40
1.0
 10
6.8001112587
 20
3.4730996874
 30
0.0
 10
6.8003435488
 20
3.4730996874
 30
0.0
 10
6.8008082082
 20
3.4730734486
 30
0.0
 10
6.801495241
 20
3.4729565171
 30
0.0
 10
6.8021635236
 20
3.4727654029
 30
0.0
 10
6.8028051662
 20
3.4725052118
 30
0.0
 10
6.8034140615
 20
3.4721821389
 30
0.0
 10
6.8041737458
 20
3.4716782739
 30
0.0
 10
6.8050243077
 20
3.470925016
 30
0.0
 10
6.8058731752
 20
3.4698726383
 30
0.0
 10
6.8065493059
 20
3.4687142343
 30
0.0
 10
6.8070573519
 20
3.4674823368
 30
0.0
 10
6.8072886451
 20
3.4666268286
 30
0.0
 10
6.8073779872
 20
3.4661950728
 30
0.0
  0
SPLINE
  5
414
100
AcDbEntity
  8
0
100
AcDbSpline
 62
7
  6
CONTINUOUS
 70
0
 71
3
 72
18
 73
14
 74
0
 42
0.0000001
 43
0.0000001
 44
0.0000000001
 40
0.0
 40
0.0
 40
0.0
 40
0.0
 40
0.0648841208
 40
0.1296422976
 40
0.1941639255
 40
0.2583603041
 40
0.3221714762
 40
0.3855656005
 40
0.5109676922
 40
0.6348385697
 40
0.7574365812
 40
0.8790589557
 40
1.0
 40
1.0
 40
1.0
 40
1.0
 10
6.8001112587
 20
3.4767155068
 30
0.0
 10
6.8003433234
 20
3.4767155068
 30
0.0
 10
6.8008074085
 20
3.4766898368
 30
0.0
 10
6.8014936965
 20
3.4765754303
 30
0.0
 10
6.8021613185
 20
3.4763884188
 30
0.0
 10
6.8028024101
 20
3.4761337855
 30
0.0
 10
6.8034108737
 20
3.4758175687
 30
0.0
 10
6.8041694956
 20
3.4753247539
 30
0.0
 10
6.8050192958
 20
3.4745880387
 30
0.0
 10
6.8058685705
 20
3.4735574535
 30
0.0
 10
6.806545347
 20
3.4724227609
 30
0.0
 10
6.8070542117
 20
3.4712159128
 30
0.0
 10
6.8072862954
 20
3.4703772163
 30
0.0
 10
6.8073759897
 20
3.4699540598
 30
0.0
  0
SPLINE
  5
415
100
AcDbEntity
  8
0
100
AcDbSpline
 62
7
  6
CONTINUOUS
 70
0
 71
3
 72
18
 73
14
 74
0
 42
0.0000001
 43
0.0000001
 44
0.0000000001
 40
0.0
 40
0.0
 40
0.0
 40
0.0
 40
0.0655887003
 40
0.1310140284
 40
0.1961344165
 40
0.2608339496
 40
0.3250350162
 40
0.3886954213
 40
0.5142526712
 40
0.6378053212
 40
0.759690138
 40
0.8802936177
 40
1.0
 40
1.0
 40
1.0
 40
1.0
 10
6.8001112587
 20
3.4797568898
 30
0.0
 10
6.8003435189
 20
3.4797568898
 30
0.0
 10
6.8008078502
 20
3.4797317692
 30
0.0
 10
6.8014945826
 20
3.4796197938
 30
0.0
 10
6.8021626383
 20
3.4794367555
 30
0.0
 10
6.8028041507
 20
3.4791875188
 30
0.0
 10
6.8034130065
 20
3.4788779922
 30
0.0
 10
6.8041713542
 20
3.4783960606
 30
0.0
 10
6.805020987
 20
3.4776757772
 30
0.0
 10
6.8058708882
 20
3.4766669124
 30
0.0
 10
6.806547924
 20
3.4755560469
 30
0.0
 10
6.807056648
 20
3.4743745641
 30
0.0
 10
6.8072885364
 20
3.4735529648
 30
0.0
 10
6.8073779872
 20
3.4731386105
 30
0.0
  0
SPLINE
  5
416
100
AcDbEntity
  8
0
100
AcDbSpline
 62
7
  6
CONTINUOUS
 70
0
 71
3
 72
19
 73
15
 74
0
 42
0.0000001
 43
0.0000001
 44
0.0000000001
 40
0.0
 40
0.0
 40
0.0
 40
0.0
 40
0.0663851411
 40
0.132566311
 40
0.1983654222
 40
0.2636370627
 40
0.3921046671
 40
0.5178434171
 40
0.5797873454
 40
0.6411364031
 40
0.7019491232
 40
0.7622880968
 40
0.8817192449
 40
1.0
 40
1.0
 40
1.0
 40
1.0
 10
6.8001112587
 20
3.4822099326
 30
0.0
 10
6.8003435017
 20
3.4822099326
 30
0.0
 10
6.8008076461
 20
3.4821854747
 30
0.0
 10
6.8014941942
 20
3.4820764531
 30
0.0
 10
6.8021621486
 20
3.4818981919
 30
0.0
 10
6.8030125802
 20
3.4815764571
 30
0.0
 10
6.8039954938
 20
3.4810293567
 30
0.0
 10
6.8048529019
 20
3.4803214178
 30
0.0
 10
6.8054501889
 20
3.4796860949
 30
0.0
 10
6.8058527878
 20
3.4791824606
 30
0.0
 10
6.8062122133
 20
3.4786540313
 30
0.0
 10
6.8066330745
 20
3.4779244008
 30
0.0
 10
6.8070562407
 20
3.4769675734
 30
0.0
 10
6.8072884651
 20
3.476166236
 30
0.0
 10
6.8073779872
 20
3.4757622403
 30
0.0
  0
SPLINE
  5
417
100
AcDbEntity
  8
0
100
AcDbSpline
 62
7
  6
CONTINUOUS
 70
0
 71
3
 72
18
 73
14
 74
0
 42
0.0000001
 43
0.0000001
 44
0.0000000001
 40
0.0
 40
0.0
 40
0.0
 40
0.0
 40
0.0671330279
 40
0.1340334159
 40
0.2004945548
 40
0.26634616
 40
0.3956573519
 40
0.5217145155
 40
0.5836064909
 40
0.6447677807
 40
0.7650785181
 40
0.8832979979
 40
1.0
 40
1.0
 40
1.0
 40
1.0
 10
6.8001112587
 20
3.4840697691
 30
0.0
 10
6.8003360456
 20
3.4840697691
 30
0.0
 10
6.8007851587
 20
3.4840475387
 30
0.0
 10
6.8014501527
 20
3.483948376
 30
0.0
 10
6.8020982625
 20
3.4837860361
 30
0.0
 10
6.8029248975
 20
3.4834927494
 30
0.0
 10
6.8038845851
 20
3.4829931439
 30
0.0
 10
6.8047308534
 20
3.4823422565
 30
0.0
 10
6.8053250478
 20
3.481755784
 30
0.0
 10
6.8058586848
 20
3.4811389937
 30
0.0
 10
6.8064273138
 20
3.4803073131
 30
0.0
 10
6.806953969
 20
3.4792368908
 30
0.0
 10
6.8072042871
 20
3.4784883579
 30
0.0
 10
6.8073040964
 20
3.4781105571
 30
0.0
  0
SPLINE
  5
418
100
AcDbEntity
  8
0
100
AcDbSpline
 62
7
  6
CONTINUOUS
 70
0
 71
3
 72
19
 73
15
 74
0
 42
0.0000001
 43
0.0000001
 44
0.0000000001
 40
0.0
 40
0.0
 40
0.0
 40
0.0
 40
0.0682777793
 40
0.1362579508
 40
0.2036777437
 40
0.2703225259
 40
0.4006213944
 40
0.5268395699
 40
0.5885271336
 40
0.6493152149
 40
0.7092882773
 40
0.7685378582
 40
0.8851594214
 40
1.0
 40
1.0
 40
1.0
 40
1.0
 10
6.8001112587
 20
3.4853313016
 30
0.0
 10
6.8003434637
 20
3.4853313016
 30
0.0
 10
6.8008071902
 20
3.485308372
 30
0.0
 10
6.8014933467
 20
3.4852061324
 30
0.0
 10
6.8021609907
 20
3.4850389391
 30
0.0
 10
6.8030093236
 20
3.4847377668
 30
0.0
 10
6.8039896741
 20
3.4842265216
 30
0.0
 10
6.8048500103
 20
3.4835608234
 30
0.0
 10
6.8054491212
 20
3.4829627201
 30
0.0
 10
6.8058518892
 20
3.4824898254
 30
0.0
 10
6.8062114854
 20
3.4819936052
 30
0.0
 10
6.8066317777
 20
3.4813096961
 30
0.0
 10
6.8070550538
 20
3.480412214
 30
0.0
 10
6.807288279
 20
3.4796574028
 30
0.0
 10
6.8073779872
 20
3.4792772852
 30
0.0
  0
SPLINE
  5
419
100
AcDbEntity
  8
0
100
AcDbSpline
 62
7
  6
CONTINUOUS
 70
0
 71
3
 72
15
 73
11
 74
0
 42
0.0000001
 43
0.0000001
 44
0.0000000001
 40
0.0
 40
0.0
 40
0.0
 40
0.0
 40
0.1383120962
 40
0.2740447868
 40
0.4054933104
 40
0.5320771772
 40
0.6540538725
 40
0.7721240951
 40
0.8871463369
 40
1.0
 40
1.0
 40
1.0
 40
1.0
 10
6.8001112587
 20
3.4859910723
 30
0.0
 10
6.8005739341
 20
3.4859910723
 30
0.0
 10
6.801493048
 20
3.4859036154
 30
0.0
 10
6.8028027068
 20
3.4855228434
 30
0.0
 10
6.8039863256
 20
3.4849287836
 30
0.0
 10
6.8050109568
 20
3.4841660707
 30
0.0
 10
6.8058636997
 20
3.4832771541
 30
0.0
 10
6.8065433497
 20
3.4822972583
 30
0.0
 10
6.8070542398
 20
3.4812544102
 30
0.0
 10
6.8072881585
 20
3.4805257358
 30
0.0
 10
6.8073779872
 20
3.4801590659
 30
0.0
  0
SPLINE
  5
41A
100
AcDbEntity
  8
0
100
AcDbSpline
 62
7
  6
CONTINUOUS
 70
0
 71
3
 72
25
 73
21
 74
0
 42
0.0000001
 43
0.0000001
 44
0.0000000001
 40
0.0
 40
0.0
 40
0.0
 40
0.0
 40
0.0071613002
 40
0.0151261485
 40
0.0243841956
 40
0.035241896
 40
0.0478801887
 40
0.0623998025
 40
0.0788548495
 40
0.0972668748
 40
0.1399456072
 40
0.1902893469
 40
0.2479804933
 40
0.312585546
 40
0.3835756392
 40
0.4603394508
 40
0.5421940697
 40
0.628393096
 40
0.8105704711
 40
1.0
 40
1.0
 40
1.0
 40
1.0
 10
6.5919783219
 20
3.2584396839
 30
0.0
 10
6.5919603075
 20
3.2584408094
 30
0.0
 10
6.5919224915
 20
3.2584498006
 30
0.0
 10
6.5918687759
 20
3.2584809004
 30
0.0
 10
6.5918162165
 20
3.2585288836
 30
0.0
 10
6.5917644593
 20
3.2585934972
 30
0.0
 10
6.5917133372
 20
3.2586747134
 30
0.0
 10
6.5916628541
 20
3.2587724706
 30
0.0
 10
6.5916130907
 20
3.2588866424
 30
0.0
 10
6.591544427
 20
3.2590697059
 30
0.0
 10
6.5914630384
 20
3.2593387991
 30
0.0
 10
6.5913739334
 20
3.2597081916
 30
0.0
 10
6.5912902268
 20
3.260135305
 30
0.0
 10
6.5912127734
 20
3.2606163454
 30
0.0
 10
6.591142404
 20
3.2611469936
 30
0.0
 10
6.591079852
 20
3.2617223604
 30
0.0
 10
6.5910257659
 20
3.2623370693
 30
0.0
 10
6.5909645884
 20
3.2632177198
 30
0.0
 10
6.5909139688
 20
3.2643706798
 30
0.0
 10
6.5909005709
 20
3.2653073394
 30
0.0
 10
6.5909005709
 20
3.2657847826
 30
0.0
  0
ENDSEC
  0
SECTION
  2
OBJECTS
  0
DICTIONARY
  5
C
100
AcDbDictionary
280
0
281
1
  3
ACAD_GROUP
350
D
  3
ACAD_MLINESTYLE
350
17
  3
ACAD_LAYOUT
350
1A
  3
ACAD_PLOTSETTINGS
350
19
  3
ACAD_PLOTSTYLENAME
350
E
  0
DICTIONARY
  5
D
102
{ACAD_REACTORS
330
C
102
}
100
AcDbDictionary
280
0
281
1
  0
ACDBDICTIONARYWDFLT
  5
E
102
{ACAD_REACTORS
330
C
102
}
100
AcDbDictionary
281
1
  3
Normal
350
F
100
AcDbDictionaryWithDefault
340
F
  0
DICTIONARY
  5
17
102
{ACAD_REACTORS
330
C
102
}
100
AcDbDictionary
280
0
281
1
  3
Standard
350
18
  0
DICTIONARY
  5
19
102
{ACAD_REACTORS
330
C
102
}
100
AcDbDictionary
281
1
  0
DICTIONARY
  5
1A
102
{ACAD_REACTORS
330
C
102
}
100
AcDbDictionary
281
1
  3
Model
350
41B
  3
Layout1
350
41C
  0
ACDBPLACEHOLDER
  5
F
102
{ACAD_REACTORS
330
E
102
}
  0
MLINESTYLE
  5
18
102
{ACAD_REACTORS
330
17
102
}
100
AcDbMlineStyle
  2
STANDARD
 70
0
  3

 62
256
 51
90.0
 52
90.0
 71
2
 49
0.5
 62
256
  6
BYLAYER
 49
-0.5
 62
256
  6
BYLAYER
  0
LAYOUT
  5
41B
102
{ACAD_REACTORS
330
1A
102
}
100
AcDbPlotSettings
  1

  2
none_device
  4
ANSI_A_(11.00_x_8.50_Inches)
  6

 40
0.0
 41
0.0
 42
0.0
 43
0.0
 44
279.4
 45
215.9
 46
0.0
 47
0.0
 48
0.0
 49
0.0
140
0.0
141
0.0
142
1.0
143
1.0
 70
1024
 72
0
 73
0
 74
0
  7

 75
0
147
1.0
148
0.0
149
0.0
100
AcDbLayout
  1
Model
 70
0
 71
0
 10
0.0
 20
0.0
 11
11.0
 21
8.5
 12
0.0
 22
0.0
 32
0.0
 14
0.0
 24
0.0
 34
0.0
 15
0.0
 25
0.0
 35
0.0
146
0.0
 13
0.0
 23
0.0
 33
0.0
 16
1.0
 26
0.0
 36
0.0
 17
0.0
 27
1.0
 37
0.0
 76
0
330
202
345
0
346
0
  0
LAYOUT
  5
41C
102
{ACAD_REACTORS
330
1A
102
}
100
AcDbPlotSettings
  1

  2
none_device
  4
ANSI_A_(11.00_x_8.50_Inches)
  6

 40
0.0
 41
0.0
 42
0.0
 43
0.0
 44
279.4
 45
215.9
 46
0.0
 47
0.0
 48
0.0
 49
0.0
140
0.0
141
0.0
142
1.0
143
1.0
 70
0
 72
0
 73
0
 74
0
  7

 75
0
147
1.0
148
0.0
149
0.0
100
AcDbLayout
  1
Layout1
 70
0
 71
1
 10
0.0
 20
0.0
 11
11.0
 21
8.5
 12
0.0
 22
0.0
 32
0.0
 14
0.0
 24
0.0
 34
0.0
 15
0.0
 25
0.0
 35
0.0
146
0.0
 13
0.0
 23
0.0
 33
0.0
 16
1.0
 26
0.0
 36
0.0
 17
0.0
 27
1.0
 37
0.0
 76
0
330
203
345
0
346
0
  0
ENDSEC
  0
EOF
