999
DXF file: 1500-5413_front.dxf
999
Pro/ENGINEER 2018400 by Parametric Technology Corporation
  0
SECTION
  2
HEADER
  9
$ACADVER
  1
AC1027
  9
$DWGCODEPAGE
  3
ANSI_1252
  9
$EXTMAX
 10
11.0
 20
8.5
 30
0.0
  9
$EXTMIN
 10
0.0
 20
0.0
 30
0.0
  9
$LIMMIN
 10
0.0
 20
0.0
  9
$LIMMAX
 10
11.0
 20
8.5
  9
$VIEWCTR
 10
5.5
 20
4.25
  9
$VIEWSIZE
 40
8.5
  9
$CLAYER
  8
0
  9
$LTSCALE
 40
0.605
  9
$CELTYPE
  6
BYLAYER
  9
$DIMSCALE
 40
1.0
  9
$DIMASZ
 40
0.1
  9
$DIMEXO
 40
0.0625
  9
$DIMDLI
 40
0.418
  9
$DIMEXE
 40
0.125
  9
$DIMCEN
 40
0.099
  9
$DIMLFAC
 40
1.0
  9
$DIMBLK
  1
_FILLED
  9
$DIMALT
 70
1
  9
$DIMALTD
 70
1
  9
$DIMALTTD
 70
2
  9
$DIMALTF
 40
25.4
  9
$DIMTXT
 40
0.08
  9
$DIMTOL
 70
1
  9
$DIMLIM
 70
0
  9
$DIMTFAC
 40
1.0
  9
$DIMTP
 40
0.01
  9
$DIMTM
 40
0.01
  9
$DIMGAP
 40
0.09
  9
$DIMDSEP
 70
46
  9
$AUNITS
 70
0
  9
$PDMODE
 70
3
  9
$PDSIZE
 40
0.3125
  9
$HANDSEED
  5
488
  9
$TILEMODE
 70
1
  9
$MEASUREMENT
 70
0
  9
$INSUNITS
 70
1
  0
ENDSEC
  0
SECTION
  2
CLASSES
  0
CLASS
  1
ACDBDICTIONARYWDFLT
  2
AcDbDictionaryWithDefault
  3
AutoCAD 2000
 90
0
 91
1
280
0
281
0
  0
CLASS
  1
ACDBPLACEHOLDER
  2
AcDbPlaceHolder
  3
AutoCAD 2000
 90
0
 91
1
280
0
281
0
  0
CLASS
  1
LAYOUT
  2
AcDbLayout
  3
AutoCAD 2000
 90
0
 91
0
280
0
281
0
  0
ENDSEC
  0
SECTION
  2
TABLES
  0
TABLE
  2
VPORT
  5
8
100
AcDbSymbolTable
 70
2
  0
VPORT
  5
1F4
100
AcDbSymbolTableRecord
100
AcDbViewportTableRecord
  2
*ACTIVE
 70
0
 10
0.0
 20
0.0
 11
1.0
 21
1.0
 12
5.5
 22
4.25
 13
0.0
 23
0.0
 14
1.0
 24
1.0
 15
0.0
 25
0.0
 16
0.0
 26
0.0
 36
1.0
 17
0.0
 27
0.0
 37
0.0
 40
8.5
 41
1.2941176471
 42
50.0
 43
0.0
 44
0.0
 50
0.0
 51
0.0
 71
0
 72
100
 73
1
 74
1
 75
0
 76
0
 77
0
 78
0
  0
ENDTAB
  0
TABLE
  2
LTYPE
  5
5
100
AcDbSymbolTable
 70
6
  0
LTYPE
  5
14
100
AcDbSymbolTableRecord
100
AcDbLinetypeTableRecord
  2
BYBLOCK
 70
0
  3

 72
65
 73
0
 40
0.0
  0
LTYPE
  5
15
100
AcDbSymbolTableRecord
100
AcDbLinetypeTableRecord
  2
BYLAYER
 70
0
  3

 72
65
 73
0
 40
0.0
  0
LTYPE
  5
16
100
AcDbSymbolTableRecord
100
AcDbLinetypeTableRecord
  2
CONTINUOUS
 70
64
  3
Solid line
 72
65
 73
0
 40
0.0
  0
LTYPE
  5
1F5
100
AcDbSymbolTableRecord
100
AcDbLinetypeTableRecord
  2
CENTER
 70
64
  3
____ _ ____ _ ____ _ ____ _ ____ _ ____ _ ____
 72
65
 73
4
 40
0.6
 49
0.375
 74
0
 49
-0.075
 74
0
 49
0.075
 74
0
 49
-0.075
 74
0
  0
LTYPE
  5
1F6
100
AcDbSymbolTableRecord
100
AcDbLinetypeTableRecord
  2
HIDDEN
 70
64
  3
- - - - - - - - - - - - - - - - - - - -
 72
65
 73
2
 40
0.2
 49
0.1
 74
0
 49
-0.1
 74
0
  0
LTYPE
  5
1F7
100
AcDbSymbolTableRecord
100
AcDbLinetypeTableRecord
  2
PHANTOM
 70
64
  3
_____ _ _ _____ _ _ _____ _ _ _____
 72
65
 73
6
 40
0.8
 49
0.45
 74
0
 49
-0.05
 74
0
 49
0.1
 74
0
 49
-0.05
 74
0
 49
0.1
 74
0
 49
-0.05
 74
0
  0
LTYPE
  5
1F8
100
AcDbSymbolTableRecord
100
AcDbLinetypeTableRecord
  2
DOT
 70
64
  3
. . . . . . . . . . . . . . . . . . . .
 72
65
 73
2
 40
0.2
 49
0.1
 74
0
 49
-0.1
 74
0
  0
LTYPE
  5
1F9
100
AcDbSymbolTableRecord
100
AcDbLinetypeTableRecord
  2
DASHED
 70
64
  3
- - - - - - - - - - - - - - - - - - - -
 72
65
 73
2
 40
0.2
 49
0.1
 74
0
 49
-0.1
 74
0
  0
ENDTAB
  0
TABLE
  2
LAYER
  5
2
100
AcDbSymbolTable
 70
36
  0
LAYER
  5
10
100
AcDbSymbolTableRecord
100
AcDbLayerTableRecord
  2
0
 70
0
 62
7
  6
CONTINUOUS
370
-3
390
F
  0
LAYER
  5
1FA
100
AcDbSymbolTableRecord
100
AcDbLayerTableRecord
  2
DEFAULT_1
 70
0
 62
7
  6
CENTER
370
-3
390
F
  0
LAYER
  5
1FB
100
AcDbSymbolTableRecord
100
AcDbLayerTableRecord
  2
DEFAULT_2
 70
0
 62
8
  6
HIDDEN
370
-3
390
F
  0
LAYER
  5
1FC
100
AcDbSymbolTableRecord
100
AcDbLayerTableRecord
  2
DEFAULT_3
 70
0
 62
7
  6
PHANTOM
370
-3
390
F
  0
LAYER
  5
1FD
100
AcDbSymbolTableRecord
100
AcDbLayerTableRecord
  2
DEFAULT_COORDINATE_SYSTEM
 70
0
 62
7
  6
CONTINUOUS
370
-3
390
F
  0
LAYER
  5
1FE
100
AcDbSymbolTableRecord
100
AcDbLayerTableRecord
  2
DEFAULT_DATUM_AXES
 70
0
 62
7
  6
CONTINUOUS
370
-3
390
F
  0
LAYER
  5
1FF
100
AcDbSymbolTableRecord
100
AcDbLayerTableRecord
  2
DEFAULT_DATUM_PLANES
 70
0
 62
7
  6
CONTINUOUS
370
-3
390
F
  0
ENDTAB
  0
TABLE
  2
STYLE
  5
3
100
AcDbSymbolTable
 70
1
  0
STYLE
  5
11
100
AcDbSymbolTableRecord
100
AcDbTextStyleTableRecord
  2
STANDARD
 70
0
 40
0.0
 41
0.8
 50
0.0
 71
0
 42
0.2
  3
txt
  4

  0
STYLE
  5
200
100
AcDbSymbolTableRecord
100
AcDbTextStyleTableRecord
  2
TEXTSTYLE_1
 70
0
 40
0.0
 41
0.8
 50
0.0
 71
0
 42
0.2
  3
gdt
  4

  0
ENDTAB
  0
TABLE
  2
VIEW
  5
6
100
AcDbSymbolTable
 70
0
  0
ENDTAB
  0
TABLE
  2
UCS
  5
7
100
AcDbSymbolTable
 70
0
  0
ENDTAB
  0
TABLE
  2
APPID
  5
9
100
AcDbSymbolTable
 70
1
  0
APPID
  5
201
100
AcDbSymbolTableRecord
100
AcDbRegAppTableRecord
  2
ACAD
 70
0
  0
ENDTAB
  0
TABLE
  2
BLOCK_RECORD
  5
1
100
AcDbSymbolTable
 70
0
  0
BLOCK_RECORD
  5
202
100
AcDbSymbolTableRecord
100
AcDbBlockTableRecord
  2
*Model_Space
  0
BLOCK_RECORD
  5
203
100
AcDbSymbolTableRecord
100
AcDbBlockTableRecord
  2
*Paper_Space
  0
BLOCK_RECORD
  5
204
100
AcDbSymbolTableRecord
100
AcDbBlockTableRecord
  2
_FILLED
  0
ENDTAB
  0
TABLE
  2
DIMSTYLE
  5
A
100
AcDbSymbolTable
 70
1
100
AcDbDimStyleTable
 71
0
  0
DIMSTYLE
105
205
100
AcDbSymbolTableRecord
100
AcDbDimStyleTableRecord
  2
STANDARD
 70
0
  3

  4

 40
1.0
 41
0.1
 42
0.0625
 43
0.38
 44
0.125
 45
0.0
 46
0.0
 47
0.01
 48
0.01
140
0.08
141
0.09
142
0.0
143
25.4
144
1.0
145
0.0
146
1.0
147
0.09
 71
1.0
 72
0.0
 73
1
 74
1
 75
0
 76
0
 77
0
 78
4
 79
1
170
1
171
1
172
0
173
0
174
0
175
0
176
0
177
0
178
0
270
2
179
2
271
2
272
2
273
2
274
2
275
0
280
0
281
0
282
0
283
1
284
4
285
0
286
0
287
3
288
0
340
11
278
46
341
204
342
204
343
204
344
204
  0
ENDTAB
  0
ENDSEC
  0
SECTION
  2
BLOCKS
  0
BLOCK
  5
20
100
AcDbEntity
  8
0
100
AcDbBlockBegin
  2
*Model_Space
 70
0
 10
0.0
 20
0.0
 30
0.0
  3
*Model_Space
  1

  0
ENDBLK
  5
21
100
AcDbEntity
  8
0
100
AcDbBlockEnd
  0
BLOCK
  5
1C
100
AcDbEntity
  8
0
100
AcDbBlockBegin
  2
*Paper_Space
 70
0
 10
0.0
 20
0.0
 30
0.0
  3
*Paper_Space
  1

  0
ENDBLK
  5
1D
100
AcDbEntity
  8
0
100
AcDbBlockEnd
  0
BLOCK
  5
206
100
AcDbEntity
  8
0
100
AcDbBlockBegin
  2
_FILLED
 70
64
 10
0.0
 20
0.0
  3
_FILLED
  1

  0
SOLID
  5
207
100
AcDbEntity
  8
0
  6
BYBLOCK
 62
0
100
AcDbTrace
 10
0.0
 20
0.0
 11
-1.0
 21
0.2
 12
-1.0
 22
-0.2
 13
-1.0
 23
-0.2
  0
ENDBLK
  5
208
100
AcDbEntity
  8
0
  6
BYBLOCK
 62
0
100
AcDbBlockEnd
  0
ENDSEC
  0
SECTION
  2
ENTITIES
  0
MTEXT
  5
209
100
AcDbEntity
  8
0
100
AcDbMText
 62
2
  6
CONTINUOUS
  7
STANDARD
 71
3
 72
1
 10
5.2117624224
 20
1.6721519077
 30
0.0
 11
1.0
 21
0.0
 31
0.0
 73
2
 44
0.9
  1
SCALE  .375
 40
0.08
 41
0.704
  0
LINE
  5
20A
100
AcDbEntity
  8
0
100
AcDbLine
 62
7
  6
CONTINUOUS
 10
0.0
 20
0.0
 11
0.0
 21
8.5
  0
LINE
  5
20B
100
AcDbEntity
  8
0
100
AcDbLine
 62
7
  6
CONTINUOUS
 10
0.0
 20
0.0
 11
11.0
 21
0.0
  0
LINE
  5
20C
100
AcDbEntity
  8
0
100
AcDbLine
 62
7
  6
CONTINUOUS
 10
0.0
 20
8.5
 11
11.0
 21
8.5
  0
LINE
  5
20D
100
AcDbEntity
  8
0
100
AcDbLine
 62
7
  6
CONTINUOUS
 10
11.0
 20
0.0
 11
11.0
 21
8.5
  0
LINE
  5
20E
100
AcDbEntity
  8
0
100
AcDbLine
 62
7
  6
CONTINUOUS
 10
1.8407703887
 20
3.8823393326
 11
1.8407703887
 21
4.1017144827
  0
LINE
  5
20F
100
AcDbEntity
  8
0
100
AcDbLine
 62
7
  6
CONTINUOUS
 10
1.8482703887
 20
3.8748394077
 11
1.8482703887
 21
4.1092144077
  0
LINE
  5
210
100
AcDbEntity
  8
0
100
AcDbLine
 62
7
  6
CONTINUOUS
 10
3.2297703887
 20
2.4609019077
 11
2.9616453887
 21
2.6952769077
  0
LINE
  5
211
100
AcDbEntity
  8
0
100
AcDbLine
 62
7
  6
CONTINUOUS
 10
3.2297703887
 20
2.4609019077
 11
3.2297246254
 21
2.4609425193
  0
LINE
  5
212
100
AcDbEntity
  8
0
100
AcDbLine
 62
7
  6
CONTINUOUS
 10
3.1960203887
 20
2.4271519077
 11
3.1959797545
 21
2.4271975926
  0
LINE
  5
213
100
AcDbEntity
  8
0
100
AcDbLine
 62
7
  6
CONTINUOUS
 10
3.1960203887
 20
2.4271519077
 11
2.9616453887
 21
2.6952769077
  0
LINE
  5
214
100
AcDbEntity
  8
0
100
AcDbLine
 62
7
  6
CONTINUOUS
 10
2.5903953887
 20
1.9152769077
 11
2.5903953887
 21
1.7671519077
  0
LINE
  5
215
100
AcDbEntity
  8
0
100
AcDbLine
 62
7
  6
CONTINUOUS
 10
2.5903953887
 20
1.7671519077
 11
3.3328953887
 21
1.7671519077
  0
LINE
  5
216
100
AcDbEntity
  8
0
100
AcDbLine
 62
7
  6
CONTINUOUS
 10
5.5903953887
 20
1.7671519077
 11
6.3328953887
 21
1.7671519077
  0
LINE
  5
217
100
AcDbEntity
  8
0
100
AcDbLine
 62
7
  6
CONTINUOUS
 10
7.8403954276
 20
1.7671519077
 11
8.5828953498
 21
1.7671519077
  0
LINE
  5
218
100
AcDbEntity
  8
0
100
AcDbLine
 62
7
  6
CONTINUOUS
 10
2.5903953887
 20
1.9152769077
 11
3.3328953887
 21
1.9152769077
  0
LINE
  5
219
100
AcDbEntity
  8
0
100
AcDbLine
 62
7
  6
CONTINUOUS
 10
5.5903953887
 20
1.9152769077
 11
6.3328953887
 21
1.9152769077
  0
LINE
  5
21A
100
AcDbEntity
  8
0
100
AcDbLine
 62
7
  6
CONTINUOUS
 10
7.8403953887
 20
1.9152769077
 11
8.5828953887
 21
1.9152769077
  0
LINE
  5
21B
100
AcDbEntity
  8
0
100
AcDbLine
 62
7
  6
CONTINUOUS
 10
8.5716453887
 20
1.9265269077
 11
7.8516453887
 21
1.9265269077
  0
LINE
  5
21C
100
AcDbEntity
  8
0
100
AcDbLine
 62
7
  6
CONTINUOUS
 10
6.3216453887
 20
1.9265269077
 11
5.6016453887
 21
1.9265269077
  0
LINE
  5
21D
100
AcDbEntity
  8
0
100
AcDbLine
 62
7
  6
CONTINUOUS
 10
3.3216453887
 20
1.9265269077
 11
2.6016453887
 21
1.9265269077
  0
LINE
  5
21E
100
AcDbEntity
  8
0
100
AcDbLine
 62
7
  6
CONTINUOUS
 10
1.8407703887
 20
3.8823394077
 11
1.8482703887
 21
3.8748394077
  0
LINE
  5
21F
100
AcDbEntity
  8
0
100
AcDbLine
 62
7
  6
CONTINUOUS
 10
2.7272703887
 20
3.0260269076
 11
2.7385203887
 21
3.0147769077
  0
LINE
  5
220
100
AcDbEntity
  8
0
100
AcDbLine
 62
7
  6
CONTINUOUS
 10
2.7272703887
 20
1.9265269077
 11
2.7272703887
 21
3.0035269077
  0
LINE
  5
221
100
AcDbEntity
  8
0
100
AcDbLine
 62
7
  6
CONTINUOUS
 10
2.7272703887
 20
3.0260269077
 11
2.7272703887
 21
3.5904019077
  0
LINE
  5
222
100
AcDbEntity
  8
0
100
AcDbLine
 62
7
  6
CONTINUOUS
 10
2.8444578887
 20
3.8410894077
 11
2.8444578887
 21
3.6132769077
  0
LINE
  5
223
100
AcDbEntity
  8
0
100
AcDbLine
 62
7
  6
CONTINUOUS
 10
7.9772705188
 20
2.1740269077
 11
8.4460202586
 21
2.1740269077
  0
LINE
  5
224
100
AcDbEntity
  8
0
100
AcDbLine
 62
7
  6
CONTINUOUS
 10
8.4055885949
 20
2.1819019077
 11
8.0177021825
 21
2.1819019077
  0
LINE
  5
225
100
AcDbEntity
  8
0
100
AcDbLine
 62
7
  6
CONTINUOUS
 10
3.1847703887
 20
3.0147769077
 11
3.1960203885
 21
3.0035269079
  0
LINE
  5
226
100
AcDbEntity
  8
0
100
AcDbLine
 62
7
  6
CONTINUOUS
 10
3.0788328887
 20
3.8410894077
 11
3.0788328887
 21
3.6132769077
  0
LINE
  5
227
100
AcDbEntity
  8
0
100
AcDbLine
 62
7
  6
CONTINUOUS
 10
3.1960203887
 20
1.9265269077
 11
3.1960203887
 21
2.4271519077
  0
LINE
  5
228
100
AcDbEntity
  8
0
100
AcDbLine
 62
7
  6
CONTINUOUS
 10
3.1960203887
 20
2.9634019077
 11
3.1960203887
 21
3.0035269077
  0
LINE
  5
229
100
AcDbEntity
  8
0
100
AcDbLine
 62
7
  6
CONTINUOUS
 10
3.1960203887
 20
3.0260269077
 11
3.1960203887
 21
3.5904019077
  0
LINE
  5
22A
100
AcDbEntity
  8
0
100
AcDbLine
 62
7
  6
CONTINUOUS
 10
1.8407703887
 20
4.1017144077
 11
1.8482703887
 21
4.1092144077
  0
LINE
  5
22B
100
AcDbEntity
  8
0
100
AcDbLine
 62
7
  6
CONTINUOUS
 10
5.6935203887
 20
2.4609019077
 11
3.2297703887
 21
2.4609019077
  0
LINE
  5
22C
100
AcDbEntity
  8
0
100
AcDbLine
 62
7
  6
CONTINUOUS
 10
3.0788328887
 20
3.8410894077
 11
3.078816157
 21
3.8411104967
  0
LINE
  5
22D
100
AcDbEntity
  8
0
100
AcDbLine
 62
7
  6
CONTINUOUS
 10
3.0202174234
 20
3.9165863007
 11
3.0142281635
 21
3.9243003086
  0
LINE
  5
22E
100
AcDbEntity
  8
0
100
AcDbLine
 62
7
  6
CONTINUOUS
 10
3.0385507888
 20
3.8929725848
 11
3.0337385598
 21
3.8991709559
  0
LINE
  5
22F
100
AcDbEntity
  8
0
100
AcDbLine
 62
7
  6
CONTINUOUS
 10
3.0788328887
 20
3.8410894077
 11
2.9616453887
 21
3.9920269077
  0
LINE
  5
230
100
AcDbEntity
  8
0
100
AcDbLine
 62
7
  6
CONTINUOUS
 10
3.078816157
 20
3.8411104967
 11
3.0786808112
 21
3.8412865256
  0
LINE
  5
231
100
AcDbEntity
  8
0
100
AcDbLine
 62
7
  6
CONTINUOUS
 10
3.2863953887
 20
4.1092144077
 11
3.2863953887
 21
3.8748394077
  0
LINE
  5
232
100
AcDbEntity
  8
0
100
AcDbLine
 62
7
  6
CONTINUOUS
 10
3.2938953887
 20
4.1017144827
 11
3.2938953887
 21
3.8823393326
  0
LINE
  5
233
100
AcDbEntity
  8
0
100
AcDbLine
 62
7
  6
CONTINUOUS
 10
3.3328953887
 20
1.9152769077
 11
3.3328953887
 21
1.7671519077
  0
LINE
  5
234
100
AcDbEntity
  8
0
100
AcDbLine
 62
7
  6
CONTINUOUS
 10
8.0783859976
 20
3.3095859423
 11
8.0854618359
 21
3.3113501469
  0
LINE
  5
235
100
AcDbEntity
  8
0
100
AcDbLine
 62
7
  6
CONTINUOUS
 10
8.402916404
 20
3.3875694576
 11
8.4100317056
 21
3.3892121544
  0
LINE
  5
236
100
AcDbEntity
  8
0
100
AcDbLine
 62
7
  6
CONTINUOUS
 10
8.0693818412
 20
3.3168047905
 11
8.0765501376
 21
3.3181981662
  0
LINE
  5
237
100
AcDbEntity
  8
0
100
AcDbLine
 62
7
  6
CONTINUOUS
 10
8.3975537449
 20
3.3776926682
 11
8.4047452673
 21
3.3789607276
  0
LINE
  5
238
100
AcDbEntity
  8
0
100
AcDbLine
 62
7
  6
CONTINUOUS
 10
3.1125617861
 20
3.8748561243
 11
3.1122324706
 21
3.8751103973
  0
LINE
  5
239
100
AcDbEntity
  8
0
100
AcDbLine
 62
7
  6
CONTINUOUS
 10
3.0371316495
 20
3.9334194007
 11
3.0294144967
 21
3.9394111185
  0
LINE
  5
23A
100
AcDbEntity
  8
0
100
AcDbLine
 62
7
  6
CONTINUOUS
 10
3.0692292843
 20
3.908499095
 11
3.0636854772
 21
3.9128033761
  0
LINE
  5
23B
100
AcDbEntity
  8
0
100
AcDbLine
 62
7
  6
CONTINUOUS
 10
3.0444260161
 20
3.9277557917
 11
3.0408331355
 21
3.9305457089
  0
LINE
  5
23C
100
AcDbEntity
  8
0
100
AcDbLine
 62
7
  6
CONTINUOUS
 10
3.1125828887
 20
3.8748394077
 11
2.9616453887
 21
3.9920269077
  0
LINE
  5
23D
100
AcDbEntity
  8
0
100
AcDbLine
 62
7
  6
CONTINUOUS
 10
3.0718412592
 20
3.9064713645
 11
3.0692292843
 21
3.908499095
  0
LINE
  5
23E
100
AcDbEntity
  8
0
100
AcDbLine
 62
7
  6
CONTINUOUS
 10
3.1125828887
 20
3.8748394077
 11
3.1125617861
 21
3.8748561243
  0
LINE
  5
23F
100
AcDbEntity
  8
0
100
AcDbLine
 62
7
  6
CONTINUOUS
 10
8.3449047798
 20
3.660467873
 11
8.3378289415
 21
3.6587036684
  0
LINE
  5
240
100
AcDbEntity
  8
0
100
AcDbLine
 62
7
  6
CONTINUOUS
 10
8.0203743734
 20
3.5824843577
 11
8.0132590718
 21
3.5808416609
  0
LINE
  5
241
100
AcDbEntity
  8
0
100
AcDbLine
 62
7
  6
CONTINUOUS
 10
8.3539089362
 20
3.6532490248
 11
8.3467406398
 21
3.6518556491
  0
LINE
  5
242
100
AcDbEntity
  8
0
100
AcDbLine
 62
7
  6
CONTINUOUS
 10
8.0257370325
 20
3.5923611471
 11
8.0185455101
 21
3.5910930877
  0
LINE
  5
243
100
AcDbEntity
  8
0
100
AcDbLine
 62
7
  6
CONTINUOUS
 10
8.0607727431
 20
3.3244808319
 11
8.0680041392
 21
3.3254971383
  0
LINE
  5
244
100
AcDbEntity
  8
0
100
AcDbLine
 62
7
  6
CONTINUOUS
 10
8.3916815239
 20
3.3681100744
 11
8.3989295556
 21
3.3690000208
  0
LINE
  5
245
100
AcDbEntity
  8
0
100
AcDbLine
 62
7
  6
CONTINUOUS
 10
8.0525771764
 20
3.3325969189
 11
8.0598518515
 21
3.3332333705
  0
LINE
  5
246
100
AcDbEntity
  8
0
100
AcDbLine
 62
7
  6
CONTINUOUS
 10
8.3853221494
 20
3.3588433549
 11
8.3925968408
 21
3.3593520508
  0
LINE
  5
247
100
AcDbEntity
  8
0
100
AcDbLine
 62
7
  6
CONTINUOUS
 10
5.6935203887
 20
2.9296519077
 11
4.6828953887
 21
2.9296519077
  0
LINE
  5
248
100
AcDbEntity
  8
0
100
AcDbLine
 62
7
  6
CONTINUOUS
 10
4.2403953887
 20
2.9296519077
 11
3.2297703887
 21
2.9296519077
  0
LINE
  5
249
100
AcDbEntity
  8
0
100
AcDbLine
 62
7
  6
CONTINUOUS
 10
2.7272703887
 20
3.0035269077
 11
3.1960203887
 21
3.0035269077
  0
LINE
  5
24A
100
AcDbEntity
  8
0
100
AcDbLine
 62
7
  6
CONTINUOUS
 10
5.7272703887
 20
3.0035269077
 11
6.1960203887
 21
3.0035269077
  0
LINE
  5
24B
100
AcDbEntity
  8
0
100
AcDbLine
 62
7
  6
CONTINUOUS
 10
2.7385203887
 20
3.0147769077
 11
3.1847703887
 21
3.0147769077
  0
LINE
  5
24C
100
AcDbEntity
  8
0
100
AcDbLine
 62
7
  6
CONTINUOUS
 10
5.7385203887
 20
3.0147769077
 11
6.1847703887
 21
3.0147769077
  0
LINE
  5
24D
100
AcDbEntity
  8
0
100
AcDbLine
 62
7
  6
CONTINUOUS
 10
2.7272703887
 20
3.0260269077
 11
3.1960203887
 21
3.0260269077
  0
LINE
  5
24E
100
AcDbEntity
  8
0
100
AcDbLine
 62
7
  6
CONTINUOUS
 10
5.7272703887
 20
3.0260269077
 11
6.1960203887
 21
3.0260269077
  0
LINE
  5
24F
100
AcDbEntity
  8
0
100
AcDbLine
 62
7
  6
CONTINUOUS
 10
4.6491453887
 20
3.0890269077
 11
4.2741453887
 21
3.0890269077
  0
LINE
  5
250
100
AcDbEntity
  8
0
100
AcDbLine
 62
7
  6
CONTINUOUS
 10
4.6491453887
 20
3.1009519077
 11
4.2741453887
 21
3.1009519077
  0
LINE
  5
251
100
AcDbEntity
  8
0
100
AcDbLine
 62
7
  6
CONTINUOUS
 10
3.2938953887
 20
4.1017144077
 11
3.2863953887
 21
4.1092144077
  0
LINE
  5
252
100
AcDbEntity
  8
0
100
AcDbLine
 62
7
  6
CONTINUOUS
 10
2.9616453887
 20
3.9920269077
 11
2.8444578886
 21
3.8410894075
  0
LINE
  5
253
100
AcDbEntity
  8
0
100
AcDbLine
 62
7
  6
CONTINUOUS
 10
2.8920806997
 20
3.902427541
 11
2.8870974343
 21
3.8960095441
  0
LWPOLYLINE
  5
254
100
AcDbEntity
  8
0
100
AcDbPolyline
 62
7
  6
CONTINUOUS
 90
3
 70
0
 10
2.9001952277
 20
3.9128791161
 10
2.8974062154
 20
3.9092874052
 10
2.8920806997
 20
3.902427541
  0
LINE
  5
255
100
AcDbEntity
  8
0
100
AcDbLine
 62
7
  6
CONTINUOUS
 10
2.882455761
 20
3.8900304414
 11
2.8802618984
 21
3.8872053984
  0
LINE
  5
256
100
AcDbEntity
  8
0
100
AcDbLine
 62
7
  6
CONTINUOUS
 10
2.9504584256
 20
3.9776181229
 11
2.9060227227
 21
3.9203858184
  0
LINE
  5
257
100
AcDbEntity
  8
0
100
AcDbLine
 62
7
  6
CONTINUOUS
 10
2.874177633
 20
3.8793690931
 11
2.8671781029
 21
3.8703526228
  0
LINE
  5
258
100
AcDbEntity
  8
0
100
AcDbLine
 62
7
  6
CONTINUOUS
 10
2.8656159373
 20
3.8683401195
 11
2.8576796519
 21
3.85811791
  0
LINE
  5
259
100
AcDbEntity
  8
0
100
AcDbLine
 62
7
  6
CONTINUOUS
 10
2.8576796519
 20
3.85811791
 11
2.8565796044
 21
3.856702368
  0
LINE
  5
25A
100
AcDbEntity
  8
0
100
AcDbLine
 62
7
  6
CONTINUOUS
 10
2.8555377019
 20
3.8553601504
 11
2.8497430602
 21
3.8478960644
  0
LINE
  5
25B
100
AcDbEntity
  8
0
100
AcDbLine
 62
7
  6
CONTINUOUS
 10
2.8497430602
 20
3.8478960644
 11
2.8479747076
 21
3.8456192002
  0
LWPOLYLINE
  5
25C
100
AcDbEntity
  8
0
100
AcDbPolyline
 62
7
  6
CONTINUOUS
 90
3
 70
0
 10
2.8479747076
 20
3.8456192002
 10
2.8447294346
 20
3.8414405967
 10
2.8444746161
 20
3.8411104978
  0
LINE
  5
25D
100
AcDbEntity
  8
0
100
AcDbLine
 62
7
  6
CONTINUOUS
 10
2.8444746161
 20
3.8411104978
 11
2.8444578887
 21
3.8410894077
  0
LINE
  5
25E
100
AcDbEntity
  8
0
100
AcDbLine
 62
7
  6
CONTINUOUS
 10
8.3625180343
 20
3.6455729834
 11
8.3552866382
 21
3.644556677
  0
LINE
  5
25F
100
AcDbEntity
  8
0
100
AcDbLine
 62
7
  6
CONTINUOUS
 10
8.0316092535
 20
3.6019437409
 11
8.0243612218
 21
3.6010537945
  0
LINE
  5
260
100
AcDbEntity
  8
0
100
AcDbLine
 62
7
  6
CONTINUOUS
 10
8.370713601
 20
3.6374568964
 11
8.3634389259
 21
3.6368204448
  0
LINE
  5
261
100
AcDbEntity
  8
0
100
AcDbLine
 62
7
  6
CONTINUOUS
 10
8.037968628
 20
3.6112104604
 11
8.0306939366
 21
3.6107017645
  0
LINE
  5
262
100
AcDbEntity
  8
0
100
AcDbLine
 62
7
  6
CONTINUOUS
 10
8.0448176046
 20
3.3411308059
 11
8.0521156194
 21
3.3413856581
  0
LINE
  5
263
100
AcDbEntity
  8
0
100
AcDbLine
 62
7
  6
CONTINUOUS
 10
8.3784741302
 20
3.3499316565
 11
8.3857754812
 21
3.3500591021
  0
LINE
  5
264
100
AcDbEntity
  8
0
100
AcDbLine
 62
7
  6
CONTINUOUS
 10
8.0375152962
 20
3.3500591021
 11
8.0448166472
 21
3.3499316565
  0
LINE
  5
265
100
AcDbEntity
  8
0
100
AcDbLine
 62
7
  6
CONTINUOUS
 10
8.371175158
 20
3.3413856581
 11
8.3784731728
 21
3.3411308059
  0
LINE
  5
266
100
AcDbEntity
  8
0
100
AcDbLine
 62
7
  6
CONTINUOUS
 10
4.2741453887
 20
2.9634019077
 11
4.2741453887
 21
3.0890269077
  0
LINE
  5
267
100
AcDbEntity
  8
0
100
AcDbLine
 62
7
  6
CONTINUOUS
 10
4.2741453887
 20
3.1009519077
 11
4.2741453887
 21
7.2259519077
  0
LINE
  5
268
100
AcDbEntity
  8
0
100
AcDbLine
 62
7
  6
CONTINUOUS
 10
3.2938953887
 20
3.8823394077
 11
3.2863953887
 21
3.8748394077
  0
LINE
  5
269
100
AcDbEntity
  8
0
100
AcDbLine
 62
7
  6
CONTINUOUS
 10
2.8107289927
 20
3.8748561201
 11
2.8107078887
 21
3.8748394077
  0
LINE
  5
26A
100
AcDbEntity
  8
0
100
AcDbLine
 62
7
  6
CONTINUOUS
 10
2.9616453887
 20
3.9920269077
 11
2.8107078886
 21
3.8748394076
  0
LWPOLYLINE
  5
26B
100
AcDbEntity
  8
0
100
AcDbPolyline
 62
7
  6
CONTINUOUS
 90
3
 70
0
 10
2.8788577019
 20
3.9277502946
 10
2.8753718761
 20
3.9250440451
 10
2.8719960864
 20
3.9224233847
  0
LINE
  5
26C
100
AcDbEntity
  8
0
100
AcDbLine
 62
7
  6
CONTINUOUS
 10
2.8125173435
 20
3.8762443409
 11
2.8121299219
 21
3.8759435682
  0
LINE
  5
26D
100
AcDbEntity
  8
0
100
AcDbLine
 62
7
  6
CONTINUOUS
 10
2.8655769799
 20
3.9174392378
 11
2.8625319537
 21
3.9150755049
  0
LINE
  5
26E
100
AcDbEntity
  8
0
100
AcDbLine
 62
7
  6
CONTINUOUS
 10
2.8899600498
 20
3.9363698882
 11
2.8861517888
 21
3.9334137238
  0
LINE
  5
26F
100
AcDbEntity
  8
0
100
AcDbLine
 62
7
  6
CONTINUOUS
 10
2.8262818423
 20
3.8869306333
 11
2.8249412172
 21
3.8858899915
  0
LWPOLYLINE
  5
270
100
AcDbEntity
  8
0
100
AcDbPolyline
 62
7
  6
CONTINUOUS
 90
3
 70
0
 10
2.8567722
 20
3.9106032474
 10
2.8540534026
 20
3.9084928567
 10
2.8514415799
 20
3.906465251
  0
LINE
  5
271
100
AcDbEntity
  8
0
100
AcDbLine
 62
7
  6
CONTINUOUS
 10
2.8489360823
 20
3.9045192188
 11
2.8442291304
 21
3.9008656262
  0
LINE
  5
272
100
AcDbEntity
  8
0
100
AcDbLine
 62
7
  6
CONTINUOUS
 10
2.8399208772
 20
3.8975204091
 11
2.8379089619
 21
3.8959587973
  0
LINE
  5
273
100
AcDbEntity
  8
0
100
AcDbLine
 62
7
  6
CONTINUOUS
 10
2.8109045249
 20
3.8749911698
 11
2.8107945381
 21
3.8749065588
  0
LINE
  5
274
100
AcDbEntity
  8
0
100
AcDbLine
 62
7
  6
CONTINUOUS
 10
8.3784731728
 20
3.6289230094
 11
8.371175158
 21
3.6286681572
  0
LINE
  5
275
100
AcDbEntity
  8
0
100
AcDbLine
 62
7
  6
CONTINUOUS
 10
8.0448166472
 20
3.6201221588
 11
8.0375152962
 21
3.6199947132
  0
LINE
  5
276
100
AcDbEntity
  8
0
100
AcDbLine
 62
7
  6
CONTINUOUS
 10
2.7272703887
 20
3.5904019077
 11
3.1960203887
 21
3.5904019077
  0
LINE
  5
277
100
AcDbEntity
  8
0
100
AcDbLine
 62
7
  6
CONTINUOUS
 10
5.7272703887
 20
3.5904019077
 11
6.1960203887
 21
3.5904019077
  0
LINE
  5
278
100
AcDbEntity
  8
0
100
AcDbLine
 62
7
  6
CONTINUOUS
 10
2.7385203887
 20
3.6016519077
 11
3.1847703887
 21
3.6016519077
  0
LINE
  5
279
100
AcDbEntity
  8
0
100
AcDbLine
 62
7
  6
CONTINUOUS
 10
5.7385203887
 20
3.6016519077
 11
6.1847703887
 21
3.6016519077
  0
LINE
  5
27A
100
AcDbEntity
  8
0
100
AcDbLine
 62
7
  6
CONTINUOUS
 10
6.0788328887
 20
3.6132769077
 11
5.8444578887
 21
3.6132769077
  0
LINE
  5
27B
100
AcDbEntity
  8
0
100
AcDbLine
 62
7
  6
CONTINUOUS
 10
3.0788328887
 20
3.6132769077
 11
2.8444578887
 21
3.6132769077
  0
LINE
  5
27C
100
AcDbEntity
  8
0
100
AcDbLine
 62
7
  6
CONTINUOUS
 10
8.3857754812
 20
3.6199947132
 11
8.3784741302
 21
3.6201221588
  0
LINE
  5
27D
100
AcDbEntity
  8
0
100
AcDbLine
 62
7
  6
CONTINUOUS
 10
8.0521156194
 20
3.6286681572
 11
8.0448176046
 21
3.6289230094
  0
LINE
  5
27E
100
AcDbEntity
  8
0
100
AcDbLine
 62
7
  6
CONTINUOUS
 10
8.0306939366
 20
3.3593520508
 11
8.037968628
 21
3.3588433549
  0
LINE
  5
27F
100
AcDbEntity
  8
0
100
AcDbLine
 62
7
  6
CONTINUOUS
 10
8.3634389259
 20
3.3332333705
 11
8.370713601
 21
3.3325969189
  0
LINE
  5
280
100
AcDbEntity
  8
0
100
AcDbLine
 62
7
  6
CONTINUOUS
 10
8.0243612218
 20
3.3690000208
 11
8.0316092535
 21
3.3681100744
  0
LINE
  5
281
100
AcDbEntity
  8
0
100
AcDbLine
 62
7
  6
CONTINUOUS
 10
5.7839568773
 20
2.8505989403
 11
5.7894489946
 21
2.8457988113
  0
LINE
  5
282
100
AcDbEntity
  8
0
100
AcDbLine
 62
7
  6
CONTINUOUS
 10
5.6935203887
 20
2.9296519077
 11
5.9616453887
 21
2.6952769077
  0
LWPOLYLINE
  5
283
100
AcDbEntity
  8
0
100
AcDbPolyline
 62
7
  6
CONTINUOUS
 90
3
 70
0
 10
5.7951365199
 20
2.8408270184
 10
5.8010193545
 20
2.8356842455
 10
5.8133750531
 20
2.8248848115
  0
LINE
  5
284
100
AcDbEntity
  8
0
100
AcDbLine
 62
7
  6
CONTINUOUS
 10
5.8624609809
 20
2.7819765717
 11
5.8701439016
 21
2.7752599124
  0
LINE
  5
285
100
AcDbEntity
  8
0
100
AcDbLine
 62
7
  6
CONTINUOUS
 10
5.8133750531
 20
2.8248848115
 11
5.8198396159
 21
2.8192330121
  0
LINE
  5
286
100
AcDbEntity
  8
0
100
AcDbLine
 62
7
  6
CONTINUOUS
 10
5.7735619966
 20
2.8596861827
 11
5.7786617329
 21
2.8552275818
  0
LINE
  5
287
100
AcDbEntity
  8
0
100
AcDbLine
 62
7
  6
CONTINUOUS
 10
5.6935203887
 20
2.9296519077
 11
5.6935661528
 21
2.9296112977
  0
LINE
  5
288
100
AcDbEntity
  8
0
100
AcDbLine
 62
7
  6
CONTINUOUS
 10
4.6491453887
 20
2.9634019077
 11
4.6491453887
 21
3.0890269077
  0
LINE
  5
289
100
AcDbEntity
  8
0
100
AcDbLine
 62
7
  6
CONTINUOUS
 10
4.6491453887
 20
3.1009519077
 11
4.6491453887
 21
7.2259519077
  0
LINE
  5
28A
100
AcDbEntity
  8
0
100
AcDbLine
 62
7
  6
CONTINUOUS
 10
2.7385203887
 20
3.0147769077
 11
2.7272703889
 21
3.0035269079
  0
LINE
  5
28B
100
AcDbEntity
  8
0
100
AcDbLine
 62
7
  6
CONTINUOUS
 10
7.0750203887
 20
3.8748394077
 11
6.1125828887
 21
3.8748394077
  0
LINE
  5
28C
100
AcDbEntity
  8
0
100
AcDbLine
 62
7
  6
CONTINUOUS
 10
5.8107078887
 20
3.8748394077
 11
5.6368953887
 21
3.8748394077
  0
LINE
  5
28D
100
AcDbEntity
  8
0
100
AcDbLine
 62
7
  6
CONTINUOUS
 10
1.8482703887
 20
3.8748394077
 11
2.8107078887
 21
3.8748394077
  0
LINE
  5
28E
100
AcDbEntity
  8
0
100
AcDbLine
 62
7
  6
CONTINUOUS
 10
3.1125828887
 20
3.8748394077
 11
3.2863953887
 21
3.8748394077
  0
LINE
  5
28F
100
AcDbEntity
  8
0
100
AcDbLine
 62
7
  6
CONTINUOUS
 10
8.3925968408
 20
3.6107017645
 11
8.3853221494
 21
3.6112104604
  0
LINE
  5
290
100
AcDbEntity
  8
0
100
AcDbLine
 62
7
  6
CONTINUOUS
 10
8.0598518515
 20
3.6368204448
 11
8.0525771764
 21
3.6374568964
  0
LINE
  5
291
100
AcDbEntity
  8
0
100
AcDbLine
 62
7
  6
CONTINUOUS
 10
8.3989295556
 20
3.6010537945
 11
8.3916815239
 21
3.6019437409
  0
LINE
  5
292
100
AcDbEntity
  8
0
100
AcDbLine
 62
7
  6
CONTINUOUS
 10
8.3552866382
 20
3.3254971383
 11
8.3625180343
 21
3.3244808319
  0
LINE
  5
293
100
AcDbEntity
  8
0
100
AcDbLine
 62
7
  6
CONTINUOUS
 10
8.0185455101
 20
3.3789607276
 11
8.0257370325
 21
3.3776926682
  0
LINE
  5
294
100
AcDbEntity
  8
0
100
AcDbLine
 62
7
  6
CONTINUOUS
 10
8.3467406398
 20
3.3181981662
 11
8.3539089362
 21
3.3168047905
  0
LINE
  5
295
100
AcDbEntity
  8
0
100
AcDbLine
 62
7
  6
CONTINUOUS
 10
5.7272703887
 20
3.0260269076
 11
5.7385203887
 21
3.0147769077
  0
LINE
  5
296
100
AcDbEntity
  8
0
100
AcDbLine
 62
7
  6
CONTINUOUS
 10
5.7272703887
 20
2.9634019077
 11
5.727311021
 21
2.9633562223
  0
LINE
  5
297
100
AcDbEntity
  8
0
100
AcDbLine
 62
7
  6
CONTINUOUS
 10
5.7272703887
 20
2.9634019077
 11
5.9616453887
 21
2.6952769077
  0
LINE
  5
298
100
AcDbEntity
  8
0
100
AcDbLine
 62
7
  6
CONTINUOUS
 10
3.1119948521
 20
2.867276057
 11
3.1167940358
 21
2.8727671133
  0
LWPOLYLINE
  5
299
100
AcDbEntity
  8
0
100
AcDbPolyline
 62
7
  6
CONTINUOUS
 90
3
 70
0
 10
3.0910908101
 20
2.8433613638
 10
3.1018837036
 20
2.8557096025
 10
3.1070244108
 20
2.8615900604
  0
LINE
  5
29A
100
AcDbEntity
  8
0
100
AcDbLine
 62
7
  6
CONTINUOUS
 10
2.9616453887
 20
2.6952769077
 11
3.1960203887
 21
2.9634019077
  0
LWPOLYLINE
  5
29B
100
AcDbEntity
  8
0
100
AcDbPolyline
 62
7
  6
CONTINUOUS
 90
3
 70
0
 10
3.0135132671
 20
2.7546106393
 10
3.027733969
 20
2.7708822439
 10
3.0346847894
 20
2.7788311833
  0
LINE
  5
29C
100
AcDbEntity
  8
0
100
AcDbLine
 62
7
  6
CONTINUOUS
 10
3.0548034535
 20
2.8018474526
 11
3.0910908101
 21
2.8433613638
  0
LWPOLYLINE
  5
29D
100
AcDbEntity
  8
0
100
AcDbPolyline
 62
7
  6
CONTINUOUS
 90
3
 70
0
 10
2.9915636709
 20
2.7295002112
 10
3.0062700004
 20
2.7463274621
 10
3.0135132671
 20
2.7546106393
  0
LINE
  5
29E
100
AcDbEntity
  8
0
100
AcDbLine
 62
7
  6
CONTINUOUS
 10
3.0346847894
 20
2.7788311833
 11
3.0548034535
 21
2.8018474526
  0
LINE
  5
29F
100
AcDbEntity
  8
0
100
AcDbLine
 62
7
  6
CONTINUOUS
 10
3.1214221023
 20
2.878061623
 11
3.1456845821
 21
2.9058184996
  0
LINE
  5
2A0
100
AcDbEntity
  8
0
100
AcDbLine
 62
7
  6
CONTINUOUS
 10
3.1456845821
 20
2.9058184996
 11
3.161576414
 21
2.923998038
  0
LINE
  5
2A1
100
AcDbEntity
  8
0
100
AcDbLine
 62
7
  6
CONTINUOUS
 10
3.161576414
 20
2.923998038
 11
3.1693991822
 21
2.9329472489
  0
LINE
  5
2A2
100
AcDbEntity
  8
0
100
AcDbLine
 62
7
  6
CONTINUOUS
 10
3.1693991822
 20
2.9329472489
 11
3.1760497375
 21
2.9405554707
  0
LINE
  5
2A3
100
AcDbEntity
  8
0
100
AcDbLine
 62
7
  6
CONTINUOUS
 10
3.1760497375
 20
2.9405554707
 11
3.1933047294
 21
2.9602957015
  0
LINE
  5
2A4
100
AcDbEntity
  8
0
100
AcDbLine
 62
7
  6
CONTINUOUS
 10
2.9766638021
 20
2.7124693663
 11
2.9915636709
 21
2.7295002112
  0
LINE
  5
2A5
100
AcDbEntity
  8
0
100
AcDbLine
 62
7
  6
CONTINUOUS
 10
3.1933047294
 20
2.9602957015
 11
3.1959790112
 21
2.96335572
  0
LINE
  5
2A6
100
AcDbEntity
  8
0
100
AcDbLine
 62
7
  6
CONTINUOUS
 10
3.1959790112
 20
2.96335572
 11
3.1960203887
 21
2.9634019077
  0
LINE
  5
2A7
100
AcDbEntity
  8
0
100
AcDbLine
 62
7
  6
CONTINUOUS
 10
3.1960203887
 20
3.0260269076
 11
3.1847703887
 21
3.0147769077
  0
LINE
  5
2A8
100
AcDbEntity
  8
0
100
AcDbLine
 62
7
  6
CONTINUOUS
 10
7.0750203887
 20
4.1092144077
 11
5.6368953887
 21
4.1092144077
  0
LINE
  5
2A9
100
AcDbEntity
  8
0
100
AcDbLine
 62
7
  6
CONTINUOUS
 10
1.8482703887
 20
4.1092144077
 11
3.2863953887
 21
4.1092144077
  0
LINE
  5
2AA
100
AcDbEntity
  8
0
100
AcDbLine
 62
7
  6
CONTINUOUS
 10
8.0680041392
 20
3.644556677
 11
8.0607727431
 21
3.6455729834
  0
LINE
  5
2AB
100
AcDbEntity
  8
0
100
AcDbLine
 62
7
  6
CONTINUOUS
 10
8.4047452673
 20
3.5910930877
 11
8.3975537449
 21
3.5923611471
  0
LINE
  5
2AC
100
AcDbEntity
  8
0
100
AcDbLine
 62
7
  6
CONTINUOUS
 10
8.0765501376
 20
3.6518556491
 11
8.0693818412
 21
3.6532490248
  0
LINE
  5
2AD
100
AcDbEntity
  8
0
100
AcDbLine
 62
7
  6
CONTINUOUS
 10
8.0132590718
 20
3.3892121544
 11
8.0203743734
 21
3.3875694576
  0
LINE
  5
2AE
100
AcDbEntity
  8
0
100
AcDbLine
 62
7
  6
CONTINUOUS
 10
8.4100317056
 20
3.5808416609
 11
8.402916404
 21
3.5824843577
  0
LINE
  5
2AF
100
AcDbEntity
  8
0
100
AcDbLine
 62
7
  6
CONTINUOUS
 10
8.3378289415
 20
3.3113501469
 11
8.3449047798
 21
3.3095859423
  0
LINE
  5
2B0
100
AcDbEntity
  8
0
100
AcDbLine
 62
7
  6
CONTINUOUS
 10
8.0085163967
 20
3.3997262028
 11
8.0155359748
 21
3.3977133711
  0
LINE
  5
2B1
100
AcDbEntity
  8
0
100
AcDbLine
 62
7
  6
CONTINUOUS
 10
8.3285622219
 20
3.3049907725
 11
8.3355456022
 21
3.3028557389
  0
LINE
  5
2B2
100
AcDbEntity
  8
0
100
AcDbLine
 62
7
  6
CONTINUOUS
 10
6.1847703887
 20
3.0147769077
 11
6.1960203885
 21
3.0035269079
  0
LINE
  5
2B3
100
AcDbEntity
  8
0
100
AcDbLine
 62
7
  6
CONTINUOUS
 10
3.2297241602
 20
2.9296105591
 11
3.2297703887
 21
2.9296519077
  0
LINE
  5
2B4
100
AcDbEntity
  8
0
100
AcDbLine
 62
7
  6
CONTINUOUS
 10
2.9616453887
 20
2.6952769077
 11
3.2297703887
 21
2.9296519077
  0
LINE
  5
2B5
100
AcDbEntity
  8
0
100
AcDbLine
 62
7
  6
CONTINUOUS
 10
8.0854618359
 20
3.6587036684
 11
8.0783859976
 21
3.660467873
  0
LINE
  5
2B6
100
AcDbEntity
  8
0
100
AcDbLine
 62
7
  6
CONTINUOUS
 10
8.4147743807
 20
3.5703276125
 11
8.4077548026
 21
3.5723404442
  0
LINE
  5
2B7
100
AcDbEntity
  8
0
100
AcDbLine
 62
7
  6
CONTINUOUS
 10
8.0947285555
 20
3.6650630428
 11
8.0877451752
 21
3.6671980765
  0
LINE
  5
2B8
100
AcDbEntity
  8
0
100
AcDbLine
 62
7
  6
CONTINUOUS
 10
8.0043304839
 20
3.4104740545
 11
8.0112350985
 21
3.408096605
  0
LINE
  5
2B9
100
AcDbEntity
  8
0
100
AcDbLine
 62
7
  6
CONTINUOUS
 10
8.3189796282
 20
3.2991185515
 11
8.325841699
 21
3.296620962
  0
LINE
  5
2BA
100
AcDbEntity
  8
0
100
AcDbLine
 62
7
  6
CONTINUOUS
 10
8.0007146645
 20
3.42142009
 11
8.0074761115
 21
3.4186882881
  0
LINE
  5
2BB
100
AcDbEntity
  8
0
100
AcDbLine
 62
7
  6
CONTINUOUS
 10
8.3091028387
 20
3.2937558923
 11
8.3158247916
 21
3.2909025927
  0
LINE
  5
2BC
100
AcDbEntity
  8
0
100
AcDbLine
 62
7
  6
CONTINUOUS
 10
6.1125617865
 20
3.8748561253
 11
6.1122324551
 21
3.8751104139
  0
LINE
  5
2BD
100
AcDbEntity
  8
0
100
AcDbLine
 62
7
  6
CONTINUOUS
 10
6.1125828887
 20
3.8748394077
 11
5.9616453887
 21
3.9920269077
  0
LINE
  5
2BE
100
AcDbEntity
  8
0
100
AcDbLine
 62
7
  6
CONTINUOUS
 10
6.0444255994
 20
3.9277561151
 11
6.0408327489
 21
3.9305460088
  0
LINE
  5
2BF
100
AcDbEntity
  8
0
100
AcDbLine
 62
7
  6
CONTINUOUS
 10
6.0039904082
 20
3.9591503136
 11
5.9994732639
 21
3.9626580512
  0
LINE
  5
2C0
100
AcDbEntity
  8
0
100
AcDbLine
 62
7
  6
CONTINUOUS
 10
6.0333226796
 20
3.9363761045
 11
6.0294141907
 21
3.9394113564
  0
LINE
  5
2C1
100
AcDbEntity
  8
0
100
AcDbLine
 62
7
  6
CONTINUOUS
 10
6.0665099
 20
3.9106099761
 11
6.063684913
 21
3.9128038146
  0
LINE
  5
2C2
100
AcDbEntity
  8
0
100
AcDbLine
 62
7
  6
CONTINUOUS
 10
6.1125828887
 20
3.8748394077
 11
6.1125617865
 21
3.8748561253
  0
LINE
  5
2C3
100
AcDbEntity
  8
0
100
AcDbLine
 62
7
  6
CONTINUOUS
 10
5.6293953887
 20
3.8823394077
 11
5.6368953887
 21
3.8748394077
  0
LINE
  5
2C4
100
AcDbEntity
  8
0
100
AcDbLine
 62
7
  6
CONTINUOUS
 10
4.2741453887
 20
4.8878269077
 11
4.6491453887
 21
4.8878269077
  0
LINE
  5
2C5
100
AcDbEntity
  8
0
100
AcDbLine
 62
7
  6
CONTINUOUS
 10
8.4189602935
 20
3.5595797608
 11
8.4120556789
 21
3.5619572103
  0
LINE
  5
2C6
100
AcDbEntity
  8
0
100
AcDbLine
 62
7
  6
CONTINUOUS
 10
8.1043111492
 20
3.6709352638
 11
8.0974490784
 21
3.6734328533
  0
LINE
  5
2C7
100
AcDbEntity
  8
0
100
AcDbLine
 62
7
  6
CONTINUOUS
 10
8.4225761129
 20
3.5486337253
 11
8.4158146659
 21
3.5513655272
  0
LINE
  5
2C8
100
AcDbEntity
  8
0
100
AcDbLine
 62
7
  6
CONTINUOUS
 10
8.1141879386
 20
3.676297923
 11
8.1074659858
 21
3.6791512226
  0
LINE
  5
2C9
100
AcDbEntity
  8
0
100
AcDbLine
 62
7
  6
CONTINUOUS
 10
7.9976732815
 20
3.4325527712
 11
8.0042915608
 21
3.4294666169
  0
LINE
  5
2CA
100
AcDbEntity
  8
0
100
AcDbLine
 62
7
  6
CONTINUOUS
 10
8.2989589252
 20
3.2889174938
 11
8.3055223357
 21
3.2857163046
  0
LINE
  5
2CB
100
AcDbEntity
  8
0
100
AcDbLine
 62
7
  6
CONTINUOUS
 10
7.9952202387
 20
3.44382312
 11
8.001667931
 21
3.4403948212
  0
LINE
  5
2CC
100
AcDbEntity
  8
0
100
AcDbLine
 62
7
  6
CONTINUOUS
 10
6.0788328887
 20
3.8410894077
 11
6.078816156
 21
3.8411104963
  0
LINE
  5
2CD
100
AcDbEntity
  8
0
100
AcDbLine
 62
7
  6
CONTINUOUS
 10
6.0788328887
 20
3.8410894077
 11
5.9616453887
 21
3.9920269077
  0
LINE
  5
2CE
100
AcDbEntity
  8
0
100
AcDbLine
 62
7
  6
CONTINUOUS
 10
6.0312041483
 20
3.9024350903
 11
6.0285842518
 21
3.9058099243
  0
LINE
  5
2CF
100
AcDbEntity
  8
0
100
AcDbLine
 62
7
  6
CONTINUOUS
 10
6.0385504551
 20
3.8929730133
 11
6.0361871063
 21
3.8960175077
  0
LINE
  5
2D0
100
AcDbEntity
  8
0
100
AcDbLine
 62
7
  6
CONTINUOUS
 10
6.0202172268
 20
3.9165865547
 11
6.0172619587
 21
3.9203936875
  0
LINE
  5
2D1
100
AcDbEntity
  8
0
100
AcDbLine
 62
7
  6
CONTINUOUS
 10
6.0471607163
 20
3.8818828477
 11
6.0430224116
 21
3.8872138314
  0
LINE
  5
2D2
100
AcDbEntity
  8
0
100
AcDbLine
 62
7
  6
CONTINUOUS
 10
6.0677524673
 20
3.8553609265
 11
6.0667104534
 21
3.8567033099
  0
LINE
  5
2D3
100
AcDbEntity
  8
0
100
AcDbLine
 62
7
  6
CONTINUOUS
 10
6.0753154311
 20
3.8456199617
 11
6.0747695431
 21
3.8463232069
  0
LINE
  5
2D4
100
AcDbEntity
  8
0
100
AcDbLine
 62
7
  6
CONTINUOUS
 10
6.0705432894
 20
3.8517669471
 11
6.0696668136
 21
3.8528960994
  0
LINE
  5
2D5
100
AcDbEntity
  8
0
100
AcDbLine
 62
7
  6
CONTINUOUS
 10
6.0527620184
 20
3.8746680759
 11
6.0491071192
 21
3.8793767853
  0
LINE
  5
2D6
100
AcDbEntity
  8
0
100
AcDbLine
 62
7
  6
CONTINUOUS
 10
6.0777241403
 20
3.842517341
 11
6.0774218113
 21
3.842906846
  0
LINE
  5
2D7
100
AcDbEntity
  8
0
100
AcDbLine
 62
7
  6
CONTINUOUS
 10
6.060584296
 20
3.8645936724
 11
6.059162693
 21
3.8664252096
  0
LINE
  5
2D8
100
AcDbEntity
  8
0
100
AcDbLine
 62
7
  6
CONTINUOUS
 10
6.057671939
 20
3.8683439958
 11
6.0544729341
 21
3.872465429
  0
LINE
  5
2D9
100
AcDbEntity
  8
0
100
AcDbLine
 62
7
  6
CONTINUOUS
 10
6.078816156
 20
3.8411104963
 11
6.0786808015
 21
3.8412865332
  0
LINE
  5
2DA
100
AcDbEntity
  8
0
100
AcDbLine
 62
7
  6
CONTINUOUS
 10
5.5903953887
 20
1.9152769077
 11
5.5903953887
 21
1.7671519077
  0
LINE
  5
2DB
100
AcDbEntity
  8
0
100
AcDbLine
 62
7
  6
CONTINUOUS
 10
5.6293953887
 20
3.8823394077
 11
5.6293953887
 21
4.1017144077
  0
LINE
  5
2DC
100
AcDbEntity
  8
0
100
AcDbLine
 62
7
  6
CONTINUOUS
 10
5.6368953887
 20
3.8748394077
 11
5.6368953887
 21
4.1092144077
  0
LINE
  5
2DD
100
AcDbEntity
  8
0
100
AcDbLine
 62
7
  6
CONTINUOUS
 10
5.7272703887
 20
1.9265269077
 11
5.7272703887
 21
2.4271519077
  0
LINE
  5
2DE
100
AcDbEntity
  8
0
100
AcDbLine
 62
7
  6
CONTINUOUS
 10
5.7272703887
 20
2.9634019077
 11
5.7272703887
 21
3.0035269077
  0
LINE
  5
2DF
100
AcDbEntity
  8
0
100
AcDbLine
 62
7
  6
CONTINUOUS
 10
5.7272703887
 20
3.0260269077
 11
5.7272703887
 21
3.5904019077
  0
LINE
  5
2E0
100
AcDbEntity
  8
0
100
AcDbLine
 62
7
  6
CONTINUOUS
 10
8.4256174959
 20
3.5375010441
 11
8.4189992166
 21
3.5405871984
  0
LINE
  5
2E1
100
AcDbEntity
  8
0
100
AcDbLine
 62
7
  6
CONTINUOUS
 10
8.1243318522
 20
3.6811363215
 11
8.1177684417
 21
3.6843375107
  0
LINE
  5
2E2
100
AcDbEntity
  8
0
100
AcDbLine
 62
7
  6
CONTINUOUS
 10
8.4280705387
 20
3.5262306953
 11
8.4216228464
 21
3.5296589941
  0
LINE
  5
2E3
100
AcDbEntity
  8
0
100
AcDbLine
 62
7
  6
CONTINUOUS
 10
8.2885756913
 20
3.2846166175
 11
8.2949625696
 21
3.2810763131
  0
LINE
  5
2E4
100
AcDbEntity
  8
0
100
AcDbLine
 62
7
  6
CONTINUOUS
 10
7.9933604022
 20
3.4552064056
 11
7.9996198349
 21
3.451445359
  0
LINE
  5
2E5
100
AcDbEntity
  8
0
100
AcDbLine
 62
7
  6
CONTINUOUS
 10
8.2779840082
 20
3.2808576304
 11
8.2841683612
 21
3.2769932178
  0
LINE
  5
2E6
100
AcDbEntity
  8
0
100
AcDbLine
 62
7
  6
CONTINUOUS
 10
7.9920988697
 20
3.466671427
 11
7.9981528861
 21
3.4625879414
  0
LINE
  5
2E7
100
AcDbEntity
  8
0
100
AcDbLine
 62
7
  6
CONTINUOUS
 10
5.8444578887
 20
3.8410894077
 11
5.8444578887
 21
3.6132769077
  0
LINE
  5
2E8
100
AcDbEntity
  8
0
100
AcDbLine
 62
7
  6
CONTINUOUS
 10
6.0788328887
 20
3.8410894077
 11
6.0788328887
 21
3.6132769077
  0
LINE
  5
2E9
100
AcDbEntity
  8
0
100
AcDbLine
 62
7
  6
CONTINUOUS
 10
5.6293953887
 20
4.1017144077
 11
5.6368953887
 21
4.1092144077
  0
LINE
  5
2EA
100
AcDbEntity
  8
0
100
AcDbLine
 62
7
  6
CONTINUOUS
 10
4.2741453887
 20
5.4822019077
 11
4.6491453887
 21
5.4822019077
  0
LINE
  5
2EB
100
AcDbEntity
  8
0
100
AcDbLine
 62
7
  6
CONTINUOUS
 10
8.1347150861
 20
3.6854371978
 11
8.1283282078
 21
3.6889775022
  0
LINE
  5
2EC
100
AcDbEntity
  8
0
100
AcDbLine
 62
7
  6
CONTINUOUS
 10
8.4299303752
 20
3.5148474097
 11
8.4236709425
 21
3.5186084563
  0
LINE
  5
2ED
100
AcDbEntity
  8
0
100
AcDbLine
 62
7
  6
CONTINUOUS
 10
8.1453067692
 20
3.6891961849
 11
8.1391224162
 21
3.6930605975
  0
LINE
  5
2EE
100
AcDbEntity
  8
0
100
AcDbLine
 62
7
  6
CONTINUOUS
 10
8.4311919077
 20
3.5033823883
 11
8.4251378913
 21
3.5074658739
  0
LINE
  5
2EF
100
AcDbEntity
  8
0
100
AcDbLine
 62
7
  6
CONTINUOUS
 10
8.2672056794
 20
3.2776730797
 11
8.2731875071
 21
3.2734845589
  0
LINE
  5
2F0
100
AcDbEntity
  8
0
100
AcDbLine
 62
7
  6
CONTINUOUS
 10
7.991439099
 20
3.4781867596
 11
7.9972711054
 21
3.4737920275
  0
LINE
  5
2F1
100
AcDbEntity
  8
0
100
AcDbLine
 62
7
  6
CONTINUOUS
 10
8.2562774751
 20
3.27504945
 11
8.2620318947
 21
3.2705536047
  0
LINE
  5
2F2
100
AcDbEntity
  8
0
100
AcDbLine
 62
7
  6
CONTINUOUS
 10
6.1960203887
 20
1.9265269077
 11
6.1960203887
 21
3.0035269077
  0
LINE
  5
2F3
100
AcDbEntity
  8
0
100
AcDbLine
 62
7
  6
CONTINUOUS
 10
6.1960203887
 20
3.0260269077
 11
6.1960203887
 21
3.5904019077
  0
LINE
  5
2F4
100
AcDbEntity
  8
0
100
AcDbLine
 62
7
  6
CONTINUOUS
 10
6.3328953887
 20
1.9152769077
 11
6.3328953887
 21
1.7671519077
  0
LINE
  5
2F5
100
AcDbEntity
  8
0
100
AcDbLine
 62
7
  6
CONTINUOUS
 10
5.9616453887
 20
3.9920269077
 11
5.8444578886
 21
3.8410894075
  0
LINE
  5
2F6
100
AcDbEntity
  8
0
100
AcDbLine
 62
7
  6
CONTINUOUS
 10
5.9504584164
 20
3.977618111
 11
5.9090563989
 21
3.9242922749
  0
LWPOLYLINE
  5
2F7
100
AcDbEntity
  8
0
100
AcDbPolyline
 62
7
  6
CONTINUOUS
 90
3
 70
0
 10
5.8761239531
 20
3.8818749187
 10
5.8447294366
 20
3.8414406022
 10
5.8444746163
 20
3.8411104991
  0
LINE
  5
2F8
100
AcDbEntity
  8
0
100
AcDbLine
 62
7
  6
CONTINUOUS
 10
5.8444746163
 20
3.8411104991
 11
5.8444578887
 21
3.8410894077
  0
LINE
  5
2F9
100
AcDbEntity
  8
0
100
AcDbLine
 62
7
  6
CONTINUOUS
 10
5.8107289941
 20
3.8748561204
 11
5.8107078887
 21
3.8748394077
  0
LINE
  5
2FA
100
AcDbEntity
  8
0
100
AcDbLine
 62
7
  6
CONTINUOUS
 10
5.9616453887
 20
3.9920269077
 11
5.8107078886
 21
3.8748394076
  0
LINE
  5
2FB
100
AcDbEntity
  8
0
100
AcDbLine
 62
7
  6
CONTINUOUS
 10
5.8109045293
 20
3.8749911718
 11
5.8107945409
 21
3.8749065599
  0
LINE
  5
2FC
100
AcDbEntity
  8
0
100
AcDbLine
 62
7
  6
CONTINUOUS
 10
8.156085098
 20
3.6923807356
 11
8.1501032703
 21
3.6965692564
  0
LINE
  5
2FD
100
AcDbEntity
  8
0
100
AcDbLine
 62
7
  6
CONTINUOUS
 10
8.4318516784
 20
3.4918670557
 11
8.426019672
 21
3.4962617878
  0
LINE
  5
2FE
100
AcDbEntity
  8
0
100
AcDbLine
 62
7
  6
CONTINUOUS
 10
8.1670133023
 20
3.6950043653
 11
8.1612588827
 21
3.6995002106
  0
LINE
  5
2FF
100
AcDbEntity
  8
0
100
AcDbLine
 62
7
  6
CONTINUOUS
 10
7.9913827614
 20
3.4897144077
 11
7.9969691063
 21
3.4850269077
  0
LINE
  5
300
100
AcDbEntity
  8
0
100
AcDbLine
 62
7
  6
CONTINUOUS
 10
8.2452269374
 20
3.2730013539
 11
8.2507381763
 21
3.2682105069
  0
LINE
  5
301
100
AcDbEntity
  8
0
100
AcDbLine
 62
7
  6
CONTINUOUS
 10
7.9919304219
 20
3.5012420557
 11
7.9972711054
 21
3.4962617878
  0
LINE
  5
302
100
AcDbEntity
  8
0
100
AcDbLine
 62
7
  6
CONTINUOUS
 10
8.2340843549
 20
3.2715344051
 11
8.2393373073
 21
3.2664616879
  0
LINE
  5
303
100
AcDbEntity
  8
0
100
AcDbLine
 62
7
  6
CONTINUOUS
 10
7.0825203887
 20
4.1017144077
 11
7.0750203887
 21
4.1092144077
  0
LINE
  5
304
100
AcDbEntity
  8
0
100
AcDbLine
 62
7
  6
CONTINUOUS
 10
8.0883842099
 20
3.30272994
 11
8.088021778
 21
3.3031138157
  0
LINE
  5
305
100
AcDbEntity
  8
0
100
AcDbLine
 62
7
  6
CONTINUOUS
 10
5.7385203887
 20
3.0147769077
 11
5.7272703889
 21
3.0035269079
  0
LINE
  5
306
100
AcDbEntity
  8
0
100
AcDbLine
 62
7
  6
CONTINUOUS
 10
8.431908016
 20
3.4803394077
 11
8.4263216711
 21
3.4850269077
  0
LINE
  5
307
100
AcDbEntity
  8
0
100
AcDbLine
 62
7
  6
CONTINUOUS
 10
8.17806384
 20
3.6970524614
 11
8.1725526011
 21
3.7018433084
  0
LINE
  5
308
100
AcDbEntity
  8
0
100
AcDbLine
 62
7
  6
CONTINUOUS
 10
8.4313603555
 20
3.4688117596
 11
8.426019672
 21
3.4737920275
  0
LINE
  5
309
100
AcDbEntity
  8
0
100
AcDbLine
 62
7
  6
CONTINUOUS
 10
8.1892064225
 20
3.6985194102
 11
8.1839534701
 21
3.7035921274
  0
LINE
  5
30A
100
AcDbEntity
  8
0
100
AcDbLine
 62
7
  6
CONTINUOUS
 10
7.9930801689
 20
3.5127188263
 11
7.9981528861
 21
3.5074658739
  0
LINE
  5
30B
100
AcDbEntity
  8
0
100
AcDbLine
 62
7
  6
CONTINUOUS
 10
8.2228802688
 20
3.2706526244
 11
8.2278605368
 21
3.2653119409
  0
LINE
  5
30C
100
AcDbEntity
  8
0
100
AcDbLine
 62
7
  6
CONTINUOUS
 10
8.0883841647
 20
3.302729847
 11
8.0880261987
 21
3.3031161489
  0
LINE
  5
30D
100
AcDbEntity
  8
0
100
AcDbLine
 62
7
  6
CONTINUOUS
 10
7.994828988
 20
3.5241196953
 11
7.9996198349
 21
3.5186084563
  0
LINE
  5
30E
100
AcDbEntity
  8
0
100
AcDbLine
 62
7
  6
CONTINUOUS
 10
8.2116453887
 20
3.2703506253
 11
8.2163328887
 21
3.2647642803
  0
LINE
  5
30F
100
AcDbEntity
  8
0
100
AcDbLine
 62
7
  6
CONTINUOUS
 10
8.0756382687
 20
3.3174897182
 11
8.0752778518
 21
3.3179481157
  0
LINE
  5
310
100
AcDbEntity
  8
0
100
AcDbLine
 62
7
  6
CONTINUOUS
 10
8.3355456022
 20
3.6671980765
 11
8.3285622219
 21
3.6650630428
  0
LINE
  5
311
100
AcDbEntity
  8
0
100
AcDbLine
 62
7
  6
CONTINUOUS
 10
8.0155359748
 20
3.5723404442
 11
8.0085163967
 21
3.5703276125
  0
LINE
  5
312
100
AcDbEntity
  8
0
100
AcDbLine
 62
7
  6
CONTINUOUS
 10
8.4302106085
 20
3.457334989
 11
8.4251378913
 21
3.4625879414
  0
LINE
  5
313
100
AcDbEntity
  8
0
100
AcDbLine
 62
7
  6
CONTINUOUS
 10
8.2004105086
 20
3.6994011909
 11
8.1954302406
 21
3.7047418744
  0
LINE
  5
314
100
AcDbEntity
  8
0
100
AcDbLine
 62
7
  6
CONTINUOUS
 10
8.4284617894
 20
3.44593412
 11
8.4236709425
 21
3.451445359
  0
LINE
  5
315
100
AcDbEntity
  8
0
100
AcDbLine
 62
7
  6
CONTINUOUS
 10
8.2116453887
 20
3.69970319
 11
8.2069578887
 21
3.705289535
  0
LINE
  5
316
100
AcDbEntity
  8
0
100
AcDbLine
 62
7
  6
CONTINUOUS
 10
7.9971720858
 20
3.5354134136
 11
8.001667931
 21
3.5296589941
  0
LINE
  5
317
100
AcDbEntity
  8
0
100
AcDbLine
 62
7
  6
CONTINUOUS
 10
8.2004105086
 20
3.2706526244
 11
8.2048052406
 21
3.2648206179
  0
LINE
  5
318
100
AcDbEntity
  8
0
100
AcDbLine
 62
7
  6
CONTINUOUS
 10
8.0001030399
 20
3.5465690261
 11
8.0042915608
 21
3.5405871984
  0
LINE
  5
319
100
AcDbEntity
  8
0
100
AcDbLine
 62
7
  6
CONTINUOUS
 10
8.1892064225
 20
3.2715344051
 11
8.1932899081
 21
3.2654803887
  0
LINE
  5
31A
100
AcDbEntity
  8
0
100
AcDbLine
 62
7
  6
CONTINUOUS
 10
7.0750203887
 20
4.1092144077
 11
7.0750203887
 21
3.8748394077
  0
LINE
  5
31B
100
AcDbEntity
  8
0
100
AcDbLine
 62
7
  6
CONTINUOUS
 10
7.0825203887
 20
4.1017144077
 11
7.0825203887
 21
3.8823394077
  0
LINE
  5
31C
100
AcDbEntity
  8
0
100
AcDbLine
 62
7
  6
CONTINUOUS
 10
5.8113431367
 20
2.5233317136
 11
5.8065441592
 21
2.5178409551
  0
LINE
  5
31D
100
AcDbEntity
  8
0
100
AcDbLine
 62
7
  6
CONTINUOUS
 10
5.9616453887
 20
2.6952769077
 11
5.7272703887
 21
2.4271519076
  0
LINE
  5
31E
100
AcDbEntity
  8
0
100
AcDbLine
 62
7
  6
CONTINUOUS
 10
5.8214534306
 20
2.5348971036
 11
5.8163132347
 21
2.5290172673
  0
LWPOLYLINE
  5
31F
100
AcDbEntity
  8
0
100
AcDbPolyline
 62
7
  6
CONTINUOUS
 90
3
 70
0
 10
5.9098001722
 20
2.6359691022
 10
5.895584471
 20
2.6197032273
 10
5.8322447563
 20
2.5472435491
  0
LINE
  5
320
100
AcDbEntity
  8
0
100
AcDbLine
 62
7
  6
CONTINUOUS
 10
5.801916133
 20
2.5125465923
 11
5.7890441899
 21
2.4978206676
  0
LINE
  5
321
100
AcDbEntity
  8
0
100
AcDbLine
 62
7
  6
CONTINUOUS
 10
5.7890441899
 20
2.4978206676
 11
5.777652755
 21
2.4847883854
  0
LINE
  5
322
100
AcDbEntity
  8
0
100
AcDbLine
 62
7
  6
CONTINUOUS
 10
5.777652755
 20
2.4847883854
 11
5.7676707724
 21
2.4733689369
  0
LINE
  5
323
100
AcDbEntity
  8
0
100
AcDbLine
 62
7
  6
CONTINUOUS
 10
5.7676707724
 20
2.4733689369
 11
5.75393193
 21
2.4576526914
  0
LINE
  5
324
100
AcDbEntity
  8
0
100
AcDbLine
 62
7
  6
CONTINUOUS
 10
5.75393193
 20
2.4576526914
 11
5.7417076044
 21
2.4436681163
  0
LINE
  5
325
100
AcDbEntity
  8
0
100
AcDbLine
 62
7
  6
CONTINUOUS
 10
5.9466338033
 20
2.6780922747
 11
5.9098001722
 21
2.6359691022
  0
LINE
  5
326
100
AcDbEntity
  8
0
100
AcDbLine
 62
7
  6
CONTINUOUS
 10
5.7417076044
 20
2.4436681163
 11
5.727312215
 21
2.4271984559
  0
LINE
  5
327
100
AcDbEntity
  8
0
100
AcDbLine
 62
7
  6
CONTINUOUS
 10
5.727312215
 20
2.4271984559
 11
5.7272703887
 21
2.4271519077
  0
LINE
  5
328
100
AcDbEntity
  8
0
100
AcDbLine
 62
7
  6
CONTINUOUS
 10
6.1960203887
 20
3.0260269076
 11
6.1847703887
 21
3.0147769077
  0
LINE
  5
329
100
AcDbEntity
  8
0
100
AcDbLine
 62
7
  6
CONTINUOUS
 10
7.0825203887
 20
3.8823394077
 11
7.0750203887
 21
3.8748394077
  0
LINE
  5
32A
100
AcDbEntity
  8
0
100
AcDbLine
 62
7
  6
CONTINUOUS
 10
5.6935669241
 20
2.4609437043
 11
5.6935203887
 21
2.4609019077
  0
LINE
  5
32B
100
AcDbEntity
  8
0
100
AcDbLine
 62
7
  6
CONTINUOUS
 10
5.9616453887
 20
2.6952769077
 11
5.6935203887
 21
2.4609019077
  0
LINE
  5
32C
100
AcDbEntity
  8
0
100
AcDbLine
 62
7
  6
CONTINUOUS
 10
8.3158247916
 20
3.6791512226
 11
8.3091028387
 21
3.676297923
  0
LINE
  5
32D
100
AcDbEntity
  8
0
100
AcDbLine
 62
7
  6
CONTINUOUS
 10
8.0074761115
 20
3.5513655272
 11
8.0007146645
 21
3.5486337253
  0
LINE
  5
32E
100
AcDbEntity
  8
0
100
AcDbLine
 62
7
  6
CONTINUOUS
 10
8.325841699
 20
3.6734328533
 11
8.3189796282
 21
3.6709352638
  0
LINE
  5
32F
100
AcDbEntity
  8
0
100
AcDbLine
 62
7
  6
CONTINUOUS
 10
8.0112350985
 20
3.5619572103
 11
8.0043304839
 21
3.5595797608
  0
LINE
  5
330
100
AcDbEntity
  8
0
100
AcDbLine
 62
7
  6
CONTINUOUS
 10
8.0877451752
 20
3.3028557389
 11
8.0947285555
 21
3.3049907725
  0
LINE
  5
331
100
AcDbEntity
  8
0
100
AcDbLine
 62
7
  6
CONTINUOUS
 10
8.4077548026
 20
3.3977133711
 11
8.4147743807
 21
3.3997262028
  0
LINE
  5
332
100
AcDbEntity
  8
0
100
AcDbLine
 62
7
  6
CONTINUOUS
 10
8.4261186916
 20
3.4346404017
 11
8.4216228464
 21
3.4403948212
  0
LINE
  5
333
100
AcDbEntity
  8
0
100
AcDbLine
 62
7
  6
CONTINUOUS
 10
8.2228802688
 20
3.6994011909
 11
8.2184855368
 21
3.7052331974
  0
LINE
  5
334
100
AcDbEntity
  8
0
100
AcDbLine
 62
7
  6
CONTINUOUS
 10
8.4231877375
 20
3.4234847892
 11
8.4189992166
 21
3.4294666169
  0
LINE
  5
335
100
AcDbEntity
  8
0
100
AcDbLine
 62
7
  6
CONTINUOUS
 10
8.2340843549
 20
3.6985194102
 11
8.2300008693
 21
3.7045734266
  0
LINE
  5
336
100
AcDbEntity
  8
0
100
AcDbLine
 62
7
  6
CONTINUOUS
 10
8.0036116988
 20
3.5575498801
 11
8.0074761115
 21
3.5513655272
  0
LINE
  5
337
100
AcDbEntity
  8
0
100
AcDbLine
 62
7
  6
CONTINUOUS
 10
8.17806384
 20
3.2730013539
 11
8.1818248866
 21
3.2667419212
  0
LINE
  5
338
100
AcDbEntity
  8
0
100
AcDbLine
 62
7
  6
CONTINUOUS
 10
8.0076947941
 20
3.5683440885
 11
8.0112350985
 21
3.5619572103
  0
LINE
  5
339
100
AcDbEntity
  8
0
100
AcDbLine
 62
7
  6
CONTINUOUS
 10
8.1670133023
 20
3.27504945
 11
8.1704416011
 21
3.2686017577
  0
LINE
  5
33A
100
AcDbEntity
  8
0
100
AcDbLine
 62
7
  6
CONTINUOUS
 10
8.0123347857
 20
3.5789038546
 11
8.0155359748
 21
3.5723404442
  0
LINE
  5
33B
100
AcDbEntity
  8
0
100
AcDbLine
 62
7
  6
CONTINUOUS
 10
7.9996198349
 20
3.5186084563
 11
7.9933604022
 21
3.5148474097
  0
LINE
  5
33C
100
AcDbEntity
  8
0
100
AcDbLine
 62
7
  6
CONTINUOUS
 10
8.2949625696
 20
3.6889775022
 11
8.2885756913
 21
3.6854371978
  0
LINE
  5
33D
100
AcDbEntity
  8
0
100
AcDbLine
 62
7
  6
CONTINUOUS
 10
8.001667931
 20
3.5296589941
 11
7.9952202387
 21
3.5262306953
  0
LINE
  5
33E
100
AcDbEntity
  8
0
100
AcDbLine
 62
7
  6
CONTINUOUS
 10
8.3055223357
 20
3.6843375107
 11
8.2989589252
 21
3.6811363215
  0
LINE
  5
33F
100
AcDbEntity
  8
0
100
AcDbLine
 62
7
  6
CONTINUOUS
 10
8.0042915608
 20
3.5405871984
 11
7.9976732815
 21
3.5375010441
  0
LINE
  5
340
100
AcDbEntity
  8
0
100
AcDbLine
 62
7
  6
CONTINUOUS
 10
8.1074659858
 20
3.2909025927
 11
8.1141879386
 21
3.2937558923
  0
LINE
  5
341
100
AcDbEntity
  8
0
100
AcDbLine
 62
7
  6
CONTINUOUS
 10
8.4158146659
 20
3.4186882881
 11
8.4225761129
 21
3.42142009
  0
LINE
  5
342
100
AcDbEntity
  8
0
100
AcDbLine
 62
7
  6
CONTINUOUS
 10
8.0974490784
 20
3.296620962
 11
8.1043111492
 21
3.2991185515
  0
LINE
  5
343
100
AcDbEntity
  8
0
100
AcDbLine
 62
7
  6
CONTINUOUS
 10
8.4120556789
 20
3.408096605
 11
8.4189602935
 21
3.4104740545
  0
LINE
  5
344
100
AcDbEntity
  8
0
100
AcDbLine
 62
7
  6
CONTINUOUS
 10
8.4196790786
 20
3.4125039352
 11
8.4158146659
 21
3.4186882881
  0
LINE
  5
345
100
AcDbEntity
  8
0
100
AcDbLine
 62
7
  6
CONTINUOUS
 10
8.2452269374
 20
3.6970524614
 11
8.2414658908
 21
3.7033118941
  0
LINE
  5
346
100
AcDbEntity
  8
0
100
AcDbLine
 62
7
  6
CONTINUOUS
 10
8.4155959833
 20
3.4017097268
 11
8.4120556789
 21
3.408096605
  0
LINE
  5
347
100
AcDbEntity
  8
0
100
AcDbLine
 62
7
  6
CONTINUOUS
 10
8.2562774751
 20
3.6950043653
 11
8.2528491763
 21
3.7014520576
  0
LINE
  5
348
100
AcDbEntity
  8
0
100
AcDbLine
 62
7
  6
CONTINUOUS
 10
8.4109559917
 20
3.3911499607
 11
8.4077548026
 21
3.3977133711
  0
LINE
  5
349
100
AcDbEntity
  8
0
100
AcDbLine
 62
7
  6
CONTINUOUS
 10
8.156085098
 20
3.2776730797
 11
8.1591712523
 21
3.2710548004
  0
LINE
  5
34A
100
AcDbEntity
  8
0
100
AcDbLine
 62
7
  6
CONTINUOUS
 10
8.0175210737
 20
3.5892063105
 11
8.0203743734
 21
3.5824843577
  0
LINE
  5
34B
100
AcDbEntity
  8
0
100
AcDbLine
 62
7
  6
CONTINUOUS
 10
8.1453067692
 20
3.2808576304
 11
8.148038571
 21
3.2740961835
  0
LINE
  5
34C
100
AcDbEntity
  8
0
100
AcDbLine
 62
7
  6
CONTINUOUS
 10
8.023239443
 20
3.5992232179
 11
8.0257370325
 21
3.5923611471
  0
LINE
  5
34D
100
AcDbEntity
  8
0
100
AcDbLine
 62
7
  6
CONTINUOUS
 10
8.1347150861
 20
3.2846166175
 11
8.1370925355
 21
3.2777120029
  0
LINE
  5
34E
100
AcDbEntity
  8
0
100
AcDbLine
 62
7
  6
CONTINUOUS
 10
7.8403953887
 20
1.9152769077
 11
7.8403953887
 21
1.7671519077
  0
LINE
  5
34F
100
AcDbEntity
  8
0
100
AcDbLine
 62
7
  6
CONTINUOUS
 10
8.2507381763
 20
3.7018433084
 11
8.2452269374
 21
3.6970524614
  0
LINE
  5
350
100
AcDbEntity
  8
0
100
AcDbLine
 62
7
  6
CONTINUOUS
 10
7.9969691063
 20
3.4850269077
 11
7.9913827614
 21
3.4803394077
  0
LINE
  5
351
100
AcDbEntity
  8
0
100
AcDbLine
 62
7
  6
CONTINUOUS
 10
8.2620318947
 20
3.6995002106
 11
8.2562774751
 21
3.6950043653
  0
LINE
  5
352
100
AcDbEntity
  8
0
100
AcDbLine
 62
7
  6
CONTINUOUS
 10
7.9972711054
 20
3.4962617878
 11
7.991439099
 21
3.4918670557
  0
LINE
  5
353
100
AcDbEntity
  8
0
100
AcDbLine
 62
7
  6
CONTINUOUS
 10
8.2731875071
 20
3.6965692564
 11
8.2672056794
 21
3.6923807356
  0
LINE
  5
354
100
AcDbEntity
  8
0
100
AcDbLine
 62
7
  6
CONTINUOUS
 10
7.9981528861
 20
3.5074658739
 11
7.9920988697
 21
3.5033823883
  0
LINE
  5
355
100
AcDbEntity
  8
0
100
AcDbLine
 62
7
  6
CONTINUOUS
 10
8.2841683612
 20
3.6930605975
 11
8.2779840082
 21
3.6891961849
  0
LINE
  5
356
100
AcDbEntity
  8
0
100
AcDbLine
 62
7
  6
CONTINUOUS
 10
8.1391224162
 20
3.2769932178
 11
8.1453067692
 21
3.2808576304
  0
LINE
  5
357
100
AcDbEntity
  8
0
100
AcDbLine
 62
7
  6
CONTINUOUS
 10
8.4236709425
 20
3.451445359
 11
8.4299303752
 21
3.4552064056
  0
LINE
  5
358
100
AcDbEntity
  8
0
100
AcDbLine
 62
7
  6
CONTINUOUS
 10
8.1283282078
 20
3.2810763131
 11
8.1347150861
 21
3.2846166175
  0
LINE
  5
359
100
AcDbEntity
  8
0
100
AcDbLine
 62
7
  6
CONTINUOUS
 10
8.4216228464
 20
3.4403948212
 11
8.4280705387
 21
3.44382312
  0
LINE
  5
35A
100
AcDbEntity
  8
0
100
AcDbLine
 62
7
  6
CONTINUOUS
 10
8.1177684417
 20
3.2857163046
 11
8.1243318522
 21
3.2889174938
  0
LINE
  5
35B
100
AcDbEntity
  8
0
100
AcDbLine
 62
7
  6
CONTINUOUS
 10
8.4189992166
 20
3.4294666169
 11
8.4256174959
 21
3.4325527712
  0
LINE
  5
35C
100
AcDbEntity
  8
0
100
AcDbLine
 62
7
  6
CONTINUOUS
 10
8.2672056794
 20
3.6923807356
 11
8.2641195251
 21
3.6989990149
  0
LINE
  5
35D
100
AcDbEntity
  8
0
100
AcDbLine
 62
7
  6
CONTINUOUS
 10
8.4057697037
 20
3.3808475048
 11
8.402916404
 21
3.3875694576
  0
LINE
  5
35E
100
AcDbEntity
  8
0
100
AcDbLine
 62
7
  6
CONTINUOUS
 10
8.2779840082
 20
3.6891961849
 11
8.2752522063
 21
3.6959576318
  0
LINE
  5
35F
100
AcDbEntity
  8
0
100
AcDbLine
 62
7
  6
CONTINUOUS
 10
8.4000513344
 20
3.3708305974
 11
8.3975537449
 21
3.3776926682
  0
LINE
  5
360
100
AcDbEntity
  8
0
100
AcDbLine
 62
7
  6
CONTINUOUS
 10
8.2885756913
 20
3.6854371978
 11
8.2861982419
 21
3.6923418124
  0
LINE
  5
361
100
AcDbEntity
  8
0
100
AcDbLine
 62
7
  6
CONTINUOUS
 10
8.0294742199
 20
3.6089271212
 11
8.0316092535
 21
3.6019437409
  0
LINE
  5
362
100
AcDbEntity
  8
0
100
AcDbLine
 62
7
  6
CONTINUOUS
 10
8.1243318522
 20
3.2889174938
 11
8.1263446838
 21
3.2818979156
  0
LINE
  5
363
100
AcDbEntity
  8
0
100
AcDbLine
 62
7
  6
CONTINUOUS
 10
8.0362044233
 20
3.6182862988
 11
8.037968628
 21
3.6112104604
  0
LINE
  5
364
100
AcDbEntity
  8
0
100
AcDbLine
 62
7
  6
CONTINUOUS
 10
8.1141879386
 20
3.2937558923
 11
8.1158306354
 21
3.2866405908
  0
LINE
  5
365
100
AcDbEntity
  8
0
100
AcDbLine
 62
7
  6
CONTINUOUS
 10
8.0434232715
 20
3.6272904552
 11
8.0448166472
 21
3.6201221588
  0
LINE
  5
366
100
AcDbEntity
  8
0
100
AcDbLine
 62
7
  6
CONTINUOUS
 10
8.1043111492
 20
3.2991185515
 11
8.1055792086
 21
3.2919270291
  0
LINE
  5
367
100
AcDbEntity
  8
0
100
AcDbLine
 62
7
  6
CONTINUOUS
 10
8.0592153999
 20
3.64409512
 11
8.0598518515
 21
3.6368204448
  0
LINE
  5
368
100
AcDbEntity
  8
0
100
AcDbLine
 62
7
  6
CONTINUOUS
 10
8.0854618359
 20
3.3113501469
 11
8.0859705319
 21
3.3040754555
  0
LINE
  5
369
100
AcDbEntity
  8
0
100
AcDbLine
 62
7
  6
CONTINUOUS
 10
8.0677492869
 20
3.6518546917
 11
8.0680041392
 21
3.644556677
  0
LINE
  5
36A
100
AcDbEntity
  8
0
100
AcDbLine
 62
7
  6
CONTINUOUS
 10
8.0178396412
 20
2.1740269077
 11
8.0177021825
 21
2.1819019077
  0
LINE
  5
36B
100
AcDbEntity
  8
0
100
AcDbLine
 62
7
  6
CONTINUOUS
 10
8.0765501376
 20
3.3181981662
 11
8.0766775831
 21
3.3108968152
  0
LINE
  5
36C
100
AcDbEntity
  8
0
100
AcDbLine
 62
7
  6
CONTINUOUS
 10
7.9772703887
 20
2.1740269077
 11
7.9772703887
 21
1.9265269077
  0
LINE
  5
36D
100
AcDbEntity
  8
0
100
AcDbLine
 62
7
  6
CONTINUOUS
 10
8.0241453887
 20
3.3779733179
 11
8.0241453887
 21
3.3733196627
  0
LINE
  5
36E
100
AcDbEntity
  8
0
100
AcDbLine
 62
7
  6
CONTINUOUS
 10
8.0241453887
 20
3.369349182
 11
8.0241453887
 21
2.1819019077
  0
LINE
  5
36F
100
AcDbEntity
  8
0
100
AcDbLine
 62
7
  6
CONTINUOUS
 10
8.0766775831
 20
3.6591570001
 11
8.0765501376
 21
3.6518556491
  0
LINE
  5
370
100
AcDbEntity
  8
0
100
AcDbLine
 62
7
  6
CONTINUOUS
 10
8.0680041392
 20
3.3254971383
 11
8.0677492869
 21
3.3181991236
  0
LINE
  5
371
100
AcDbEntity
  8
0
100
AcDbLine
 62
7
  6
CONTINUOUS
 10
8.0859705319
 20
3.6659783598
 11
8.0854618359
 21
3.6587036684
  0
LINE
  5
372
100
AcDbEntity
  8
0
100
AcDbLine
 62
7
  6
CONTINUOUS
 10
8.0598518515
 20
3.3332333705
 11
8.0592153999
 21
3.3259586953
  0
LINE
  5
373
100
AcDbEntity
  8
0
100
AcDbLine
 62
7
  6
CONTINUOUS
 10
8.1932899081
 20
3.7045734266
 11
8.1892064225
 21
3.6985194102
  0
LINE
  5
374
100
AcDbEntity
  8
0
100
AcDbLine
 62
7
  6
CONTINUOUS
 10
8.0042915608
 20
3.4294666169
 11
8.0001030399
 21
3.4234847892
  0
LINE
  5
375
100
AcDbEntity
  8
0
100
AcDbLine
 62
7
  6
CONTINUOUS
 10
8.2048052406
 20
3.7052331974
 11
8.2004105086
 21
3.6994011909
  0
LINE
  5
376
100
AcDbEntity
  8
0
100
AcDbLine
 62
7
  6
CONTINUOUS
 10
8.001667931
 20
3.4403948212
 11
7.9971720858
 21
3.4346404017
  0
LINE
  5
377
100
AcDbEntity
  8
0
100
AcDbLine
 62
7
  6
CONTINUOUS
 10
8.2163328887
 20
3.705289535
 11
8.2116453887
 21
3.69970319
  0
LINE
  5
378
100
AcDbEntity
  8
0
100
AcDbLine
 62
7
  6
CONTINUOUS
 10
7.9996198349
 20
3.451445359
 11
7.994828988
 21
3.44593412
  0
LINE
  5
379
100
AcDbEntity
  8
0
100
AcDbLine
 62
7
  6
CONTINUOUS
 10
8.2278605368
 20
3.7047418744
 11
8.2228802688
 21
3.6994011909
  0
LINE
  5
37A
100
AcDbEntity
  8
0
100
AcDbLine
 62
7
  6
CONTINUOUS
 10
7.9981528861
 20
3.4625879414
 11
7.9930801689
 21
3.457334989
  0
LINE
  5
37B
100
AcDbEntity
  8
0
100
AcDbLine
 62
7
  6
CONTINUOUS
 10
8.2393373073
 20
3.7035921274
 11
8.2340843549
 21
3.6985194102
  0
LINE
  5
37C
100
AcDbEntity
  8
0
100
AcDbLine
 62
7
  6
CONTINUOUS
 10
7.9972711054
 20
3.4737920275
 11
7.9919304219
 21
3.4688117596
  0
LINE
  5
37D
100
AcDbEntity
  8
0
100
AcDbLine
 62
7
  6
CONTINUOUS
 10
8.1725526011
 20
3.2682105069
 11
8.17806384
 21
3.2730013539
  0
LINE
  5
37E
100
AcDbEntity
  8
0
100
AcDbLine
 62
7
  6
CONTINUOUS
 10
8.4263216711
 20
3.4850269077
 11
8.431908016
 21
3.4897144077
  0
LINE
  5
37F
100
AcDbEntity
  8
0
100
AcDbLine
 62
7
  6
CONTINUOUS
 10
8.1612588827
 20
3.2705536047
 11
8.1670133023
 21
3.27504945
  0
LINE
  5
380
100
AcDbEntity
  8
0
100
AcDbLine
 62
7
  6
CONTINUOUS
 10
8.426019672
 20
3.4737920275
 11
8.4318516784
 21
3.4781867596
  0
LINE
  5
381
100
AcDbEntity
  8
0
100
AcDbLine
 62
7
  6
CONTINUOUS
 10
8.1501032703
 20
3.2734845589
 11
8.156085098
 21
3.2776730797
  0
LINE
  5
382
100
AcDbEntity
  8
0
100
AcDbLine
 62
7
  6
CONTINUOUS
 10
8.4251378913
 20
3.4625879414
 11
8.4311919077
 21
3.466671427
  0
LINE
  5
383
100
AcDbEntity
  8
0
100
AcDbLine
 62
7
  6
CONTINUOUS
 10
8.3938165575
 20
3.3611266941
 11
8.3916815239
 21
3.3681100744
  0
LINE
  5
384
100
AcDbEntity
  8
0
100
AcDbLine
 62
7
  6
CONTINUOUS
 10
8.2989589252
 20
3.6811363215
 11
8.2969460936
 21
3.6881558997
  0
LINE
  5
385
100
AcDbEntity
  8
0
100
AcDbLine
 62
7
  6
CONTINUOUS
 10
8.3870863541
 20
3.3517675165
 11
8.3853221494
 21
3.3588433549
  0
LINE
  5
386
100
AcDbEntity
  8
0
100
AcDbLine
 62
7
  6
CONTINUOUS
 10
8.3091028387
 20
3.676297923
 11
8.3074601419
 21
3.6834132245
  0
LINE
  5
387
100
AcDbEntity
  8
0
100
AcDbLine
 62
7
  6
CONTINUOUS
 10
8.3798675059
 20
3.3427633601
 11
8.3784741302
 21
3.3499316565
  0
LINE
  5
388
100
AcDbEntity
  8
0
100
AcDbLine
 62
7
  6
CONTINUOUS
 10
8.3189796282
 20
3.6709352638
 11
8.3177115688
 21
3.6781267862
  0
LINE
  5
389
100
AcDbEntity
  8
0
100
AcDbLine
 62
7
  6
CONTINUOUS
 10
8.0510993129
 20
3.6358995533
 11
8.0521156194
 21
3.6286681572
  0
LINE
  5
38A
100
AcDbEntity
  8
0
100
AcDbLine
 62
7
  6
CONTINUOUS
 10
8.3721914645
 20
3.334154262
 11
8.371175158
 21
3.3413856581
  0
LINE
  5
38B
100
AcDbEntity
  8
0
100
AcDbLine
 62
7
  6
CONTINUOUS
 10
8.0947285555
 20
3.3049907725
 11
8.0956185019
 21
3.2977427407
  0
LINE
  5
38C
100
AcDbEntity
  8
0
100
AcDbLine
 62
7
  6
CONTINUOUS
 10
8.3640753775
 20
3.3259586953
 11
8.3634389259
 21
3.3332333705
  0
LINE
  5
38D
100
AcDbEntity
  8
0
100
AcDbLine
 62
7
  6
CONTINUOUS
 10
8.3378289415
 20
3.6587036684
 11
8.3373202455
 21
3.6659783598
  0
LINE
  5
38E
100
AcDbEntity
  8
0
100
AcDbLine
 62
7
  6
CONTINUOUS
 10
8.3555414905
 20
3.3181991236
 11
8.3552866382
 21
3.3254971383
  0
LINE
  5
38F
100
AcDbEntity
  8
0
100
AcDbLine
 62
7
  6
CONTINUOUS
 10
8.3467406398
 20
3.6518556491
 11
8.3466131943
 21
3.6591570001
  0
LINE
  5
390
100
AcDbEntity
  8
0
100
AcDbLine
 62
7
  6
CONTINUOUS
 10
8.3991453887
 20
3.3779733179
 11
8.3991453887
 21
3.3733196627
  0
LINE
  5
391
100
AcDbEntity
  8
0
100
AcDbLine
 62
7
  6
CONTINUOUS
 10
8.3991453887
 20
3.369349182
 11
8.3991453887
 21
2.1819019077
  0
LINE
  5
392
100
AcDbEntity
  8
0
100
AcDbLine
 62
7
  6
CONTINUOUS
 10
8.4460203887
 20
2.1740269077
 11
8.4460203887
 21
1.9265269077
  0
LINE
  5
393
100
AcDbEntity
  8
0
100
AcDbLine
 62
7
  6
CONTINUOUS
 10
8.3466131943
 20
3.3108968152
 11
8.3467406398
 21
3.3181981662
  0
LINE
  5
394
100
AcDbEntity
  8
0
100
AcDbLine
 62
7
  6
CONTINUOUS
 10
8.4054511362
 20
2.1740269077
 11
8.4055885949
 21
2.1819019077
  0
LINE
  5
395
100
AcDbEntity
  8
0
100
AcDbLine
 62
7
  6
CONTINUOUS
 10
8.3552866382
 20
3.644556677
 11
8.3555414905
 21
3.6518546917
  0
LINE
  5
396
100
AcDbEntity
  8
0
100
AcDbLine
 62
7
  6
CONTINUOUS
 10
8.3373202455
 20
3.3040754555
 11
8.3378289415
 21
3.3113501469
  0
LINE
  5
397
100
AcDbEntity
  8
0
100
AcDbLine
 62
7
  6
CONTINUOUS
 10
8.3634389259
 20
3.6368204448
 11
8.3640753775
 21
3.64409512
  0
LINE
  5
398
100
AcDbEntity
  8
0
100
AcDbLine
 62
7
  6
CONTINUOUS
 10
8.0956185019
 20
3.6723110746
 11
8.0947285555
 21
3.6650630428
  0
LINE
  5
399
100
AcDbEntity
  8
0
100
AcDbLine
 62
7
  6
CONTINUOUS
 10
8.3276722755
 20
3.2977427407
 11
8.3285622219
 21
3.3049907725
  0
LINE
  5
39A
100
AcDbEntity
  8
0
100
AcDbLine
 62
7
  6
CONTINUOUS
 10
8.0521156194
 20
3.3413856581
 11
8.0510993129
 21
3.334154262
  0
LINE
  5
39B
100
AcDbEntity
  8
0
100
AcDbLine
 62
7
  6
CONTINUOUS
 10
8.371175158
 20
3.6286681572
 11
8.3721914645
 21
3.6358995533
  0
LINE
  5
39C
100
AcDbEntity
  8
0
100
AcDbLine
 62
7
  6
CONTINUOUS
 10
8.1055792086
 20
3.6781267862
 11
8.1043111492
 21
3.6709352638
  0
LINE
  5
39D
100
AcDbEntity
  8
0
100
AcDbLine
 62
7
  6
CONTINUOUS
 10
8.0448166472
 20
3.3499316565
 11
8.0434232715
 21
3.3427633601
  0
LINE
  5
39E
100
AcDbEntity
  8
0
100
AcDbLine
 62
7
  6
CONTINUOUS
 10
8.1158306354
 20
3.6834132245
 11
8.1141879386
 21
3.676297923
  0
LINE
  5
39F
100
AcDbEntity
  8
0
100
AcDbLine
 62
7
  6
CONTINUOUS
 10
8.037968628
 20
3.3588433549
 11
8.0362044233
 21
3.3517675165
  0
LINE
  5
3A0
100
AcDbEntity
  8
0
100
AcDbLine
 62
7
  6
CONTINUOUS
 10
8.1263446838
 20
3.6881558997
 11
8.1243318522
 21
3.6811363215
  0
LINE
  5
3A1
100
AcDbEntity
  8
0
100
AcDbLine
 62
7
  6
CONTINUOUS
 10
8.0316092535
 20
3.3681100744
 11
8.0294742199
 21
3.3611266941
  0
LINE
  5
3A2
100
AcDbEntity
  8
0
100
AcDbLine
 62
7
  6
CONTINUOUS
 10
8.1370925355
 20
3.6923418124
 11
8.1347150861
 21
3.6854371978
  0
LINE
  5
3A3
100
AcDbEntity
  8
0
100
AcDbLine
 62
7
  6
CONTINUOUS
 10
8.0257370325
 20
3.3776926682
 11
8.023239443
 21
3.3708305974
  0
LINE
  5
3A4
100
AcDbEntity
  8
0
100
AcDbLine
 62
7
  6
CONTINUOUS
 10
8.148038571
 20
3.6959576318
 11
8.1453067692
 21
3.6891961849
  0
LINE
  5
3A5
100
AcDbEntity
  8
0
100
AcDbLine
 62
7
  6
CONTINUOUS
 10
8.0203743734
 20
3.3875694576
 11
8.0175210737
 21
3.3808475048
  0
LINE
  5
3A6
100
AcDbEntity
  8
0
100
AcDbLine
 62
7
  6
CONTINUOUS
 10
8.1591712523
 20
3.6989990149
 11
8.156085098
 21
3.6923807356
  0
LINE
  5
3A7
100
AcDbEntity
  8
0
100
AcDbLine
 62
7
  6
CONTINUOUS
 10
8.0155359748
 20
3.3977133711
 11
8.0123347857
 21
3.3911499607
  0
LINE
  5
3A8
100
AcDbEntity
  8
0
100
AcDbLine
 62
7
  6
CONTINUOUS
 10
8.1704416011
 20
3.7014520576
 11
8.1670133023
 21
3.6950043653
  0
LINE
  5
3A9
100
AcDbEntity
  8
0
100
AcDbLine
 62
7
  6
CONTINUOUS
 10
8.0112350985
 20
3.408096605
 11
8.0076947941
 21
3.4017097268
  0
LINE
  5
3AA
100
AcDbEntity
  8
0
100
AcDbLine
 62
7
  6
CONTINUOUS
 10
8.1818248866
 20
3.7033118941
 11
8.17806384
 21
3.6970524614
  0
LINE
  5
3AB
100
AcDbEntity
  8
0
100
AcDbLine
 62
7
  6
CONTINUOUS
 10
8.0074761115
 20
3.4186882881
 11
8.0036116988
 21
3.4125039352
  0
LINE
  5
3AC
100
AcDbEntity
  8
0
100
AcDbLine
 62
7
  6
CONTINUOUS
 10
8.2300008693
 20
3.2654803887
 11
8.2340843549
 21
3.2715344051
  0
LINE
  5
3AD
100
AcDbEntity
  8
0
100
AcDbLine
 62
7
  6
CONTINUOUS
 10
8.4189992166
 20
3.5405871984
 11
8.4231877375
 21
3.5465690261
  0
LINE
  5
3AE
100
AcDbEntity
  8
0
100
AcDbLine
 62
7
  6
CONTINUOUS
 10
8.2184855368
 20
3.2648206179
 11
8.2228802688
 21
3.2706526244
  0
LINE
  5
3AF
100
AcDbEntity
  8
0
100
AcDbLine
 62
7
  6
CONTINUOUS
 10
8.4216228464
 20
3.5296589941
 11
8.4261186916
 21
3.5354134136
  0
LINE
  5
3B0
100
AcDbEntity
  8
0
100
AcDbLine
 62
7
  6
CONTINUOUS
 10
8.3480008458
 20
3.3179532069
 11
8.3476407974
 21
3.3174933623
  0
LINE
  5
3B1
100
AcDbEntity
  8
0
100
AcDbLine
 62
7
  6
CONTINUOUS
 10
8.2069578887
 20
3.2647642803
 11
8.2116453887
 21
3.2703506253
  0
LINE
  5
3B2
100
AcDbEntity
  8
0
100
AcDbLine
 62
7
  6
CONTINUOUS
 10
8.4236709425
 20
3.5186084563
 11
8.4284617894
 21
3.5241196953
  0
LINE
  5
3B3
100
AcDbEntity
  8
0
100
AcDbLine
 62
7
  6
CONTINUOUS
 10
8.1954302406
 20
3.2653119409
 11
8.2004105086
 21
3.2706526244
  0
LINE
  5
3B4
100
AcDbEntity
  8
0
100
AcDbLine
 62
7
  6
CONTINUOUS
 10
8.4251378913
 20
3.5074658739
 11
8.4302106085
 21
3.5127188263
  0
LINE
  5
3B5
100
AcDbEntity
  8
0
100
AcDbLine
 62
7
  6
CONTINUOUS
 10
8.1839534701
 20
3.2664616879
 11
8.1892064225
 21
3.2715344051
  0
LINE
  5
3B6
100
AcDbEntity
  8
0
100
AcDbLine
 62
7
  6
CONTINUOUS
 10
8.426019672
 20
3.4962617878
 11
8.4313603555
 21
3.5012420557
  0
LINE
  5
3B7
100
AcDbEntity
  8
0
100
AcDbLine
 62
7
  6
CONTINUOUS
 10
8.3285622219
 20
3.6650630428
 11
8.3276722755
 21
3.6723110746
  0
LINE
  5
3B8
100
AcDbEntity
  8
0
100
AcDbLine
 62
7
  6
CONTINUOUS
 10
8.5828953887
 20
1.9152769077
 11
8.5828953887
 21
1.7671519077
  0
LINE
  5
3B9
100
AcDbEntity
  8
0
100
AcDbLine
 62
7
  6
CONTINUOUS
 10
8.3177115688
 20
3.2919270291
 11
8.3189796282
 21
3.2991185515
  0
LINE
  5
3BA
100
AcDbEntity
  8
0
100
AcDbLine
 62
7
  6
CONTINUOUS
 10
8.3784741302
 20
3.6201221588
 11
8.3798675059
 21
3.6272904552
  0
LINE
  5
3BB
100
AcDbEntity
  8
0
100
AcDbLine
 62
7
  6
CONTINUOUS
 10
8.3074601419
 20
3.2866405908
 11
8.3091028387
 21
3.2937558923
  0
LINE
  5
3BC
100
AcDbEntity
  8
0
100
AcDbLine
 62
7
  6
CONTINUOUS
 10
8.3853221494
 20
3.6112104604
 11
8.3870863541
 21
3.6182862988
  0
LINE
  5
3BD
100
AcDbEntity
  8
0
100
AcDbLine
 62
7
  6
CONTINUOUS
 10
8.2969460936
 20
3.2818979156
 11
8.2989589252
 21
3.2889174938
  0
LINE
  5
3BE
100
AcDbEntity
  8
0
100
AcDbLine
 62
7
  6
CONTINUOUS
 10
8.3916815239
 20
3.6019437409
 11
8.3938165575
 21
3.6089271212
  0
LINE
  5
3BF
100
AcDbEntity
  8
0
100
AcDbLine
 62
7
  6
CONTINUOUS
 10
8.2861982419
 20
3.2777120029
 11
8.2885756913
 21
3.2846166175
  0
LINE
  5
3C0
100
AcDbEntity
  8
0
100
AcDbLine
 62
7
  6
CONTINUOUS
 10
8.3975537449
 20
3.5923611471
 11
8.4000513344
 21
3.5992232179
  0
LINE
  5
3C1
100
AcDbEntity
  8
0
100
AcDbLine
 62
7
  6
CONTINUOUS
 10
8.2752522063
 20
3.2740961835
 11
8.2779840082
 21
3.2808576304
  0
LINE
  5
3C2
100
AcDbEntity
  8
0
100
AcDbLine
 62
7
  6
CONTINUOUS
 10
8.402916404
 20
3.5824843577
 11
8.4057697037
 21
3.5892063105
  0
LINE
  5
3C3
100
AcDbEntity
  8
0
100
AcDbLine
 62
7
  6
CONTINUOUS
 10
8.2641195251
 20
3.2710548004
 11
8.2672056794
 21
3.2776730797
  0
LINE
  5
3C4
100
AcDbEntity
  8
0
100
AcDbLine
 62
7
  6
CONTINUOUS
 10
8.4077548026
 20
3.5723404442
 11
8.4109559917
 21
3.5789038546
  0
LINE
  5
3C5
100
AcDbEntity
  8
0
100
AcDbLine
 62
7
  6
CONTINUOUS
 10
8.2528491763
 20
3.2686017577
 11
8.2562774751
 21
3.27504945
  0
LINE
  5
3C6
100
AcDbEntity
  8
0
100
AcDbLine
 62
7
  6
CONTINUOUS
 10
8.4120556789
 20
3.5619572103
 11
8.4155959833
 21
3.5683440885
  0
LINE
  5
3C7
100
AcDbEntity
  8
0
100
AcDbLine
 62
7
  6
CONTINUOUS
 10
8.2414658908
 20
3.2667419212
 11
8.2452269374
 21
3.2730013539
  0
LINE
  5
3C8
100
AcDbEntity
  8
0
100
AcDbLine
 62
7
  6
CONTINUOUS
 10
8.4158146659
 20
3.5513655272
 11
8.4196790786
 21
3.5575498801
  0
ARC
  5
3C9
100
AcDbEntity
  8
0
100
AcDbCircle
 62
7
  6
CONTINUOUS
 10
4.2403953887
 20
2.9634019077
 40
0.03375
100
AcDbArc
 50
269.9999999986
 51
360.0
  0
ARC
  5
3CA
100
AcDbEntity
  8
0
100
AcDbCircle
 62
7
  6
CONTINUOUS
 10
4.6828953887
 20
2.9634019077
 40
0.03375
100
AcDbArc
 50
179.999999999
 51
270.0000000013
  0
ARC
  5
3CB
100
AcDbEntity
  8
0
100
AcDbCircle
 62
7
  6
CONTINUOUS
 10
3.2297703887
 20
2.9634019077
 40
0.03375
100
AcDbArc
 50
179.9999999986
 51
270.0000000009
  0
ARC
  5
3CC
100
AcDbEntity
  8
0
100
AcDbCircle
 62
7
  6
CONTINUOUS
 10
3.2297703887
 20
2.4271519077
 40
0.03375
100
AcDbArc
 50
89.999999999
 51
180.0000000018
  0
ARC
  5
3CD
100
AcDbEntity
  8
0
100
AcDbCircle
 62
7
  6
CONTINUOUS
 10
2.8107078887
 20
3.8410894077
 40
0.03375
100
AcDbArc
 50
0.0
 51
90.0000000006
  0
ARC
  5
3CE
100
AcDbEntity
  8
0
100
AcDbCircle
 62
7
  6
CONTINUOUS
 10
3.1125828887
 20
3.8410894077
 40
0.03375
100
AcDbArc
 50
89.9999999994
 51
180.0000000004
  0
ARC
  5
3CF
100
AcDbEntity
  8
0
100
AcDbCircle
 62
7
  6
CONTINUOUS
 10
2.7385203887
 20
3.5904019077
 40
0.01125
100
AcDbArc
 50
90.0
 51
180.0
  0
ARC
  5
3D0
100
AcDbEntity
  8
0
100
AcDbCircle
 62
7
  6
CONTINUOUS
 10
3.1847703887
 20
3.5904019077
 40
0.01125
100
AcDbArc
 50
0.0
 51
90.0
  0
ARC
  5
3D1
100
AcDbEntity
  8
0
100
AcDbCircle
 62
7
  6
CONTINUOUS
 10
2.6016453887
 20
1.9152769077
 40
0.01125
100
AcDbArc
 50
90.0
 51
180.0
  0
ARC
  5
3D2
100
AcDbEntity
  8
0
100
AcDbCircle
 62
7
  6
CONTINUOUS
 10
3.3216453887
 20
1.9152769077
 40
0.01125
100
AcDbArc
 50
0.0
 51
90.0
  0
ARC
  5
3D3
100
AcDbEntity
  8
0
100
AcDbCircle
 62
7
  6
CONTINUOUS
 10
4.4616453887
 20
7.2259519077
 40
0.1875
100
AcDbArc
 50
0.0
 51
180.0
  0
ARC
  5
3D4
100
AcDbEntity
  8
0
100
AcDbCircle
 62
7
  6
CONTINUOUS
 10
5.6935203887
 20
2.4271519077
 40
0.03375
100
AcDbArc
 50
0.0
 51
90.000000001
  0
ARC
  5
3D5
100
AcDbEntity
  8
0
100
AcDbCircle
 62
7
  6
CONTINUOUS
 10
5.6016453887
 20
1.9152769077
 40
0.01125
100
AcDbArc
 50
90.0
 51
180.0
  0
ARC
  5
3D6
100
AcDbEntity
  8
0
100
AcDbCircle
 62
7
  6
CONTINUOUS
 10
6.3216453887
 20
1.9152769077
 40
0.01125
100
AcDbArc
 50
0.0
 51
90.0
  0
ARC
  5
3D7
100
AcDbEntity
  8
0
100
AcDbCircle
 62
7
  6
CONTINUOUS
 10
5.6935203887
 20
2.9634019076
 40
0.03375
100
AcDbArc
 50
269.9999999989
 51
360.0
  0
ARC
  5
3D8
100
AcDbEntity
  8
0
100
AcDbCircle
 62
7
  6
CONTINUOUS
 10
6.1125828887
 20
3.8410894077
 40
0.03375
100
AcDbArc
 50
89.9999999994
 51
180.0000000004
  0
ARC
  5
3D9
100
AcDbEntity
  8
0
100
AcDbCircle
 62
7
  6
CONTINUOUS
 10
5.8107078887
 20
3.8410894077
 40
0.03375
100
AcDbArc
 50
0.0
 51
90.0000000006
  0
ARC
  5
3DA
100
AcDbEntity
  8
0
100
AcDbCircle
 62
7
  6
CONTINUOUS
 10
6.1847703887
 20
3.5904019077
 40
0.01125
100
AcDbArc
 50
0.0
 51
90.0
  0
ARC
  5
3DB
100
AcDbEntity
  8
0
100
AcDbCircle
 62
7
  6
CONTINUOUS
 10
5.7385203887
 20
3.5904019077
 40
0.01125
100
AcDbArc
 50
90.0
 51
180.0
  0
ARC
  5
3DC
100
AcDbEntity
  8
0
100
AcDbCircle
 62
7
  6
CONTINUOUS
 10
7.8516453887
 20
1.9152769077
 40
0.01125
100
AcDbArc
 50
90.0
 51
180.0
  0
ARC
  5
3DD
100
AcDbEntity
  8
0
100
AcDbCircle
 62
7
  6
CONTINUOUS
 10
8.5716453887
 20
1.9152769077
 40
0.01125
100
AcDbArc
 50
0.0
 51
90.0
  0
ARC
  5
3DE
100
AcDbEntity
  8
0
100
AcDbCircle
 62
7
  6
CONTINUOUS
 10
8.1730739464
 20
3.455122752
 40
0.2223072413
100
AcDbArc
 50
321.3574849937
 51
321.7483271571
  0
ARC
  5
3DF
100
AcDbEntity
  8
0
100
AcDbCircle
 62
7
  6
CONTINUOUS
 10
8.1790525687
 20
3.4501361487
 40
0.2145212808
100
AcDbArc
 50
317.5810008604
 51
319.3400299199
  0
ARC
  5
3E0
100
AcDbEntity
  8
0
100
AcDbCircle
 62
7
  6
CONTINUOUS
 10
8.1827295351
 20
3.4467682358
 40
0.2095348906
100
AcDbArc
 50
316.4881298859
 51
316.7185263058
  0
CIRCLE
  5
3E1
100
AcDbEntity
  8
0
100
AcDbCircle
 62
7
  6
CONTINUOUS
 10
8.1661809238
 20
3.3752695252
 40
0.0077756723
  0
ARC
  5
3E2
100
AcDbEntity
  8
0
100
AcDbCircle
 62
7
  6
CONTINUOUS
 10
8.2116440319
 20
3.366225811
 40
0.0077756723
100
AcDbArc
 50
258.0800166987
 51
79.4379126242
  0
CIRCLE
  5
3E3
100
AcDbEntity
  8
0
100
AcDbCircle
 62
7
  6
CONTINUOUS
 10
8.1018869663
 20
3.4395649492
 40
0.0077756718
  0
CIRCLE
  5
3E4
100
AcDbEntity
  8
0
100
AcDbCircle
 62
7
  6
CONTINUOUS
 10
8.127639367
 20
3.4010228049
 40
0.0077756718
  0
ARC
  5
3E5
100
AcDbEntity
  8
0
100
AcDbCircle
 62
7
  6
CONTINUOUS
 10
8.0928417096
 20
3.4850268811
 40
0.0077730033
100
AcDbArc
 50
0.011631352
 51
179.9998046455
  0
ARC
  5
3E6
100
AcDbEntity
  8
0
100
AcDbCircle
 62
7
  6
CONTINUOUS
 10
8.2116453697
 20
3.4118349375
 40
0.0073454938
100
AcDbArc
 50
210.6274768731
 51
31.7144703999
  0
CIRCLE
  5
3E7
100
AcDbEntity
  8
0
100
AcDbCircle
 62
7
  6
CONTINUOUS
 10
8.1598912084
 20
3.4332726985
 40
0.0073454913
  0
ARC
  5
3E8
100
AcDbEntity
  8
0
100
AcDbCircle
 62
7
  6
CONTINUOUS
 10
8.1384531554
 20
3.4850268215
 40
0.0073453322
100
AcDbArc
 50
0.0031039505
 51
179.9993283031
  0
ARC
  5
3E9
100
AcDbEntity
  8
0
100
AcDbCircle
 62
7
  6
CONTINUOUS
 10
8.2116440023
 20
3.6038281281
 40
0.0077756938
100
AcDbArc
 50
259.4579513804
 51
78.060051183
  0
CIRCLE
  5
3EA
100
AcDbEntity
  8
0
100
AcDbCircle
 62
7
  6
CONTINUOUS
 10
8.1276412871
 20
3.5690329284
 40
0.007775672
  0
CIRCLE
  5
3EB
100
AcDbEntity
  8
0
100
AcDbCircle
 62
7
  6
CONTINUOUS
 10
8.166183431
 20
3.5947853287
 40
0.007775672
  0
CIRCLE
  5
3EC
100
AcDbEntity
  8
0
100
AcDbCircle
 62
7
  6
CONTINUOUS
 10
8.1018880048
 20
3.5304913733
 40
0.0077756718
  0
ARC
  5
3ED
100
AcDbEntity
  8
0
100
AcDbCircle
 62
7
  6
CONTINUOUS
 10
8.0928467865
 20
3.485026926
 40
0.007772963
100
AcDbArc
 50
180.0115701319
 51
359.9998649525
  0
ARC
  5
3EE
100
AcDbEntity
  8
0
100
AcDbCircle
 62
7
  6
CONTINUOUS
 10
8.2116453681
 20
3.5582183917
 40
0.0073454914
100
AcDbArc
 50
211.7114072828
 51
30.6305821085
  0
CIRCLE
  5
3EF
100
AcDbEntity
  8
0
100
AcDbCircle
 62
7
  6
CONTINUOUS
 10
8.1598911799
 20
3.5367810882
 40
0.0073454911
  0
ARC
  5
3F0
100
AcDbEntity
  8
0
100
AcDbCircle
 62
7
  6
CONTINUOUS
 10
8.1384541257
 20
3.4850270008
 40
0.0073453629
100
AcDbArc
 50
180.0031707132
 51
359.9992732641
  0
ARC
  5
3F1
100
AcDbEntity
  8
0
100
AcDbCircle
 62
7
  6
CONTINUOUS
 10
8.2501203313
 20
3.4550457803
 40
0.2221838437
100
AcDbArc
 50
218.2511127944
 51
218.6420404457
  0
ARC
  5
3F2
100
AcDbEntity
  8
0
100
AcDbCircle
 62
7
  6
CONTINUOUS
 10
8.2437281292
 20
3.4496845678
 40
0.2138401434
100
AcDbArc
 50
220.657166838
 51
222.4208663765
  0
ARC
  5
3F3
100
AcDbEntity
  8
0
100
AcDbCircle
 62
7
  6
CONTINUOUS
 10
8.211646775
 20
3.3662256869
 40
0.0077756935
100
AcDbArc
 50
79.4579516383
 51
258.0600508683
  0
CIRCLE
  5
3F4
100
AcDbEntity
  8
0
100
AcDbCircle
 62
7
  6
CONTINUOUS
 10
8.3214027709
 20
3.4395624425
 40
0.0077756724
  0
CIRCLE
  5
3F5
100
AcDbEntity
  8
0
100
AcDbCircle
 62
7
  6
CONTINUOUS
 10
8.2571073467
 20
3.3752684868
 40
0.0077756723
  0
CIRCLE
  5
3F6
100
AcDbEntity
  8
0
100
AcDbCircle
 62
7
  6
CONTINUOUS
 10
8.2956494904
 20
3.4010208872
 40
0.0077756723
  0
ARC
  5
3F7
100
AcDbEntity
  8
0
100
AcDbCircle
 62
7
  6
CONTINUOUS
 10
8.3304439909
 20
3.4850268893
 40
0.007772963
100
AcDbArc
 50
0.0115705436
 51
179.9998649525
  0
ARC
  5
3F8
100
AcDbEntity
  8
0
100
AcDbCircle
 62
7
  6
CONTINUOUS
 10
8.2116454091
 20
3.4118354235
 40
0.0073454913
100
AcDbArc
 50
31.7114066429
 51
210.6305827208
  0
CIRCLE
  5
3F9
100
AcDbEntity
  8
0
100
AcDbCircle
 62
7
  6
CONTINUOUS
 10
8.2633995978
 20
3.4332727273
 40
0.0073454913
  0
ARC
  5
3FA
100
AcDbEntity
  8
0
100
AcDbCircle
 62
7
  6
CONTINUOUS
 10
8.2848366517
 20
3.4850268145
 40
0.0073453629
100
AcDbArc
 50
0.0031519799
 51
179.9992732059
  0
ARC
  5
3FB
100
AcDbEntity
  8
0
100
AcDbCircle
 62
7
  6
CONTINUOUS
 10
8.2116453887
 20
3.4850269077
 40
0.2203125
100
AcDbArc
 50
106.2208244843
 51
106.780848866
  0
ARC
  5
3FC
100
AcDbEntity
  8
0
100
AcDbCircle
 62
7
  6
CONTINUOUS
 10
8.2116453887
 20
3.4850269077
 40
0.2203125
100
AcDbArc
 50
109.219151134
 51
109.7791755157
  0
ARC
  5
3FD
100
AcDbEntity
  8
0
100
AcDbCircle
 62
7
  6
CONTINUOUS
 10
8.2116453887
 20
3.4850269077
 40
0.2203125
100
AcDbArc
 50
112.2208244843
 51
112.7791755157
  0
ARC
  5
3FE
100
AcDbEntity
  8
0
100
AcDbCircle
 62
7
  6
CONTINUOUS
 10
8.2116453887
 20
3.4850269077
 40
0.2203125
100
AcDbArc
 50
115.2208244843
 51
115.7791755157
  0
ARC
  5
3FF
100
AcDbEntity
  8
0
100
AcDbCircle
 62
7
  6
CONTINUOUS
 10
8.2116453887
 20
3.4850269077
 40
0.2203125
100
AcDbArc
 50
118.2208244843
 51
118.7791755157
  0
ARC
  5
400
100
AcDbEntity
  8
0
100
AcDbCircle
 62
7
  6
CONTINUOUS
 10
8.2116453887
 20
3.4850269077
 40
0.2203125
100
AcDbArc
 50
121.2208244843
 51
121.7791755157
  0
ARC
  5
401
100
AcDbEntity
  8
0
100
AcDbCircle
 62
7
  6
CONTINUOUS
 10
8.2116453887
 20
3.4850269077
 40
0.2203125
100
AcDbArc
 50
124.2208244843
 51
124.780848866
  0
ARC
  5
402
100
AcDbEntity
  8
0
100
AcDbCircle
 62
7
  6
CONTINUOUS
 10
8.2116453887
 20
3.4850269077
 40
0.2203125
100
AcDbArc
 50
127.219151134
 51
127.7791755157
  0
ARC
  5
403
100
AcDbEntity
  8
0
100
AcDbCircle
 62
7
  6
CONTINUOUS
 10
8.2116453887
 20
3.4850269077
 40
0.2203125
100
AcDbArc
 50
130.2208244843
 51
130.7791755157
  0
ARC
  5
404
100
AcDbEntity
  8
0
100
AcDbCircle
 62
7
  6
CONTINUOUS
 10
8.2116453887
 20
3.4850269077
 40
0.2203125
100
AcDbArc
 50
133.2208244843
 51
133.7791755157
  0
ARC
  5
405
100
AcDbEntity
  8
0
100
AcDbCircle
 62
7
  6
CONTINUOUS
 10
8.2116453887
 20
3.4850269077
 40
0.2203125
100
AcDbArc
 50
136.2208244843
 51
136.7791755157
  0
ARC
  5
406
100
AcDbEntity
  8
0
100
AcDbCircle
 62
7
  6
CONTINUOUS
 10
8.2116453887
 20
3.4850269077
 40
0.2203125
100
AcDbArc
 50
139.2208244843
 51
139.7791755157
  0
ARC
  5
407
100
AcDbEntity
  8
0
100
AcDbCircle
 62
7
  6
CONTINUOUS
 10
8.2116453887
 20
3.4850269077
 40
0.2203125
100
AcDbArc
 50
142.2208244843
 51
142.780848866
  0
ARC
  5
408
100
AcDbEntity
  8
0
100
AcDbCircle
 62
7
  6
CONTINUOUS
 10
8.2116453887
 20
3.4850269077
 40
0.2203125
100
AcDbArc
 50
145.219151134
 51
145.7791755157
  0
ARC
  5
409
100
AcDbEntity
  8
0
100
AcDbCircle
 62
7
  6
CONTINUOUS
 10
8.2116453887
 20
3.4850269077
 40
0.2203125
100
AcDbArc
 50
148.2208244843
 51
148.7791755157
  0
ARC
  5
40A
100
AcDbEntity
  8
0
100
AcDbCircle
 62
7
  6
CONTINUOUS
 10
8.2116453887
 20
3.4850269077
 40
0.2203125
100
AcDbArc
 50
151.2208244843
 51
151.7791755157
  0
ARC
  5
40B
100
AcDbEntity
  8
0
100
AcDbCircle
 62
7
  6
CONTINUOUS
 10
8.2116453887
 20
3.4850269077
 40
0.2203125
100
AcDbArc
 50
154.2208244843
 51
154.7791755157
  0
ARC
  5
40C
100
AcDbEntity
  8
0
100
AcDbCircle
 62
7
  6
CONTINUOUS
 10
8.2116453887
 20
3.4850269077
 40
0.2203125
100
AcDbArc
 50
157.2208244843
 51
157.7791755157
  0
ARC
  5
40D
100
AcDbEntity
  8
0
100
AcDbCircle
 62
7
  6
CONTINUOUS
 10
8.2116453887
 20
3.4850269077
 40
0.2203125
100
AcDbArc
 50
160.2208244843
 51
160.780848866
  0
ARC
  5
40E
100
AcDbEntity
  8
0
100
AcDbCircle
 62
7
  6
CONTINUOUS
 10
8.2116453887
 20
3.4850269077
 40
0.2203125
100
AcDbArc
 50
163.219151134
 51
163.7791755157
  0
ARC
  5
40F
100
AcDbEntity
  8
0
100
AcDbCircle
 62
7
  6
CONTINUOUS
 10
8.2116453887
 20
3.4850269077
 40
0.2203125
100
AcDbArc
 50
166.2208244843
 51
166.7791755157
  0
ARC
  5
410
100
AcDbEntity
  8
0
100
AcDbCircle
 62
7
  6
CONTINUOUS
 10
8.2116453887
 20
3.4850269077
 40
0.2203125
100
AcDbArc
 50
169.2208244843
 51
169.7791755157
  0
ARC
  5
411
100
AcDbEntity
  8
0
100
AcDbCircle
 62
7
  6
CONTINUOUS
 10
8.2116453887
 20
3.4850269077
 40
0.2203125
100
AcDbArc
 50
172.2208244843
 51
172.7791755157
  0
ARC
  5
412
100
AcDbEntity
  8
0
100
AcDbCircle
 62
7
  6
CONTINUOUS
 10
8.2116453887
 20
3.4850269077
 40
0.2203125
100
AcDbArc
 50
175.2208244843
 51
175.7791755157
  0
ARC
  5
413
100
AcDbEntity
  8
0
100
AcDbCircle
 62
7
  6
CONTINUOUS
 10
8.2116453887
 20
3.4850269077
 40
0.2203125
100
AcDbArc
 50
178.2208244843
 51
178.780848866
  0
ARC
  5
414
100
AcDbEntity
  8
0
100
AcDbCircle
 62
7
  6
CONTINUOUS
 10
8.2116453887
 20
3.4850269077
 40
0.2203125
100
AcDbArc
 50
181.219151134
 51
181.7791755157
  0
ARC
  5
415
100
AcDbEntity
  8
0
100
AcDbCircle
 62
7
  6
CONTINUOUS
 10
8.2116453887
 20
3.4850269077
 40
0.2203125
100
AcDbArc
 50
184.2208244843
 51
184.7791755157
  0
ARC
  5
416
100
AcDbEntity
  8
0
100
AcDbCircle
 62
7
  6
CONTINUOUS
 10
8.2116453887
 20
3.4850269077
 40
0.2203125
100
AcDbArc
 50
187.2208244843
 51
187.7791755157
  0
ARC
  5
417
100
AcDbEntity
  8
0
100
AcDbCircle
 62
7
  6
CONTINUOUS
 10
8.2116453887
 20
3.4850269077
 40
0.2203125
100
AcDbArc
 50
190.2208244843
 51
190.7791755157
  0
ARC
  5
418
100
AcDbEntity
  8
0
100
AcDbCircle
 62
7
  6
CONTINUOUS
 10
8.2116453887
 20
3.4850269077
 40
0.2203125
100
AcDbArc
 50
193.2208244843
 51
193.7791755157
  0
ARC
  5
419
100
AcDbEntity
  8
0
100
AcDbCircle
 62
7
  6
CONTINUOUS
 10
8.2116453887
 20
3.4850269077
 40
0.2203125
100
AcDbArc
 50
196.2208244843
 51
196.780848866
  0
ARC
  5
41A
100
AcDbEntity
  8
0
100
AcDbCircle
 62
7
  6
CONTINUOUS
 10
8.2116453887
 20
3.4850269077
 40
0.2203125
100
AcDbArc
 50
199.219151134
 51
199.7791755157
  0
ARC
  5
41B
100
AcDbEntity
  8
0
100
AcDbCircle
 62
7
  6
CONTINUOUS
 10
8.2116453887
 20
3.4850269077
 40
0.2203125
100
AcDbArc
 50
202.2208244843
 51
202.7791755157
  0
ARC
  5
41C
100
AcDbEntity
  8
0
100
AcDbCircle
 62
7
  6
CONTINUOUS
 10
8.2116453887
 20
3.4850269077
 40
0.2203125
100
AcDbArc
 50
205.2208244843
 51
205.7791755157
  0
ARC
  5
41D
100
AcDbEntity
  8
0
100
AcDbCircle
 62
7
  6
CONTINUOUS
 10
8.2116453887
 20
3.4850269077
 40
0.2203125
100
AcDbArc
 50
208.2208244843
 51
208.7791755157
  0
ARC
  5
41E
100
AcDbEntity
  8
0
100
AcDbCircle
 62
7
  6
CONTINUOUS
 10
8.2116453887
 20
3.4850269077
 40
0.2203125
100
AcDbArc
 50
211.2208244843
 51
211.7791755157
  0
ARC
  5
41F
100
AcDbEntity
  8
0
100
AcDbCircle
 62
7
  6
CONTINUOUS
 10
8.2116453887
 20
3.4850269077
 40
0.2203125
100
AcDbArc
 50
214.2208244843
 51
214.780848866
  0
ARC
  5
420
100
AcDbEntity
  8
0
100
AcDbCircle
 62
7
  6
CONTINUOUS
 10
8.2116453887
 20
3.4850269077
 40
0.2203125
100
AcDbArc
 50
217.219151134
 51
217.7791755157
  0
ARC
  5
421
100
AcDbEntity
  8
0
100
AcDbCircle
 62
7
  6
CONTINUOUS
 10
8.2116453887
 20
3.4850269077
 40
0.2203125
100
AcDbArc
 50
220.2208244843
 51
220.7791755157
  0
ARC
  5
422
100
AcDbEntity
  8
0
100
AcDbCircle
 62
7
  6
CONTINUOUS
 10
8.2116453887
 20
3.4850269077
 40
0.2203125
100
AcDbArc
 50
223.2208244843
 51
223.7791755157
  0
ARC
  5
423
100
AcDbEntity
  8
0
100
AcDbCircle
 62
7
  6
CONTINUOUS
 10
8.2116453887
 20
3.4850269077
 40
0.2203125
100
AcDbArc
 50
226.2208244843
 51
226.7791755157
  0
ARC
  5
424
100
AcDbEntity
  8
0
100
AcDbCircle
 62
7
  6
CONTINUOUS
 10
8.2116453887
 20
3.4850269077
 40
0.2203125
100
AcDbArc
 50
229.2208244843
 51
229.7791755157
  0
ARC
  5
425
100
AcDbEntity
  8
0
100
AcDbCircle
 62
7
  6
CONTINUOUS
 10
8.2116453887
 20
3.4850269077
 40
0.2203125
100
AcDbArc
 50
232.2208244843
 51
232.780848866
  0
ARC
  5
426
100
AcDbEntity
  8
0
100
AcDbCircle
 62
7
  6
CONTINUOUS
 10
8.2116453887
 20
3.4850269077
 40
0.2203125
100
AcDbArc
 50
235.219151134
 51
235.7791755157
  0
ARC
  5
427
100
AcDbEntity
  8
0
100
AcDbCircle
 62
7
  6
CONTINUOUS
 10
8.2116453887
 20
3.4850269077
 40
0.2203125
100
AcDbArc
 50
238.2208244843
 51
238.7791755157
  0
ARC
  5
428
100
AcDbEntity
  8
0
100
AcDbCircle
 62
7
  6
CONTINUOUS
 10
8.2116453887
 20
3.4850269077
 40
0.2203125
100
AcDbArc
 50
241.2208244843
 51
241.7791755157
  0
ARC
  5
429
100
AcDbEntity
  8
0
100
AcDbCircle
 62
7
  6
CONTINUOUS
 10
8.2116453887
 20
3.4850269077
 40
0.2203125
100
AcDbArc
 50
244.2208244843
 51
244.7791755157
  0
ARC
  5
42A
100
AcDbEntity
  8
0
100
AcDbCircle
 62
7
  6
CONTINUOUS
 10
8.2116453887
 20
3.4850269077
 40
0.2203125
100
AcDbArc
 50
247.2208244843
 51
247.7791755157
  0
ARC
  5
42B
100
AcDbEntity
  8
0
100
AcDbCircle
 62
7
  6
CONTINUOUS
 10
8.2116453887
 20
3.4850269077
 40
0.2203125
100
AcDbArc
 50
250.2208244843
 51
250.780848866
  0
ARC
  5
42C
100
AcDbEntity
  8
0
100
AcDbCircle
 62
7
  6
CONTINUOUS
 10
8.2116453887
 20
3.4850269077
 40
0.2203125
100
AcDbArc
 50
253.219151134
 51
253.7791755157
  0
ARC
  5
42D
100
AcDbEntity
  8
0
100
AcDbCircle
 62
7
  6
CONTINUOUS
 10
8.2116453887
 20
3.4850269077
 40
0.2203125
100
AcDbArc
 50
256.2208244843
 51
256.7791755157
  0
ARC
  5
42E
100
AcDbEntity
  8
0
100
AcDbCircle
 62
7
  6
CONTINUOUS
 10
8.2116453887
 20
3.4850269077
 40
0.2203125
100
AcDbArc
 50
259.2208244843
 51
259.7791755157
  0
ARC
  5
42F
100
AcDbEntity
  8
0
100
AcDbCircle
 62
7
  6
CONTINUOUS
 10
8.2116453887
 20
3.4850269077
 40
0.2203125
100
AcDbArc
 50
262.2208244843
 51
262.7791755157
  0
ARC
  5
430
100
AcDbEntity
  8
0
100
AcDbCircle
 62
7
  6
CONTINUOUS
 10
8.2116453887
 20
3.4850269077
 40
0.2203125
100
AcDbArc
 50
265.2208244843
 51
265.7791755157
  0
ARC
  5
431
100
AcDbEntity
  8
0
100
AcDbCircle
 62
7
  6
CONTINUOUS
 10
8.2116453887
 20
3.4850269077
 40
0.2203125
100
AcDbArc
 50
268.2208244843
 51
268.780848866
  0
ARC
  5
432
100
AcDbEntity
  8
0
100
AcDbCircle
 62
7
  6
CONTINUOUS
 10
8.2116453887
 20
3.4850269077
 40
0.2203125
100
AcDbArc
 50
271.219151134
 51
271.7791755157
  0
ARC
  5
433
100
AcDbEntity
  8
0
100
AcDbCircle
 62
7
  6
CONTINUOUS
 10
8.2116453887
 20
3.4850269077
 40
0.2203125
100
AcDbArc
 50
274.2208244843
 51
274.7791755157
  0
ARC
  5
434
100
AcDbEntity
  8
0
100
AcDbCircle
 62
7
  6
CONTINUOUS
 10
8.2116453887
 20
3.4850269077
 40
0.2203125
100
AcDbArc
 50
277.2208244843
 51
277.7791755157
  0
ARC
  5
435
100
AcDbEntity
  8
0
100
AcDbCircle
 62
7
  6
CONTINUOUS
 10
8.2116453887
 20
3.4850269077
 40
0.2203125
100
AcDbArc
 50
280.2208244843
 51
280.7791755157
  0
ARC
  5
436
100
AcDbEntity
  8
0
100
AcDbCircle
 62
7
  6
CONTINUOUS
 10
8.2116453887
 20
3.4850269077
 40
0.2203125
100
AcDbArc
 50
283.2208244843
 51
283.7791755157
  0
ARC
  5
437
100
AcDbEntity
  8
0
100
AcDbCircle
 62
7
  6
CONTINUOUS
 10
8.2116453887
 20
3.4850269077
 40
0.2203125
100
AcDbArc
 50
286.2208244843
 51
286.780848866
  0
ARC
  5
438
100
AcDbEntity
  8
0
100
AcDbCircle
 62
7
  6
CONTINUOUS
 10
8.2116453887
 20
3.4850269077
 40
0.2203125
100
AcDbArc
 50
289.219151134
 51
289.7791755157
  0
ARC
  5
439
100
AcDbEntity
  8
0
100
AcDbCircle
 62
7
  6
CONTINUOUS
 10
8.2116453887
 20
3.4850269077
 40
0.2203125
100
AcDbArc
 50
292.2208244843
 51
292.7791755157
  0
ARC
  5
43A
100
AcDbEntity
  8
0
100
AcDbCircle
 62
7
  6
CONTINUOUS
 10
8.2116453887
 20
3.4850269077
 40
0.2203125
100
AcDbArc
 50
295.2208244843
 51
295.7791755157
  0
ARC
  5
43B
100
AcDbEntity
  8
0
100
AcDbCircle
 62
7
  6
CONTINUOUS
 10
8.2116453887
 20
3.4850269077
 40
0.2203125
100
AcDbArc
 50
298.2208244843
 51
298.7791755157
  0
ARC
  5
43C
100
AcDbEntity
  8
0
100
AcDbCircle
 62
7
  6
CONTINUOUS
 10
8.2116453887
 20
3.4850269077
 40
0.2203125
100
AcDbArc
 50
301.2208244843
 51
301.7791755157
  0
ARC
  5
43D
100
AcDbEntity
  8
0
100
AcDbCircle
 62
7
  6
CONTINUOUS
 10
8.2116453887
 20
3.4850269077
 40
0.2203125
100
AcDbArc
 50
304.2208244843
 51
304.780848866
  0
ARC
  5
43E
100
AcDbEntity
  8
0
100
AcDbCircle
 62
7
  6
CONTINUOUS
 10
8.2116453887
 20
3.4850269077
 40
0.2203125
100
AcDbArc
 50
307.219151134
 51
307.7791755157
  0
ARC
  5
43F
100
AcDbEntity
  8
0
100
AcDbCircle
 62
7
  6
CONTINUOUS
 10
8.2116453887
 20
3.4850269077
 40
0.2203125
100
AcDbArc
 50
310.2208244843
 51
310.7791755157
  0
ARC
  5
440
100
AcDbEntity
  8
0
100
AcDbCircle
 62
7
  6
CONTINUOUS
 10
8.2116453887
 20
3.4850269077
 40
0.2203125
100
AcDbArc
 50
313.2208244843
 51
313.7791755157
  0
ARC
  5
441
100
AcDbEntity
  8
0
100
AcDbCircle
 62
7
  6
CONTINUOUS
 10
8.2116453887
 20
3.4850269077
 40
0.2203125
100
AcDbArc
 50
316.2208244843
 51
316.7791755157
  0
ARC
  5
442
100
AcDbEntity
  8
0
100
AcDbCircle
 62
7
  6
CONTINUOUS
 10
8.2116453887
 20
3.4850269077
 40
0.2203125
100
AcDbArc
 50
319.2208244843
 51
319.7791755157
  0
ARC
  5
443
100
AcDbEntity
  8
0
100
AcDbCircle
 62
7
  6
CONTINUOUS
 10
8.2116453887
 20
3.4850269077
 40
0.2203125
100
AcDbArc
 50
322.2208244843
 51
322.780848866
  0
ARC
  5
444
100
AcDbEntity
  8
0
100
AcDbCircle
 62
7
  6
CONTINUOUS
 10
8.2116453887
 20
3.4850269077
 40
0.2203125
100
AcDbArc
 50
325.219151134
 51
325.7791755157
  0
ARC
  5
445
100
AcDbEntity
  8
0
100
AcDbCircle
 62
7
  6
CONTINUOUS
 10
8.2116453887
 20
3.4850269077
 40
0.2203125
100
AcDbArc
 50
328.2208244843
 51
328.7791755157
  0
ARC
  5
446
100
AcDbEntity
  8
0
100
AcDbCircle
 62
7
  6
CONTINUOUS
 10
8.2116453887
 20
3.4850269077
 40
0.2203125
100
AcDbArc
 50
331.2208244843
 51
331.7791755157
  0
ARC
  5
447
100
AcDbEntity
  8
0
100
AcDbCircle
 62
7
  6
CONTINUOUS
 10
8.2116453887
 20
3.4850269077
 40
0.2203125
100
AcDbArc
 50
334.2208244843
 51
334.7791755157
  0
ARC
  5
448
100
AcDbEntity
  8
0
100
AcDbCircle
 62
7
  6
CONTINUOUS
 10
8.2116453887
 20
3.4850269077
 40
0.2203125
100
AcDbArc
 50
337.2208244843
 51
337.7791755157
  0
ARC
  5
449
100
AcDbEntity
  8
0
100
AcDbCircle
 62
7
  6
CONTINUOUS
 10
8.2116453887
 20
3.4850269077
 40
0.2203125
100
AcDbArc
 50
340.2208244843
 51
340.780848866
  0
ARC
  5
44A
100
AcDbEntity
  8
0
100
AcDbCircle
 62
7
  6
CONTINUOUS
 10
8.2116453887
 20
3.4850269077
 40
0.2203125
100
AcDbArc
 50
343.219151134
 51
343.7791755157
  0
ARC
  5
44B
100
AcDbEntity
  8
0
100
AcDbCircle
 62
7
  6
CONTINUOUS
 10
8.2116453887
 20
3.4850269077
 40
0.2203125
100
AcDbArc
 50
346.2208244843
 51
346.7791755157
  0
ARC
  5
44C
100
AcDbEntity
  8
0
100
AcDbCircle
 62
7
  6
CONTINUOUS
 10
8.2116453887
 20
3.4850269077
 40
0.2203125
100
AcDbArc
 50
349.2208244843
 51
349.7791755157
  0
ARC
  5
44D
100
AcDbEntity
  8
0
100
AcDbCircle
 62
7
  6
CONTINUOUS
 10
8.2116453887
 20
3.4850269077
 40
0.2203125
100
AcDbArc
 50
352.2208244843
 51
352.7791755157
  0
ARC
  5
44E
100
AcDbEntity
  8
0
100
AcDbCircle
 62
7
  6
CONTINUOUS
 10
8.2116453887
 20
3.4850269077
 40
0.2203125
100
AcDbArc
 50
355.2208244843
 51
355.7791755157
  0
ARC
  5
44F
100
AcDbEntity
  8
0
100
AcDbCircle
 62
7
  6
CONTINUOUS
 10
8.2116453887
 20
3.4850269077
 40
0.2203125
100
AcDbArc
 50
358.2208244843
 51
358.780848866
  0
ARC
  5
450
100
AcDbEntity
  8
0
100
AcDbCircle
 62
7
  6
CONTINUOUS
 10
8.2116453887
 20
3.4850269077
 40
0.2203125
100
AcDbArc
 50
1.219151134
 51
1.7791755157
  0
ARC
  5
451
100
AcDbEntity
  8
0
100
AcDbCircle
 62
7
  6
CONTINUOUS
 10
8.2116453887
 20
3.4850269077
 40
0.2203125
100
AcDbArc
 50
4.2208244843
 51
4.7791755157
  0
ARC
  5
452
100
AcDbEntity
  8
0
100
AcDbCircle
 62
7
  6
CONTINUOUS
 10
8.2116453887
 20
3.4850269077
 40
0.2203125
100
AcDbArc
 50
7.2208244843
 51
7.7791755157
  0
ARC
  5
453
100
AcDbEntity
  8
0
100
AcDbCircle
 62
7
  6
CONTINUOUS
 10
8.2116453887
 20
3.4850269077
 40
0.2203125
100
AcDbArc
 50
10.2208244843
 51
10.7791755157
  0
ARC
  5
454
100
AcDbEntity
  8
0
100
AcDbCircle
 62
7
  6
CONTINUOUS
 10
8.2116453887
 20
3.4850269077
 40
0.2203125
100
AcDbArc
 50
13.2208244843
 51
13.7791755157
  0
ARC
  5
455
100
AcDbEntity
  8
0
100
AcDbCircle
 62
7
  6
CONTINUOUS
 10
8.2116453887
 20
3.4850269077
 40
0.2203125
100
AcDbArc
 50
16.2208244843
 51
16.780848866
  0
ARC
  5
456
100
AcDbEntity
  8
0
100
AcDbCircle
 62
7
  6
CONTINUOUS
 10
8.2116453887
 20
3.4850269077
 40
0.2203125
100
AcDbArc
 50
19.219151134
 51
19.7791755157
  0
ARC
  5
457
100
AcDbEntity
  8
0
100
AcDbCircle
 62
7
  6
CONTINUOUS
 10
8.2116453887
 20
3.4850269077
 40
0.2203125
100
AcDbArc
 50
22.2208244843
 51
22.7791755157
  0
ARC
  5
458
100
AcDbEntity
  8
0
100
AcDbCircle
 62
7
  6
CONTINUOUS
 10
8.2116453887
 20
3.4850269077
 40
0.2203125
100
AcDbArc
 50
25.2208244843
 51
25.7791755157
  0
ARC
  5
459
100
AcDbEntity
  8
0
100
AcDbCircle
 62
7
  6
CONTINUOUS
 10
8.2116453887
 20
3.4850269077
 40
0.2203125
100
AcDbArc
 50
28.2208244843
 51
28.7791755157
  0
ARC
  5
45A
100
AcDbEntity
  8
0
100
AcDbCircle
 62
7
  6
CONTINUOUS
 10
8.2116453887
 20
3.4850269077
 40
0.2203125
100
AcDbArc
 50
31.2208244843
 51
31.7791755157
  0
ARC
  5
45B
100
AcDbEntity
  8
0
100
AcDbCircle
 62
7
  6
CONTINUOUS
 10
8.2116453887
 20
3.4850269077
 40
0.2203125
100
AcDbArc
 50
34.2208244843
 51
34.780848866
  0
ARC
  5
45C
100
AcDbEntity
  8
0
100
AcDbCircle
 62
7
  6
CONTINUOUS
 10
8.2116453887
 20
3.4850269077
 40
0.2203125
100
AcDbArc
 50
37.219151134
 51
37.7791755157
  0
ARC
  5
45D
100
AcDbEntity
  8
0
100
AcDbCircle
 62
7
  6
CONTINUOUS
 10
8.2116453887
 20
3.4850269077
 40
0.2203125
100
AcDbArc
 50
40.2208244843
 51
40.7791755157
  0
ARC
  5
45E
100
AcDbEntity
  8
0
100
AcDbCircle
 62
7
  6
CONTINUOUS
 10
8.2116453887
 20
3.4850269077
 40
0.2203125
100
AcDbArc
 50
43.2208244843
 51
43.7791755157
  0
ARC
  5
45F
100
AcDbEntity
  8
0
100
AcDbCircle
 62
7
  6
CONTINUOUS
 10
8.2116453887
 20
3.4850269077
 40
0.2203125
100
AcDbArc
 50
46.2208244843
 51
46.7791755157
  0
ARC
  5
460
100
AcDbEntity
  8
0
100
AcDbCircle
 62
7
  6
CONTINUOUS
 10
8.2116453887
 20
3.4850269077
 40
0.2203125
100
AcDbArc
 50
49.2208244843
 51
49.7791755157
  0
ARC
  5
461
100
AcDbEntity
  8
0
100
AcDbCircle
 62
7
  6
CONTINUOUS
 10
8.2116453887
 20
3.4850269077
 40
0.2203125
100
AcDbArc
 50
52.2208244843
 51
52.780848866
  0
ARC
  5
462
100
AcDbEntity
  8
0
100
AcDbCircle
 62
7
  6
CONTINUOUS
 10
8.2116453887
 20
3.4850269077
 40
0.2203125
100
AcDbArc
 50
55.219151134
 51
55.7791755157
  0
ARC
  5
463
100
AcDbEntity
  8
0
100
AcDbCircle
 62
7
  6
CONTINUOUS
 10
8.2116453887
 20
3.4850269077
 40
0.2203125
100
AcDbArc
 50
58.2208244843
 51
58.7791755157
  0
ARC
  5
464
100
AcDbEntity
  8
0
100
AcDbCircle
 62
7
  6
CONTINUOUS
 10
8.2116453887
 20
3.4850269077
 40
0.2203125
100
AcDbArc
 50
61.2208244843
 51
61.7791755157
  0
ARC
  5
465
100
AcDbEntity
  8
0
100
AcDbCircle
 62
7
  6
CONTINUOUS
 10
8.2116453887
 20
3.4850269077
 40
0.2203125
100
AcDbArc
 50
64.2208244843
 51
64.7791755157
  0
ARC
  5
466
100
AcDbEntity
  8
0
100
AcDbCircle
 62
7
  6
CONTINUOUS
 10
8.2116453887
 20
3.4850269077
 40
0.2203125
100
AcDbArc
 50
67.2208244843
 51
67.7791755157
  0
ARC
  5
467
100
AcDbEntity
  8
0
100
AcDbCircle
 62
7
  6
CONTINUOUS
 10
8.2116453887
 20
3.4850269077
 40
0.2203125
100
AcDbArc
 50
70.2208244843
 51
70.780848866
  0
ARC
  5
468
100
AcDbEntity
  8
0
100
AcDbCircle
 62
7
  6
CONTINUOUS
 10
8.2116453887
 20
3.4850269077
 40
0.2203125
100
AcDbArc
 50
73.219151134
 51
73.7791755157
  0
ARC
  5
469
100
AcDbEntity
  8
0
100
AcDbCircle
 62
7
  6
CONTINUOUS
 10
8.2116453887
 20
3.4850269077
 40
0.2203125
100
AcDbArc
 50
76.2208244843
 51
76.7791755157
  0
ARC
  5
46A
100
AcDbEntity
  8
0
100
AcDbCircle
 62
7
  6
CONTINUOUS
 10
8.2116453887
 20
3.4850269077
 40
0.2203125
100
AcDbArc
 50
79.2208244843
 51
79.7791755157
  0
ARC
  5
46B
100
AcDbEntity
  8
0
100
AcDbCircle
 62
7
  6
CONTINUOUS
 10
8.2116453887
 20
3.4850269077
 40
0.2203125
100
AcDbArc
 50
82.2208244843
 51
82.7791755157
  0
ARC
  5
46C
100
AcDbEntity
  8
0
100
AcDbCircle
 62
7
  6
CONTINUOUS
 10
8.2116453887
 20
3.4850269077
 40
0.2203125
100
AcDbArc
 50
85.2208244843
 51
85.7791755157
  0
ARC
  5
46D
100
AcDbEntity
  8
0
100
AcDbCircle
 62
7
  6
CONTINUOUS
 10
8.2116453887
 20
3.4850269077
 40
0.2203125
100
AcDbArc
 50
88.2208244843
 51
88.780848866
  0
ARC
  5
46E
100
AcDbEntity
  8
0
100
AcDbCircle
 62
7
  6
CONTINUOUS
 10
8.2116453887
 20
3.4850269077
 40
0.2203125
100
AcDbArc
 50
103.2208244843
 51
103.7791755157
  0
ARC
  5
46F
100
AcDbEntity
  8
0
100
AcDbCircle
 62
7
  6
CONTINUOUS
 10
8.2116453887
 20
3.4850269077
 40
0.2203125
100
AcDbArc
 50
100.2208244843
 51
100.7791755157
  0
ARC
  5
470
100
AcDbEntity
  8
0
100
AcDbCircle
 62
7
  6
CONTINUOUS
 10
8.2116453887
 20
3.4850269077
 40
0.2203125
100
AcDbArc
 50
97.2208244843
 51
97.7791755157
  0
ARC
  5
471
100
AcDbEntity
  8
0
100
AcDbCircle
 62
7
  6
CONTINUOUS
 10
8.2116453887
 20
3.4850269077
 40
0.2203125
100
AcDbArc
 50
94.2208244843
 51
94.7791755157
  0
ARC
  5
472
100
AcDbEntity
  8
0
100
AcDbCircle
 62
7
  6
CONTINUOUS
 10
8.2116453887
 20
3.4850269077
 40
0.2203125
100
AcDbArc
 50
91.219151134
 51
91.7791755157
  0
CIRCLE
  5
473
100
AcDbEntity
  8
0
100
AcDbCircle
 62
7
  6
CONTINUOUS
 10
8.2116453887
 20
3.4850269077
 40
0.20625
  0
CIRCLE
  5
474
100
AcDbEntity
  8
0
100
AcDbCircle
 62
7
  6
CONTINUOUS
 10
8.2116453887
 20
3.4850269077
 40
0.195
  0
CIRCLE
  5
475
100
AcDbEntity
  8
0
100
AcDbCircle
 62
7
  6
CONTINUOUS
 10
8.2116453887
 20
3.4850269077
 40
0.16875
  0
CIRCLE
  5
476
100
AcDbEntity
  8
0
100
AcDbCircle
 62
7
  6
CONTINUOUS
 10
8.2116453887
 20
3.4850269077
 40
0.1575
  0
CIRCLE
  5
477
100
AcDbEntity
  8
0
100
AcDbCircle
 62
7
  6
CONTINUOUS
 10
8.2116453887
 20
3.4850269077
 40
0.1565625
  0
CIRCLE
  5
478
100
AcDbEntity
  8
0
100
AcDbCircle
 62
7
  6
CONTINUOUS
 10
8.2116453887
 20
3.4850269077
 40
0.1553887795
  0
CIRCLE
  5
479
100
AcDbEntity
  8
0
100
AcDbCircle
 62
7
  6
CONTINUOUS
 10
8.2116453887
 20
3.4850269077
 40
0.152786636
  0
CIRCLE
  5
47A
100
AcDbEntity
  8
0
100
AcDbCircle
 62
7
  6
CONTINUOUS
 10
8.2633995689
 20
3.5367811169
 40
0.0073454914
  0
ARC
  5
47B
100
AcDbEntity
  8
0
100
AcDbCircle
 62
7
  6
CONTINUOUS
 10
8.2116467458
 20
3.6038280044
 40
0.007775672
100
AcDbArc
 50
78.0800185696
 51
259.4379107254
  0
CIRCLE
  5
47C
100
AcDbEntity
  8
0
100
AcDbCircle
 62
7
  6
CONTINUOUS
 10
8.2571098539
 20
3.5947842901
 40
0.007775672
  0
ARC
  5
47D
100
AcDbEntity
  8
0
100
AcDbCircle
 62
7
  6
CONTINUOUS
 10
8.2116454076
 20
3.5582188777
 40
0.0073454938
100
AcDbArc
 50
30.6274768815
 51
211.7144704086
  0
CIRCLE
  5
47E
100
AcDbEntity
  8
0
100
AcDbCircle
 62
7
  6
CONTINUOUS
 10
8.3214038095
 20
3.5304888654
 40
0.0077756724
  0
ARC
  5
47F
100
AcDbEntity
  8
0
100
AcDbCircle
 62
7
  6
CONTINUOUS
 10
8.3304490678
 20
3.4850269342
 40
0.0077730033
100
AcDbArc
 50
180.0116312081
 51
359.9998046453
  0
ARC
  5
480
100
AcDbEntity
  8
0
100
AcDbCircle
 62
7
  6
CONTINUOUS
 10
8.284837622
 20
3.4850269938
 40
0.0073453322
100
AcDbArc
 50
180.0031246525
 51
359.9993283187
  0
CIRCLE
  5
481
100
AcDbEntity
  8
0
100
AcDbCircle
 62
7
  6
CONTINUOUS
 10
8.2956514092
 20
3.5690310091
 40
0.0077756724
  0
SPLINE
  5
482
100
AcDbEntity
  8
0
100
AcDbSpline
 62
7
  6
CONTINUOUS
 70
0
 71
3
 72
120
 73
116
 74
0
 42
0.0000001
 43
0.0000001
 44
0.0000000001
 40
0.0
 40
0.0
 40
0.0
 40
0.0
 40
0.0000033369
 40
0.000013204
 40
0.0000295945
 40
0.0000525014
 40
0.0000819179
 40
0.0001178371
 40
0.000209156
 40
0.0003264031
 40
0.0004695235
 40
0.0006384622
 40
0.0008331644
 40
0.0012996382
 40
0.0018684388
 40
0.0025389557
 40
0.0033105694
 40
0.00418266
 40
0.0051545988
 40
0.006225609
 40
0.0073947941
 40
0.0100240885
 40
0.013034819
 40
0.0164164477
 40
0.0201573378
 40
0.0242459707
 40
0.0286710063
 40
0.0334210676
 40
0.0384842658
 40
0.0495013737
 40
0.0616249077
 40
0.0747595588
 40
0.0888174845
 40
0.1037162308
 40
0.1193785159
 40
0.1357352475
 40
0.1527227957
 40
0.1702839533
 40
0.1883670937
 40
0.2069272725
 40
0.2259236704
 40
0.2453200409
 40
0.2650840706
 40
0.2851879332
 40
0.3056061328
 40
0.3263171146
 40
0.3473001711
 40
0.368537411
 40
0.3792467306
 40
0.3900127222
 40
0.411701331
 40
0.4226204854
 40
0.4335842166
 40
0.4445878003
 40
0.4556267006
 40
0.4666944446
 40
0.4777849075
 40
0.4999992803
 40
0.5111132677
 40
0.5222194665
 40
0.5333098748
 40
0.5443776808
 40
0.5554165559
 40
0.5664201478
 40
0.5882995439
 40
0.6099880103
 40
0.6314612654
 40
0.6526987662
 40
0.6632238036
 40
0.6736826387
 40
0.6943930972
 40
0.7148115825
 40
0.7249048266
 40
0.7349161673
 40
0.7546800154
 40
0.7740762128
 40
0.793072692
 40
0.8116331864
 40
0.829716521
 40
0.847277521
 40
0.8642646282
 40
0.8806213273
 40
0.8962837891
 40
0.9111826591
 40
0.9252411721
 40
0.9383762549
 40
0.9504990322
 40
0.9615159184
 40
0.9665794846
 40
0.9713300109
 40
0.9757554266
 40
0.9798440562
 40
0.9835843138
 40
0.9869651557
 40
0.989975817
 40
0.9926062963
 40
0.9937763233
 40
0.9948481704
 40
0.9958208187
 40
0.9966934303
 40
0.997465329
 40
0.9981358442
 40
0.9987043053
 40
0.9991700708
 40
0.9993643155
 40
0.9995327615
 40
0.999675379
 40
0.9997921384
 40
0.9998830099
 40
0.9999187284
 40
0.9999479638
 40
0.9999707124
 40
0.9999869704
 40
0.9999967342
 40
1.0
 40
1.0
 40
1.0
 40
1.0
 10
4.6491453887
 20
2.9634019077
 30
0.0
 10
4.6491451704
 20
2.9634014553
 30
0.0
 10
4.6491434385
 20
2.9634002806
 30
0.0
 10
4.6491405837
 20
2.9633969272
 30
0.0
 10
4.649135146
 20
2.9633918471
 30
0.0
 10
4.649127864
 20
2.9633845248
 30
0.0
 10
4.6491183779
 20
2.9633752177
 30
0.0
 10
4.6491015974
 20
2.9633586553
 30
0.0
 10
4.6490753595
 20
2.963332847
 30
0.0
 10
4.6490376067
 20
2.9632957383
 30
0.0
 10
4.6489914825
 20
2.9632504771
 30
0.0
 10
4.6489370013
 20
2.9631970866
 30
0.0
 10
4.6488476958
 20
2.9631096909
 30
0.0
 10
4.6487152288
 20
2.962980344
 30
0.0
 10
4.6485313029
 20
2.962801179
 30
0.0
 10
4.6483143031
 20
2.9625901413
 30
0.0
 10
4.6480644192
 20
2.9623474352
 30
0.0
 10
4.6477818493
 20
2.9620732608
 30
0.0
 10
4.6474668046
 20
2.9617678381
 30
0.0
 10
4.647119541
 20
2.9614314011
 30
0.0
 10
4.6465929838
 20
2.9609214946
 30
0.0
 10
4.645856499
 20
2.9602086548
 30
0.0
 10
4.6448806402
 20
2.9592642781
 30
0.0
 10
4.6437838011
 20
2.9582043064
 30
0.0
 10
4.6425688407
 20
2.9570330816
 30
0.0
 10
4.6412389218
 20
2.9557548094
 30
0.0
 10
4.6397975345
 20
2.954373301
 30
0.0
 10
4.6382481618
 20
2.952892456
 30
0.0
 10
4.635978192
 20
2.950729429
 30
0.0
 10
4.6328974774
 20
2.9478083319
 30
0.0
 10
4.6289203952
 20
2.9440668447
 30
0.0
 10
4.6245904481
 20
2.9400325222
 30
0.0
 10
4.6199323302
 20
2.9357377313
 30
0.0
 10
4.614967469
 20
2.9312144947
 30
0.0
 10
4.6097143285
 20
2.9264940995
 30
0.0
 10
4.6041894269
 20
2.9216060189
 30
0.0
 10
4.5984065339
 20
2.9165785729
 30
0.0
 10
4.5923754883
 20
2.9114410285
 30
0.0
 10
4.5861039452
 20
2.9062215138
 30
0.0
 10
4.5795977315
 20
2.9009472322
 30
0.0
 10
4.5728588131
 20
2.8956474437
 30
0.0
 10
4.5658862736
 20
2.8903534131
 30
0.0
 10
4.558675991
 20
2.8850994192
 30
0.0
 10
4.5512224652
 20
2.8799215682
 30
0.0
 10
4.5435153468
 20
2.8748639869
 30
0.0
 10
4.5355436395
 20
2.8699754501
 30
0.0
 10
4.5272925845
 20
2.8653173808
 30
0.0
 10
4.5201927045
 20
2.8616954834
 30
0.0
 10
4.5143611121
 20
2.8589865983
 30
0.0
 10
4.5083971022
 20
2.8564073561
 30
0.0
 10
4.5022920494
 20
2.8540788851
 30
0.0
 10
4.4960531712
 20
2.8520523978
 30
0.0
 10
4.4912921733
 20
2.850692401
 30
0.0
 10
4.4864655486
 20
2.8495091736
 30
0.0
 10
4.4815801778
 20
2.8485159672
 30
0.0
 10
4.4766440763
 20
2.8477271585
 30
0.0
 10
4.4700062289
 20
2.8469695558
 30
0.0
 10
4.4633158967
 20
2.846664978
 30
0.0
 10
4.4566273501
 20
2.8468173917
 30
0.0
 10
4.4516230545
 20
2.8471591644
 30
0.0
 10
4.4466465127
 20
2.8477272602
 30
0.0
 10
4.4417106172
 20
2.8485166042
 30
0.0
 10
4.4368252904
 20
2.8495104167
 30
0.0
 10
4.4304028482
 20
2.8510857507
 30
0.0
 10
4.4225406028
 20
2.8534917936
 30
0.0
 10
4.4133861304
 20
2.8569801141
 30
0.0
 10
4.4045404571
 20
2.8609568497
 30
0.0
 10
4.3974014412
 20
2.8646031031
 30
0.0
 10
4.391834404
 20
2.8676696002
 30
0.0
 10
4.3863961014
 20
2.8708030457
 30
0.0
 10
4.379773645
 20
2.8748611322
 30
0.0
 10
4.3733276378
 20
2.8790936274
 30
0.0
 10
4.3682963531
 20
2.8825425398
 30
0.0
 10
4.3633872609
 20
2.8859946666
 30
0.0
 10
4.3574046287
 20
2.8903536095
 30
0.0
 10
4.3504316717
 20
2.8956469942
 30
0.0
 10
4.3436929826
 20
2.9009471438
 30
0.0
 10
4.3371869436
 20
2.9062217796
 30
0.0
 10
4.3309156882
 20
2.9114417213
 30
0.0
 10
4.3248844537
 20
2.9165789449
 30
0.0
 10
4.3191011599
 20
2.9216057864
 30
0.0
 10
4.3135762462
 20
2.9264937887
 30
0.0
 10
4.3083232713
 20
2.9312144283
 30
0.0
 10
4.3033583248
 20
2.9357377695
 30
0.0
 10
4.2987003736
 20
2.9400329971
 30
0.0
 10
4.2943708181
 20
2.9440677954
 30
0.0
 10
4.2903932239
 20
2.9478086164
 30
0.0
 10
4.2873124012
 20
2.9507294679
 30
0.0
 10
4.2850426117
 20
2.9528928177
 30
0.0
 10
4.2834933037
 20
2.9543739946
 30
0.0
 10
4.2820519754
 20
2.9557557476
 30
0.0
 10
4.2807221086
 20
2.9570340182
 30
0.0
 10
4.2795070588
 20
2.9582048414
 30
0.0
 10
4.2784100338
 20
2.9592642982
 30
0.0
 10
4.2774340369
 20
2.9602086037
 30
0.0
 10
4.276697706
 20
2.960922026
 30
0.0
 10
4.2761712361
 20
2.9614326421
 30
0.0
 10
4.2758240031
 20
2.961769627
 30
0.0
 10
4.2755089837
 20
2.9620755226
 30
0.0
 10
4.2752264286
 20
2.9623500398
 30
0.0
 10
4.2749765552
 20
2.9625929303
 30
0.0
 10
4.2747595619
 20
2.9628039626
 30
0.0
 10
4.274575644
 20
2.9629829092
 30
0.0
 10
4.2744431338
 20
2.9631118872
 30
0.0
 10
4.2743537838
 20
2.96319888
 30
0.0
 10
4.2742992915
 20
2.9632519461
 30
0.0
 10
4.2742531575
 20
2.9632968778
 30
0.0
 10
4.2742153982
 20
2.9633336704
 30
0.0
 10
4.274189153
 20
2.963359227
 30
0.0
 10
4.274172371
 20
2.9633756092
 30
0.0
 10
4.274162885
 20
2.963384801
 30
0.0
 10
4.2741556141
 20
2.9633920314
 30
0.0
 10
4.2741501678
 20
2.9633970221
 30
0.0
 10
4.2741473469
 20
2.9634003374
 30
0.0
 10
4.2741455967
 20
2.9634014622
 30
0.0
 10
4.2741453887
 20
2.9634019077
 30
0.0
  0
SPLINE
  5
483
100
AcDbEntity
  8
0
100
AcDbSpline
 62
7
  6
CONTINUOUS
 70
0
 71
3
 72
114
 73
110
 74
0
 42
0.0000001
 43
0.0000001
 44
0.0000000001
 40
0.0
 40
0.0
 40
0.0
 40
0.0
 40
0.0000034543
 40
0.0000136407
 40
0.0000305509
 40
0.0000541769
 40
0.0001215434
 40
0.0002156752
 40
0.0003365071
 40
0.0004839739
 40
0.0006580108
 40
0.0008585525
 40
0.0013388862
 40
0.0019243812
 40
0.0026143857
 40
0.0034082463
 40
0.0043053093
 40
0.0053048676
 40
0.0076078993
 40
0.0103100129
 40
0.0134022729
 40
0.0168724197
 40
0.0207078149
 40
0.0248961153
 40
0.0294250979
 40
0.0394548938
 40
0.0506944856
 40
0.0630386193
 40
0.0763862991
 40
0.0906443127
 40
0.1057290298
 40
0.1215615236
 40
0.1380673563
 40
0.1551819486
 40
0.1728472608
 40
0.1910127538
 40
0.2096316809
 40
0.2286611064
 40
0.2480637398
 40
0.2678080958
 40
0.2878638537
 40
0.3082028079
 40
0.3288000221
 40
0.3496337636
 40
0.3601320318
 40
0.3706806586
 40
0.391915478
 40
0.4133175529
 40
0.4348580658
 40
0.4565070872
 40
0.4673635761
 40
0.4782342313
 40
0.4891148911
 40
0.5000008192
 40
0.5217647421
 40
0.5326354677
 40
0.543492026
 40
0.5651406929
 40
0.5759273242
 40
0.586683051
 40
0.6080858517
 40
0.6293220022
 40
0.6503664756
 40
0.671198775
 40
0.6917982162
 40
0.7121378789
 40
0.7321909604
 40
0.7421032319
 40
0.7519349623
 40
0.7713396938
 40
0.7903690886
 40
0.8089858646
 40
0.8271512677
 40
0.8448179398
 40
0.8619325276
 40
0.8784373682
 40
0.8942691932
 40
0.9093545141
 40
0.9236141628
 40
0.936962904
 40
0.9493060901
 40
0.9605446139
 40
0.9657177755
 40
0.9705758361
 40
0.9751054339
 40
0.9792938431
 40
0.983128679
 40
0.986597811
 40
0.9896895986
 40
0.992392755
 40
0.9935956004
 40
0.9946978326
 40
0.9956983582
 40
0.9965961586
 40
0.9973904685
 40
0.9980805761
 40
0.99866577
 40
0.9991453473
 40
0.9993453646
 40
0.9995188216
 40
0.9996656862
 40
0.9997859263
 40
0.9998795098
 40
0.9999162953
 40
0.9999464047
 40
0.9999698338
 40
0.9999865788
 40
0.9999966355
 40
1.0
 40
1.0
 40
1.0
 40
1.0
 10
4.6828953887
 20
2.9296519077
 30
0.0
 10
4.682894875
 20
2.9296516612
 30
0.0
 10
4.6828931523
 20
2.929650167
 30
0.0
 10
4.6828889375
 20
2.9296474318
 30
0.0
 10
4.6828821825
 20
2.9296424761
 30
0.0
 10
4.6828676516
 20
2.929632211
 30
0.0
 10
4.6828428226
 20
2.9296144297
 30
0.0
 10
4.6828049176
 20
2.9295873831
 30
0.0
 10
4.6827563002
 20
2.9295525977
 30
0.0
 10
4.6826969793
 20
2.9295101246
 30
0.0
 10
4.6826269984
 20
2.9294599552
 30
0.0
 10
4.6825124382
 20
2.9293777388
 30
0.0
 10
4.6823428495
 20
2.9292558024
 30
0.0
 10
4.6821078335
 20
2.9290865697
 30
0.0
 10
4.6818309165
 20
2.9288870293
 30
0.0
 10
4.6815123345
 20
2.9286574061
 30
0.0
 10
4.6811523277
 20
2.9283979355
 30
0.0
 10
4.6805903317
 20
2.9279929902
 30
0.0
 10
4.6797864815
 20
2.9274144162
 30
0.0
 10
4.6787015347
 20
2.9266355195
 30
0.0
 10
4.6774589892
 20
2.9257460596
 30
0.0
 10
4.6760634346
 20
2.924749216
 30
0.0
 10
4.6745198646
 20
2.9236485681
 30
0.0
 10
4.6728328422
 20
2.9224482885
 30
0.0
 10
4.6703110503
 20
2.9206588999
 30
0.0
 10
4.6668351274
 20
2.9182043932
 30
0.0
 10
4.6622943163
 20
2.9150232806
 30
0.0
 10
4.6572912458
 20
2.9115483076
 30
0.0
 10
4.6518623662
 20
2.9078137719
 30
0.0
 10
4.646040498
 20
2.903853084
 30
0.0
 10
4.6398535349
 20
2.899700652
 30
0.0
 10
4.6333280174
 20
2.8953876848
 30
0.0
 10
4.6264886825
 20
2.8909427173
 30
0.0
 10
4.6193558014
 20
2.8863952063
 30
0.0
 10
4.6119460083
 20
2.8817735401
 30
0.0
 10
4.6042718469
 20
2.877107873
 30
0.0
 10
4.5963442933
 20
2.8724272482
 30
0.0
 10
4.5881735086
 20
2.8677589619
 30
0.0
 10
4.5797648064
 20
2.8631352227
 30
0.0
 10
4.5711203252
 20
2.8585921904
 30
0.0
 10
4.5622420427
 20
2.8541665964
 30
0.0
 10
4.5531326739
 20
2.8498951081
 30
0.0
 10
4.5437901724
 20
2.8458270303
 30
0.0
 10
4.5358305861
 20
2.8426586638
 30
0.0
 10
4.5293462655
 20
2.8402761984
 30
0.0
 10
4.5227557602
 20
2.8379945734
 30
0.0
 10
4.5143797514
 20
2.8353773995
 30
0.0
 10
4.5041366527
 20
2.8326909253
 30
0.0
 10
4.4937042935
 20
2.8305073481
 30
0.0
 10
4.4848872
 20
2.8291586465
 30
0.0
 10
4.4777731199
 20
2.8283908238
 30
0.0
 10
4.4724097192
 20
2.8279785499
 30
0.0
 10
4.467031162
 20
2.8277342882
 30
0.0
 10
4.459851274
 20
2.8276269516
 30
0.0
 10
4.4526708394
 20
2.8278412398
 30
0.0
 10
4.4455175785
 20
2.8283914957
 30
0.0
 10
4.4384034933
 20
2.829158977
 30
0.0
 10
4.4313406564
 20
2.8302404784
 30
0.0
 10
4.4243482955
 20
2.8316064032
 30
0.0
 10
4.4174331344
 20
2.8331441745
 30
0.0
 10
4.408910016
 20
2.835376698
 30
0.0
 10
4.3988796752
 20
2.838506122
 30
0.0
 10
4.3890755676
 20
2.8420130283
 30
0.0
 10
4.3795021017
 20
2.845830955
 30
0.0
 10
4.3701571259
 20
2.8498939056
 30
0.0
 10
4.3610458835
 20
2.8541616272
 30
0.0
 10
4.3536216334
 20
2.8578682188
 30
0.0
 10
4.3477962234
 20
2.8608936882
 30
0.0
 10
4.3420946406
 20
2.8639249221
 30
0.0
 10
4.335116632
 20
2.8677578713
 30
0.0
 10
4.3269453363
 20
2.8724252732
 30
0.0
 10
4.3190200972
 20
2.8771090924
 30
0.0
 10
4.3113462684
 20
2.8817749871
 30
0.0
 10
4.303935088
 20
2.8863948261
 30
0.0
 10
4.2968021808
 20
2.8909424221
 30
0.0
 10
4.2899637077
 20
2.8953882109
 30
0.0
 10
4.2834385812
 20
2.8997014493
 30
0.0
 10
4.2772511713
 20
2.9038536766
 30
0.0
 10
4.2714281908
 20
2.9078136957
 30
0.0
 10
4.2659986601
 20
2.9115477973
 30
0.0
 10
4.2609960592
 20
2.9150231733
 30
0.0
 10
4.2571120686
 20
2.9177451452
 30
0.0
 10
4.2542443389
 20
2.9197659906
 30
0.0
 10
4.2522833805
 20
2.9211525768
 30
0.0
 10
4.2504570072
 20
2.9224481619
 30
0.0
 10
4.2487699386
 20
2.9236484234
 30
0.0
 10
4.2472266867
 20
2.9247491014
 30
0.0
 10
4.2458316729
 20
2.9257461213
 30
0.0
 10
4.2445893617
 20
2.9266357823
 30
0.0
 10
4.2436515568
 20
2.9273086376
 30
0.0
 10
4.242980675
 20
2.9277906014
 30
0.0
 10
4.2425379822
 20
2.9281088693
 30
0.0
 10
4.2421362295
 20
2.9283978893
 30
0.0
 10
4.2417757679
 20
2.9286573365
 30
0.0
 10
4.2414569127
 20
2.9288869443
 30
0.0
 10
4.2411799376
 20
2.9290864751
 30
0.0
 10
4.2409451092
 20
2.9292556989
 30
0.0
 10
4.2407758714
 20
2.929377676
 30
0.0
 10
4.2406617278
 20
2.9294599461
 30
0.0
 10
4.2405921034
 20
2.9295101288
 30
0.0
 10
4.2405331549
 20
2.9295526199
 30
0.0
 10
4.2404848908
 20
2.9295874018
 30
0.0
 10
4.2404513632
 20
2.9296115814
 30
0.0
 10
4.2404298821
 20
2.9296270428
 30
0.0
 10
4.2404178126
 20
2.9296357855
 30
0.0
 10
4.2404083648
 20
2.9296424803
 30
0.0
 10
4.2404017403
 20
2.9296475114
 30
0.0
 10
4.2403975322
 20
2.92965009
 30
0.0
 10
4.2403959128
 20
2.9296517252
 30
0.0
 10
4.2403953887
 20
2.9296519077
 30
0.0
  0
SPLINE
  5
484
100
AcDbEntity
  8
0
100
AcDbSpline
 62
7
  6
CONTINUOUS
 70
0
 71
3
 72
18
 73
14
 74
0
 42
0.0000001
 43
0.0000001
 44
0.0000000001
 40
0.0
 40
0.0
 40
0.0
 40
0.0
 40
0.0666523301
 40
0.1331428772
 40
0.1993209945
 40
0.2650517024
 40
0.3302242211
 40
0.3947529186
 40
0.5216176647
 40
0.6454757441
 40
0.766362494
 40
0.8844569026
 40
1.0
 40
1.0
 40
1.0
 40
1.0
 10
8.2116453887
 20
3.2463394077
 30
0.0
 10
8.2085490105
 20
3.2463394516
 30
0.0
 10
8.2023621627
 20
3.2465287134
 30
0.0
 10
8.1931355319
 20
3.2473701663
 30
0.0
 10
8.1840183034
 20
3.2487586994
 30
0.0
 10
8.1750593825
 20
3.2506708567
 30
0.0
 10
8.1663001611
 20
3.2530784611
 30
0.0
 10
8.1549989109
 20
3.2568819288
 30
0.0
 10
8.1415192373
 20
3.2626846636
 30
0.0
 10
8.1264214136
 20
3.2711119987
 30
0.0
 10
8.1125313286
 20
3.2807036016
 30
0.0
 10
8.0998419087
 20
3.2912322655
 30
0.0
 10
8.0920740342
 20
3.2988316505
 30
0.0
 10
8.0883842099
 20
3.30272994
 30
0.0
  0
SPLINE
  5
485
100
AcDbEntity
  8
0
100
AcDbSpline
 62
7
  6
CONTINUOUS
 70
0
 71
3
 72
19
 73
15
 74
0
 42
0.0000001
 43
0.0000001
 44
0.0000000001
 40
0.0
 40
0.0
 40
0.0
 40
0.0
 40
0.1155586151
 40
0.2336657846
 40
0.3545611232
 40
0.4784212921
 40
0.5415035563
 40
0.6053238252
 40
0.669845386
 40
0.7350079567
 40
0.8007263996
 40
0.8668900248
 40
0.9333645479
 40
1.0
 40
1.0
 40
1.0
 40
1.0
 10
8.3346908899
 20
3.3025024498
 30
0.0
 10
8.3310028945
 20
3.298617733
 30
0.0
 10
8.3232402942
 20
3.2910454479
 30
0.0
 10
8.310562966
 20
3.2805561534
 30
0.0
 10
8.2966917586
 20
3.2710025636
 30
0.0
 10
8.2842018482
 20
3.2640496008
 30
0.0
 10
8.2736404161
 20
3.2591844519
 30
0.0
 10
8.2653915465
 20
3.2559030281
 30
0.0
 10
8.2568843474
 20
3.2530459749
 30
0.0
 10
8.2481441818
 20
3.2506504624
 30
0.0
 10
8.2392057842
 20
3.2487469635
 30
0.0
 10
8.2301101051
 20
3.2473652805
 30
0.0
 10
8.22090584
 20
3.2465279089
 30
0.0
 10
8.2147341615
 20
3.2463394803
 30
0.0
 10
8.2116453887
 20
3.2463394077
 30
0.0
  0
ENDSEC
  0
SECTION
  2
OBJECTS
  0
DICTIONARY
  5
C
100
AcDbDictionary
280
0
281
1
  3
ACAD_GROUP
350
D
  3
ACAD_MLINESTYLE
350
17
  3
ACAD_LAYOUT
350
1A
  3
ACAD_PLOTSETTINGS
350
19
  3
ACAD_PLOTSTYLENAME
350
E
  0
DICTIONARY
  5
D
102
{ACAD_REACTORS
330
C
102
}
100
AcDbDictionary
280
0
281
1
  0
ACDBDICTIONARYWDFLT
  5
E
102
{ACAD_REACTORS
330
C
102
}
100
AcDbDictionary
281
1
  3
Normal
350
F
100
AcDbDictionaryWithDefault
340
F
  0
DICTIONARY
  5
17
102
{ACAD_REACTORS
330
C
102
}
100
AcDbDictionary
280
0
281
1
  3
Standard
350
18
  0
DICTIONARY
  5
19
102
{ACAD_REACTORS
330
C
102
}
100
AcDbDictionary
281
1
  0
DICTIONARY
  5
1A
102
{ACAD_REACTORS
330
C
102
}
100
AcDbDictionary
281
1
  3
Model
350
486
  3
Layout1
350
487
  0
ACDBPLACEHOLDER
  5
F
102
{ACAD_REACTORS
330
E
102
}
  0
MLINESTYLE
  5
18
102
{ACAD_REACTORS
330
17
102
}
100
AcDbMlineStyle
  2
STANDARD
 70
0
  3

 62
256
 51
90.0
 52
90.0
 71
2
 49
0.5
 62
256
  6
BYLAYER
 49
-0.5
 62
256
  6
BYLAYER
  0
LAYOUT
  5
486
102
{ACAD_REACTORS
330
1A
102
}
100
AcDbPlotSettings
  1

  2
none_device
  4
ANSI_A_(11.00_x_8.50_Inches)
  6

 40
0.0
 41
0.0
 42
0.0
 43
0.0
 44
279.4
 45
215.9
 46
0.0
 47
0.0
 48
0.0
 49
0.0
140
0.0
141
0.0
142
1.0
143
1.0
 70
1024
 72
0
 73
0
 74
0
  7

 75
0
147
1.0
148
0.0
149
0.0
100
AcDbLayout
  1
Model
 70
0
 71
0
 10
0.0
 20
0.0
 11
11.0
 21
8.5
 12
0.0
 22
0.0
 32
0.0
 14
0.0
 24
0.0
 34
0.0
 15
0.0
 25
0.0
 35
0.0
146
0.0
 13
0.0
 23
0.0
 33
0.0
 16
1.0
 26
0.0
 36
0.0
 17
0.0
 27
1.0
 37
0.0
 76
0
330
202
345
0
346
0
  0
LAYOUT
  5
487
102
{ACAD_REACTORS
330
1A
102
}
100
AcDbPlotSettings
  1

  2
none_device
  4
ANSI_A_(11.00_x_8.50_Inches)
  6

 40
0.0
 41
0.0
 42
0.0
 43
0.0
 44
279.4
 45
215.9
 46
0.0
 47
0.0
 48
0.0
 49
0.0
140
0.0
141
0.0
142
1.0
143
1.0
 70
0
 72
0
 73
0
 74
0
  7

 75
0
147
1.0
148
0.0
149
0.0
100
AcDbLayout
  1
Layout1
 70
0
 71
1
 10
0.0
 20
0.0
 11
11.0
 21
8.5
 12
0.0
 22
0.0
 32
0.0
 14
0.0
 24
0.0
 34
0.0
 15
0.0
 25
0.0
 35
0.0
146
0.0
 13
0.0
 23
0.0
 33
0.0
 16
1.0
 26
0.0
 36
0.0
 17
0.0
 27
1.0
 37
0.0
 76
0
330
203
345
0
346
0
  0
ENDSEC
  0
EOF
