999
DXF file: 1500-5463_FRONT.dxf
999
Pro/ENGINEER 2019352 by Parametric Technology Corporation
  0
SECTION
  2
HEADER
  9
$ACADVER
  1
AC1032
  9
$DWGCODEPAGE
  3
ANSI_1252
  9
$EXTMAX
 10
11.0
 20
8.5
 30
0.0
  9
$EXTMIN
 10
0.0
 20
0.0
 30
0.0
  9
$LIMMIN
 10
0.0
 20
0.0
  9
$LIMMAX
 10
11.0
 20
8.5
  9
$VIEWCTR
 10
5.5
 20
4.25
  9
$VIEWSIZE
 40
8.5
  9
$CLAYER
  8
0
  9
$LTSCALE
 40
0.605
  9
$CELTYPE
  6
BYLAYER
  9
$DIMSCALE
 40
1.0
  9
$DIMASZ
 40
0.1
  9
$DIMEXO
 40
0.0625
  9
$DIMDLI
 40
0.418
  9
$DIMEXE
 40
0.125
  9
$DIMCEN
 40
0.099
  9
$DIMLFAC
 40
1.0
  9
$DIMBLK
  1
_FILLED
  9
$DIMALT
 70
1
  9
$DIMALTD
 70
2
  9
$DIMALTTD
 70
2
  9
$DIMALTF
 40
25.4
  9
$DIMTXT
 40
0.08
  9
$DIMTOL
 70
1
  9
$DIMLIM
 70
0
  9
$DIMTFAC
 40
1.0
  9
$DIMTP
 40
0.001
  9
$DIMTM
 40
0.001
  9
$DIMGAP
 40
0.09
  9
$DIMDSEP
 70
46
  9
$AUNITS
 70
0
  9
$PDMODE
 70
3
  9
$PDSIZE
 40
0.3125
  9
$HANDSEED
  5
3CB
  9
$TILEMODE
 70
1
  9
$MEASUREMENT
 70
0
  9
$INSUNITS
 70
1
  0
ENDSEC
  0
SECTION
  2
CLASSES
  0
CLASS
  1
ACDBDICTIONARYWDFLT
  2
AcDbDictionaryWithDefault
  3
AutoCAD 2000
 90
0
 91
1
280
0
281
0
  0
CLASS
  1
ACDBPLACEHOLDER
  2
AcDbPlaceHolder
  3
AutoCAD 2000
 90
0
 91
1
280
0
281
0
  0
CLASS
  1
LAYOUT
  2
AcDbLayout
  3
AutoCAD 2000
 90
0
 91
0
280
0
281
0
  0
ENDSEC
  0
SECTION
  2
TABLES
  0
TABLE
  2
VPORT
  5
8
100
AcDbSymbolTable
 70
2
  0
VPORT
  5
1F4
100
AcDbSymbolTableRecord
100
AcDbViewportTableRecord
  2
*ACTIVE
 70
0
 10
0.0
 20
0.0
 11
1.0
 21
1.0
 12
5.5
 22
4.25
 13
0.0
 23
0.0
 14
1.0
 24
1.0
 15
0.0
 25
0.0
 16
0.0
 26
0.0
 36
1.0
 17
0.0
 27
0.0
 37
0.0
 40
8.5
 41
1.2941176471
 42
50.0
 43
0.0
 44
0.0
 50
0.0
 51
0.0
 71
0
 72
100
 73
1
 74
1
 75
0
 76
0
 77
0
 78
0
  0
ENDTAB
  0
TABLE
  2
LTYPE
  5
5
100
AcDbSymbolTable
 70
6
  0
LTYPE
  5
14
100
AcDbSymbolTableRecord
100
AcDbLinetypeTableRecord
  2
BYBLOCK
 70
0
  3

 72
65
 73
0
 40
0.0
  0
LTYPE
  5
15
100
AcDbSymbolTableRecord
100
AcDbLinetypeTableRecord
  2
BYLAYER
 70
0
  3

 72
65
 73
0
 40
0.0
  0
LTYPE
  5
16
100
AcDbSymbolTableRecord
100
AcDbLinetypeTableRecord
  2
CONTINUOUS
 70
64
  3
Solid line
 72
65
 73
0
 40
0.0
  0
LTYPE
  5
1F5
100
AcDbSymbolTableRecord
100
AcDbLinetypeTableRecord
  2
CENTER
 70
64
  3
____ _ ____ _ ____ _ ____ _ ____ _ ____ _ ____
 72
65
 73
4
 40
0.6
 49
0.375
 74
0
 49
-0.075
 74
0
 49
0.075
 74
0
 49
-0.075
 74
0
  0
LTYPE
  5
1F6
100
AcDbSymbolTableRecord
100
AcDbLinetypeTableRecord
  2
HIDDEN
 70
64
  3
- - - - - - - - - - - - - - - - - - - -
 72
65
 73
2
 40
0.2
 49
0.1
 74
0
 49
-0.1
 74
0
  0
LTYPE
  5
1F7
100
AcDbSymbolTableRecord
100
AcDbLinetypeTableRecord
  2
PHANTOM
 70
64
  3
_____ _ _ _____ _ _ _____ _ _ _____
 72
65
 73
6
 40
0.8
 49
0.45
 74
0
 49
-0.05
 74
0
 49
0.1
 74
0
 49
-0.05
 74
0
 49
0.1
 74
0
 49
-0.05
 74
0
  0
LTYPE
  5
1F8
100
AcDbSymbolTableRecord
100
AcDbLinetypeTableRecord
  2
DOT
 70
64
  3
. . . . . . . . . . . . . . . . . . . .
 72
65
 73
2
 40
0.2
 49
0.1
 74
0
 49
-0.1
 74
0
  0
LTYPE
  5
1F9
100
AcDbSymbolTableRecord
100
AcDbLinetypeTableRecord
  2
DASHED
 70
64
  3
- - - - - - - - - - - - - - - - - - - -
 72
65
 73
2
 40
0.2
 49
0.1
 74
0
 49
-0.1
 74
0
  0
ENDTAB
  0
TABLE
  2
LAYER
  5
2
100
AcDbSymbolTable
 70
36
  0
LAYER
  5
10
100
AcDbSymbolTableRecord
100
AcDbLayerTableRecord
  2
0
 70
0
 62
7
  6
CONTINUOUS
370
-3
390
F
  0
LAYER
  5
1FA
100
AcDbSymbolTableRecord
100
AcDbLayerTableRecord
  2
DEFAULT_1
 70
0
 62
7
  6
CENTER
370
-3
390
F
  0
LAYER
  5
1FB
100
AcDbSymbolTableRecord
100
AcDbLayerTableRecord
  2
DEFAULT_2
 70
0
 62
8
  6
HIDDEN
370
-3
390
F
  0
LAYER
  5
1FC
100
AcDbSymbolTableRecord
100
AcDbLayerTableRecord
  2
DEFAULT_3
 70
0
 62
7
  6
PHANTOM
370
-3
390
F
  0
LAYER
  5
1FD
100
AcDbSymbolTableRecord
100
AcDbLayerTableRecord
  2
DEFAULT_COORDINATE_SYSTEM
 70
0
 62
7
  6
CONTINUOUS
370
-3
390
F
  0
LAYER
  5
1FE
100
AcDbSymbolTableRecord
100
AcDbLayerTableRecord
  2
DEFAULT_DATUM_AXES
 70
0
 62
7
  6
CONTINUOUS
370
-3
390
F
  0
LAYER
  5
1FF
100
AcDbSymbolTableRecord
100
AcDbLayerTableRecord
  2
DEFAULT_DATUM_PLANES
 70
0
 62
7
  6
CONTINUOUS
370
-3
390
F
  0
ENDTAB
  0
TABLE
  2
STYLE
  5
3
100
AcDbSymbolTable
 70
1
  0
STYLE
  5
11
100
AcDbSymbolTableRecord
100
AcDbTextStyleTableRecord
  2
STANDARD
 70
0
 40
0.0
 41
0.8
 50
0.0
 71
0
 42
0.2
  3
txt
  4

  0
STYLE
  5
200
100
AcDbSymbolTableRecord
100
AcDbTextStyleTableRecord
  2
TEXTSTYLE_1
 70
0
 40
0.0
 41
0.8
 50
0.0
 71
0
 42
0.2
  3
gdt
  4

  0
ENDTAB
  0
TABLE
  2
VIEW
  5
6
100
AcDbSymbolTable
 70
0
  0
ENDTAB
  0
TABLE
  2
UCS
  5
7
100
AcDbSymbolTable
 70
0
  0
ENDTAB
  0
TABLE
  2
APPID
  5
9
100
AcDbSymbolTable
 70
1
  0
APPID
  5
201
100
AcDbSymbolTableRecord
100
AcDbRegAppTableRecord
  2
ACAD
 70
0
  0
ENDTAB
  0
TABLE
  2
BLOCK_RECORD
  5
1
100
AcDbSymbolTable
 70
0
  0
BLOCK_RECORD
  5
202
100
AcDbSymbolTableRecord
100
AcDbBlockTableRecord
  2
*Model_Space
  0
BLOCK_RECORD
  5
203
100
AcDbSymbolTableRecord
100
AcDbBlockTableRecord
  2
*Paper_Space
  0
BLOCK_RECORD
  5
204
100
AcDbSymbolTableRecord
100
AcDbBlockTableRecord
  2
_FILLED
  0
ENDTAB
  0
TABLE
  2
DIMSTYLE
  5
A
100
AcDbSymbolTable
 70
1
100
AcDbDimStyleTable
 71
0
  0
DIMSTYLE
105
205
100
AcDbSymbolTableRecord
100
AcDbDimStyleTableRecord
  2
STANDARD
 70
0
  3

  4

 40
1.0
 41
0.1
 42
0.0625
 43
0.38
 44
0.125
 45
0.0
 46
0.0
 47
0.001
 48
0.001
140
0.08
141
0.09
142
0.0
143
25.4
144
1.0
145
0.0
146
1.0
147
0.09
 71
1.0
 72
0.0
 73
1
 74
1
 75
0
 76
0
 77
0
 78
4
 79
1
170
1
171
2
172
0
173
0
174
0
175
0
176
0
177
0
178
0
270
2
179
3
271
3
272
3
273
2
274
2
275
0
280
0
281
0
282
0
283
1
284
4
285
0
286
0
287
3
288
0
340
11
278
46
341
204
342
204
343
204
344
204
  0
ENDTAB
  0
ENDSEC
  0
SECTION
  2
BLOCKS
  0
BLOCK
  5
20
100
AcDbEntity
  8
0
100
AcDbBlockBegin
  2
*Model_Space
 70
0
 10
0.0
 20
0.0
 30
0.0
  3
*Model_Space
  1

  0
ENDBLK
  5
21
100
AcDbEntity
  8
0
100
AcDbBlockEnd
  0
BLOCK
  5
1C
100
AcDbEntity
  8
0
100
AcDbBlockBegin
  2
*Paper_Space
 70
0
 10
0.0
 20
0.0
 30
0.0
  3
*Paper_Space
  1

  0
ENDBLK
  5
1D
100
AcDbEntity
  8
0
100
AcDbBlockEnd
  0
BLOCK
  5
206
100
AcDbEntity
  8
0
100
AcDbBlockBegin
  2
_FILLED
 70
64
 10
0.0
 20
0.0
  3
_FILLED
  1

  0
SOLID
  5
207
100
AcDbEntity
  8
0
  6
BYBLOCK
 62
0
100
AcDbTrace
 10
0.0
 20
0.0
 11
-1.0
 21
0.2
 12
-1.0
 22
-0.2
 13
-1.0
 23
-0.2
  0
ENDBLK
  5
208
100
AcDbEntity
  8
0
  6
BYBLOCK
 62
0
100
AcDbBlockEnd
  0
ENDSEC
  0
SECTION
  2
ENTITIES
  0
MTEXT
  5
209
100
AcDbEntity
  8
0
100
AcDbMText
 62
2
  6
CONTINUOUS
  7
STANDARD
 71
3
 72
1
 10
4.9584967064
 20
1.1182542879
 30
0.0
 11
1.0
 21
0.0
 31
0.0
 73
2
 44
0.9
  1
SCALE 0.250
 40
0.08
 41
0.704
  0
LINE
  5
20A
100
AcDbEntity
  8
0
100
AcDbLine
 62
7
  6
CONTINUOUS
 10
0.0
 20
0.0
 11
0.0
 21
8.5
  0
LINE
  5
20B
100
AcDbEntity
  8
0
100
AcDbLine
 62
7
  6
CONTINUOUS
 10
0.0
 20
0.0
 11
11.0
 21
0.0
  0
LINE
  5
20C
100
AcDbEntity
  8
0
100
AcDbLine
 62
7
  6
CONTINUOUS
 10
0.0
 20
8.5
 11
11.0
 21
8.5
  0
LINE
  5
20D
100
AcDbEntity
  8
0
100
AcDbLine
 62
7
  6
CONTINUOUS
 10
11.0
 20
0.0
 11
11.0
 21
8.5
  0
LINE
  5
20E
100
AcDbEntity
  8
0
100
AcDbLine
 62
7
  6
CONTINUOUS
 10
3.2801231533
 20
2.2147442502
 11
3.7751230825
 21
2.2147442502
  0
LINE
  5
20F
100
AcDbEntity
  8
0
100
AcDbLine
 62
7
  6
CONTINUOUS
 10
4.2801231533
 20
2.2147442502
 11
4.7751230825
 21
2.2147442502
  0
LINE
  5
210
100
AcDbEntity
  8
0
100
AcDbLine
 62
7
  6
CONTINUOUS
 10
5.2801231533
 20
2.2147442502
 11
5.7751230825
 21
2.2147442502
  0
LINE
  5
211
100
AcDbEntity
  8
0
100
AcDbLine
 62
7
  6
CONTINUOUS
 10
3.2801231179
 20
2.3134942502
 11
3.7751231179
 21
2.3134942502
  0
LINE
  5
212
100
AcDbEntity
  8
0
100
AcDbLine
 62
7
  6
CONTINUOUS
 10
4.2801231179
 20
2.3134942502
 11
4.7751231179
 21
2.3134942502
  0
LINE
  5
213
100
AcDbEntity
  8
0
100
AcDbLine
 62
7
  6
CONTINUOUS
 10
5.2801231179
 20
2.3134942502
 11
5.7751231179
 21
2.3134942502
  0
LINE
  5
214
100
AcDbEntity
  8
0
100
AcDbLine
 62
7
  6
CONTINUOUS
 10
5.7676231179
 20
2.3209942502
 11
5.2876231179
 21
2.3209942502
  0
LINE
  5
215
100
AcDbEntity
  8
0
100
AcDbLine
 62
7
  6
CONTINUOUS
 10
4.7676231179
 20
2.3209942502
 11
4.2876231179
 21
2.3209942502
  0
LINE
  5
216
100
AcDbEntity
  8
0
100
AcDbLine
 62
7
  6
CONTINUOUS
 10
3.7676231179
 20
2.3209942502
 11
3.2876231179
 21
2.3209942502
  0
LINE
  5
217
100
AcDbEntity
  8
0
100
AcDbLine
 62
7
  6
CONTINUOUS
 10
2.7803731179
 20
3.7743692502
 11
2.7803731179
 21
3.9206192502
  0
LINE
  5
218
100
AcDbEntity
  8
0
100
AcDbLine
 62
7
  6
CONTINUOUS
 10
2.7853731179
 20
3.7693692502
 11
2.7853731179
 21
3.9256192502
  0
LINE
  5
219
100
AcDbEntity
  8
0
100
AcDbLine
 62
7
  6
CONTINUOUS
 10
3.7038731179
 20
2.8209942502
 11
4.3513731179
 21
2.8209942502
  0
LINE
  5
21A
100
AcDbEntity
  8
0
100
AcDbLine
 62
7
  6
CONTINUOUS
 10
4.7038731179
 20
2.8209942502
 11
5.3513731179
 21
2.8209942502
  0
LINE
  5
21B
100
AcDbEntity
  8
0
100
AcDbLine
 62
7
  6
CONTINUOUS
 10
2.7803731179
 20
3.7743692502
 11
2.7853731179
 21
3.7693692502
  0
LINE
  5
21C
100
AcDbEntity
  8
0
100
AcDbLine
 62
7
  6
CONTINUOUS
 10
3.3713731179
 20
3.2034942502
 11
3.3788731179
 21
3.1959942502
  0
LINE
  5
21D
100
AcDbEntity
  8
0
100
AcDbLine
 62
7
  6
CONTINUOUS
 10
3.2801231179
 20
2.3134942502
 11
3.2801231179
 21
2.2147442502
  0
LINE
  5
21E
100
AcDbEntity
  8
0
100
AcDbLine
 62
7
  6
CONTINUOUS
 10
3.6763731179
 20
3.1959942502
 11
3.6838731178
 21
3.1884942504
  0
LINE
  5
21F
100
AcDbEntity
  8
0
100
AcDbLine
 62
7
  6
CONTINUOUS
 10
3.3713731179
 20
2.3209942502
 11
3.3713731179
 21
3.1884942502
  0
LINE
  5
220
100
AcDbEntity
  8
0
100
AcDbLine
 62
7
  6
CONTINUOUS
 10
3.3713731179
 20
3.2034942502
 11
3.3713731179
 21
3.5797442502
  0
LINE
  5
221
100
AcDbEntity
  8
0
100
AcDbLine
 62
7
  6
CONTINUOUS
 10
3.4494981179
 20
3.7468692502
 11
3.4494981179
 21
3.5949942502
  0
LINE
  5
222
100
AcDbEntity
  8
0
100
AcDbLine
 62
7
  6
CONTINUOUS
 10
3.7038731179
 20
3.0709942502
 11
4.3513731179
 21
3.0709942502
  0
LINE
  5
223
100
AcDbEntity
  8
0
100
AcDbLine
 62
7
  6
CONTINUOUS
 10
4.7038731179
 20
3.0709942502
 11
5.3513731179
 21
3.0709942502
  0
LINE
  5
224
100
AcDbEntity
  8
0
100
AcDbLine
 62
7
  6
CONTINUOUS
 10
3.3713731179
 20
3.1884942502
 11
3.6838731179
 21
3.1884942502
  0
LINE
  5
225
100
AcDbEntity
  8
0
100
AcDbLine
 62
7
  6
CONTINUOUS
 10
5.3713731179
 20
3.1884942502
 11
5.6838731179
 21
3.1884942502
  0
LINE
  5
226
100
AcDbEntity
  8
0
100
AcDbLine
 62
7
  6
CONTINUOUS
 10
3.3788731179
 20
3.1959942502
 11
3.6763731179
 21
3.1959942502
  0
LINE
  5
227
100
AcDbEntity
  8
0
100
AcDbLine
 62
7
  6
CONTINUOUS
 10
5.3788731179
 20
3.1959942502
 11
5.6763731179
 21
3.1959942502
  0
LINE
  5
228
100
AcDbEntity
  8
0
100
AcDbLine
 62
7
  6
CONTINUOUS
 10
3.3713731179
 20
3.2034942502
 11
3.6838731179
 21
3.2034942502
  0
LINE
  5
229
100
AcDbEntity
  8
0
100
AcDbLine
 62
7
  6
CONTINUOUS
 10
5.3713731179
 20
3.2034942502
 11
5.6838731179
 21
3.2034942502
  0
LWPOLYLINE
  5
22A
100
AcDbEntity
  8
0
100
AcDbPolyline
 62
7
  6
CONTINUOUS
 90
3
 70
0
 10
3.6057481179
 20
3.7468692502
 10
3.605738746
 20
3.7468811322
 10
3.6056630197
 20
3.7469796213
  0
LINE
  5
22B
100
AcDbEntity
  8
0
100
AcDbLine
 62
7
  6
CONTINUOUS
 10
3.6057481179
 20
3.7468692502
 11
3.5276231179
 21
3.8474942502
  0
LINE
  5
22C
100
AcDbEntity
  8
0
100
AcDbLine
 62
7
  6
CONTINUOUS
 10
3.6057481179
 20
3.7468692502
 11
3.6057481179
 21
3.5949942502
  0
LINE
  5
22D
100
AcDbEntity
  8
0
100
AcDbLine
 62
7
  6
CONTINUOUS
 10
2.7803731179
 20
3.9206192502
 11
2.7853731179
 21
3.9256192502
  0
LINE
  5
22E
100
AcDbEntity
  8
0
100
AcDbLine
 62
7
  6
CONTINUOUS
 10
3.5743315061
 20
3.8112299992
 11
3.569450278
 21
3.8150197608
  0
LINE
  5
22F
100
AcDbEntity
  8
0
100
AcDbLine
 62
7
  6
CONTINUOUS
 10
3.6002250968
 20
3.7911263115
 11
3.5969137724
 21
3.793697256
  0
LINE
  5
230
100
AcDbEntity
  8
0
100
AcDbLine
 62
7
  6
CONTINUOUS
 10
3.5812215884
 20
3.8058804823
 11
3.5766870351
 21
3.809401181
  0
LINE
  5
231
100
AcDbEntity
  8
0
100
AcDbLine
 62
7
  6
CONTINUOUS
 10
3.6282481179
 20
3.7693692502
 11
3.5276231179
 21
3.8474942502
  0
LINE
  5
232
100
AcDbEntity
  8
0
100
AcDbLine
 62
7
  6
CONTINUOUS
 10
3.6282481179
 20
3.7693692502
 11
3.6282362333
 21
3.7693786147
  0
LINE
  5
233
100
AcDbEntity
  8
0
100
AcDbLine
 62
7
  6
CONTINUOUS
 10
3.6838731179
 20
2.3209942502
 11
3.6838731179
 21
2.8009942502
  0
LINE
  5
234
100
AcDbEntity
  8
0
100
AcDbLine
 62
7
  6
CONTINUOUS
 10
3.6838731179
 20
3.0909942502
 11
3.6838731179
 21
3.1884942502
  0
LINE
  5
235
100
AcDbEntity
  8
0
100
AcDbLine
 62
7
  6
CONTINUOUS
 10
3.6838731179
 20
3.2034942502
 11
3.6838731179
 21
3.5797442502
  0
LINE
  5
236
100
AcDbEntity
  8
0
100
AcDbLine
 62
7
  6
CONTINUOUS
 10
3.7441231179
 20
3.9256192502
 11
3.7441231179
 21
3.7693692502
  0
LINE
  5
237
100
AcDbEntity
  8
0
100
AcDbLine
 62
7
  6
CONTINUOUS
 10
3.7491231179
 20
3.9206192502
 11
3.7491231179
 21
3.7743692502
  0
LINE
  5
238
100
AcDbEntity
  8
0
100
AcDbLine
 62
7
  6
CONTINUOUS
 10
3.7751231179
 20
2.3134942502
 11
3.7751231179
 21
2.2147442502
  0
LINE
  5
239
100
AcDbEntity
  8
0
100
AcDbLine
 62
7
  6
CONTINUOUS
 10
3.3713731179
 20
3.5797442502
 11
3.6838731179
 21
3.5797442502
  0
LINE
  5
23A
100
AcDbEntity
  8
0
100
AcDbLine
 62
7
  6
CONTINUOUS
 10
5.3713731179
 20
3.5797442502
 11
5.6838731179
 21
3.5797442502
  0
LINE
  5
23B
100
AcDbEntity
  8
0
100
AcDbLine
 62
7
  6
CONTINUOUS
 10
3.3788731179
 20
3.5872442502
 11
3.6763731179
 21
3.5872442502
  0
LINE
  5
23C
100
AcDbEntity
  8
0
100
AcDbLine
 62
7
  6
CONTINUOUS
 10
5.3788731179
 20
3.5872442502
 11
5.6763731179
 21
3.5872442502
  0
LINE
  5
23D
100
AcDbEntity
  8
0
100
AcDbLine
 62
7
  6
CONTINUOUS
 10
5.6057481179
 20
3.5949942502
 11
5.4494981179
 21
3.5949942502
  0
LINE
  5
23E
100
AcDbEntity
  8
0
100
AcDbLine
 62
7
  6
CONTINUOUS
 10
3.6057481179
 20
3.5949942502
 11
3.4494981179
 21
3.5949942502
  0
LINE
  5
23F
100
AcDbEntity
  8
0
100
AcDbLine
 62
7
  6
CONTINUOUS
 10
3.7491231179
 20
3.9206192502
 11
3.7441231179
 21
3.9256192502
  0
LINE
  5
240
100
AcDbEntity
  8
0
100
AcDbLine
 62
7
  6
CONTINUOUS
 10
6.2698731179
 20
3.7693692502
 11
5.6282481179
 21
3.7693692502
  0
LINE
  5
241
100
AcDbEntity
  8
0
100
AcDbLine
 62
7
  6
CONTINUOUS
 10
5.4269981179
 20
3.7693692502
 11
5.3111231179
 21
3.7693692502
  0
LINE
  5
242
100
AcDbEntity
  8
0
100
AcDbLine
 62
7
  6
CONTINUOUS
 10
2.7853731179
 20
3.7693692502
 11
3.4269981179
 21
3.7693692502
  0
LINE
  5
243
100
AcDbEntity
  8
0
100
AcDbLine
 62
7
  6
CONTINUOUS
 10
3.6282481179
 20
3.7693692502
 11
3.7441231179
 21
3.7693692502
  0
LINE
  5
244
100
AcDbEntity
  8
0
100
AcDbLine
 62
7
  6
CONTINUOUS
 10
3.4496499973
 20
3.7470658094
 11
3.4495074876
 21
3.7468811335
  0
LINE
  5
245
100
AcDbEntity
  8
0
100
AcDbLine
 62
7
  6
CONTINUOUS
 10
3.4811036543
 20
3.787577368
 11
3.4795569272
 21
3.7855849976
  0
LINE
  5
246
100
AcDbEntity
  8
0
100
AcDbLine
 62
7
  6
CONTINUOUS
 10
3.4766074926
 20
3.7817863701
 11
3.4738487163
 21
3.7782326697
  0
LWPOLYLINE
  5
247
100
AcDbEntity
  8
0
100
AcDbPolyline
 62
7
  6
CONTINUOUS
 90
3
 70
0
 10
3.4877670921
 20
3.7961599695
 10
3.4843406401
 20
3.7917463445
 10
3.4826984523
 20
3.7896314283
  0
LINE
  5
248
100
AcDbEntity
  8
0
100
AcDbLine
 62
7
  6
CONTINUOUS
 10
3.5276231179
 20
3.8474942502
 11
3.4494981179
 21
3.7468692501
  0
LINE
  5
249
100
AcDbEntity
  8
0
100
AcDbLine
 62
7
  6
CONTINUOUS
 10
3.4780583219
 20
3.7836548389
 11
3.4766074926
 21
3.7817863701
  0
LINE
  5
24A
100
AcDbEntity
  8
0
100
AcDbLine
 62
7
  6
CONTINUOUS
 10
3.4895495273
 20
3.7984553946
 11
3.4877670921
 21
3.7961599695
  0
LINE
  5
24B
100
AcDbEntity
  8
0
100
AcDbLine
 62
7
  6
CONTINUOUS
 10
3.5207836718
 20
3.8386850555
 11
3.4932500308
 21
3.8032222042
  0
LINE
  5
24C
100
AcDbEntity
  8
0
100
AcDbLine
 62
7
  6
CONTINUOUS
 10
3.4688906666
 20
3.7718471734
 11
3.4646449274
 21
3.7663780603
  0
LINE
  5
24D
100
AcDbEntity
  8
0
100
AcDbLine
 62
7
  6
CONTINUOUS
 10
3.4738487163
 20
3.7782326697
 11
3.4688906666
 21
3.7718471734
  0
LINE
  5
24E
100
AcDbEntity
  8
0
100
AcDbLine
 62
7
  6
CONTINUOUS
 10
3.4636884589
 20
3.7651459254
 11
3.4524321009
 21
3.7506480276
  0
LINE
  5
24F
100
AcDbEntity
  8
0
100
AcDbLine
 62
7
  6
CONTINUOUS
 10
3.4524321009
 20
3.7506480276
 11
3.4496499973
 21
3.7470658094
  0
LINE
  5
250
100
AcDbEntity
  8
0
100
AcDbLine
 62
7
  6
CONTINUOUS
 10
3.4495074876
 20
3.7468811335
 11
3.4494981179
 21
3.7468692502
  0
LINE
  5
251
100
AcDbEntity
  8
0
100
AcDbLine
 62
7
  6
CONTINUOUS
 10
4.5714646672
 20
4.7273372703
 11
4.5601079611
 21
4.7239658495
  0
LINE
  5
252
100
AcDbEntity
  8
0
100
AcDbLine
 62
7
  6
CONTINUOUS
 10
4.489569484
 20
4.7030253687
 11
4.4782127779
 21
4.6996539479
  0
LINE
  5
253
100
AcDbEntity
  8
0
100
AcDbLine
 62
7
  6
CONTINUOUS
 10
4.577033458
 20
4.7269080767
 11
4.5656767519
 21
4.7235366559
  0
LINE
  5
254
100
AcDbEntity
  8
0
100
AcDbLine
 62
7
  6
CONTINUOUS
 10
4.4951382748
 20
4.7025961751
 11
4.4837815687
 21
4.6992247543
  0
LINE
  5
255
100
AcDbEntity
  8
0
100
AcDbLine
 62
7
  6
CONTINUOUS
 10
4.3713731179
 20
3.8759942502
 11
4.6838731179
 21
3.8759942502
  0
LINE
  5
256
100
AcDbEntity
  8
0
100
AcDbLine
 62
7
  6
CONTINUOUS
 10
4.3788731179
 20
3.8834942502
 11
4.6763731179
 21
3.8834942502
  0
LINE
  5
257
100
AcDbEntity
  8
0
100
AcDbLine
 62
7
  6
CONTINUOUS
 10
4.3851869339
 20
3.8884942502
 11
4.670059302
 21
3.8884942502
  0
LINE
  5
258
100
AcDbEntity
  8
0
100
AcDbLine
 62
7
  6
CONTINUOUS
 10
6.2698731179
 20
3.9256192502
 11
5.3111231179
 21
3.9256192502
  0
LINE
  5
259
100
AcDbEntity
  8
0
100
AcDbLine
 62
7
  6
CONTINUOUS
 10
2.7853731179
 20
3.9256192502
 11
3.7441231179
 21
3.9256192502
  0
LINE
  5
25A
100
AcDbEntity
  8
0
100
AcDbLine
 62
7
  6
CONTINUOUS
 10
4.2801231179
 20
2.3134942502
 11
4.2801231179
 21
2.2147442502
  0
LINE
  5
25B
100
AcDbEntity
  8
0
100
AcDbLine
 62
7
  6
CONTINUOUS
 10
3.7491231179
 20
3.7743692502
 11
3.7441231179
 21
3.7693692502
  0
LINE
  5
25C
100
AcDbEntity
  8
0
100
AcDbLine
 62
7
  6
CONTINUOUS
 10
4.6365746882
 20
4.7181428525
 11
4.6291630167
 21
4.7109027446
  0
LINE
  5
25D
100
AcDbEntity
  8
0
100
AcDbLine
 62
7
  6
CONTINUOUS
 10
4.5406027975
 20
4.7286985569
 11
4.5366895433
 21
4.7249613082
  0
LINE
  5
25E
100
AcDbEntity
  8
0
100
AcDbLine
 62
7
  6
CONTINUOUS
 10
4.5123836405
 20
4.7017486064
 11
4.5084703863
 21
4.6980113577
  0
LINE
  5
25F
100
AcDbEntity
  8
0
100
AcDbLine
 62
7
  6
CONTINUOUS
 10
4.5467758496
 20
4.7285506669
 11
4.5428625954
 21
4.7248134182
  0
LINE
  5
260
100
AcDbEntity
  8
0
100
AcDbLine
 62
7
  6
CONTINUOUS
 10
4.5185566926
 20
4.7016007164
 11
4.5146434384
 21
4.6978634677
  0
LINE
  5
261
100
AcDbEntity
  8
0
100
AcDbLine
 62
7
  6
CONTINUOUS
 10
4.5266454025
 20
4.7055424584
 11
4.525054112
 21
4.704022739
  0
LINE
  5
262
100
AcDbEntity
  8
0
100
AcDbLine
 62
7
  6
CONTINUOUS
 10
4.5516491893
 20
4.7302521533
 11
4.5547393592
 21
4.7326922619
  0
LINE
  5
263
100
AcDbEntity
  8
0
100
AcDbLine
 62
7
  6
CONTINUOUS
 10
3.5276231179
 20
3.8474942502
 11
3.4269981179
 21
3.7693692502
  0
LINE
  5
264
100
AcDbEntity
  8
0
100
AcDbLine
 62
7
  6
CONTINUOUS
 10
3.4303122876
 20
3.7719419551
 11
3.429894089
 21
3.7716172917
  0
LINE
  5
265
100
AcDbEntity
  8
0
100
AcDbLine
 62
7
  6
CONTINUOUS
 10
3.4676728754
 20
3.8009488932
 11
3.4656801132
 21
3.7994018633
  0
LWPOLYLINE
  5
266
100
AcDbEntity
  8
0
100
AcDbPolyline
 62
7
  6
CONTINUOUS
 90
3
 70
0
 10
3.4762579815
 20
3.8076142389
 10
3.4740199726
 20
3.8058768534
 10
3.4718429144
 20
3.8041866847
  0
LINE
  5
267
100
AcDbEntity
  8
0
100
AcDbLine
 62
7
  6
CONTINUOUS
 10
3.4317561866
 20
3.7730633233
 11
3.4307610383
 21
3.7722907919
  0
LWPOLYLINE
  5
268
100
AcDbEntity
  8
0
100
AcDbPolyline
 62
7
  6
CONTINUOUS
 90
3
 70
0
 10
3.4618809936
 20
3.7964520057
 10
3.4600733497
 20
3.7950487596
 10
3.4583270998
 20
3.7936930548
  0
LWPOLYLINE
  5
269
100
AcDbEntity
  8
0
100
AcDbPolyline
 62
7
  6
CONTINUOUS
 90
3
 70
0
 10
3.4380040316
 20
3.7779140932
 10
3.4371522868
 20
3.7772529177
 10
3.4363424021
 20
3.7766242969
  0
LWPOLYLINE
  5
26A
100
AcDbEntity
  8
0
100
AcDbPolyline
 62
7
  6
CONTINUOUS
 90
3
 70
0
 10
3.4566418748
 20
3.7923843886
 10
3.4550158105
 20
3.7911221718
 10
3.4534491974
 20
3.7899059892
  0
LINE
  5
26B
100
AcDbEntity
  8
0
100
AcDbLine
 62
7
  6
CONTINUOUS
 10
3.4355744774
 20
3.7760275765
 11
3.4348450595
 21
3.7754613779
  0
LINE
  5
26C
100
AcDbEntity
  8
0
100
AcDbLine
 62
7
  6
CONTINUOUS
 10
3.4519417449
 20
3.788735209
 11
3.4490963324
 21
3.7865264923
  0
LINE
  5
26D
100
AcDbEntity
  8
0
100
AcDbLine
 62
7
  6
CONTINUOUS
 10
3.4833231009
 20
3.8130994202
 11
3.4809095457
 21
3.81122596
  0
LINE
  5
26E
100
AcDbEntity
  8
0
100
AcDbLine
 62
7
  6
CONTINUOUS
 10
3.4440629052
 20
3.7826180921
 11
3.4429334512
 21
3.7817414045
  0
LINE
  5
26F
100
AcDbEntity
  8
0
100
AcDbLine
 62
7
  6
CONTINUOUS
 10
3.4477583724
 20
3.7854872841
 11
3.4452416588
 21
3.7835337738
  0
LINE
  5
270
100
AcDbEntity
  8
0
100
AcDbLine
 62
7
  6
CONTINUOUS
 10
3.4282508533
 20
3.7703417865
 11
3.4280078056
 21
3.770153134
  0
LWPOLYLINE
  5
271
100
AcDbEntity
  8
0
100
AcDbPolyline
 62
7
  6
CONTINUOUS
 90
3
 70
0
 10
3.4270467066
 20
3.7694068493
 10
3.4270100041
 20
3.7693786124
 10
3.4269981179
 20
3.7693692502
  0
LINE
  5
272
100
AcDbEntity
  8
0
100
AcDbLine
 62
7
  6
CONTINUOUS
 10
4.6763731178
 20
3.8834942504
 11
4.6838731178
 21
3.8759942504
  0
LINE
  5
273
100
AcDbEntity
  8
0
100
AcDbLine
 62
7
  6
CONTINUOUS
 10
5.3713731179
 20
3.2034942502
 11
5.3788731179
 21
3.1959942502
  0
LINE
  5
274
100
AcDbEntity
  8
0
100
AcDbLine
 62
7
  6
CONTINUOUS
 10
4.3713731179
 20
2.3209942502
 11
4.3713731179
 21
2.8009942502
  0
LINE
  5
275
100
AcDbEntity
  8
0
100
AcDbLine
 62
7
  6
CONTINUOUS
 10
4.3713731179
 20
3.0909942502
 11
4.3713731179
 21
3.8759942502
  0
LINE
  5
276
100
AcDbEntity
  8
0
100
AcDbLine
 62
7
  6
CONTINUOUS
 10
4.3851231179
 20
5.2796880095
 11
4.3851231179
 21
4.7199533461
  0
LINE
  5
277
100
AcDbEntity
  8
0
100
AcDbLine
 62
7
  6
CONTINUOUS
 10
4.3851868521
 20
6.2476322197
 11
4.3851868521
 21
5.2805179739
  0
LINE
  5
278
100
AcDbEntity
  8
0
100
AcDbLine
 62
7
  6
CONTINUOUS
 10
4.3851868521
 20
4.719123188
 11
4.3851868521
 21
3.8884942502
  0
LINE
  5
279
100
AcDbEntity
  8
0
100
AcDbLine
 62
7
  6
CONTINUOUS
 10
4.3871231179
 20
5.2842998899
 11
4.3871231179
 21
5.288337331
  0
LINE
  5
27A
100
AcDbEntity
  8
0
100
AcDbLine
 62
7
  6
CONTINUOUS
 10
4.4618731179
 20
4.7221179856
 11
4.4618731179
 21
4.7206947165
  0
LINE
  5
27B
100
AcDbEntity
  8
0
100
AcDbLine
 62
7
  6
CONTINUOUS
 10
4.5276231179
 20
4.707306697
 11
4.5276231179
 21
4.7067956215
  0
LINE
  5
27C
100
AcDbEntity
  8
0
100
AcDbLine
 62
7
  6
CONTINUOUS
 10
4.5276231179
 20
4.7308277546
 11
4.5276231179
 21
4.7333418955
  0
LINE
  5
27D
100
AcDbEntity
  8
0
100
AcDbLine
 62
7
  6
CONTINUOUS
 10
3.3788731179
 20
3.1959942502
 11
3.3713731181
 21
3.1884942504
  0
LWPOLYLINE
  5
27E
100
AcDbEntity
  8
0
100
AcDbPolyline
 62
7
  6
CONTINUOUS
 90
88
 70
0
 10
4.6700593838
 20
6.2476322197
 10
4.670035366
 20
6.2502721763
 10
4.6699636643
 20
6.2529015487
 10
4.6698448045
 20
6.2555194418
 10
4.6696793632
 20
6.2581242577
 10
4.6694678359
 20
6.2607158662
 10
4.6692105075
 20
6.2632955935
 10
4.6689077786
 20
6.265862619
 10
4.6685600509
 20
6.2684161183
 10
4.6681673773
 20
6.2709574081
 10
4.6677300346
 20
6.2734857256
 10
4.667248313
 20
6.2760002322
 10
4.6667220639
 20
6.2785021088
 10
4.666151461
 20
6.280990567
 10
4.6655366827
 20
6.2834648025
 10
4.6648773758
 20
6.285925935
 10
4.6641735976
 20
6.288373201
 10
4.6634254317
 20
6.2908057452
 10
4.6626323848
 20
6.2932245038
 10
4.6617947291
 20
6.2956287312
 10
4.6609129213
 20
6.2980177532
 10
4.6599867359
 20
6.3003926075
 10
4.6590165495
 20
6.3027525598
 10
4.6580027281
 20
6.3050969049
 10
4.6569448442
 20
6.3074266428
 10
4.6558431769
 20
6.3097410109
 10
4.65469802
 20
6.3120392192
 10
4.6535087882
 20
6.3143221309
 10
4.6522753525
 20
6.316589514
 10
4.6509982453
 20
6.3188398956
 10
4.6496778034
 20
6.3210722245
 10
4.6483136665
 20
6.3232865884
 10
4.6469066457
 20
6.3254811347
 10
4.6454590192
 20
6.3276519974
 10
4.6439711475
 20
6.3297984726
 10
4.6424435087
 20
6.3319196844
 10
4.6408788958
 20
6.3340117301
 10
4.6392779272
 20
6.3360739108
 10
4.6376411721
 20
6.3381055918
 10
4.6359716778
 20
6.3401032229
 10
4.6342708095
 20
6.3420655728
 10
4.632538705
 20
6.3439928524
 10
4.6307767575
 20
6.345883852
 10
4.6289863997
 20
6.347737423
 10
4.627167732
 20
6.3495538217
 10
4.6253201037
 20
6.3513339221
 10
4.623444211
 20
6.3530771844
 10
4.6215406803
 20
6.3547831366
 10
4.6196086011
 20
6.356452608
 10
4.6176485342
 20
6.3580850355
 10
4.6156610674
 20
6.3596798337
 10
4.6136451854
 20
6.3612376367
 10
4.6116012839
 20
6.3627578687
 10
4.6095300035
 20
6.3642398454
 10
4.6074307546
 20
6.365684129
 10
4.6053042797
 20
6.3670904161
 10
4.6031513439
 20
6.3684583891
 10
4.6009713649
 20
6.369788537
 10
4.5987650624
 20
6.3710804731
 10
4.5965331542
 20
6.3723338125
 10
4.594274975
 20
6.3735488994
 10
4.5919911427
 20
6.3747253057
 10
4.5896824299
 20
6.3758625228
 10
4.5873483414
 20
6.3769606323
 10
4.5849888083
 20
6.3780194256
 10
4.5826052711
 20
6.3790380013
 10
4.5801995064
 20
6.3800153886
 10
4.5777718112
 20
6.3809512598
 10
4.5753233736
 20
6.3818449348
 10
4.5728573923
 20
6.3826950959
 10
4.5703746727
 20
6.3835013727
 10
4.5678760334
 20
6.3842633903
 10
4.5653647872
 20
6.3849800865
 10
4.5628417938
 20
6.3856512201
 10
4.5603079061
 20
6.3862765522
 10
4.5577664972
 20
6.3868552935
 10
4.5552184141
 20
6.3873873489
 10
4.5526645651
 20
6.38787261
 10
4.5501084655
 20
6.3883105498
 10
4.5475509675
 20
6.3887012203
 10
4.5449929736
 20
6.3890446667
 10
4.542438103
 20
6.3893406483
 10
4.5398872185
 20
6.3895893722
 10
4.5373411662
 20
6.3897910493
 10
4.5348035461
 20
6.3899457505
 10
4.5322761017
 20
6.390053814
 10
4.5297587077
 20
6.3901156779
 10
4.5276231179
 20
6.3901322197
  0
LINE
  5
27F
100
AcDbEntity
  8
0
100
AcDbLine
 62
7
  6
CONTINUOUS
 10
4.5933731179
 20
4.7221179856
 11
4.5933731179
 21
4.7206947165
  0
LINE
  5
280
100
AcDbEntity
  8
0
100
AcDbLine
 62
7
  6
CONTINUOUS
 10
4.6681231179
 20
5.284300622
 11
4.6681231179
 21
5.288337331
  0
LINE
  5
281
100
AcDbEntity
  8
0
100
AcDbLine
 62
7
  6
CONTINUOUS
 10
4.6700593838
 20
3.8884942502
 11
4.6700593838
 21
4.7191233816
  0
LINE
  5
282
100
AcDbEntity
  8
0
100
AcDbLine
 62
7
  6
CONTINUOUS
 10
4.6700593838
 20
5.2805181675
 11
4.6700593838
 21
6.2476322197
  0
LINE
  5
283
100
AcDbEntity
  8
0
100
AcDbLine
 62
7
  6
CONTINUOUS
 10
4.6701231179
 20
5.2796880095
 11
4.6701231179
 21
4.7199533461
  0
LINE
  5
284
100
AcDbEntity
  8
0
100
AcDbLine
 62
7
  6
CONTINUOUS
 10
4.6838731179
 20
2.3209942502
 11
4.6838731179
 21
2.8009942502
  0
LINE
  5
285
100
AcDbEntity
  8
0
100
AcDbLine
 62
7
  6
CONTINUOUS
 10
4.6838731179
 20
3.0909942502
 11
4.6838731179
 21
3.8759942502
  0
LINE
  5
286
100
AcDbEntity
  8
0
100
AcDbLine
 62
7
  6
CONTINUOUS
 10
3.6838731179
 20
3.2034942502
 11
3.6763731179
 21
3.1959942502
  0
LINE
  5
287
100
AcDbEntity
  8
0
100
AcDbLine
 62
7
  6
CONTINUOUS
 10
4.3788731181
 20
3.8834942504
 11
4.3713731181
 21
3.8759942504
  0
LINE
  5
288
100
AcDbEntity
  8
0
100
AcDbLine
 62
7
  6
CONTINUOUS
 10
5.6763731179
 20
3.1959942502
 11
5.6838731178
 21
3.1884942504
  0
LINE
  5
289
100
AcDbEntity
  8
0
100
AcDbLine
 62
7
  6
CONTINUOUS
 10
5.3061231179
 20
3.7743692502
 11
5.3111231179
 21
3.7693692502
  0
LINE
  5
28A
100
AcDbEntity
  8
0
100
AcDbLine
 62
7
  6
CONTINUOUS
 10
4.7751231179
 20
2.3134942502
 11
4.7751231179
 21
2.2147442502
  0
LINE
  5
28B
100
AcDbEntity
  8
0
100
AcDbLine
 62
7
  6
CONTINUOUS
 10
5.6282481179
 20
3.7693692502
 11
5.5276231179
 21
3.8474942502
  0
LWPOLYLINE
  5
28C
100
AcDbEntity
  8
0
100
AcDbPolyline
 62
7
  6
CONTINUOUS
 90
3
 70
0
 10
5.5895604818
 20
3.7994060734
 10
5.5853326106
 20
3.8026887939
 10
5.580835847
 20
3.8061797598
  0
LINE
  5
28D
100
AcDbEntity
  8
0
100
AcDbLine
 62
7
  6
CONTINUOUS
 10
5.563106344
 20
3.8199451565
 11
5.5603459143
 21
3.8220885849
  0
LINE
  5
28E
100
AcDbEntity
  8
0
100
AcDbLine
 62
7
  6
CONTINUOUS
 10
5.580835847
 20
3.8061797598
 11
5.5784895404
 21
3.8080016958
  0
LINE
  5
28F
100
AcDbEntity
  8
0
100
AcDbLine
 62
7
  6
CONTINUOUS
 10
5.62738193
 20
3.7700417536
 11
5.6271463696
 21
3.7702246703
  0
LINE
  5
290
100
AcDbEntity
  8
0
100
AcDbLine
 62
7
  6
CONTINUOUS
 10
5.5546797331
 20
3.8264875541
 11
5.5517835043
 21
3.8287365768
  0
LINE
  5
291
100
AcDbEntity
  8
0
100
AcDbLine
 62
7
  6
CONTINUOUS
 10
5.5953979959
 20
3.79487374
 11
5.5935194888
 21
3.7963324811
  0
LINE
  5
292
100
AcDbEntity
  8
0
100
AcDbLine
 62
7
  6
CONTINUOUS
 10
5.573601777
 20
3.8117960895
 11
5.5710660673
 21
3.8137652458
  0
LINE
  5
293
100
AcDbEntity
  8
0
100
AcDbLine
 62
7
  6
CONTINUOUS
 10
5.5458790004
 20
3.8333204179
 11
5.5428829362
 21
3.8356471086
  0
LINE
  5
294
100
AcDbEntity
  8
0
100
AcDbLine
 62
7
  6
CONTINUOUS
 10
4.5035970466
 20
4.7302521533
 11
4.5005068767
 21
4.7326922619
  0
LINE
  5
295
100
AcDbEntity
  8
0
100
AcDbLine
 62
7
  6
CONTINUOUS
 10
5.6282481179
 20
3.7693692502
 11
5.6282352101
 21
3.7693794473
  0
LINE
  5
296
100
AcDbEntity
  8
0
100
AcDbLine
 62
7
  6
CONTINUOUS
 10
4.5286008333
 20
4.7055424584
 11
4.5301921238
 21
4.704022739
  0
LINE
  5
297
100
AcDbEntity
  8
0
100
AcDbLine
 62
7
  6
CONTINUOUS
 10
4.5084703863
 20
4.7285506669
 11
4.5123836405
 21
4.7248134182
  0
LINE
  5
298
100
AcDbEntity
  8
0
100
AcDbLine
 62
7
  6
CONTINUOUS
 10
4.5366895433
 20
4.7016007164
 11
4.5406027975
 21
4.6978634677
  0
LINE
  5
299
100
AcDbEntity
  8
0
100
AcDbLine
 62
7
  6
CONTINUOUS
 10
4.5146434384
 20
4.7286985569
 11
4.5185566926
 21
4.7249613082
  0
LINE
  5
29A
100
AcDbEntity
  8
0
100
AcDbLine
 62
7
  6
CONTINUOUS
 10
4.5428625954
 20
4.7017486064
 11
4.5467758496
 21
4.6980113577
  0
LINE
  5
29B
100
AcDbEntity
  8
0
100
AcDbLine
 62
7
  6
CONTINUOUS
 10
4.4186715477
 20
4.7181428525
 11
4.4260832192
 21
4.7109027446
  0
LINE
  5
29C
100
AcDbEntity
  8
0
100
AcDbLine
 62
7
  6
CONTINUOUS
 10
4.602454438
 20
4.7239315745
 11
4.5847659536
 21
4.7212559998
  0
LINE
  5
29D
100
AcDbEntity
  8
0
100
AcDbLine
 62
7
  6
CONTINUOUS
 10
4.4748996997
 20
4.7046375401
 11
4.4572112153
 21
4.7019619655
  0
LINE
  5
29E
100
AcDbEntity
  8
0
100
AcDbLine
 62
7
  6
CONTINUOUS
 10
4.5980350206
 20
4.7246000592
 11
4.5803465362
 21
4.7219244845
  0
LINE
  5
29F
100
AcDbEntity
  8
0
100
AcDbLine
 62
7
  6
CONTINUOUS
 10
4.4704802823
 20
4.7053060248
 11
4.4527917979
 21
4.7026304502
  0
LINE
  5
2A0
100
AcDbEntity
  8
0
100
AcDbLine
 62
7
  6
CONTINUOUS
 10
4.620550407
 20
4.719912521
 11
4.5982616164
 21
4.7181946963
  0
LINE
  5
2A1
100
AcDbEntity
  8
0
100
AcDbLine
 62
7
  6
CONTINUOUS
 10
4.4598220601
 20
4.7075249884
 11
4.4375332695
 21
4.7058071638
  0
LINE
  5
2A2
100
AcDbEntity
  8
0
100
AcDbLine
 62
7
  6
CONTINUOUS
 10
4.6177129664
 20
4.7207548609
 11
4.5954241758
 21
4.7190370362
  0
LINE
  5
2A3
100
AcDbEntity
  8
0
100
AcDbLine
 62
7
  6
CONTINUOUS
 10
4.4569846195
 20
4.7083673283
 11
4.4346958288
 21
4.7066495036
  0
LINE
  5
2A4
100
AcDbEntity
  8
0
100
AcDbLine
 62
7
  6
CONTINUOUS
 10
4.50330966
 20
4.7299351556
 11
4.5031403792
 21
4.7299246328
  0
LINE
  5
2A5
100
AcDbEntity
  8
0
100
AcDbLine
 62
7
  6
CONTINUOUS
 10
4.6295500056
 20
4.7152443293
 11
4.6048426908
 21
4.7146524072
  0
LINE
  5
2A6
100
AcDbEntity
  8
0
100
AcDbLine
 62
7
  6
CONTINUOUS
 10
4.4513812605
 20
4.7109758765
 11
4.4266739457
 21
4.7103839544
  0
LINE
  5
2A7
100
AcDbEntity
  8
0
100
AcDbLine
 62
7
  6
CONTINUOUS
 10
4.6285722902
 20
4.7161780702
 11
4.6038649754
 21
4.7155861482
  0
LINE
  5
2A8
100
AcDbEntity
  8
0
100
AcDbLine
 62
7
  6
CONTINUOUS
 10
4.4504035451
 20
4.7119096174
 11
4.4256962303
 21
4.7113176953
  0
LINE
  5
2A9
100
AcDbEntity
  8
0
100
AcDbLine
 62
7
  6
CONTINUOUS
 10
4.4184136203
 20
4.720330337
 11
4.4179703106
 21
4.7203197165
  0
LINE
  5
2AA
100
AcDbEntity
  8
0
100
AcDbLine
 62
7
  6
CONTINUOUS
 10
4.6285722902
 20
4.7103839544
 11
4.6038649754
 21
4.7109758765
  0
LINE
  5
2AB
100
AcDbEntity
  8
0
100
AcDbLine
 62
7
  6
CONTINUOUS
 10
4.4504035451
 20
4.7146524072
 11
4.4256962303
 21
4.7152443293
  0
LINE
  5
2AC
100
AcDbEntity
  8
0
100
AcDbLine
 62
7
  6
CONTINUOUS
 10
4.6295500056
 20
4.7113176953
 11
4.6048426908
 21
4.7119096174
  0
LINE
  5
2AD
100
AcDbEntity
  8
0
100
AcDbLine
 62
7
  6
CONTINUOUS
 10
4.4513812605
 20
4.7155861482
 11
4.4266739457
 21
4.7161780702
  0
LINE
  5
2AE
100
AcDbEntity
  8
0
100
AcDbLine
 62
7
  6
CONTINUOUS
 10
4.6368326156
 20
4.720330337
 11
4.6372759253
 21
4.7203197165
  0
LINE
  5
2AF
100
AcDbEntity
  8
0
100
AcDbLine
 62
7
  6
CONTINUOUS
 10
4.5519365701
 20
4.7299351534
 11
4.5521065153
 21
4.7299248811
  0
LINE
  5
2B0
100
AcDbEntity
  8
0
100
AcDbLine
 62
7
  6
CONTINUOUS
 10
4.4346958288
 20
4.719912521
 11
4.4569846195
 21
4.7181946963
  0
LINE
  5
2B1
100
AcDbEntity
  8
0
100
AcDbLine
 62
7
  6
CONTINUOUS
 10
4.5954241758
 20
4.7075249884
 11
4.6177129664
 21
4.7058071638
  0
LINE
  5
2B2
100
AcDbEntity
  8
0
100
AcDbLine
 62
7
  6
CONTINUOUS
 10
4.4375332695
 20
4.7207548609
 11
4.4598220601
 21
4.7190370362
  0
LINE
  5
2B3
100
AcDbEntity
  8
0
100
AcDbLine
 62
7
  6
CONTINUOUS
 10
4.5982616164
 20
4.7083673283
 11
4.620550407
 21
4.7066495036
  0
LINE
  5
2B4
100
AcDbEntity
  8
0
100
AcDbLine
 62
7
  6
CONTINUOUS
 10
4.4527917979
 20
4.7239315745
 11
4.4704802823
 21
4.7212559998
  0
LINE
  5
2B5
100
AcDbEntity
  8
0
100
AcDbLine
 62
7
  6
CONTINUOUS
 10
4.5803465362
 20
4.7046375401
 11
4.5980350206
 21
4.7019619655
  0
LINE
  5
2B6
100
AcDbEntity
  8
0
100
AcDbLine
 62
7
  6
CONTINUOUS
 10
4.4572112153
 20
4.7246000592
 11
4.4748996997
 21
4.7219244845
  0
LINE
  5
2B7
100
AcDbEntity
  8
0
100
AcDbLine
 62
7
  6
CONTINUOUS
 10
4.5847659536
 20
4.7053060248
 11
4.602454438
 21
4.7026304502
  0
LINE
  5
2B8
100
AcDbEntity
  8
0
100
AcDbLine
 62
7
  6
CONTINUOUS
 10
4.4782127779
 20
4.7269080767
 11
4.489569484
 21
4.7235366559
  0
LINE
  5
2B9
100
AcDbEntity
  8
0
100
AcDbLine
 62
7
  6
CONTINUOUS
 10
4.5601079611
 20
4.7025961751
 11
4.5714646672
 21
4.6992247543
  0
LINE
  5
2BA
100
AcDbEntity
  8
0
100
AcDbLine
 62
7
  6
CONTINUOUS
 10
4.4837815687
 20
4.7273372703
 11
4.4951382748
 21
4.7239658495
  0
LINE
  5
2BB
100
AcDbEntity
  8
0
100
AcDbLine
 62
7
  6
CONTINUOUS
 10
4.5656767519
 20
4.7030253687
 11
4.577033458
 21
4.6996539479
  0
LWPOLYLINE
  5
2BC
100
AcDbEntity
  8
0
100
AcDbPolyline
 62
7
  6
CONTINUOUS
 90
3
 70
0
 10
5.6057481179
 20
3.7468692502
 10
5.6057379122
 20
3.7468821527
 10
5.6056554047
 20
3.7469894579
  0
LINE
  5
2BD
100
AcDbEntity
  8
0
100
AcDbLine
 62
7
  6
CONTINUOUS
 10
5.6057481179
 20
3.7468692502
 11
5.5276231179
 21
3.8474942502
  0
LINE
  5
2BE
100
AcDbEntity
  8
0
100
AcDbLine
 62
7
  6
CONTINUOUS
 10
5.5990454827
 20
3.7555024982
 11
5.598419653
 21
3.7563086255
  0
LINE
  5
2BF
100
AcDbEntity
  8
0
100
AcDbLine
 62
7
  6
CONTINUOUS
 10
5.5724031708
 20
3.7898174361
 11
5.5689132188
 21
3.7943128878
  0
LWPOLYLINE
  5
2C0
100
AcDbEntity
  8
0
100
AcDbPolyline
 62
7
  6
CONTINUOUS
 90
3
 70
0
 10
5.58298025
 20
3.7761940686
 10
5.5816242017
 20
3.7779408231
 10
5.5802170303
 20
3.7797535945
  0
LINE
  5
2C1
100
AcDbEntity
  8
0
100
AcDbLine
 62
7
  6
CONTINUOUS
 10
5.5772479452
 20
3.7835774505
 11
5.5756852085
 21
3.7855904946
  0
LWPOLYLINE
  5
2C2
100
AcDbEntity
  8
0
100
AcDbPolyline
 62
7
  6
CONTINUOUS
 90
3
 70
0
 10
5.5867485932
 20
3.7713403044
 10
5.5855417464
 20
3.7728949259
 10
5.5842858072
 20
3.7745129508
  0
LINE
  5
2C3
100
AcDbEntity
  8
0
100
AcDbLine
 62
7
  6
CONTINUOUS
 10
5.5652202899
 20
3.7990691021
 11
5.5632990406
 21
3.8015442039
  0
LINE
  5
2C4
100
AcDbEntity
  8
0
100
AcDbLine
 62
7
  6
CONTINUOUS
 10
5.5977595036
 20
3.7571579981
 11
5.5970634088
 21
3.7580547901
  0
LINE
  5
2C5
100
AcDbEntity
  8
0
100
AcDbLine
 62
7
  6
CONTINUOUS
 10
5.5900836143
 20
3.7670447707
 11
5.587907122
 21
3.769848776
  0
LINE
  5
2C6
100
AcDbEntity
  8
0
100
AcDbLine
 62
7
  6
CONTINUOUS
 10
5.6036106974
 20
3.7496224341
 11
5.6032797984
 21
3.7500487441
  0
LINE
  5
2C7
100
AcDbEntity
  8
0
100
AcDbLine
 62
7
  6
CONTINUOUS
 10
5.602539303
 20
3.7510018617
 11
5.6021282887
 21
3.7515313959
  0
LINE
  5
2C8
100
AcDbEntity
  8
0
100
AcDbLine
 62
7
  6
CONTINUOUS
 10
5.5930111319
 20
3.7632740362
 11
5.5911030871
 21
3.7657322939
  0
LINE
  5
2C9
100
AcDbEntity
  8
0
100
AcDbLine
 62
7
  6
CONTINUOUS
 10
5.5947507154
 20
3.7610338572
 11
5.5939012783
 21
3.7621282552
  0
LINE
  5
2CA
100
AcDbEntity
  8
0
100
AcDbLine
 62
7
  6
CONTINUOUS
 10
5.2801231179
 20
2.3134942502
 11
5.2801231179
 21
2.2147442502
  0
LINE
  5
2CB
100
AcDbEntity
  8
0
100
AcDbLine
 62
7
  6
CONTINUOUS
 10
5.3061231179
 20
3.7743692502
 11
5.3061231179
 21
3.9206192502
  0
LINE
  5
2CC
100
AcDbEntity
  8
0
100
AcDbLine
 62
7
  6
CONTINUOUS
 10
5.3111231179
 20
3.7693692502
 11
5.3111231179
 21
3.9256192502
  0
LINE
  5
2CD
100
AcDbEntity
  8
0
100
AcDbLine
 62
7
  6
CONTINUOUS
 10
5.3713731179
 20
2.3209942502
 11
5.3713731179
 21
2.8009942502
  0
LINE
  5
2CE
100
AcDbEntity
  8
0
100
AcDbLine
 62
7
  6
CONTINUOUS
 10
5.3713731179
 20
3.0909942502
 11
5.3713731179
 21
3.1884942502
  0
LINE
  5
2CF
100
AcDbEntity
  8
0
100
AcDbLine
 62
7
  6
CONTINUOUS
 10
5.3713731179
 20
3.2034942502
 11
5.3713731179
 21
3.5797442502
  0
LINE
  5
2D0
100
AcDbEntity
  8
0
100
AcDbLine
 62
7
  6
CONTINUOUS
 10
5.4494981179
 20
3.7468692502
 11
5.4494981179
 21
3.5949942502
  0
LINE
  5
2D1
100
AcDbEntity
  8
0
100
AcDbLine
 62
7
  6
CONTINUOUS
 10
5.3061231179
 20
3.9206192502
 11
5.3111231179
 21
3.9256192502
  0
LINE
  5
2D2
100
AcDbEntity
  8
0
100
AcDbLine
 62
7
  6
CONTINUOUS
 10
5.6057481179
 20
3.7468692502
 11
5.6057481179
 21
3.5949942502
  0
LINE
  5
2D3
100
AcDbEntity
  8
0
100
AcDbLine
 62
7
  6
CONTINUOUS
 10
5.4496636152
 20
3.7470833631
 11
5.4495083206
 21
3.7468821548
  0
LINE
  5
2D4
100
AcDbEntity
  8
0
100
AcDbLine
 62
7
  6
CONTINUOUS
 10
5.5276231179
 20
3.8474942502
 11
5.4494981179
 21
3.7468692501
  0
LINE
  5
2D5
100
AcDbEntity
  8
0
100
AcDbLine
 62
7
  6
CONTINUOUS
 10
5.472261744
 20
3.7761886533
 11
5.4709562639
 21
3.7745076464
  0
LINE
  5
2D6
100
AcDbEntity
  8
0
100
AcDbLine
 62
7
  6
CONTINUOUS
 10
5.5228575824
 20
3.84135256
 11
5.4979856101
 21
3.8093219058
  0
LINE
  5
2D7
100
AcDbEntity
  8
0
100
AcDbLine
 62
7
  6
CONTINUOUS
 10
5.4684939454
 20
3.7713355189
 11
5.4516351049
 21
3.7496219115
  0
LINE
  5
2D8
100
AcDbEntity
  8
0
100
AcDbLine
 62
7
  6
CONTINUOUS
 10
5.4516351049
 20
3.7496219115
 11
5.4496636152
 21
3.7470833631
  0
LINE
  5
2D9
100
AcDbEntity
  8
0
100
AcDbLine
 62
7
  6
CONTINUOUS
 10
5.4495083206
 20
3.7468821548
 11
5.4494981179
 21
3.7468692502
  0
LINE
  5
2DA
100
AcDbEntity
  8
0
100
AcDbLine
 62
7
  6
CONTINUOUS
 10
5.4270110281
 20
3.7693794443
 11
5.4269981179
 21
3.7693692502
  0
LINE
  5
2DB
100
AcDbEntity
  8
0
100
AcDbLine
 62
7
  6
CONTINUOUS
 10
5.4841743598
 20
3.8137607248
 11
5.4791631185
 21
3.8098699748
  0
LINE
  5
2DC
100
AcDbEntity
  8
0
100
AcDbLine
 62
7
  6
CONTINUOUS
 10
5.4656805676
 20
3.7994020447
 11
5.4636670547
 21
3.7978389687
  0
LINE
  5
2DD
100
AcDbEntity
  8
0
100
AcDbLine
 62
7
  6
CONTINUOUS
 10
5.5276231179
 20
3.8474942502
 11
5.4269981179
 21
3.7693692502
  0
LINE
  5
2DE
100
AcDbEntity
  8
0
100
AcDbLine
 62
7
  6
CONTINUOUS
 10
5.4271180335
 20
3.7694617732
 11
5.427051
 21
3.7694101999
  0
LINE
  5
2DF
100
AcDbEntity
  8
0
100
AcDbLine
 62
7
  6
CONTINUOUS
 10
4.5276231783
 20
5.303364399
 11
4.5277170751
 21
5.3033645195
  0
LINE
  5
2E0
100
AcDbEntity
  8
0
100
AcDbLine
 62
7
  6
CONTINUOUS
 10
6.2748731179
 20
3.9206192502
 11
6.2698731179
 21
3.9256192502
  0
LINE
  5
2E1
100
AcDbEntity
  8
0
100
AcDbLine
 62
7
  6
CONTINUOUS
 10
5.6838731179
 20
2.3209942502
 11
5.6838731179
 21
3.1884942502
  0
LINE
  5
2E2
100
AcDbEntity
  8
0
100
AcDbLine
 62
7
  6
CONTINUOUS
 10
5.6838731179
 20
3.2034942502
 11
5.6838731179
 21
3.5797442502
  0
LINE
  5
2E3
100
AcDbEntity
  8
0
100
AcDbLine
 62
7
  6
CONTINUOUS
 10
5.7751231179
 20
2.3134942502
 11
5.7751231179
 21
2.2147442502
  0
LINE
  5
2E4
100
AcDbEntity
  8
0
100
AcDbLine
 62
7
  6
CONTINUOUS
 10
5.3788731179
 20
3.1959942502
 11
5.3713731181
 21
3.1884942504
  0
LINE
  5
2E5
100
AcDbEntity
  8
0
100
AcDbLine
 62
7
  6
CONTINUOUS
 10
5.6838731179
 20
3.2034942502
 11
5.6763731179
 21
3.1959942502
  0
LINE
  5
2E6
100
AcDbEntity
  8
0
100
AcDbLine
 62
7
  6
CONTINUOUS
 10
6.2748731179
 20
3.7743692502
 11
6.2698731179
 21
3.7693692502
  0
LINE
  5
2E7
100
AcDbEntity
  8
0
100
AcDbLine
 62
7
  6
CONTINUOUS
 10
6.2698731179
 20
3.9256192502
 11
6.2698731179
 21
3.7693692502
  0
LINE
  5
2E8
100
AcDbEntity
  8
0
100
AcDbLine
 62
7
  6
CONTINUOUS
 10
6.2748731179
 20
3.9206192502
 11
6.2748731179
 21
3.7743692502
  0
LWPOLYLINE
  5
2E9
100
AcDbEntity
  8
0
100
AcDbPolyline
 62
7
  6
CONTINUOUS
 90
88
 70
0
 10
4.5276231179
 20
6.3901322197
 10
4.5255205142
 20
6.3901161846
 10
4.5230026598
 20
6.3900549049
 10
4.5204747603
 20
6.3899474095
 10
4.5179366917
 20
6.3897932616
 10
4.5153901967
 20
6.3895921234
 10
4.5128388719
 20
6.3893439237
 10
4.5102835637
 20
6.3890484524
 10
4.5077251351
 20
6.3887055029
 10
4.5051672021
 20
6.3883153154
 10
4.5026106676
 20
6.3878778453
 10
4.5000563838
 20
6.3873930409
 10
4.4975078628
 20
6.3868614286
 10
4.4949660132
 20
6.3862831168
 10
4.4924316821
 20
6.385658201
 10
4.4899082394
 20
6.3849874693
 10
4.4873965382
 20
6.3842711608
 10
4.4848974386
 20
6.3835095166
 10
4.48241425
 20
6.3827035975
 10
4.4799477915
 20
6.3818537783
 10
4.4774988689
 20
6.3809604292
 10
4.4750706776
 20
6.380024866
 10
4.4726644064
 20
6.3790477686
 10
4.4702803526
 20
6.3780294643
 10
4.4679202899
 20
6.3769709219
 10
4.4655856569
 20
6.3758730412
 10
4.4632763881
 20
6.3747360315
 10
4.4609919917
 20
6.3735598127
 10
4.4587332404
 20
6.3723448928
 10
4.4565007534
 20
6.3710916999
 10
4.4542938704
 20
6.3697998927
 10
4.4521133098
 20
6.3684698558
 10
4.4499597915
 20
6.3671019762
 10
4.4478327382
 20
6.3656957679
 10
4.4457329163
 20
6.3642515495
 10
4.4436610675
 20
6.362769624
 10
4.4416166058
 20
6.361249429
 10
4.4396001734
 20
6.3596916486
 10
4.4376121656
 20
6.3580968586
 10
4.4356515658
 20
6.356464425
 10
4.4337189622
 20
6.3547949333
 10
4.4318149156
 20
6.3530889474
 10
4.429938515
 20
6.3513456378
 10
4.4280903864
 20
6.3495654764
 10
4.4262712265
 20
6.3477490041
 10
4.4244803854
 20
6.3458953477
 10
4.4227179619
 20
6.3440042497
 10
4.4209853905
 20
6.3420768608
 10
4.4192840695
 20
6.3401143967
 10
4.4176141387
 20
6.3381166498
 10
4.4159769608
 20
6.3360848496
 10
4.4143755814
 20
6.3340225441
 10
4.4128105699
 20
6.3319303691
 10
4.4112825442
 20
6.3298090236
 10
4.4097942949
 20
6.3276624067
 10
4.4083463006
 20
6.3254913956
 10
4.4069389213
 20
6.3232966937
 10
4.4055744313
 20
6.3210821604
 10
4.4042536425
 20
6.3188496489
 10
4.4029761947
 20
6.3165990712
 10
4.4017424202
 20
6.3143314698
 10
4.4005528501
 20
6.3120483129
 10
4.3994073586
 20
6.3097498371
 10
4.3983053635
 20
6.3074351834
 10
4.3972471588
 20
6.3051051416
 10
4.3962330248
 20
6.3027604749
 10
4.3952625366
 20
6.3004001884
 10
4.3943360605
 20
6.2980249877
 10
4.3934539737
 20
6.2956356074
 10
4.3926160531
 20
6.2932310157
 10
4.3918227558
 20
6.2908118881
 10
4.3910743547
 20
6.2883789693
 10
4.3903703572
 20
6.2859313258
 10
4.3897108468
 20
6.2834698135
 10
4.3890958808
 20
6.2809951963
 10
4.3885251057
 20
6.2785063567
 10
4.3879987
 20
6.2760040994
 10
4.387516837
 20
6.2734892134
 10
4.3870793681
 20
6.2709605196
 10
4.3866865831
 20
6.2684188574
 10
4.3863387585
 20
6.2658649898
 10
4.386035947
 20
6.2632976021
 10
4.3857785498
 20
6.2607175188
 10
4.3855669673
 20
6.2581255612
 10
4.3854014838
 20
6.255520405
 10
4.3852825946
 20
6.2529021812
 10
4.3852108756
 20
6.2502724876
 10
4.3851868521
 20
6.2476322197
  0
ARC
  5
2EA
100
AcDbEntity
  8
0
100
AcDbCircle
 62
7
  6
CONTINUOUS
 10
3.4269981179
 20
3.7468692502
 40
0.0225
100
AcDbArc
 50
0.0
 51
90.0000000006
  0
ARC
  5
2EB
100
AcDbEntity
  8
0
100
AcDbCircle
 62
7
  6
CONTINUOUS
 10
3.6282481179
 20
3.7468692502
 40
0.0225
100
AcDbArc
 50
89.9999999994
 51
180.0000000004
  0
ARC
  5
2EC
100
AcDbEntity
  8
0
100
AcDbCircle
 62
7
  6
CONTINUOUS
 10
3.7038731179
 20
3.0909942502
 40
0.02
100
AcDbArc
 50
180.0
 51
270.0
  0
ARC
  5
2ED
100
AcDbEntity
  8
0
100
AcDbCircle
 62
7
  6
CONTINUOUS
 10
3.7038731179
 20
2.8009942502
 40
0.02
100
AcDbArc
 50
90.0
 51
180.0
  0
ARC
  5
2EE
100
AcDbEntity
  8
0
100
AcDbCircle
 62
7
  6
CONTINUOUS
 10
4.3513731179
 20
3.0909942502
 40
0.02
100
AcDbArc
 50
270.0
 51
360.0
  0
ARC
  5
2EF
100
AcDbEntity
  8
0
100
AcDbCircle
 62
7
  6
CONTINUOUS
 10
4.3513731179
 20
2.8009942502
 40
0.02
100
AcDbArc
 50
0.0000000001
 51
90.0
  0
ARC
  5
2F0
100
AcDbEntity
  8
0
100
AcDbCircle
 62
7
  6
CONTINUOUS
 10
3.3788731179
 20
3.5797442502
 40
0.0075
100
AcDbArc
 50
90.0
 51
180.0
  0
ARC
  5
2F1
100
AcDbEntity
  8
0
100
AcDbCircle
 62
7
  6
CONTINUOUS
 10
3.6763731179
 20
3.5797442502
 40
0.0075
100
AcDbArc
 50
0.0
 51
90.0
  0
ARC
  5
2F2
100
AcDbEntity
  8
0
100
AcDbCircle
 62
7
  6
CONTINUOUS
 10
3.2876231179
 20
2.3134942502
 40
0.0075
100
AcDbArc
 50
90.0
 51
180.0
  0
ARC
  5
2F3
100
AcDbEntity
  8
0
100
AcDbCircle
 62
7
  6
CONTINUOUS
 10
3.7676231179
 20
2.3134942502
 40
0.0075
100
AcDbArc
 50
0.0
 51
90.0
  0
ARC
  5
2F4
100
AcDbEntity
  8
0
100
AcDbCircle
 62
7
  6
CONTINUOUS
 10
4.2876231179
 20
2.3134942502
 40
0.0075
100
AcDbArc
 50
90.0
 51
180.0
  0
ARC
  5
2F5
100
AcDbEntity
  8
0
100
AcDbCircle
 62
7
  6
CONTINUOUS
 10
4.5276229485
 20
5.4326988787
 40
0.7286806677
100
AcDbArc
 50
269.7980133134
 51
270.0000133213
  0
ARC
  5
2F6
100
AcDbEntity
  8
0
100
AcDbCircle
 62
7
  6
CONTINUOUS
 10
4.5272784814
 20
4.0723933417
 40
0.6564268275
100
AcDbArc
 50
91.1029094403
 51
91.6418767856
  0
ARC
  5
2F7
100
AcDbEntity
  8
0
100
AcDbCircle
 62
7
  6
CONTINUOUS
 10
4.5272046682
 20
5.3510876609
 40
0.6533449557
100
AcDbArc
 50
268.3568520325
 51
268.8983617416
  0
ARC
  5
2F8
100
AcDbEntity
  8
0
100
AcDbCircle
 62
7
  6
CONTINUOUS
 10
4.5251975229
 20
5.3514280664
 40
0.6507350189
100
AcDbArc
 50
267.0443383169
 51
268.0188252908
  0
ARC
  5
2F9
100
AcDbEntity
  8
0
100
AcDbCircle
 62
7
  6
CONTINUOUS
 10
4.5273729037
 20
4.2280572907
 40
0.4969822212
100
AcDbArc
 50
91.0164512092
 51
91.7283350167
  0
ARC
  5
2FA
100
AcDbEntity
  8
0
100
AcDbCircle
 62
7
  6
CONTINUOUS
 10
4.527299084
 20
5.1954234417
 40
0.4939001047
100
AcDbArc
 50
268.2694437474
 51
268.9857700267
  0
ARC
  5
2FB
100
AcDbEntity
  8
0
100
AcDbCircle
 62
7
  6
CONTINUOUS
 10
4.5185181889
 20
4.2402871574
 40
0.4882872569
100
AcDbArc
 50
94.07945176
 51
94.7348368315
  0
ARC
  5
2FC
100
AcDbEntity
  8
0
100
AcDbCircle
 62
7
  6
CONTINUOUS
 10
4.5179573691
 20
5.1789982245
 40
0.4809891558
100
AcDbArc
 50
265.2601909983
 51
265.9255204101
  0
ARC
  5
2FD
100
AcDbEntity
  8
0
100
AcDbCircle
 62
7
  6
CONTINUOUS
 10
4.5117301056
 20
5.1585225782
 40
0.4573429151
100
AcDbArc
 50
264.3518797947
 51
265.0468323444
  0
ARC
  5
2FE
100
AcDbEntity
  8
0
100
AcDbCircle
 62
7
  6
CONTINUOUS
 10
4.5276230961
 20
4.3280095796
 40
0.4018844263
100
AcDbArc
 50
89.7897104485
 51
89.9999968789
  0
ARC
  5
2FF
100
AcDbEntity
  8
0
100
AcDbCircle
 62
7
  6
CONTINUOUS
 10
4.520806884
 20
4.3545732613
 40
0.3702833533
100
AcDbArc
 50
93.9750191879
 51
94.8392694036
  0
ARC
  5
300
100
AcDbEntity
  8
0
100
AcDbCircle
 62
7
  6
CONTINUOUS
 10
4.520246015
 20
5.0647114825
 40
0.3629847029
100
AcDbArc
 50
265.1520415478
 51
266.0336698607
  0
ARC
  5
301
100
AcDbEntity
  8
0
100
AcDbCircle
 62
7
  6
CONTINUOUS
 10
4.5238135025
 20
4.418503503
 40
0.3112993923
100
AcDbArc
 50
93.4230648636
 51
94.0367923787
  0
ARC
  5
302
100
AcDbEntity
  8
0
100
AcDbCircle
 62
7
  6
CONTINUOUS
 10
4.4926830388
 20
4.4751495408
 40
0.25195994
100
AcDbArc
 50
98.0931914418
 51
99.1096136817
  0
ARC
  5
303
100
AcDbEntity
  8
0
100
AcDbCircle
 62
7
  6
CONTINUOUS
 10
4.4916033366
 20
4.9442744677
 40
0.2447410197
100
AcDbArc
 50
260.8753956311
 51
261.9217992454
  0
ARC
  5
304
100
AcDbEntity
  8
0
100
AcDbCircle
 62
7
  6
CONTINUOUS
 10
4.4841395349
 20
4.9394569599
 40
0.236504618
100
AcDbArc
 50
260.3057027868
 51
261.1011226622
  0
ARC
  5
305
100
AcDbEntity
  8
0
100
AcDbCircle
 62
7
  6
CONTINUOUS
 10
4.5013250026
 20
4.5322813943
 40
0.1914753203
100
AcDbArc
 50
97.9326475938
 51
99.2701575297
  0
ARC
  5
306
100
AcDbEntity
  8
0
100
AcDbCircle
 62
7
  6
CONTINUOUS
 10
4.5002452057
 20
4.8871419883
 40
0.1842559858
100
AcDbArc
 50
260.7036387182
 51
262.0935561583
  0
ARC
  5
307
100
AcDbEntity
  8
0
100
AcDbCircle
 62
7
  6
CONTINUOUS
 10
4.4984164381
 20
4.6296815255
 40
0.0984722199
100
AcDbArc
 50
100.8267471887
 51
101.1231927454
  0
ARC
  5
308
100
AcDbEntity
  8
0
100
AcDbCircle
 62
7
  6
CONTINUOUS
 10
4.4458802684
 20
4.769224985
 40
0.0618712913
100
AcDbArc
 50
251.594832766
 51
251.8553031048
  0
ARC
  5
309
100
AcDbEntity
  8
0
100
AcDbCircle
 62
7
  6
CONTINUOUS
 10
4.4451013006
 20
4.7668896274
 40
0.059409446
100
AcDbArc
 50
251.233418227
 51
251.596538342
  0
ARC
  5
30A
100
AcDbEntity
  8
0
100
AcDbCircle
 62
7
  6
CONTINUOUS
 10
5.6282481179
 20
3.7468692502
 40
0.0225
100
AcDbArc
 50
89.9999999994
 51
180.0000000004
  0
ARC
  5
30B
100
AcDbEntity
  8
0
100
AcDbCircle
 62
7
  6
CONTINUOUS
 10
5.4269981179
 20
3.7468692502
 40
0.0225
100
AcDbArc
 50
0.0
 51
90.0000000006
  0
ARC
  5
30C
100
AcDbEntity
  8
0
100
AcDbCircle
 62
7
  6
CONTINUOUS
 10
4.7038731179
 20
2.8009942502
 40
0.02
100
AcDbArc
 50
90.0
 51
179.9999999999
  0
ARC
  5
30D
100
AcDbEntity
  8
0
100
AcDbCircle
 62
7
  6
CONTINUOUS
 10
4.7038731179
 20
3.0909942502
 40
0.02
100
AcDbArc
 50
180.0
 51
270.0
  0
ARC
  5
30E
100
AcDbEntity
  8
0
100
AcDbCircle
 62
7
  6
CONTINUOUS
 10
5.3513731179
 20
2.8009942502
 40
0.02
100
AcDbArc
 50
0.0
 51
90.0
  0
ARC
  5
30F
100
AcDbEntity
  8
0
100
AcDbCircle
 62
7
  6
CONTINUOUS
 10
5.3513731179
 20
3.0909942502
 40
0.02
100
AcDbArc
 50
270.0
 51
360.0
  0
ARC
  5
310
100
AcDbEntity
  8
0
100
AcDbCircle
 62
7
  6
CONTINUOUS
 10
5.6763731179
 20
3.5797442502
 40
0.0075
100
AcDbArc
 50
0.0
 51
90.0
  0
ARC
  5
311
100
AcDbEntity
  8
0
100
AcDbCircle
 62
7
  6
CONTINUOUS
 10
5.3788731179
 20
3.5797442502
 40
0.0075
100
AcDbArc
 50
90.0
 51
180.0
  0
ARC
  5
312
100
AcDbEntity
  8
0
100
AcDbCircle
 62
7
  6
CONTINUOUS
 10
4.7676231179
 20
2.3134942502
 40
0.0075
100
AcDbArc
 50
0.0
 51
90.0
  0
ARC
  5
313
100
AcDbEntity
  8
0
100
AcDbCircle
 62
7
  6
CONTINUOUS
 10
5.2876231179
 20
2.3134942502
 40
0.0075
100
AcDbArc
 50
90.0
 51
180.0
  0
ARC
  5
314
100
AcDbEntity
  8
0
100
AcDbCircle
 62
7
  6
CONTINUOUS
 10
5.7676231179
 20
2.3134942502
 40
0.0075
100
AcDbArc
 50
0.0
 51
90.0
  0
ARC
  5
315
100
AcDbEntity
  8
0
100
AcDbCircle
 62
7
  6
CONTINUOUS
 10
4.5276231179
 20
5.4349285292
 40
0.7342741987
100
AcDbArc
 50
269.3623645275
 51
270.6376354725
  0
ARC
  5
316
100
AcDbEntity
  8
0
100
AcDbCircle
 62
7
  6
CONTINUOUS
 10
4.5276232874
 20
5.4326988787
 40
0.7286806677
100
AcDbArc
 50
269.9999866787
 51
270.2019866866
  0
ARC
  5
317
100
AcDbEntity
  8
0
100
AcDbCircle
 62
7
  6
CONTINUOUS
 10
4.5296422365
 20
5.3608571708
 40
0.6601725442
100
AcDbArc
 50
271.988140284
 51
272.9486961084
  0
ARC
  5
318
100
AcDbEntity
  8
0
100
AcDbCircle
 62
7
  6
CONTINUOUS
 10
4.5279677545
 20
5.354168683
 40
0.6564268276
100
AcDbArc
 50
271.1029094403
 51
271.6418767855
  0
ARC
  5
319
100
AcDbEntity
  8
0
100
AcDbCircle
 62
7
  6
CONTINUOUS
 10
4.5280415677
 20
4.0754743637
 40
0.6533449557
100
AcDbArc
 50
88.3568520325
 51
88.8983617416
  0
ARC
  5
31A
100
AcDbEntity
  8
0
100
AcDbCircle
 62
7
  6
CONTINUOUS
 10
4.5278733322
 20
5.1985047339
 40
0.4969822212
100
AcDbArc
 50
271.0164512093
 51
271.7283350166
  0
ARC
  5
31B
100
AcDbEntity
  8
0
100
AcDbCircle
 62
7
  6
CONTINUOUS
 10
4.5279471519
 20
4.231138583
 40
0.4939001047
100
AcDbArc
 50
88.2694437474
 51
88.9857700267
  0
ARC
  5
31C
100
AcDbEntity
  8
0
100
AcDbCircle
 62
7
  6
CONTINUOUS
 10
4.5367280469
 20
5.1862748673
 40
0.4882872569
100
AcDbArc
 50
274.0794517601
 51
274.7348368315
  0
ARC
  5
31D
100
AcDbEntity
  8
0
100
AcDbCircle
 62
7
  6
CONTINUOUS
 10
4.5372888668
 20
4.2475638001
 40
0.4809891558
100
AcDbArc
 50
85.2601909984
 51
85.9255204101
  0
ARC
  5
31E
100
AcDbEntity
  8
0
100
AcDbCircle
 62
7
  6
CONTINUOUS
 10
4.5427793784
 20
5.1664635528
 40
0.4653178497
100
AcDbArc
 50
274.959123012
 51
275.6421648488
  0
ARC
  5
31F
100
AcDbEntity
  8
0
100
AcDbCircle
 62
7
  6
CONTINUOUS
 10
4.5276231398
 20
4.3280095796
 40
0.4018844263
100
AcDbArc
 50
90.0000031211
 51
90.2102895515
  0
ARC
  5
320
100
AcDbEntity
  8
0
100
AcDbCircle
 62
7
  6
CONTINUOUS
 10
4.5344393519
 20
5.0719887633
 40
0.3702833533
100
AcDbArc
 50
273.9750191879
 51
274.8392694037
  0
ARC
  5
321
100
AcDbEntity
  8
0
100
AcDbCircle
 62
7
  6
CONTINUOUS
 10
4.5350002209
 20
4.3618505421
 40
0.3629847029
100
AcDbArc
 50
85.1520415478
 51
86.0336698606
  0
ARC
  5
322
100
AcDbEntity
  8
0
100
AcDbCircle
 62
7
  6
CONTINUOUS
 10
4.531177305
 20
4.4145853888
 40
0.315225768
100
AcDbArc
 50
85.9670298777
 51
86.57311288
  0
ARC
  5
323
100
AcDbEntity
  8
0
100
AcDbCircle
 62
7
  6
CONTINUOUS
 10
4.5625631971
 20
4.9514124839
 40
0.2519599401
100
AcDbArc
 50
278.0931914419
 51
279.1096136816
  0
ARC
  5
324
100
AcDbEntity
  8
0
100
AcDbCircle
 62
7
  6
CONTINUOUS
 10
4.5636428992
 20
4.482287557
 40
0.2447410197
100
AcDbArc
 50
80.8753956311
 51
81.9217992455
  0
ARC
  5
325
100
AcDbEntity
  8
0
100
AcDbCircle
 62
7
  6
CONTINUOUS
 10
4.5702564518
 20
4.944651062
 40
0.2417677269
100
AcDbArc
 50
278.9075353305
 51
279.6856392205
  0
ARC
  5
326
100
AcDbEntity
  8
0
100
AcDbCircle
 62
7
  6
CONTINUOUS
 10
4.5539212333
 20
4.8942806303
 40
0.1914753203
100
AcDbArc
 50
277.9326475938
 51
279.2701575297
  0
ARC
  5
327
100
AcDbEntity
  8
0
100
AcDbCircle
 62
7
  6
CONTINUOUS
 10
4.5550010301
 20
4.5394200363
 40
0.1842559857
100
AcDbArc
 50
80.7036387182
 51
82.0935561583
  0
ARC
  5
328
100
AcDbEntity
  8
0
100
AcDbCircle
 62
7
  6
CONTINUOUS
 10
4.5566784366
 20
4.6289010197
 40
0.099267264
100
AcDbArc
 50
78.8779943923
 51
79.1720656735
  0
ARC
  5
329
100
AcDbEntity
  8
0
100
AcDbCircle
 62
7
  6
CONTINUOUS
 10
4.6092579813
 20
4.7695519848
 40
0.0622156593
100
AcDbArc
 50
288.145417757
 51
288.4044463722
  0
ARC
  5
32A
100
AcDbEntity
  8
0
100
AcDbCircle
 62
7
  6
CONTINUOUS
 10
4.6099995848
 20
4.7673219014
 40
0.0598655003
100
AcDbArc
 50
288.4048447849
 51
288.7651988549
  0
ARC
  5
32B
100
AcDbEntity
  8
0
100
AcDbCircle
 62
7
  6
CONTINUOUS
 10
4.5276231179
 20
4.7465420734
 40
0.0410112711
100
AcDbArc
 50
268.6339298274
 51
271.3660701726
  0
SPLINE
  5
32C
100
AcDbEntity
  8
0
100
AcDbSpline
 62
7
  6
CONTINUOUS
 70
0
 71
3
 72
10
 73
6
 74
0
 42
0.0000001
 43
0.0000001
 44
0.0000000001
 40
0.0
 40
0.0
 40
0.0
 40
0.0
 40
0.2804847038
 40
0.6599110414
 40
1.0
 40
1.0
 40
1.0
 40
1.0
 10
4.6365746839
 20
4.7181428526
 30
0.0
 10
4.6367155983
 20
4.7182805047
 30
0.0
 10
4.6370339367
 20
4.7186182246
 30
0.0
 10
4.6374507668
 20
4.7191874265
 30
0.0
 10
4.6376666425
 20
4.7196495393
 30
0.0
 10
4.6377404016
 20
4.7198767162
 30
0.0
  0
LINE
  5
32D
100
AcDbEntity
  8
0
100
AcDbLine
 62
7
  6
CONTINUOUS
 10
4.4260832191
 20
4.7109027446
 11
4.4266739457
 21
4.7103839544
  0
SPLINE
  5
32E
100
AcDbEntity
  8
0
100
AcDbSpline
 62
7
  6
CONTINUOUS
 70
0
 71
3
 72
14
 73
10
 74
0
 42
0.0000001
 43
0.0000001
 44
0.0000000001
 40
0.0
 40
0.0
 40
0.0
 40
0.0
 40
0.2934065342
 40
0.4264228786
 40
0.5515267339
 40
0.6699208022
 40
0.7830218072
 40
0.892452062
 40
1.0
 40
1.0
 40
1.0
 40
1.0
 10
4.6681289713
 20
5.2860094641
 30
0.0
 10
4.6684299812
 20
5.2862846855
 30
0.0
 10
4.6688452508
 20
5.2867117316
 30
0.0
 10
4.6693060794
 20
5.2873255175
 30
0.0
 10
4.6695801708
 20
5.2877724469
 30
0.0
 10
4.6697938566
 20
5.2882208507
 30
0.0
 10
4.6699468633
 20
5.288670653
 30
0.0
 10
4.6700388567
 20
5.2891214412
 30
0.0
 10
4.6700593838
 20
5.2894234458
 30
0.0
 10
4.6700593838
 20
5.2895729483
 30
0.0
  0
SPLINE
  5
32F
100
AcDbEntity
  8
0
100
AcDbSpline
 62
7
  6
CONTINUOUS
 70
0
 71
3
 72
18
 73
14
 74
0
 42
0.0000001
 43
0.0000001
 44
0.0000000001
 40
0.0
 40
0.0
 40
0.0
 40
0.0
 40
0.1408342192
 40
0.2801030422
 40
0.4162604601
 40
0.54779839
 40
0.6732657489
 40
0.7332907588
 40
0.7912895937
 40
0.8471054564
 40
0.9005888074
 40
0.951597996
 40
1.0
 40
1.0
 40
1.0
 40
1.0
 10
4.5276231179
 20
5.3099931591
 30
0.0
 10
4.5228300187
 20
5.3099931591
 30
0.0
 10
4.5132969133
 20
5.3099165751
 30
0.0
 10
4.4991336278
 20
5.3095726479
 30
0.0
 10
4.485294139
 20
5.3090039365
 30
0.0
 10
4.4719358196
 20
5.3082170743
 30
0.0
 10
4.461178164
 20
5.3073755098
 30
0.0
 10
4.4529280312
 20
5.3065942693
 30
0.0
 10
4.4470446473
 20
5.3059687832
 30
0.0
 10
4.4413905096
 20
5.305296935
 30
0.0
 10
4.4359816732
 20
5.304580651
 30
0.0
 10
4.4308335243
 20
5.3038220144
 30
0.0
 10
4.4274945649
 20
5.3032746846
 30
0.0
 10
4.42587151
 20
5.3029931249
 30
0.0
  0
SPLINE
  5
330
100
AcDbEntity
  8
0
100
AcDbSpline
 62
7
  6
CONTINUOUS
 70
0
 71
3
 72
33
 73
29
 74
0
 42
0.0000001
 43
0.0000001
 44
0.0000000001
 40
0.0
 40
0.0
 40
0.0
 40
0.0
 40
0.0036092106
 40
0.0073094913
 40
0.0152925113
 40
0.0197263412
 40
0.0245174519
 40
0.0297032352
 40
0.0353124233
 40
0.0478778516
 40
0.062335547
 40
0.0787456449
 40
0.0971332856
 40
0.1175000931
 40
0.1398308013
 40
0.1640971288
 40
0.1902604235
 40
0.218273526
 40
0.2480819255
 40
0.3128320001
 40
0.3839572312
 40
0.4608232123
 40
0.5427296881
 40
0.6289208003
 40
0.7185948138
 40
0.8109131402
 40
0.9050091741
 40
1.0
 40
1.0
 40
1.0
 40
1.0
 10
4.4618731213
 20
4.7206947165
 30
0.0
 10
4.4618731213
 20
4.7206130918
 30
0.0
 10
4.4618867318
 20
4.7204474721
 30
0.0
 10
4.4619697744
 20
4.7201104852
 30
0.0
 10
4.4621370664
 20
4.7197808934
 30
0.0
 10
4.4623687088
 20
4.7194678319
 30
0.0
 10
4.4625876627
 20
4.7192256872
 30
0.0
 10
4.4628454666
 20
4.7189848227
 30
0.0
 10
4.4632567131
 20
4.7186525685
 30
0.0
 10
4.4638733449
 20
4.7182442103
 30
0.0
 10
4.4647384982
 20
4.7177771963
 30
0.0
 10
4.4657536903
 20
4.7173168995
 30
0.0
 10
4.4669168137
 20
4.7168643441
 30
0.0
 10
4.4682254802
 20
4.7164206079
 30
0.0
 10
4.469676741
 20
4.7159868047
 30
0.0
 10
4.4712672505
 20
4.7155640228
 30
0.0
 10
4.4729932702
 20
4.7151533289
 30
0.0
 10
4.4748507088
 20
4.7147557299
 30
0.0
 10
4.4775725564
 20
4.7142298253
 30
0.0
 10
4.4812702197
 20
4.7136190333
 30
0.0
 10
4.4860381382
 20
4.7129707422
 30
0.0
 10
4.4912059199
 20
4.7123951515
 30
0.0
 10
4.4967239429
 20
4.7118980153
 30
0.0
 10
4.5025392377
 20
4.711484348
 30
0.0
 10
4.5085958898
 20
4.7111582737
 30
0.0
 10
4.5148356367
 20
4.7109230293
 30
0.0
 10
4.5211984448
 20
4.7107809462
 30
0.0
 10
4.5254748378
 20
4.7107493175
 30
0.0
 10
4.5276231179
 20
4.7107493175
 30
0.0
  0
SPLINE
  5
331
100
AcDbEntity
  8
0
100
AcDbSpline
 62
7
  6
CONTINUOUS
 70
0
 71
3
 72
33
 73
29
 74
0
 42
0.0000001
 43
0.0000001
 44
0.0000000001
 40
0.0
 40
0.0
 40
0.0
 40
0.0
 40
0.0036092106
 40
0.0073094913
 40
0.0152925113
 40
0.0197263412
 40
0.0245174519
 40
0.0297032352
 40
0.0353124233
 40
0.0478778516
 40
0.062335547
 40
0.0787456449
 40
0.0971332856
 40
0.1175000931
 40
0.1398308013
 40
0.1640971288
 40
0.1902604235
 40
0.218273526
 40
0.2480819255
 40
0.3128320001
 40
0.3839572312
 40
0.4608232123
 40
0.5427296881
 40
0.6289208003
 40
0.7185948138
 40
0.8109131402
 40
0.9050091741
 40
1.0
 40
1.0
 40
1.0
 40
1.0
 10
4.5933731146
 20
4.7206947165
 30
0.0
 10
4.5933731146
 20
4.7206130918
 30
0.0
 10
4.593359504
 20
4.7204474721
 30
0.0
 10
4.5932764615
 20
4.7201104852
 30
0.0
 10
4.5931091694
 20
4.7197808934
 30
0.0
 10
4.5928775271
 20
4.7194678319
 30
0.0
 10
4.5926585731
 20
4.7192256872
 30
0.0
 10
4.5924007693
 20
4.7189848227
 30
0.0
 10
4.5919895228
 20
4.7186525685
 30
0.0
 10
4.591372891
 20
4.7182442103
 30
0.0
 10
4.5905077377
 20
4.7177771963
 30
0.0
 10
4.5894925456
 20
4.7173168995
 30
0.0
 10
4.5883294222
 20
4.7168643441
 30
0.0
 10
4.5870207557
 20
4.7164206079
 30
0.0
 10
4.5855694949
 20
4.7159868047
 30
0.0
 10
4.5839789854
 20
4.7155640228
 30
0.0
 10
4.5822529657
 20
4.7151533289
 30
0.0
 10
4.5803955271
 20
4.7147557299
 30
0.0
 10
4.5776736794
 20
4.7142298253
 30
0.0
 10
4.5739760162
 20
4.7136190333
 30
0.0
 10
4.5692080977
 20
4.7129707422
 30
0.0
 10
4.5640403159
 20
4.7123951515
 30
0.0
 10
4.558522293
 20
4.7118980153
 30
0.0
 10
4.5527069982
 20
4.711484348
 30
0.0
 10
4.5466503461
 20
4.7111582737
 30
0.0
 10
4.5404105992
 20
4.7109230293
 30
0.0
 10
4.5340477911
 20
4.7107809462
 30
0.0
 10
4.5297713981
 20
4.7107493175
 30
0.0
 10
4.5276231179
 20
4.7107493175
 30
0.0
  0
SPLINE
  5
332
100
AcDbEntity
  8
0
100
AcDbSpline
 62
7
  6
CONTINUOUS
 70
0
 71
3
 72
71
 73
67
 74
0
 42
0.0000001
 43
0.0000001
 44
0.0000000001
 40
0.0
 40
0.0
 40
0.0
 40
0.0
 40
0.0018044688
 40
0.0036546152
 40
0.0055924882
 40
0.0076547023
 40
0.0098715256
 40
0.0122670124
 40
0.0148598354
 40
0.0176643358
 40
0.0206913572
 40
0.0239490982
 40
0.0274435707
 40
0.0311791885
 40
0.0351589852
 40
0.0393849664
 40
0.0485785065
 40
0.0587616175
 40
0.0699266285
 40
0.0820594104
 40
0.0951406711
 40
0.1091468166
 40
0.124050552
 40
0.1398213206
 40
0.1564256406
 40
0.1738273745
 40
0.1919879559
 40
0.2304197871
 40
0.2713717803
 40
0.3144660344
 40
0.3593016669
 40
0.4054594319
 40
0.4525062913
 40
0.5
 40
0.5474937087
 40
0.5945405681
 40
0.6406983331
 40
0.6855339656
 40
0.7286282197
 40
0.7695802129
 40
0.8080120441
 40
0.8261726255
 40
0.8435743594
 40
0.8601786794
 40
0.875949448
 40
0.8908531834
 40
0.9048593289
 40
0.9179405896
 40
0.9300733715
 40
0.9412383825
 40
0.9514214935
 40
0.9606150336
 40
0.9648410148
 40
0.9688208115
 40
0.9725564293
 40
0.9760509018
 40
0.9793086428
 40
0.9823356642
 40
0.9851401646
 40
0.9877329876
 40
0.9901284744
 40
0.9923452977
 40
0.9944075118
 40
0.9963453848
 40
0.9981955312
 40
1.0
 40
1.0
 40
1.0
 40
1.0
 10
4.3876231179
 20
5.2821592442
 30
0.0
 10
4.3876231179
 20
5.2823330379
 30
0.0
 10
4.3876520926
 20
5.2826856597
 30
0.0
 10
4.3877815222
 20
5.2832106027
 30
0.0
 10
4.3879963056
 20
5.2837335409
 30
0.0
 10
4.3882955137
 20
5.2842539302
 30
0.0
 10
4.3886784316
 20
5.2847717916
 30
0.0
 10
4.3891445578
 20
5.2852871677
 30
0.0
 10
4.3896935331
 20
5.2858000768
 30
0.0
 10
4.3903250583
 20
5.2863104332
 30
0.0
 10
4.3910388079
 20
5.2868181094
 30
0.0
 10
4.3918344374
 20
5.2873228857
 30
0.0
 10
4.3927115296
 20
5.2878245421
 30
0.0
 10
4.3936696249
 20
5.288322793
 30
0.0
 10
4.3947081884
 20
5.2888173905
 30
0.0
 10
4.3962430419
 20
5.2894905999
 30
0.0
 10
4.3983626024
 20
5.2903151573
 30
0.0
 10
4.4011490399
 20
5.291260011
 30
0.0
 10
4.4042392007
 20
5.2921836938
 30
0.0
 10
4.4076258286
 20
5.2930839153
 30
0.0
 10
4.4113010073
 20
5.2939584026
 30
0.0
 10
4.4152560125
 20
5.2948049702
 30
0.0
 10
4.4194814179
 20
5.2956215089
 30
0.0
 10
4.4239671137
 20
5.2964059965
 30
0.0
 10
4.4287023446
 20
5.2971564904
 30
0.0
 10
4.4336757436
 20
5.2978711668
 30
0.0
 10
4.4407428571
 20
5.2987913413
 30
0.0
 10
4.4500808214
 20
5.2998312934
 30
0.0
 10
4.4618301891
 20
5.3008898718
 30
0.0
 10
4.4742125751
 20
5.3017706717
 30
0.0
 10
4.4871088668
 20
5.3024649803
 30
0.0
 10
4.5003950394
 20
5.302965879
 30
0.0
 10
4.5139432496
 20
5.3032684129
 30
0.0
 10
4.5276231179
 20
5.3033695904
 30
0.0
 10
4.5413029863
 20
5.3032684129
 30
0.0
 10
4.5548511965
 20
5.302965879
 30
0.0
 10
4.5681373691
 20
5.3024649803
 30
0.0
 10
4.5810336608
 20
5.3017706717
 30
0.0
 10
4.5934160468
 20
5.3008898718
 30
0.0
 10
4.6051654145
 20
5.2998312934
 30
0.0
 10
4.6145033788
 20
5.2987913413
 30
0.0
 10
4.6215704923
 20
5.2978711668
 30
0.0
 10
4.6265438913
 20
5.2971564904
 30
0.0
 10
4.6312791222
 20
5.2964059965
 30
0.0
 10
4.635764818
 20
5.2956215089
 30
0.0
 10
4.6399902234
 20
5.2948049702
 30
0.0
 10
4.6439452286
 20
5.2939584026
 30
0.0
 10
4.6476204073
 20
5.2930839153
 30
0.0
 10
4.6510070352
 20
5.2921836938
 30
0.0
 10
4.654097196
 20
5.291260011
 30
0.0
 10
4.6568836335
 20
5.2903151573
 30
0.0
 10
4.659003194
 20
5.2894905999
 30
0.0
 10
4.6605380475
 20
5.2888173905
 30
0.0
 10
4.661576611
 20
5.288322793
 30
0.0
 10
4.6625347063
 20
5.2878245421
 30
0.0
 10
4.6634117985
 20
5.2873228857
 30
0.0
 10
4.664207428
 20
5.2868181094
 30
0.0
 10
4.6649211776
 20
5.2863104332
 30
0.0
 10
4.6655527028
 20
5.2858000768
 30
0.0
 10
4.6661016781
 20
5.2852871677
 30
0.0
 10
4.6665678043
 20
5.2847717916
 30
0.0
 10
4.6669507222
 20
5.2842539302
 30
0.0
 10
4.6672499303
 20
5.2837335409
 30
0.0
 10
4.6674647137
 20
5.2832106027
 30
0.0
 10
4.6675941432
 20
5.2826856597
 30
0.0
 10
4.6676231179
 20
5.2823330379
 30
0.0
 10
4.6676231179
 20
5.2821592442
 30
0.0
  0
SPLINE
  5
333
100
AcDbEntity
  8
0
100
AcDbSpline
 62
7
  6
CONTINUOUS
 70
0
 71
3
 72
67
 73
63
 74
0
 42
0.0000001
 43
0.0000001
 44
0.0000000001
 40
0.0
 40
0.0
 40
0.0
 40
0.0
 40
0.0030657399
 40
0.0060903754
 40
0.0091106951
 40
0.0121196137
 40
0.0151415245
 40
0.0182105441
 40
0.0213604788
 40
0.0246213347
 40
0.0280184152
 40
0.0315739345
 40
0.0392249004
 40
0.0476754767
 40
0.0569844171
 40
0.0671837679
 40
0.0782873881
 40
0.090296389
 40
0.1032025663
 40
0.1169906181
 40
0.1316396147
 40
0.1471240073
 40
0.1634143514
 40
0.1804778387
 40
0.1982787053
 40
0.2359360322
 40
0.2760529984
 40
0.3182646979
 40
0.3621813522
 40
0.4073936375
 40
0.4534777071
 40
0.500000075
 40
0.5465224421
 40
0.5926065093
 40
0.6378187909
 40
0.6817354399
 40
0.7239471321
 40
0.7640640897
 40
0.8017214075
 40
0.8195222692
 40
0.8365857513
 40
0.8528760899
 40
0.8683604765
 40
0.8830094662
 40
0.8967975107
 40
0.909703681
 40
0.9217126755
 40
0.9328162899
 40
0.9430156359
 40
0.9523245726
 40
0.9607751405
 40
0.9684260895
 40
0.9719816264
 40
0.9753786891
 40
0.9786395226
 40
0.9817894829
 40
0.9848584879
 40
0.9878804163
 40
0.9908892397
 40
0.9939095756
 40
0.9969344097
 40
1.0
 40
1.0
 40
1.0
 40
1.0
 10
4.6701231179
 20
4.7199533461
 30
0.0
 10
4.6701231179
 20
4.7196500542
 30
0.0
 10
4.6700752821
 20
4.7190463659
 30
0.0
 10
4.6698625393
 20
4.7181671382
 30
0.0
 10
4.6695283774
 20
4.7173330608
 30
0.0
 10
4.6690889497
 20
4.7165502431
 30
0.0
 10
4.6685586766
 20
4.7158206221
 30
0.0
 10
4.6679507565
 20
4.7151361749
 30
0.0
 10
4.6672696282
 20
4.7144900992
 30
0.0
 10
4.6665188072
 20
4.7138743841
 30
0.0
 10
4.6656986375
 20
4.7132832769
 30
0.0
 10
4.6644823514
 20
4.7125025779
 30
0.0
 10
4.662773634
 20
4.711569058
 30
0.0
 10
4.6604868917
 20
4.7105214207
 30
0.0
 10
4.6579112035
 20
4.7095100916
 30
0.0
 10
4.6550448476
 20
4.7085301894
 30
0.0
 10
4.6518887068
 20
4.7075796992
 30
0.0
 10
4.6484460844
 20
4.7066582783
 30
0.0
 10
4.644722101
 20
4.7057664975
 30
0.0
 10
4.640723383
 20
4.7049054463
 30
0.0
 10
4.6364578007
 20
4.704076503
 30
0.0
 10
4.6319342912
 20
4.7032811955
 30
0.0
 10
4.6271627253
 20
4.7025211263
 30
0.0
 10
4.6221538005
 20
4.7017978831
 30
0.0
 10
4.6150397003
 20
4.700867328
 30
0.0
 10
4.6056421867
 20
4.6998162146
 30
0.0
 10
4.5938195742
 20
4.6987467309
 30
0.0
 10
4.5813612314
 20
4.6978571387
 30
0.0
 10
4.5683861104
 20
4.6971560281
 30
0.0
 10
4.5550185786
 20
4.6966502743
 30
0.0
 10
4.5413871545
 20
4.6963448241
 30
0.0
 10
4.5276230961
 20
4.6962426737
 30
0.0
 10
4.5138590379
 20
4.6963448248
 30
0.0
 10
4.5002276145
 20
4.6966502756
 30
0.0
 10
4.4868600839
 20
4.69715603
 30
0.0
 10
4.4738849645
 20
4.6978571412
 30
0.0
 10
4.4614266239
 20
4.698746734
 30
0.0
 10
4.4496040139
 20
4.6998162182
 30
0.0
 10
4.4402065027
 20
4.700867332
 30
0.0
 10
4.4330924044
 20
4.7017978873
 30
0.0
 10
4.4280834812
 20
4.7025211307
 30
0.0
 10
4.423311917
 20
4.7032812001
 30
0.0
 10
4.4187884094
 20
4.7040765077
 30
0.0
 10
4.4145228291
 20
4.7049054512
 30
0.0
 10
4.4105241132
 20
4.7057665024
 30
0.0
 10
4.406800132
 20
4.7066582833
 30
0.0
 10
4.4033575116
 20
4.7075797041
 30
0.0
 10
4.4002013725
 20
4.7085301942
 30
0.0
 10
4.3973350184
 20
4.709510097
 30
0.0
 10
4.3947593314
 20
4.7105214258
 30
0.0
 10
4.3924725956
 20
4.7115690682
 30
0.0
 10
4.3907638698
 20
4.7125025738
 30
0.0
 10
4.3895475994
 20
4.7132832929
 30
0.0
 10
4.3887274151
 20
4.7138743766
 30
0.0
 10
4.387976612
 20
4.7144901114
 30
0.0
 10
4.3872954721
 20
4.7151361725
 30
0.0
 10
4.3866875595
 20
4.7158206317
 30
0.0
 10
4.3861573011
 20
4.7165502502
 30
0.0
 10
4.3857178458
 20
4.7173330454
 30
0.0
 10
4.3853836897
 20
4.71816714
 30
0.0
 10
4.3851709625
 20
4.719046377
 30
0.0
 10
4.3851231179
 20
4.719650069
 30
0.0
 10
4.3851231179
 20
4.7199533461
 30
0.0
  0
SPLINE
  5
334
100
AcDbEntity
  8
0
100
AcDbSpline
 62
7
  6
CONTINUOUS
 70
0
 71
3
 72
37
 73
33
 74
0
 42
0.0000001
 43
0.0000001
 44
0.0000000001
 40
0.0
 40
0.0
 40
0.0
 40
0.0
 40
0.0061314784
 40
0.0121807479
 40
0.0182213858
 40
0.0242392216
 40
0.0302830419
 40
0.0364210797
 40
0.042720948
 40
0.0492426585
 40
0.0560368184
 40
0.0631478557
 40
0.0784497854
 40
0.095350936
 40
0.1139688146
 40
0.1343675141
 40
0.1565747522
 40
0.1805927518
 40
0.2064051039
 40
0.2339812047
 40
0.2632791951
 40
0.2942479771
 40
0.3268286618
 40
0.3609556326
 40
0.3965573618
 40
0.4718720066
 40
0.5521059285
 40
0.6365293152
 40
0.7243626097
 40
0.8147871639
 40
0.9069552848
 40
1.0
 40
1.0
 40
1.0
 40
1.0
 10
4.3851231179
 20
5.2796880095
 30
0.0
 10
4.3851231179
 20
5.2799913013
 30
0.0
 10
4.3851709538
 20
5.2805949898
 30
0.0
 10
4.3853836966
 20
5.2814742176
 30
0.0
 10
4.3857178587
 20
5.2823082951
 30
0.0
 10
4.3861572865
 20
5.2830911129
 30
0.0
 10
4.3866875598
 20
5.283820734
 30
0.0
 10
4.3872954801
 20
5.2845051813
 30
0.0
 10
4.3879766085
 20
5.2851512571
 30
0.0
 10
4.3887274298
 20
5.2857669723
 30
0.0
 10
4.3895475997
 20
5.2863580795
 30
0.0
 10
4.3907638862
 20
5.2871387786
 30
0.0
 10
4.3924726041
 20
5.2880722986
 30
0.0
 10
4.3947593471
 20
5.289119936
 30
0.0
 10
4.3973350362
 20
5.2901312653
 30
0.0
 10
4.400201393
 20
5.2911111677
 30
0.0
 10
4.4033575349
 20
5.292061658
 30
0.0
 10
4.4068001584
 20
5.2929830789
 30
0.0
 10
4.4105241429
 20
5.2938748598
 30
0.0
 10
4.4145228622
 20
5.2947359111
 30
0.0
 10
4.4187884459
 20
5.2955648545
 30
0.0
 10
4.4233119568
 20
5.2963601621
 30
0.0
 10
4.4280835242
 20
5.2971202313
 30
0.0
 10
4.4330924506
 20
5.2978434745
 30
0.0
 10
4.4402065529
 20
5.2987740296
 30
0.0
 10
4.4496040692
 20
5.2998251429
 30
0.0
 10
4.4614266849
 20
5.3008946264
 30
0.0
 10
4.4738850314
 20
5.3017842185
 30
0.0
 10
4.4868601539
 20
5.3024853288
 30
0.0
 10
4.5002276953
 20
5.3029910822
 30
0.0
 10
4.5138590972
 20
5.303296532
 30
0.0
 10
4.5230207474
 20
5.3033645245
 30
0.0
 10
4.5276231783
 20
5.3033645243
 30
0.0
  0
SPLINE
  5
335
100
AcDbEntity
  8
0
100
AcDbSpline
 62
7
  6
CONTINUOUS
 70
0
 71
3
 72
37
 73
33
 74
0
 42
0.0000001
 43
0.0000001
 44
0.0000000001
 40
0.0
 40
0.0
 40
0.0
 40
0.0
 40
0.0930612774
 40
0.1852405834
 40
0.275671589
 40
0.3635072815
 40
0.447929716
 40
0.5281600507
 40
0.6034691878
 40
0.6390676631
 40
0.6731911616
 40
0.7057682401
 40
0.7367333651
 40
0.7660277293
 40
0.7936003163
 40
0.8194093485
 40
0.8434243027
 40
0.8656288527
 40
0.8860253067
 40
0.9046414726
 40
0.9215415296
 40
0.9368430796
 40
0.9439542799
 40
0.9507487548
 40
0.9572709931
 40
0.9635716922
 40
0.9697106859
 40
0.975755684
 40
0.9817746069
 40
0.9878165603
 40
0.9938675069
 40
1.0
 40
1.0
 40
1.0
 40
1.0
 10
4.5277170751
 20
5.3033645195
 30
0.0
 10
4.5323174089
 20
5.3033640538
 30
0.0
 10
4.5414746195
 20
5.3032951972
 30
0.0
 10
4.5550990469
 20
5.3029886302
 30
0.0
 10
4.5684590632
 20
5.3024819518
 30
0.0
 10
4.5814262931
 20
5.3017801134
 30
0.0
 10
4.5938765626
 20
5.3008899913
 30
0.0
 10
4.6056910981
 20
5.2998201731
 30
0.0
 10
4.6150819577
 20
5.2987689303
 30
0.0
 10
4.6221908648
 20
5.2978383663
 30
0.0
 10
4.6271960417
 20
5.2971151646
 30
0.0
 10
4.6319639854
 20
5.2963551789
 30
0.0
 10
4.6364840171
 20
5.2955599949
 30
0.0
 10
4.6407462841
 20
5.2947312127
 30
0.0
 10
4.644741866
 20
5.2938703579
 30
0.0
 10
4.6484629088
 20
5.2929788056
 30
0.0
 10
4.6519028009
 20
5.2920576424
 30
0.0
 10
4.6550564354
 20
5.291107435
 30
0.0
 10
4.6579205208
 20
5.290127836
 30
0.0
 10
4.6604941848
 20
5.2891168266
 30
0.0
 10
4.6627791505
 20
5.2880695144
 30
0.0
 10
4.66448656
 20
5.2871363033
 30
0.0
 10
4.6657019096
 20
5.2863558315
 30
0.0
 10
4.6665214913
 20
5.2857649177
 30
0.0
 10
4.6672717533
 20
5.2851493598
 30
0.0
 10
4.6679524034
 20
5.2845034782
 30
0.0
 10
4.6685598799
 20
5.283819215
 30
0.0
 10
4.6690897509
 20
5.2830898131
 30
0.0
 10
4.6695288701
 20
5.2823072721
 30
0.0
 10
4.6698627637
 20
5.2814734823
 30
0.0
 10
4.6700753141
 20
5.2805945965
 30
0.0
 10
4.6701231179
 20
5.2799911593
 30
0.0
 10
4.6701231179
 20
5.2796880095
 30
0.0
  0
SPLINE
  5
336
100
AcDbEntity
  8
0
100
AcDbSpline
 62
7
  6
CONTINUOUS
 70
0
 71
3
 72
39
 73
35
 74
0
 42
0.0000001
 43
0.0000001
 44
0.0000000001
 40
0.0
 40
0.0
 40
0.0
 40
0.0
 40
0.003609103
 40
0.0073092729
 40
0.0111849341
 40
0.015309393
 40
0.0197430649
 40
0.0245340271
 40
0.0297196846
 40
0.0353286553
 40
0.0413827343
 40
0.047898181
 40
0.05488716
 40
0.062358371
 40
0.0703179786
 40
0.0787699376
 40
0.0971570273
 40
0.1175232574
 40
0.1398532762
 40
0.1641188262
 40
0.1902813348
 40
0.2182936213
 40
0.2481010905
 40
0.2796426298
 40
0.3128512832
 40
0.3476547643
 40
0.3839759261
 40
0.4608395822
 40
0.5427435478
 40
0.6289320691
 40
0.7186033329
 40
0.8109188518
 40
0.9050124475
 40
1.0
 40
1.0
 40
1.0
 40
1.0
 10
4.6681231146
 20
5.288337331
 30
0.0
 10
4.6681231146
 20
5.2885117534
 30
0.0
 10
4.6680940531
 20
5.2888656387
 30
0.0
 10
4.6679641398
 20
5.2893924499
 30
0.0
 10
4.6677485981
 20
5.2899172488
 30
0.0
 10
4.6674483193
 20
5.2904394944
 30
0.0
 10
4.6670640363
 20
5.2909592094
 30
0.0
 10
4.6665962462
 20
5.2914764291
 30
0.0
 10
4.6660453056
 20
5.2919911626
 30
0.0
 10
4.6654115305
 20
5.2925033499
 30
0.0
 10
4.6646952268
 20
5.2930128299
 30
0.0
 10
4.6638967602
 20
5.2935194189
 30
0.0
 10
4.6630165319
 20
5.2940228583
 30
0.0
 10
4.662055017
 20
5.2945228951
 30
0.0
 10
4.6610127431
 20
5.2950192552
 30
0.0
 10
4.659472408
 20
5.2956948712
 30
0.0
 10
4.6573452761
 20
5.2965223717
 30
0.0
 10
4.6545488866
 20
5.2974706002
 30
0.0
 10
4.6514476898
 20
5.2983975818
 30
0.0
 10
4.6480489684
 20
5.2993010187
 30
0.0
 10
4.6443606657
 20
5.3001786294
 30
0.0
 10
4.6403915364
 20
5.3010282207
 30
0.0
 10
4.6361510405
 20
5.3018476757
 30
0.0
 10
4.6316493236
 20
5.3026349648
 30
0.0
 10
4.6268971798
 20
5.3033881388
 30
0.0
 10
4.6219060173
 20
5.3041053673
 30
0.0
 10
4.6148136638
 20
5.3050288278
 30
0.0
 10
4.6054423509
 20
5.3060724944
 30
0.0
 10
4.5936510221
 20
5.3071348543
 30
0.0
 10
4.5812244132
 20
5.3080187997
 30
0.0
 10
4.5682820649
 20
5.3087155871
 30
0.0
 10
4.5549484417
 20
5.3092182743
 30
0.0
 10
4.5413518698
 20
5.3095218901
 30
0.0
 10
4.5322137205
 20
5.3095894762
 30
0.0
 10
4.5276231179
 20
5.3095894762
 30
0.0
  0
SPLINE
  5
337
100
AcDbEntity
  8
0
100
AcDbSpline
 62
7
  6
CONTINUOUS
 70
0
 71
3
 72
39
 73
35
 74
0
 42
0.0000001
 43
0.0000001
 44
0.0000000001
 40
0.0
 40
0.0
 40
0.0
 40
0.0
 40
0.003609103
 40
0.0073092729
 40
0.0111849341
 40
0.015309393
 40
0.0197430649
 40
0.0245340271
 40
0.0297196846
 40
0.0353286553
 40
0.0413827343
 40
0.047898181
 40
0.05488716
 40
0.062358371
 40
0.0703179786
 40
0.0787699376
 40
0.0971570273
 40
0.1175232574
 40
0.1398532762
 40
0.1641188262
 40
0.1902813348
 40
0.2182936213
 40
0.2481010905
 40
0.2796426298
 40
0.3128512832
 40
0.3476547643
 40
0.3839759261
 40
0.4608395822
 40
0.5427435478
 40
0.6289320691
 40
0.7186033329
 40
0.8109188518
 40
0.9050124475
 40
1.0
 40
1.0
 40
1.0
 40
1.0
 10
4.3871231213
 20
5.288337331
 30
0.0
 10
4.3871231213
 20
5.2885117534
 30
0.0
 10
4.3871521828
 20
5.2888656387
 30
0.0
 10
4.3872820961
 20
5.2893924499
 30
0.0
 10
4.3874976378
 20
5.2899172488
 30
0.0
 10
4.3877979166
 20
5.2904394944
 30
0.0
 10
4.3881821996
 20
5.2909592094
 30
0.0
 10
4.3886499897
 20
5.2914764291
 30
0.0
 10
4.3892009303
 20
5.2919911626
 30
0.0
 10
4.3898347054
 20
5.2925033499
 30
0.0
 10
4.3905510091
 20
5.2930128299
 30
0.0
 10
4.3913494757
 20
5.2935194189
 30
0.0
 10
4.392229704
 20
5.2940228583
 30
0.0
 10
4.3931912189
 20
5.2945228951
 30
0.0
 10
4.3942334927
 20
5.2950192552
 30
0.0
 10
4.3957738279
 20
5.2956948712
 30
0.0
 10
4.3979009598
 20
5.2965223717
 30
0.0
 10
4.4006973493
 20
5.2974706002
 30
0.0
 10
4.4037985461
 20
5.2983975818
 30
0.0
 10
4.4071972674
 20
5.2993010187
 30
0.0
 10
4.4108855702
 20
5.3001786294
 30
0.0
 10
4.4148546995
 20
5.3010282207
 30
0.0
 10
4.4190951954
 20
5.3018476757
 30
0.0
 10
4.4235969123
 20
5.3026349648
 30
0.0
 10
4.4283490561
 20
5.3033881388
 30
0.0
 10
4.4333402186
 20
5.3041053673
 30
0.0
 10
4.4404325721
 20
5.3050288278
 30
0.0
 10
4.4498038849
 20
5.3060724944
 30
0.0
 10
4.4615952138
 20
5.3071348543
 30
0.0
 10
4.4740218227
 20
5.3080187997
 30
0.0
 10
4.486964171
 20
5.3087155871
 30
0.0
 10
4.5002977942
 20
5.3092182743
 30
0.0
 10
4.5138943661
 20
5.3095218901
 30
0.0
 10
4.5230325153
 20
5.3095894762
 30
0.0
 10
4.5276231179
 20
5.3095894762
 30
0.0
  0
SPLINE
  5
338
100
AcDbEntity
  8
0
100
AcDbSpline
 62
7
  6
CONTINUOUS
 70
0
 71
3
 72
18
 73
14
 74
0
 42
0.0000001
 43
0.0000001
 44
0.0000000001
 40
0.0
 40
0.0
 40
0.0
 40
0.0
 40
0.048402004
 40
0.0994111926
 40
0.1528945436
 40
0.2087104063
 40
0.2667092412
 40
0.3267342511
 40
0.45220161
 40
0.5837395399
 40
0.7198969578
 40
0.8591657808
 40
1.0
 40
1.0
 40
1.0
 40
1.0
 10
4.6293747259
 20
5.3029931249
 30
0.0
 10
4.627751671
 20
5.3032746846
 30
0.0
 10
4.6244127116
 20
5.3038220144
 30
0.0
 10
4.6192645626
 20
5.304580651
 30
0.0
 10
4.6138557262
 20
5.305296935
 30
0.0
 10
4.6082015886
 20
5.3059687832
 30
0.0
 10
4.6023182047
 20
5.3065942693
 30
0.0
 10
4.5940680719
 20
5.3073755098
 30
0.0
 10
4.5833104163
 20
5.3082170743
 30
0.0
 10
4.5699520969
 20
5.3090039365
 30
0.0
 10
4.5561126081
 20
5.3095726479
 30
0.0
 10
4.5419493226
 20
5.3099165751
 30
0.0
 10
4.5324162172
 20
5.3099931591
 30
0.0
 10
4.5276231179
 20
5.3099931591
 30
0.0
  0
SPLINE
  5
339
100
AcDbEntity
  8
0
100
AcDbSpline
 62
7
  6
CONTINUOUS
 70
0
 71
3
 72
14
 73
10
 74
0
 42
0.0000001
 43
0.0000001
 44
0.0000000001
 40
0.0
 40
0.0
 40
0.0
 40
0.0
 40
0.107547938
 40
0.2169781928
 40
0.3300791978
 40
0.4484732661
 40
0.5735771214
 40
0.7065934658
 40
1.0
 40
1.0
 40
1.0
 40
1.0
 10
4.3851868521
 20
5.2895729483
 30
0.0
 10
4.3851868521
 20
5.2894234458
 30
0.0
 10
4.3852073791
 20
5.2891214412
 30
0.0
 10
4.3852993726
 20
5.288670653
 30
0.0
 10
4.3854523792
 20
5.2882208507
 30
0.0
 10
4.385666065
 20
5.2877724469
 30
0.0
 10
4.3859401565
 20
5.2873255175
 30
0.0
 10
4.3864009851
 20
5.2867117316
 30
0.0
 10
4.3868162547
 20
5.2862846855
 30
0.0
 10
4.3871172646
 20
5.2860094641
 30
0.0
  0
SPLINE
  5
33A
100
AcDbEntity
  8
0
100
AcDbSpline
 62
7
  6
CONTINUOUS
 70
0
 71
3
 72
29
 73
25
 74
0
 42
0.0000001
 43
0.0000001
 44
0.0000000001
 40
0.0
 40
0.0
 40
0.0
 40
0.0
 40
0.0119521326
 40
0.0241796156
 40
0.0369373133
 40
0.0504496834
 40
0.0649050532
 40
0.0804559035
 40
0.0972221724
 40
0.1152975155
 40
0.1347540361
 40
0.15564674
 40
0.1780175677
 40
0.2018972521
 40
0.2542600317
 40
0.3128480605
 40
0.3776883473
 40
0.4487533457
 40
0.5259743223
 40
0.6092498318
 40
0.698451413
 40
0.7934276254
 40
0.8940069648
 40
1.0
 40
1.0
 40
1.0
 40
1.0
 10
4.4163731179
 20
4.7174821113
 30
0.0
 10
4.4163731179
 20
4.7176136496
 30
0.0
 10
4.4163939619
 20
4.7178801947
 30
0.0
 10
4.4164871451
 20
4.7182773263
 30
0.0
 10
4.4166418747
 20
4.7186731546
 30
0.0
 10
4.4168575702
 20
4.7190672633
 30
0.0
 10
4.4171337337
 20
4.7194596367
 30
0.0
 10
4.4174700288
 20
4.7198502683
 30
0.0
 10
4.4178661837
 20
4.7202391746
 30
0.0
 10
4.4183219937
 20
4.7206262939
 30
0.0
 10
4.4188372402
 20
4.7210115343
 30
0.0
 10
4.4194116859
 20
4.7213947665
 30
0.0
 10
4.4200450641
 20
4.7217758357
 30
0.0
 10
4.4209973478
 20
4.7222969242
 30
0.0
 10
4.4223374472
 20
4.7229367808
 30
0.0
 10
4.424128002
 20
4.7236714064
 30
0.0
 10
4.4261438282
 20
4.7243930594
 30
0.0
 10
4.428380733
 20
4.7251001408
 30
0.0
 10
4.4308341015
 20
4.725791038
 30
0.0
 10
4.4334987115
 20
4.7264641811
 30
0.0
 10
4.436368846
 20
4.7271180422
 30
0.0
 10
4.4394383047
 20
4.7277511439
 30
0.0
 10
4.4427004216
 20
4.7283620612
 30
0.0
 10
4.4449416543
 20
4.728743884
 30
0.0
 10
4.4460929719
 20
4.728931464
 30
0.0
  0
SPLINE
  5
33B
100
AcDbEntity
  8
0
100
AcDbSpline
 62
7
  6
CONTINUOUS
 70
0
 71
3
 72
25
 73
21
 74
0
 42
0.0000001
 43
0.0000001
 44
0.0000000001
 40
0.0
 40
0.0
 40
0.0
 40
0.0
 40
0.0247275509
 40
0.0506657534
 40
0.1059160325
 40
0.165203193
 40
0.2279289666
 40
0.2934543709
 40
0.3611079314
 40
0.4301938452
 40
0.5
 40
0.5698061548
 40
0.6388920686
 40
0.7065456291
 40
0.7720710334
 40
0.834796807
 40
0.8940839675
 40
0.9493342466
 40
0.9752724491
 40
1.0
 40
1.0
 40
1.0
 40
1.0
 10
4.4460929719
 20
4.728931464
 30
0.0
 10
4.4474236579
 20
4.7291482679
 30
0.0
 10
4.4501539316
 20
4.7295697067
 30
0.0
 10
4.4558737897
 20
4.7303663634
 30
0.0
 10
4.4634807484
 20
4.7312671948
 30
0.0
 10
4.4731028361
 20
4.7321843258
 30
0.0
 10
4.4833001039
 20
4.7329487476
 30
0.0
 10
4.4939650008
 20
4.7335521406
 30
0.0
 10
4.5049850746
 20
4.7339878854
 30
0.0
 10
4.5162440504
 20
4.7342512425
 30
0.0
 10
4.5276231179
 20
4.7343393472
 30
0.0
 10
4.5390021855
 20
4.7342512425
 30
0.0
 10
4.5502611613
 20
4.7339878854
 30
0.0
 10
4.5612812351
 20
4.7335521406
 30
0.0
 10
4.571946132
 20
4.7329487476
 30
0.0
 10
4.5821433998
 20
4.7321843258
 30
0.0
 10
4.5917654874
 20
4.7312671948
 30
0.0
 10
4.5993724462
 20
4.7303663634
 30
0.0
 10
4.6050923043
 20
4.7295697067
 30
0.0
 10
4.607822578
 20
4.7291482679
 30
0.0
 10
4.6091532639
 20
4.728931464
 30
0.0
  0
SPLINE
  5
33C
100
AcDbEntity
  8
0
100
AcDbSpline
 62
7
  6
CONTINUOUS
 70
0
 71
3
 72
29
 73
25
 74
0
 42
0.0000001
 43
0.0000001
 44
0.0000000001
 40
0.0
 40
0.0
 40
0.0
 40
0.0
 40
0.1059930352
 40
0.2065723746
 40
0.301548587
 40
0.3907501682
 40
0.4740256777
 40
0.5512466543
 40
0.6223116527
 40
0.6871519395
 40
0.7457399683
 40
0.7981027479
 40
0.8219824323
 40
0.84435326
 40
0.8652459639
 40
0.8847024845
 40
0.9027778276
 40
0.9195440965
 40
0.9350949468
 40
0.9495503166
 40
0.9630626867
 40
0.9758203844
 40
0.9880478674
 40
1.0
 40
1.0
 40
1.0
 40
1.0
 10
4.6091532639
 20
4.728931464
 30
0.0
 10
4.6103045816
 20
4.728743884
 30
0.0
 10
4.6125458142
 20
4.7283620612
 30
0.0
 10
4.6158079312
 20
4.7277511439
 30
0.0
 10
4.6188773899
 20
4.7271180422
 30
0.0
 10
4.6217475244
 20
4.7264641811
 30
0.0
 10
4.6244121344
 20
4.725791038
 30
0.0
 10
4.6268655028
 20
4.7251001408
 30
0.0
 10
4.6291024077
 20
4.7243930594
 30
0.0
 10
4.6311182339
 20
4.7236714064
 30
0.0
 10
4.6329087887
 20
4.7229367808
 30
0.0
 10
4.6342488881
 20
4.7222969242
 30
0.0
 10
4.6352011717
 20
4.7217758357
 30
0.0
 10
4.63583455
 20
4.7213947665
 30
0.0
 10
4.6364089957
 20
4.7210115343
 30
0.0
 10
4.6369242422
 20
4.7206262939
 30
0.0
 10
4.6373800521
 20
4.7202391746
 30
0.0
 10
4.6377762071
 20
4.7198502683
 30
0.0
 10
4.6381125022
 20
4.7194596367
 30
0.0
 10
4.6383886657
 20
4.7190672633
 30
0.0
 10
4.6386043612
 20
4.7186731546
 30
0.0
 10
4.6387590908
 20
4.7182773263
 30
0.0
 10
4.638852274
 20
4.7178801947
 30
0.0
 10
4.6388731179
 20
4.7176136496
 30
0.0
 10
4.6388731179
 20
4.7174821113
 30
0.0
  0
SPLINE
  5
33D
100
AcDbEntity
  8
0
100
AcDbSpline
 62
7
  6
CONTINUOUS
 70
0
 71
3
 72
10
 73
6
 74
0
 42
0.0000001
 43
0.0000001
 44
0.0000000001
 40
0.0
 40
0.0
 40
0.0
 40
0.0
 40
0.2232442122
 40
0.5880923664
 40
1.0
 40
1.0
 40
1.0
 40
1.0
 10
4.4175058343
 20
4.7198767162
 30
0.0
 10
4.417554258
 20
4.7197275717
 30
0.0
 10
4.4177137609
 20
4.7193446154
 30
0.0
 10
4.4180963013
 20
4.7187504513
 30
0.0
 10
4.4184645848
 20
4.7183450282
 30
0.0
 10
4.418671552
 20
4.7181428526
 30
0.0
  0
LINE
  5
33E
100
AcDbEntity
  8
0
100
AcDbLine
 62
7
  6
CONTINUOUS
 10
4.4346958288
 20
4.7066495036
 11
4.4375332695
 21
4.7058071638
  0
LINE
  5
33F
100
AcDbEntity
  8
0
100
AcDbLine
 62
7
  6
CONTINUOUS
 10
4.6177129664
 20
4.7058071638
 11
4.620550407
 21
4.7066495036
  0
LINE
  5
340
100
AcDbEntity
  8
0
100
AcDbLine
 62
7
  6
CONTINUOUS
 10
4.6285722902
 20
4.7103839544
 11
4.6291630168
 21
4.7109027446
  0
LINE
  5
341
100
AcDbEntity
  8
0
100
AcDbLine
 62
7
  6
CONTINUOUS
 10
4.4513812605
 20
4.7155861482
 11
4.4504035451
 21
4.7146524072
  0
LINE
  5
342
100
AcDbEntity
  8
0
100
AcDbLine
 62
7
  6
CONTINUOUS
 10
4.6048426908
 20
4.7146524072
 11
4.6038649754
 21
4.7155861482
  0
LINE
  5
343
100
AcDbEntity
  8
0
100
AcDbLine
 62
7
  6
CONTINUOUS
 10
4.4598220601
 20
4.7190370362
 11
4.4569846195
 21
4.7181946963
  0
LINE
  5
344
100
AcDbEntity
  8
0
100
AcDbLine
 62
7
  6
CONTINUOUS
 10
4.5982616164
 20
4.7181946963
 11
4.5954241758
 21
4.7190370362
  0
SPLINE
  5
345
100
AcDbEntity
  8
0
100
AcDbSpline
 62
7
  6
CONTINUOUS
 70
0
 71
3
 72
32
 73
28
 74
0
 42
0.0000001
 43
0.0000001
 44
0.0000000001
 40
0.0
 40
0.0
 40
0.0
 40
0.0
 40
0.003694847
 40
0.0075861647
 40
0.011738588
 40
0.0162048353
 40
0.0262292369
 40
0.0379035432
 40
0.0513624587
 40
0.0666803125
 40
0.0838929338
 40
0.1030106843
 40
0.1240260536
 40
0.1469179843
 40
0.1716548054
 40
0.1981963115
 40
0.2264949264
 40
0.2564965024
 40
0.3213624728
 40
0.3922587569
 40
0.4685776469
 40
0.5496522172
 40
0.6347657865
 40
0.7231601524
 40
0.8140441468
 40
0.9066010017
 40
1.0
 40
1.0
 40
1.0
 40
1.0
 10
4.5871891772
 20
4.7216219313
 30
0.0
 10
4.5871725435
 20
4.7215484252
 30
0.0
 10
4.5871266421
 20
4.7213999674
 30
0.0
 10
4.5870245322
 20
4.7211826858
 30
0.0
 10
4.5868881423
 20
4.7209663442
 30
0.0
 10
4.5866517162
 20
4.7206677449
 30
0.0
 10
4.5862627736
 20
4.7202985813
 30
0.0
 10
4.5856809642
 20
4.7198770739
 30
0.0
 10
4.5849674947
 20
4.7194605652
 30
0.0
 10
4.5841234815
 20
4.7190496709
 30
0.0
 10
4.5831502556
 20
4.7186450882
 30
0.0
 10
4.5820497427
 20
4.71824774
 30
0.0
 10
4.5808242472
 20
4.71785856
 30
0.0
 10
4.5794764529
 20
4.717478483
 30
0.0
 10
4.578009371
 20
4.7171084188
 30
0.0
 10
4.5764263172
 20
4.7167492604
 30
0.0
 10
4.5747308947
 20
4.7164018498
 30
0.0
 10
4.5722607023
 20
4.7159434278
 30
0.0
 10
4.5689211559
 20
4.715411118
 30
0.0
 10
4.5646319205
 20
4.7148461284
 30
0.0
 10
4.5600021029
 20
4.7143450662
 30
0.0
 10
4.5550742589
 20
4.7139127076
 30
0.0
 10
4.5498936713
 20
4.7135532211
 30
0.0
 10
4.5445080112
 20
4.7132700219
 30
0.0
 10
4.5389668646
 20
4.7130658028
 30
0.0
 10
4.5333212457
 20
4.7129424928
 30
0.0
 10
4.5295282001
 20
4.7129150457
 30
0.0
 10
4.5276231179
 20
4.7129150457
 30
0.0
  0
SPLINE
  5
346
100
AcDbEntity
  8
0
100
AcDbSpline
 62
7
  6
CONTINUOUS
 70
0
 71
3
 72
60
 73
56
 74
0
 42
0.0000001
 43
0.0000001
 44
0.0000000001
 40
0.0
 40
0.0
 40
0.0
 40
0.0
 40
0.0000064719
 40
0.0000258167
 40
0.0000580264
 40
0.0001030929
 40
0.0001610081
 40
0.000231764
 40
0.0004117655
 40
0.000643033
 40
0.0009255019
 40
0.0012591077
 40
0.001643786
 40
0.0025660263
 40
0.0036913552
 40
0.0050188416
 40
0.0065475545
 40
0.0082763994
 40
0.0102036599
 40
0.0123274717
 40
0.0146459708
 40
0.019859248
 40
0.0258268173
 40
0.0325310118
 40
0.0399508056
 40
0.0480640109
 40
0.0568484621
 40
0.066281945
 40
0.076341125
 40
0.0982396805
 40
0.1223552224
 40
0.1485051232
 40
0.1765140292
 40
0.2062182466
 40
0.2374662713
 40
0.2701195476
 40
0.3391488351
 40
0.4124379374
 40
0.4504580692
 40
0.4892941851
 40
0.5288804239
 40
0.5691604924
 40
0.6100836436
 40
0.6516035158
 40
0.6725751654
 40
0.6936817473
 40
0.736275742
 40
0.7793491199
 40
0.822859826
 40
0.8667559908
 40
0.8888324275
 40
0.910978855
 40
0.9331834624
 40
0.9554330966
 40
1.0
 40
1.0
 40
1.0
 40
1.0
 10
4.7038731179
 20
2.8209942502
 30
0.0
 10
4.7038728276
 20
2.8209943908
 30
0.0
 10
4.7038720978
 20
2.8209955418
 30
0.0
 10
4.7038699411
 20
2.8209974157
 30
0.0
 10
4.7038666982
 20
2.8210010159
 30
0.0
 10
4.7038619989
 20
2.8210058297
 30
0.0
 10
4.7038560263
 20
2.8210121073
 30
0.0
 10
4.7038453827
 20
2.8210232151
 30
0.0
 10
4.7038287818
 20
2.8210405873
 30
0.0
 10
4.7038048878
 20
2.8210655841
 30
0.0
 10
4.7037757151
 20
2.8210961282
 30
0.0
 10
4.7037412692
 20
2.8211322101
 30
0.0
 10
4.7036848192
 20
2.821191375
 30
0.0
 10
4.7036011612
 20
2.8212791263
 30
0.0
 10
4.7034851061
 20
2.8214009221
 30
0.0
 10
4.7033482165
 20
2.8215446226
 30
0.0
 10
4.7031905866
 20
2.8217101139
 30
0.0
 10
4.70301234
 20
2.8218972563
 30
0.0
 10
4.7028136738
 20
2.8221059154
 30
0.0
 10
4.7025948088
 20
2.8223359269
 30
0.0
 10
4.7022631682
 20
2.8226847284
 30
0.0
 10
4.7017998505
 20
2.8231727102
 30
0.0
 10
4.7011865298
 20
2.8238197226
 30
0.0
 10
4.7004980766
 20
2.8245470644
 30
0.0
 10
4.6997369516
 20
2.825352885
 30
0.0
 10
4.6989058075
 20
2.8262352051
 30
0.0
 10
4.6980071582
 20
2.8271918309
 30
0.0
 10
4.6970434841
 20
2.8282204581
 30
0.0
 10
4.6956351349
 20
2.8297282365
 30
0.0
 10
4.6937327618
 20
2.8317760126
 30
0.0
 10
4.6912951139
 20
2.8344212518
 30
0.0
 10
4.6886642303
 20
2.8373025557
 30
0.0
 10
4.6858619899
 20
2.8404045597
 30
0.0
 10
4.6829092855
 20
2.8437130024
 30
0.0
 10
4.6798264991
 20
2.8472155194
 30
0.0
 10
4.6754876328
 20
2.8522235812
 30
0.0
 10
4.6698652055
 20
2.858891939
 30
0.0
 10
4.6642287378
 20
2.865896059
 30
0.0
 10
4.6596652853
 20
2.871828417
 30
0.0
 10
4.6562048542
 20
2.8764887532
 30
0.0
 10
4.6527724093
 20
2.881308856
 30
0.0
 10
4.649391616
 20
2.886291738
 30
0.0
 10
4.6460897325
 20
2.8914423567
 30
0.0
 10
4.6434430438
 20
2.8958671429
 30
0.0
 10
4.641400578
 20
2.8994996051
 30
0.0
 10
4.639402767
 20
2.9032176945
 30
0.0
 10
4.6370317577
 20
2.9079848758
 30
0.0
 10
4.6344503445
 20
2.9138871467
 30
0.0
 10
4.6321854053
 20
2.9199881591
 30
0.0
 10
4.6306242752
 20
2.9252227123
 30
0.0
 10
4.6296072512
 20
2.9294967804
 30
0.0
 10
4.6289690548
 20
2.9327468017
 30
0.0
 10
4.6284633798
 20
2.9360289393
 30
0.0
 10
4.6279718033
 20
2.9404398482
 30
0.0
 10
4.6278181637
 20
2.943772742
 30
0.0
 10
4.6278182401
 20
2.9459942502
 30
0.0
  0
SPLINE
  5
347
100
AcDbEntity
  8
0
100
AcDbSpline
 62
7
  6
CONTINUOUS
 70
0
 71
3
 72
37
 73
33
 74
0
 42
0.0000001
 43
0.0000001
 44
0.0000000001
 40
0.0
 40
0.0
 40
0.0
 40
0.0
 40
0.0087622599
 40
0.0127450538
 40
0.0165788788
 40
0.0203715774
 40
0.0242345874
 40
0.0282733141
 40
0.0325799114
 40
0.0372298475
 40
0.0422824935
 40
0.0477831965
 40
0.053765921
 40
0.0602560882
 40
0.0672721516
 40
0.0829283285
 40
0.1008025412
 40
0.1209165218
 40
0.1432644123
 40
0.1678204425
 40
0.1945437517
 40
0.2233813568
 40
0.2542700931
 40
0.2871379251
 40
0.3584820208
 40
0.436696914
 40
0.5209690548
 40
0.6104068225
 40
0.7040542183
 40
0.8009037575
 40
0.8999090974
 40
1.0
 40
1.0
 40
1.0
 40
1.0
 10
4.5880383625
 20
4.7217508788
 30
0.0
 10
4.5881516854
 20
4.7216025605
 30
0.0
 10
4.5882959567
 20
4.7213675603
 30
0.0
 10
4.5884070274
 20
4.721030936
 30
0.0
 10
4.5884447471
 20
4.7207852577
 30
0.0
 10
4.5884390053
 20
4.7205393123
 30
0.0
 10
4.5883898973
 20
4.7202938662
 30
0.0
 10
4.5882978796
 20
4.7200495241
 30
0.0
 10
4.5881634966
 20
4.7198065429
 30
0.0
 10
4.5879872195
 20
4.7195649267
 30
0.0
 10
4.5877693331
 20
4.7193246263
 30
0.0
 10
4.5875100386
 20
4.7190856116
 30
0.0
 10
4.587209503
 20
4.7188478984
 30
0.0
 10
4.5868678892
 20
4.7186115558
 30
0.0
 10
4.5863382412
 20
4.7182864308
 30
0.0
 10
4.585570502
 20
4.7178883045
 30
0.0
 10
4.5845213187
 20
4.717433854
 30
0.0
 10
4.5833152853
 20
4.7169879588
 30
0.0
 10
4.58195551
 20
4.7165518683
 30
0.0
 10
4.5804454748
 20
4.7161268525
 30
0.0
 10
4.5787892309
 20
4.7157141483
 30
0.0
 10
4.5769912663
 20
4.7153149603
 30
0.0
 10
4.5750565018
 20
4.7149304208
 30
0.0
 10
4.5722231567
 20
4.7144248434
 30
0.0
 10
4.5683799506
 20
4.7138441806
 30
0.0
 10
4.5634352585
 20
4.7132385914
 30
0.0
 10
4.5580939521
 20
4.7127138457
 30
0.0
 10
4.5524151265
 20
4.7122759855
 30
0.0
 10
4.5464616002
 20
4.7119301077
 30
0.0
 10
4.5402993184
 20
4.7116801811
 30
0.0
 10
4.5339965551
 20
4.7115290739
 30
0.0
 10
4.529755279
 20
4.711495427
 30
0.0
 10
4.5276231179
 20
4.711495427
 30
0.0
  0
LINE
  5
348
100
AcDbEntity
  8
0
100
AcDbLine
 62
7
  6
CONTINUOUS
 10
4.6291630168
 20
4.7109027446
 11
4.6295500056
 21
4.7113176953
  0
SPLINE
  5
349
100
AcDbEntity
  8
0
100
AcDbSpline
 62
7
  6
CONTINUOUS
 70
0
 71
3
 72
39
 73
35
 74
0
 42
0.0000001
 43
0.0000001
 44
0.0000000001
 40
0.0
 40
0.0
 40
0.0
 40
0.0
 40
0.0949369539
 40
0.1890088197
 40
0.2813498468
 40
0.3710947544
 40
0.4573801482
 40
0.498957164
 40
0.5393474024
 40
0.6161529903
 40
0.6524078264
 40
0.6871439743
 40
0.7202983528
 40
0.7518087232
 40
0.781613975
 40
0.8096545192
 40
0.8358728449
 40
0.8602143275
 40
0.8826284365
 40
0.9030706028
 40
0.9215052119
 40
0.9379112568
 40
0.9453600768
 40
0.9523176528
 40
0.9587964796
 40
0.9648120117
 40
0.9703835367
 40
0.9755353088
 40
0.9802979783
 40
0.9847102915
 40
0.9888208963
 40
0.9926898235
 40
0.9963888769
 40
1.0
 40
1.0
 40
1.0
 40
1.0
 10
4.5276231179
 20
5.3111276152
 30
0.0
 10
4.5229711546
 20
5.3111276152
 30
0.0
 10
4.5137094674
 20
5.3110568111
 30
0.0
 10
4.4999262233
 20
5.310744089
 30
0.0
 10
4.4864034981
 20
5.3102314988
 30
0.0
 10
4.4732715563
 20
5.30952558
 30
0.0
 10
4.4626346481
 20
5.3087729352
 30
0.0
 10
4.4544197544
 20
5.3080736437
 30
0.0
 10
4.446674783
 20
5.3073357677
 30
0.0
 10
4.4392010384
 20
5.3065030621
 30
0.0
 10
4.4320198435
 20
5.3055643704
 30
0.0
 10
4.4269688264
 20
5.3048353981
 30
0.0
 10
4.4221584594
 20
5.3040699782
 30
0.0
 10
4.4175987654
 20
5.3032702488
 30
0.0
 10
4.413299763
 20
5.3024383613
 30
0.0
 10
4.4092714462
 20
5.3015764806
 30
0.0
 10
4.4055237792
 20
5.3006867905
 30
0.0
 10
4.4020666698
 20
5.2997714936
 30
0.0
 10
4.3989099639
 20
5.2988328271
 30
0.0
 10
4.3960633113
 20
5.2978730206
 30
0.0
 10
4.3935363106
 20
5.296894394
 30
0.0
 10
4.3916470959
 20
5.2960390368
 30
0.0
 10
4.3903082141
 20
5.2953404358
 30
0.0
 10
4.3894208705
 20
5.2948299259
 30
0.0
 10
4.388617564
 20
5.2943161507
 30
0.0
 10
4.3878982322
 20
5.2937993488
 30
0.0
 10
4.3872628053
 20
5.2932797424
 30
0.0
 10
4.3867112276
 20
5.2927574914
 30
0.0
 10
4.3862434887
 20
5.2922326874
 30
0.0
 10
4.38585968
 20
5.2917053429
 30
0.0
 10
4.3855600758
 20
5.2911754603
 30
0.0
 10
4.3853452008
 20
5.2906430675
 30
0.0
 10
4.3852157922
 20
5.2901087246
 30
0.0
 10
4.3851868521
 20
5.2897498954
 30
0.0
 10
4.3851868521
 20
5.2895729483
 30
0.0
  0
SPLINE
  5
34A
100
AcDbEntity
  8
0
100
AcDbSpline
 62
7
  6
CONTINUOUS
 70
0
 71
3
 72
39
 73
35
 74
0
 42
0.0000001
 43
0.0000001
 44
0.0000000001
 40
0.0
 40
0.0
 40
0.0
 40
0.0
 40
0.0949369539
 40
0.1890088197
 40
0.2813498468
 40
0.3710947544
 40
0.4573801482
 40
0.498957164
 40
0.5393474024
 40
0.6161529903
 40
0.6524078264
 40
0.6871439743
 40
0.7202983528
 40
0.7518087232
 40
0.781613975
 40
0.8096545192
 40
0.8358728449
 40
0.8602143275
 40
0.8826284365
 40
0.9030706028
 40
0.9215052119
 40
0.9379112568
 40
0.9453600768
 40
0.9523176528
 40
0.9587964796
 40
0.9648120117
 40
0.9703835367
 40
0.9755353088
 40
0.9802979783
 40
0.9847102915
 40
0.9888208963
 40
0.9926898235
 40
0.9963888769
 40
1.0
 40
1.0
 40
1.0
 40
1.0
 10
4.5276231179
 20
5.4037989171
 30
0.0
 10
4.5229711546
 20
5.4037989171
 30
0.0
 10
4.5137094674
 20
5.403728113
 30
0.0
 10
4.4999262233
 20
5.4034153909
 30
0.0
 10
4.4864034981
 20
5.4029028006
 30
0.0
 10
4.4732715563
 20
5.4021968818
 30
0.0
 10
4.4626346481
 20
5.4014442371
 30
0.0
 10
4.4544197544
 20
5.4007449456
 30
0.0
 10
4.446674783
 20
5.4000070696
 30
0.0
 10
4.4392010384
 20
5.399174364
 30
0.0
 10
4.4320198435
 20
5.3982356723
 30
0.0
 10
4.4269688264
 20
5.3975067
 30
0.0
 10
4.4221584594
 20
5.3967412801
 30
0.0
 10
4.4175987654
 20
5.3959415506
 30
0.0
 10
4.413299763
 20
5.3951096632
 30
0.0
 10
4.4092714462
 20
5.3942477825
 30
0.0
 10
4.4055237792
 20
5.3933580923
 30
0.0
 10
4.4020666698
 20
5.3924427955
 30
0.0
 10
4.3989099639
 20
5.391504129
 30
0.0
 10
4.3960633113
 20
5.3905443225
 30
0.0
 10
4.3935363106
 20
5.3895656959
 30
0.0
 10
4.3916470959
 20
5.3887103387
 30
0.0
 10
4.3903082141
 20
5.3880117377
 30
0.0
 10
4.3894208705
 20
5.3875012278
 30
0.0
 10
4.388617564
 20
5.3869874526
 30
0.0
 10
4.3878982322
 20
5.3864706507
 30
0.0
 10
4.3872628053
 20
5.3859510443
 30
0.0
 10
4.3867112276
 20
5.3854287933
 30
0.0
 10
4.3862434887
 20
5.3849039892
 30
0.0
 10
4.38585968
 20
5.3843766448
 30
0.0
 10
4.3855600758
 20
5.3838467622
 30
0.0
 10
4.3853452008
 20
5.3833143694
 30
0.0
 10
4.3852157922
 20
5.3827800265
 30
0.0
 10
4.3851868521
 20
5.3824211972
 30
0.0
 10
4.3851868521
 20
5.3822442502
 30
0.0
  0
SPLINE
  5
34B
100
AcDbEntity
  8
0
100
AcDbSpline
 62
7
  6
CONTINUOUS
 70
0
 71
3
 72
60
 73
56
 74
0
 42
0.0000001
 43
0.0000001
 44
0.0000000001
 40
0.0
 40
0.0
 40
0.0
 40
0.0
 40
0.0437340878
 40
0.0655778875
 40
0.0873921345
 40
0.1091672445
 40
0.1308933327
 40
0.1525614177
 40
0.1741637671
 40
0.2171402711
 40
0.2597756918
 40
0.3020198114
 40
0.3229790086
 40
0.343821067
 40
0.3645414156
 40
0.3851345168
 40
0.425915154
 40
0.4661120096
 40
0.5056656986
 40
0.5445181424
 40
0.5826054452
 40
0.6198480998
 40
0.656162724
 40
0.6914592672
 40
0.7256303576
 40
0.7585600186
 40
0.7901213167
 40
0.8201694585
 40
0.8485488144
 40
0.8750892983
 40
0.8996070493
 40
0.9219092292
 40
0.9417943626
 40
0.9507675769
 40
0.959061401
 40
0.9666513338
 40
0.9735143015
 40
0.9796281865
 40
0.9849722978
 40
0.98952716
 40
0.9915034792
 40
0.9932766989
 40
0.9948450799
 40
0.9962073093
 40
0.997362445
 40
0.9983095573
 40
0.9987048143
 40
0.9990477231
 40
0.9993381788
 40
0.9995760768
 40
0.9997613125
 40
0.9998937814
 40
0.9999401956
 40
0.9999733788
 40
1.0
 40
1.0
 40
1.0
 40
1.0
 10
4.4387976542
 20
2.9459943132
 30
0.0
 10
4.4387979183
 20
2.943626262
 30
0.0
 10
4.4386819196
 20
2.9400742134
 30
0.0
 10
4.4383113335
 20
2.9353563312
 30
0.0
 10
4.4379288831
 20
2.9318334778
 30
0.0
 10
4.4374441236
 20
2.9283297578
 30
0.0
 10
4.4368592455
 20
2.9248493762
 30
0.0
 10
4.4361775107
 20
2.9213962258
 30
0.0
 10
4.4351502081
 20
2.9168401686
 30
0.0
 10
4.4336566503
 20
2.9112276938
 30
0.0
 10
4.4315737529
 20
2.9046234067
 30
0.0
 10
4.4296290148
 20
2.8992310128
 30
0.0
 10
4.4279670127
 20
2.8949943944
 30
0.0
 10
4.4266762619
 20
2.8918646085
 30
0.0
 10
4.4253435824
 20
2.888774059
 30
0.0
 10
4.4235236228
 20
2.8847184507
 30
0.0
 10
4.4211684099
 20
2.8797478165
 30
0.0
 10
4.4182312704
 20
2.8739191252
 30
0.0
 10
4.4152170546
 20
2.868247997
 30
0.0
 10
4.4121516689
 20
2.8627348564
 30
0.0
 10
4.409060325
 20
2.8573803292
 30
0.0
 10
4.4059608642
 20
2.8521899702
 30
0.0
 10
4.4028734196
 20
2.8471690836
 30
0.0
 10
4.3998191231
 20
2.8423235108
 30
0.0
 10
4.3968152475
 20
2.8376631729
 30
0.0
 10
4.3938809035
 20
2.8331989252
 30
0.0
 10
4.3910362889
 20
2.8289430491
 30
0.0
 10
4.3883001916
 20
2.8249111505
 30
0.0
 10
4.3856935802
 20
2.8211200453
 30
0.0
 10
4.3832377658
 20
2.8175887438
 30
0.0
 10
4.3809543663
 20
2.8143384078
 30
0.0
 10
4.3788662744
 20
2.8113913073
 30
0.0
 10
4.3772567831
 20
2.8091366687
 30
0.0
 10
4.3760843006
 20
2.8075020205
 30
0.0
 10
4.3752983925
 20
2.806409386
 30
0.0
 10
4.3745779991
 20
2.8054103796
 30
0.0
 10
4.3739256681
 20
2.8045078185
 30
0.0
 10
4.3733438388
 20
2.8037043424
 30
0.0
 10
4.3728347232
 20
2.8030025144
 30
0.0
 10
4.3724567165
 20
2.8024823526
 30
0.0
 10
4.3721921534
 20
2.802118765
 30
0.0
 10
4.3720226521
 20
2.8018859928
 30
0.0
 10
4.37187266
 20
2.8016801468
 30
0.0
 10
4.3717423352
 20
2.8015013794
 30
0.0
 10
4.3716318145
 20
2.8013498042
 30
0.0
 10
4.3715521555
 20
2.801240525
 30
0.0
 10
4.3714984364
 20
2.8011667604
 30
0.0
 10
4.3714656688
 20
2.8011217232
 30
0.0
 10
4.3714379235
 20
2.8010835683
 30
0.0
 10
4.3714152264
 20
2.8010523002
 30
0.0
 10
4.3713975259
 20
2.8010279714
 30
0.0
 10
4.371386012
 20
2.8010119732
 30
0.0
 10
4.3713791925
 20
2.8010027257
 30
0.0
 10
4.3713759623
 20
2.8009979791
 30
0.0
 10
4.3713737856
 20
2.8009955277
 30
0.0
 10
4.3713731179
 20
2.8009942502
 30
0.0
  0
SPLINE
  5
34C
100
AcDbEntity
  8
0
100
AcDbSpline
 62
7
  6
CONTINUOUS
 70
0
 71
3
 72
60
 73
56
 74
0
 42
0.0000001
 43
0.0000001
 44
0.0000000001
 40
0.0
 40
0.0
 40
0.0
 40
0.0
 40
0.0000066535
 40
0.0000265336
 40
0.0000596307
 40
0.0001059351
 40
0.0001654372
 40
0.0002381275
 40
0.000423034
 40
0.0006605776
 40
0.0009506814
 40
0.0012932685
 40
0.0016882612
 40
0.0026350623
 40
0.0037901962
 40
0.0051527552
 40
0.0067218111
 40
0.0084959245
 40
0.010473127
 40
0.0126514257
 40
0.0150288177
 40
0.0203722885
 40
0.0264858803
 40
0.0333495064
 40
0.0409397631
 40
0.049233064
 40
0.0582059168
 40
0.067834059
 40
0.0780918881
 40
0.1003942966
 40
0.1249118393
 40
0.151452772
 40
0.1798326672
 40
0.2098806623
 40
0.2414416487
 40
0.2743734187
 40
0.3085441424
 40
0.3438390206
 40
0.3801568747
 40
0.417400072
 40
0.4554851529
 40
0.4943406978
 40
0.5338968755
 40
0.5740919875
 40
0.6561813749
 40
0.69798322
 40
0.7402251616
 40
0.7614982691
 40
0.7828633191
 40
0.8258407122
 40
0.8691083466
 40
0.9126061255
 40
0.9344207892
 40
0.9562650076
 40
1.0
 40
1.0
 40
1.0
 40
1.0
 10
4.3713731179
 20
3.0909942502
 30
0.0
 10
4.3713732478
 20
3.0909939142
 30
0.0
 10
4.3713742888
 20
3.0909928585
 30
0.0
 10
4.3713759967
 20
3.0909901433
 30
0.0
 10
4.3713792656
 20
3.0909858537
 30
0.0
 10
4.371383641
 20
3.0909797449
 30
0.0
 10
4.3713893445
 20
3.090971939
 30
0.0
 10
4.3713994367
 20
3.0909580504
 30
0.0
 10
4.3714152188
 20
3.0909363771
 30
0.0
 10
4.3714379262
 20
3.090905186
 30
0.0
 10
4.37146567
 20
3.0908671002
 30
0.0
 10
4.3714984406
 20
3.0908221291
 30
0.0
 10
4.3715521675
 20
3.0907484326
 30
0.0
 10
4.3716318319
 20
3.090639199
 30
0.0
 10
4.3717423502
 20
3.0904876252
 30
0.0
 10
4.3718726721
 20
3.0903087936
 30
0.0
 10
4.3720226541
 20
3.0901028189
 30
0.0
 10
4.3721921389
 20
3.0898698771
 30
0.0
 10
4.3723809535
 20
3.089610204
 30
0.0
 10
4.3725889012
 20
3.0893240559
 30
0.0
 10
4.3729039034
 20
3.0888903912
 30
0.0
 10
4.3733438487
 20
3.0882841232
 30
0.0
 10
4.3739256966
 20
3.0874807018
 30
0.0
 10
4.3745779348
 20
3.086578053
 30
0.0
 10
4.3752983045
 20
3.0855790271
 30
0.0
 10
4.3760842756
 20
3.0844865061
 30
0.0
 10
4.3769330712
 20
3.0833032536
 30
0.0
 10
4.3778419246
 20
3.0820321766
 30
0.0
 10
4.3791675418
 20
3.0801718451
 30
0.0
 10
4.3809542598
 20
3.0776501526
 30
0.0
 10
4.3832377326
 20
3.0743999273
 30
0.0
 10
4.3856934896
 20
3.0708686314
 30
0.0
 10
4.388300009
 20
3.0670775112
 30
0.0
 10
4.3910361417
 20
3.0630457424
 30
0.0
 10
4.3938811331
 20
3.0587901224
 30
0.0
 10
4.3968146979
 20
3.0543253874
 30
0.0
 10
4.399818876
 20
3.0496653702
 30
0.0
 10
4.4028741718
 20
3.0448204682
 30
0.0
 10
4.4059600486
 20
3.0397986066
 30
0.0
 10
4.4090597489
 20
3.0346084445
 30
0.0
 10
4.4121527802
 20
3.0292549174
 30
0.0
 10
4.4152163326
 20
3.0237406875
 30
0.0
 10
4.4182298671
 20
3.0180690437
 30
0.0
 10
4.4221756237
 20
3.0102442767
 30
0.0
 10
4.4258818229
 20
3.0021634735
 30
0.0
 10
4.4292428505
 20
2.99381805
 30
0.0
 10
4.4311810468
 20
2.98845338
 30
0.0
 10
4.4326086567
 20
2.9840845185
 30
0.0
 10
4.4339534892
 20
2.9796478625
 30
0.0
 10
4.435452222
 20
2.9740147931
 30
0.0
 10
4.4369100963
 20
2.9671393428
 30
0.0
 10
4.4378013832
 20
2.9613245059
 30
0.0
 10
4.438310875
 20
2.9566323088
 30
0.0
 10
4.438681743
 20
2.9519144116
 30
0.0
 10
4.4387979149
 20
2.9483623695
 30
0.0
 10
4.4387976542
 20
2.9459943132
 30
0.0
  0
SPLINE
  5
34D
100
AcDbEntity
  8
0
100
AcDbSpline
 62
7
  6
CONTINUOUS
 70
0
 71
3
 72
71
 73
67
 74
0
 42
0.0000001
 43
0.0000001
 44
0.0000000001
 40
0.0
 40
0.0
 40
0.0
 40
0.0
 40
0.0018044688
 40
0.0036546152
 40
0.0055924882
 40
0.0076547023
 40
0.0098715256
 40
0.0122670124
 40
0.0148598354
 40
0.0176643358
 40
0.0206913572
 40
0.0239490982
 40
0.0274435707
 40
0.0311791885
 40
0.0351589852
 40
0.0393849664
 40
0.0485785065
 40
0.0587616175
 40
0.0699266285
 40
0.0820594104
 40
0.0951406711
 40
0.1091468166
 40
0.124050552
 40
0.1398213206
 40
0.1564256406
 40
0.1738273745
 40
0.1919879559
 40
0.2304197871
 40
0.2713717803
 40
0.3144660344
 40
0.3593016669
 40
0.4054594319
 40
0.4525062913
 40
0.5
 40
0.5474937087
 40
0.5945405681
 40
0.6406983331
 40
0.6855339656
 40
0.7286282197
 40
0.7695802129
 40
0.8080120441
 40
0.8261726255
 40
0.8435743594
 40
0.8601786794
 40
0.875949448
 40
0.8908531834
 40
0.9048593289
 40
0.9179405896
 40
0.9300733715
 40
0.9412383825
 40
0.9514214935
 40
0.9606150336
 40
0.9648410148
 40
0.9688208115
 40
0.9725564293
 40
0.9760509018
 40
0.9793086428
 40
0.9823356642
 40
0.9851401646
 40
0.9877329876
 40
0.9901284744
 40
0.9923452977
 40
0.9944075118
 40
0.9963453848
 40
0.9981955312
 40
1.0
 40
1.0
 40
1.0
 40
1.0
 10
4.6701231179
 20
5.2796880095
 30
0.0
 10
4.6701231179
 20
5.2798649066
 30
0.0
 10
4.6700936258
 20
5.2802238253
 30
0.0
 10
4.669961885
 20
5.2807581423
 30
0.0
 10
4.6697432662
 20
5.2812904186
 30
0.0
 10
4.6694387151
 20
5.2818201006
 30
0.0
 10
4.6690489594
 20
5.2823472095
 30
0.0
 10
4.6685745095
 20
5.2828717888
 30
0.0
 10
4.6680157311
 20
5.2833938569
 30
0.0
 10
4.6673729286
 20
5.2839133268
 30
0.0
 10
4.6666464335
 20
5.2844300687
 30
0.0
 10
4.6658365964
 20
5.2849438589
 30
0.0
 10
4.6649438418
 20
5.2854544734
 30
0.0
 10
4.6639686377
 20
5.2859616217
 30
0.0
 10
4.6629115284
 20
5.2864650512
 30
0.0
 10
4.6613492668
 20
5.2871502823
 30
0.0
 10
4.659191857
 20
5.2879895639
 30
0.0
 10
4.6563556617
 20
5.28895129
 30
0.0
 10
4.6532103194
 20
5.2898914671
 30
0.0
 10
4.6497632161
 20
5.290807764
 30
0.0
 10
4.6460224091
 20
5.2916978671
 30
0.0
 10
4.6419967788
 20
5.292559552
 30
0.0
 10
4.6376959198
 20
5.2933906718
 30
0.0
 10
4.6331301223
 20
5.294189168
 30
0.0
 10
4.6283103337
 20
5.2949530637
 30
0.0
 10
4.623248124
 20
5.2956805021
 30
0.0
 10
4.6160548121
 20
5.2966171083
 30
0.0
 10
4.6065500984
 20
5.297675631
 30
0.0
 10
4.5945909205
 20
5.2987531126
 30
0.0
 10
4.5819874205
 20
5.299649641
 30
0.0
 10
4.5688608379
 20
5.300356348
 30
0.0
 10
4.5553374122
 20
5.3008661913
 30
0.0
 10
4.5415472696
 20
5.3011741276
 30
0.0
 10
4.5276231179
 20
5.3012771119
 30
0.0
 10
4.5136989662
 20
5.3011741276
 30
0.0
 10
4.4999088237
 20
5.3008661913
 30
0.0
 10
4.486385398
 20
5.300356348
 30
0.0
 10
4.4732588154
 20
5.299649641
 30
0.0
 10
4.4606553153
 20
5.2987531126
 30
0.0
 10
4.4486961375
 20
5.297675631
 30
0.0
 10
4.4391914238
 20
5.2966171083
 30
0.0
 10
4.4319981119
 20
5.2956805021
 30
0.0
 10
4.4269359022
 20
5.2949530637
 30
0.0
 10
4.4221161136
 20
5.294189168
 30
0.0
 10
4.4175503161
 20
5.2933906718
 30
0.0
 10
4.4132494571
 20
5.292559552
 30
0.0
 10
4.4092238267
 20
5.2916978671
 30
0.0
 10
4.4054830198
 20
5.290807764
 30
0.0
 10
4.4020359165
 20
5.2898914671
 30
0.0
 10
4.3988905742
 20
5.28895129
 30
0.0
 10
4.3960543789
 20
5.2879895639
 30
0.0
 10
4.3938969691
 20
5.2871502823
 30
0.0
 10
4.3923347075
 20
5.2864650512
 30
0.0
 10
4.3912775982
 20
5.2859616217
 30
0.0
 10
4.3903023941
 20
5.2854544734
 30
0.0
 10
4.3894096395
 20
5.2849438589
 30
0.0
 10
4.3885998024
 20
5.2844300687
 30
0.0
 10
4.3878733072
 20
5.2839133268
 30
0.0
 10
4.3872305048
 20
5.2833938569
 30
0.0
 10
4.3866717264
 20
5.2828717888
 30
0.0
 10
4.3861972765
 20
5.2823472095
 30
0.0
 10
4.3858075208
 20
5.2818201006
 30
0.0
 10
4.3855029697
 20
5.2812904186
 30
0.0
 10
4.3852843508
 20
5.2807581423
 30
0.0
 10
4.38515261
 20
5.2802238253
 30
0.0
 10
4.3851231179
 20
5.2798649066
 30
0.0
 10
4.3851231179
 20
5.2796880095
 30
0.0
  0
SPLINE
  5
34E
100
AcDbEntity
  8
0
100
AcDbSpline
 62
7
  6
CONTINUOUS
 70
0
 71
3
 72
59
 73
55
 74
0
 42
0.0000001
 43
0.0000001
 44
0.0000000001
 40
0.0
 40
0.0
 40
0.0
 40
0.0
 40
0.0437341154
 40
0.0655779388
 40
0.0873922089
 40
0.1091673177
 40
0.1308933782
 40
0.1525614488
 40
0.1741638023
 40
0.2171404177
 40
0.2597760053
 40
0.3020200633
 40
0.343819627
 40
0.3645400467
 40
0.3851333061
 40
0.4259142726
 40
0.4661111559
 40
0.5056646694
 40
0.5445172234
 40
0.5826047083
 40
0.6198473413
 40
0.6561619992
 40
0.6914586485
 40
0.7256297813
 40
0.7585595097
 40
0.790120857
 40
0.820169074
 40
0.8485484894
 40
0.8750890172
 40
0.8996068445
 40
0.9219089902
 40
0.941794325
 40
0.9507674992
 40
0.9590612378
 40
0.9666512049
 40
0.9735142647
 40
0.9796281123
 40
0.9849721642
 40
0.9895271778
 40
0.991503633
 40
0.9932769725
 40
0.9948454167
 40
0.9962076499
 40
0.9973627463
 40
0.9983097923
 40
0.9987050113
 40
0.9990478812
 40
0.9993382989
 40
0.9995761614
 40
0.9997613658
 40
0.999893809
 40
0.999940213
 40
0.9999733881
 40
1.0
 40
1.0
 40
1.0
 40
1.0
 10
4.6164485817
 20
2.9459941915
 30
0.0
 10
4.616448326
 20
2.9483622406
 30
0.0
 10
4.616564284
 20
2.9519142861
 30
0.0
 10
4.6169348057
 20
2.9566321704
 30
0.0
 10
4.617317232
 20
2.9601550237
 30
0.0
 10
4.6178020201
 20
2.9636587346
 30
0.0
 10
4.6183869931
 20
2.9671390925
 30
0.0
 10
4.6190687921
 20
2.9705922219
 30
0.0
 10
4.6200961223
 20
2.9751482718
 30
0.0
 10
4.6215896137
 20
2.980760759
 30
0.0
 10
4.6236723851
 20
2.9873651278
 30
0.0
 10
4.6260000294
 20
2.9938191793
 30
0.0
 10
4.6281207623
 20
2.99908174
 30
0.0
 10
4.6299027643
 20
3.0032143271
 30
0.0
 10
4.6317226101
 20
3.007270023
 30
0.0
 10
4.6340776797
 20
3.0122407423
 30
0.0
 10
4.6370148576
 20
3.0180694176
 30
0.0
 10
4.6400292051
 20
3.0237404613
 30
0.0
 10
4.6430945636
 20
3.0292536119
 30
0.0
 10
4.6461858356
 20
3.0346081869
 30
0.0
 10
4.6492853515
 20
3.0397985148
 30
0.0
 10
4.6523728159
 20
3.0448193855
 30
0.0
 10
4.6554270825
 20
3.0496649783
 30
0.0
 10
4.6584309774
 20
3.0543253076
 30
0.0
 10
4.6613653192
 20
3.0587895569
 30
0.0
 10
4.6642099362
 20
3.0630454345
 30
0.0
 10
4.6669460335
 20
3.0670773358
 30
0.0
 10
4.6695526439
 20
3.0708684448
 30
0.0
 10
4.6720084689
 20
3.0743997425
 30
0.0
 10
4.6742918506
 20
3.0776500893
 30
0.0
 10
4.6763799789
 20
3.0805971732
 30
0.0
 10
4.6779894348
 20
3.0828518402
 30
0.0
 10
4.6791619275
 20
3.0844864823
 30
0.0
 10
4.6799478485
 20
3.0855790989
 30
0.0
 10
4.6806682397
 20
3.0865781072
 30
0.0
 10
4.6813205595
 20
3.0874806803
 30
0.0
 10
4.6819023927
 20
3.0882841513
 30
0.0
 10
4.682411524
 20
3.0889859698
 30
0.0
 10
4.6827895252
 20
3.0895061497
 30
0.0
 10
4.6830540819
 20
3.0898697683
 30
0.0
 10
4.6832235808
 20
3.090102563
 30
0.0
 10
4.6833735721
 20
3.0903084217
 30
0.0
 10
4.6835038974
 20
3.0904871902
 30
0.0
 10
4.6836144189
 20
3.0906387576
 30
0.0
 10
4.6836940792
 20
3.090748026
 30
0.0
 10
4.683747799
 20
3.0908217802
 30
0.0
 10
4.6837805668
 20
3.0908668096
 30
0.0
 10
4.6838083124
 20
3.0909049566
 30
0.0
 10
4.6838310093
 20
3.0909362177
 30
0.0
 10
4.6838487109
 20
3.0909605397
 30
0.0
 10
4.683860223
 20
3.0909765342
 30
0.0
 10
4.6838670451
 20
3.0909857774
 30
0.0
 10
4.6838702706
 20
3.0909905247
 30
0.0
 10
4.6838724558
 20
3.0909929704
 30
0.0
 10
4.6838731179
 20
3.0909942502
 30
0.0
  0
SPLINE
  5
34F
100
AcDbEntity
  8
0
100
AcDbSpline
 62
7
  6
CONTINUOUS
 70
0
 71
3
 72
60
 73
56
 74
0
 42
0.0000001
 43
0.0000001
 44
0.0000000001
 40
0.0
 40
0.0
 40
0.0
 40
0.0
 40
0.0000064727
 40
0.0000258206
 40
0.0000580352
 40
0.0001031082
 40
0.0001610313
 40
0.000231796
 40
0.000411817
 40
0.0006431044
 40
0.0009255912
 40
0.0012592107
 40
0.0016438959
 40
0.0025661264
 40
0.0036914228
 40
0.005018867
 40
0.0065475409
 40
0.0082763597
 40
0.0102036064
 40
0.0123274139
 40
0.0146459156
 40
0.0198592086
 40
0.0258267969
 40
0.0325310031
 40
0.0399508049
 40
0.0480640226
 40
0.0568484818
 40
0.0662819521
 40
0.0763411055
 40
0.098239663
 40
0.1223552284
 40
0.1485051166
 40
0.176514027
 40
0.2062182427
 40
0.2374662635
 40
0.2701195427
 40
0.3391488361
 40
0.4124379362
 40
0.4504580755
 40
0.4892941944
 40
0.528880423
 40
0.5691604917
 40
0.6100836538
 40
0.6516035209
 40
0.6725751646
 40
0.6936817407
 40
0.7362757356
 40
0.7793491201
 40
0.8228598297
 40
0.8667559898
 40
0.8888324249
 40
0.9109788533
 40
0.9331834592
 40
0.9554330939
 40
1.0
 40
1.0
 40
1.0
 40
1.0
 10
4.3513731179
 20
3.0709942502
 30
0.0
 10
4.3513734076
 20
3.0709941082
 30
0.0
 10
4.3513741394
 20
3.0709929606
 30
0.0
 10
4.3513762951
 20
3.0709910835
 30
0.0
 10
4.35137954
 20
3.0709874851
 30
0.0
 10
4.3513842403
 20
3.0709826705
 30
0.0
 10
4.3513902148
 20
3.0709763933
 30
0.0
 10
4.351400861
 20
3.0709652854
 30
0.0
 10
4.3514174655
 20
3.0709479135
 30
0.0
 10
4.3514413637
 20
3.0709229167
 30
0.0
 10
4.3514705403
 20
3.0708923726
 30
0.0
 10
4.351504989
 20
3.0708562908
 30
0.0
 10
4.3515614404
 20
3.0707971266
 30
0.0
 10
4.3516450957
 20
3.0707093751
 30
0.0
 10
4.3517611439
 20
3.0705875785
 30
0.0
 10
4.3518980245
 20
3.0704438773
 30
0.0
 10
4.3520556461
 20
3.0702783855
 30
0.0
 10
4.3522338871
 20
3.0700912433
 30
0.0
 10
4.3524325503
 20
3.0698825843
 30
0.0
 10
4.3526514143
 20
3.069652573
 30
0.0
 10
4.3529830558
 20
3.0693037715
 30
0.0
 10
4.3534463768
 20
3.0688157901
 30
0.0
 10
4.3540597016
 20
3.0681687785
 30
0.0
 10
4.3547481573
 20
3.0674414365
 30
0.0
 10
4.3555092842
 20
3.0666356154
 30
0.0
 10
4.3563404313
 20
3.0657532962
 30
0.0
 10
4.3572390824
 20
3.0647966717
 30
0.0
 10
4.3582027532
 20
3.0637680437
 30
0.0
 10
4.3596110941
 20
3.06226026
 30
0.0
 10
4.3615134703
 20
3.0602124871
 30
0.0
 10
4.3639511241
 20
3.0575672527
 30
0.0
 10
4.3665820028
 20
3.0546859433
 30
0.0
 10
4.3693842457
 20
3.0515839425
 30
0.0
 10
4.3723369486
 20
3.0482754988
 30
0.0
 10
4.3754197335
 20
3.0447729808
 30
0.0
 10
4.3797586011
 20
3.0397649202
 30
0.0
 10
4.3853810314
 20
3.0330965648
 30
0.0
 10
4.3910174942
 20
3.0260924405
 30
0.0
 10
4.3955809541
 20
3.020160088
 30
0.0
 10
4.3990413906
 20
3.0154997561
 30
0.0
 10
4.4024738225
 20
3.0106796445
 30
0.0
 10
4.4058546146
 20
3.0056967624
 30
0.0
 10
4.409156525
 20
3.0005461607
 30
0.0
 10
4.4118032067
 20
2.9961213701
 30
0.0
 10
4.4138456556
 20
2.9924888994
 30
0.0
 10
4.415843446
 20
2.9887707997
 30
0.0
 10
4.4182144423
 20
2.9840036129
 30
0.0
 10
4.4207958956
 20
2.9781013597
 30
0.0
 10
4.4230608665
 20
2.9720003587
 30
0.0
 10
4.4246219908
 20
2.9667658021
 30
0.0
 10
4.4256389535
 20
2.9624917196
 30
0.0
 10
4.4262771243
 20
2.959241694
 30
0.0
 10
4.4267828016
 20
2.9559595573
 30
0.0
 10
4.4272744077
 20
2.9515486521
 30
0.0
 10
4.4274280744
 20
2.9482157585
 30
0.0
 10
4.4274279958
 20
2.9459942502
 30
0.0
  0
SPLINE
  5
350
100
AcDbEntity
  8
0
100
AcDbSpline
 62
7
  6
CONTINUOUS
 70
0
 71
3
 72
26
 73
22
 74
0
 42
0.0000001
 43
0.0000001
 44
0.0000000001
 40
0.0
 40
0.0
 40
0.0
 40
0.0
 40
0.0161396992
 40
0.0335449485
 40
0.0522067315
 40
0.072111404
 40
0.0932413717
 40
0.1155755212
 40
0.1390897819
 40
0.1637574102
 40
0.2164322604
 40
0.2733412821
 40
0.3341928994
 40
0.3986681988
 40
0.4664242272
 40
0.5370967757
 40
0.6103033498
 40
0.6856456449
 40
0.7627122818
 40
0.8410814203
 40
1.0
 40
1.0
 40
1.0
 40
1.0
 10
4.6585722277
 20
5.2898610497
 30
0.0
 10
4.6579097845
 20
5.290118747
 30
0.0
 10
4.6565225059
 20
5.2906277028
 30
0.0
 10
4.6543395809
 20
5.2913506313
 30
0.0
 10
4.6519788127
 20
5.292060916
 30
0.0
 10
4.6494434838
 20
5.2927575156
 30
0.0
 10
4.6467370841
 20
5.2934394274
 30
0.0
 10
4.64386338
 20
5.294105668
 30
0.0
 10
4.6408263766
 20
5.2947552974
 30
0.0
 10
4.6364688221
 20
5.2956169896
 30
0.0
 10
4.6306445337
 20
5.2966389066
 30
0.0
 10
4.6232221209
 20
5.2977603043
 30
0.0
 10
4.6152628636
 20
5.29879542
 30
0.0
 10
4.6068113932
 20
5.2997382725
 30
0.0
 10
4.5979150765
 20
5.3005833782
 30
0.0
 10
4.5886238436
 20
5.3013258692
 30
0.0
 10
4.578989861
 20
5.3019614732
 30
0.0
 10
4.5690672473
 20
5.3024865389
 30
0.0
 10
4.5589117172
 20
5.3028980901
 30
0.0
 10
4.5450728164
 20
5.303294017
 30
0.0
 10
4.5346219829
 20
5.3034113894
 30
0.0
 10
4.5276231179
 20
5.3034113894
 30
0.0
  0
SPLINE
  5
351
100
AcDbEntity
  8
0
100
AcDbSpline
 62
7
  6
CONTINUOUS
 70
0
 71
3
 72
26
 73
22
 74
0
 42
0.0000001
 43
0.0000001
 44
0.0000000001
 40
0.0
 40
0.0
 40
0.0
 40
0.0
 40
0.0161447874
 40
0.0335547899
 40
0.052220969
 40
0.0721296652
 40
0.0932632753
 40
0.1156006801
 40
0.139117806
 40
0.16378791
 40
0.2164665564
 40
0.2733778697
 40
0.334230342
 40
0.3987051486
 40
0.4664594426
 40
0.5371291372
 40
0.6103318736
 40
0.6856694935
 40
0.7627307739
 40
0.8410940386
 40
1.0
 40
1.0
 40
1.0
 40
1.0
 10
4.3966837829
 20
5.2898648511
 30
0.0
 10
4.3973464318
 20
5.290122482
 30
0.0
 10
4.3987340943
 20
5.2906313074
 30
0.0
 10
4.4009175447
 20
5.2913540619
 30
0.0
 10
4.4032787666
 20
5.2920641715
 30
0.0
 10
4.4058144779
 20
5.2927605956
 30
0.0
 10
4.4085211891
 20
5.2934423322
 30
0.0
 10
4.4113951344
 20
5.2941083982
 30
0.0
 10
4.4144323098
 20
5.2947578545
 30
0.0
 10
4.4187899627
 20
5.2956193048
 30
0.0
 10
4.4246142075
 20
5.2966409329
 30
0.0
 10
4.4320363744
 20
5.2977620143
 30
0.0
 10
4.4399951456
 20
5.2987968309
 30
0.0
 10
4.4484459069
 20
5.2997394051
 30
0.0
 10
4.4573413103
 20
5.3005842569
 30
0.0
 10
4.4666314467
 20
5.3013265214
 30
0.0
 10
4.4762641726
 20
5.3019619291
 30
0.0
 10
4.4861853934
 20
5.302486831
 30
0.0
 10
4.4963394203
 20
5.3028982528
 30
0.0
 10
4.5101761747
 20
5.3032940539
 30
0.0
 10
4.5206253642
 20
5.3034113894
 30
0.0
 10
4.5276231179
 20
5.3034113894
 30
0.0
  0
SPLINE
  5
352
100
AcDbEntity
  8
0
100
AcDbSpline
 62
7
  6
CONTINUOUS
 70
0
 71
3
 72
62
 73
58
 74
0
 42
0.0000001
 43
0.0000001
 44
0.0000000001
 40
0.0
 40
0.0
 40
0.0
 40
0.0
 40
0.0000066517
 40
0.0000265272
 40
0.0000596173
 40
0.0001059129
 40
0.0001654045
 40
0.0002380831
 40
0.0004229639
 40
0.0006604814
 40
0.0009505618
 40
0.0012931309
 40
0.0016881141
 40
0.0026349213
 40
0.0037900821
 40
0.0051526726
 40
0.0067217498
 40
0.008495871
 40
0.0104730676
 40
0.0126513459
 40
0.0150287027
 40
0.0203720754
 40
0.0264855627
 40
0.0333491061
 40
0.0409392618
 40
0.0492324313
 40
0.05820517
 40
0.0678332409
 40
0.0780909824
 40
0.1003930717
 40
0.1249103043
 40
0.1514509276
 40
0.179830466
 40
0.2098780664
 40
0.2414386664
 40
0.2743700302
 40
0.3085403732
 40
0.3438347896
 40
0.3801521808
 40
0.4173949654
 40
0.4554795453
 40
0.4943346246
 40
0.5338903334
 40
0.5740848981
 40
0.6148658625
 40
0.6561813329
 40
0.6979825497
 40
0.7402239959
 40
0.7614968433
 40
0.7828616317
 40
0.8258384865
 40
0.8691055398
 40
0.8908319362
 40
0.9126072649
 40
0.9344216467
 40
0.9562655826
 40
1.0
 40
1.0
 40
1.0
 40
1.0
 10
4.6838731179
 20
2.8009942502
 30
0.0
 10
4.6838729932
 20
2.8009945881
 30
0.0
 10
4.6838719399
 20
2.8009956388
 30
0.0
 10
4.683870244
 20
2.8009983576
 30
0.0
 10
4.6838669683
 20
2.8010026434
 30
0.0
 10
4.6838625959
 20
2.8010087516
 30
0.0
 10
4.6838568912
 20
2.8010165552
 30
0.0
 10
4.6838467994
 20
2.801030441
 30
0.0
 10
4.6838310168
 20
2.8010521101
 30
0.0
 10
4.6838083094
 20
2.8010832968
 30
0.0
 10
4.6837805654
 20
2.8011213787
 30
0.0
 10
4.6837477947
 20
2.8011663471
 30
0.0
 10
4.6836940672
 20
2.8012400433
 30
0.0
 10
4.683614403
 20
2.8013492806
 30
0.0
 10
4.6835038854
 20
2.8015008622
 30
0.0
 10
4.6833735642
 20
2.8016797032
 30
0.0
 10
4.6832235824
 20
2.801885686
 30
0.0
 10
4.6830540975
 20
2.8021186338
 30
0.0
 10
4.6828652827
 20
2.8023783105
 30
0.0
 10
4.682657335
 20
2.80266446
 30
0.0
 10
4.6823423329
 20
2.8030981229
 30
0.0
 10
4.6819023856
 20
2.8037043853
 30
0.0
 10
4.6813205363
 20
2.8045078022
 30
0.0
 10
4.6806683001
 20
2.8054104505
 30
0.0
 10
4.6799479306
 20
2.8064094747
 30
0.0
 10
4.6791619555
 20
2.8075019907
 30
0.0
 10
4.6783131586
 20
2.8086852439
 30
0.0
 10
4.6774043096
 20
2.80995633
 30
0.0
 10
4.6760786975
 20
2.811816669
 30
0.0
 10
4.6742919677
 20
2.8143383535
 30
0.0
 10
4.6720084963
 20
2.8175885792
 30
0.0
 10
4.6695527427
 20
2.8211198793
 30
0.0
 10
4.6669462206
 20
2.8249109986
 30
0.0
 10
4.6642100816
 20
2.8289427633
 30
0.0
 10
4.6613650931
 20
2.8331983857
 30
0.0
 10
4.6584315224
 20
2.8376631219
 30
0.0
 10
4.6554273608
 20
2.8423231527
 30
0.0
 10
4.652372049
 20
2.8471680467
 30
0.0
 10
4.6492861695
 20
2.8521899091
 30
0.0
 10
4.6461864916
 20
2.8573800883
 30
0.0
 10
4.6430934365
 20
2.8627335996
 30
0.0
 10
4.6400298916
 20
2.8682478594
 30
0.0
 10
4.6370164154
 20
2.8739194482
 30
0.0
 10
4.634077541
 20
2.8797472489
 30
0.0
 10
4.6312419901
 20
2.8857318319
 30
0.0
 10
4.6285395273
 20
2.8918731115
 30
0.0
 10
4.6260033103
 20
2.8981704867
 30
0.0
 10
4.6240651618
 20
2.9035351322
 30
0.0
 10
4.622637562
 20
2.9079040023
 30
0.0
 10
4.6212927628
 20
2.9123406817
 30
0.0
 10
4.6197940359
 20
2.9179736488
 30
0.0
 10
4.6185807998
 20
2.9236957412
 30
0.0
 10
4.6178024949
 20
2.9283296093
 30
0.0
 10
4.6173178412
 20
2.9318333729
 30
0.0
 10
4.6169352926
 20
2.9353562157
 30
0.0
 10
4.6165644746
 20
2.9400740847
 30
0.0
 10
4.6164483199
 20
2.9436261364
 30
0.0
 10
4.6164485817
 20
2.9459941915
 30
0.0
  0
SPLINE
  5
353
100
AcDbEntity
  8
0
100
AcDbSpline
 62
7
  6
CONTINUOUS
 70
0
 71
3
 72
62
 73
58
 74
0
 42
0.0000001
 43
0.0000001
 44
0.0000000001
 40
0.0
 40
0.0
 40
0.0
 40
0.0
 40
0.000006477
 40
0.0000258315
 40
0.0000580549
 40
0.0001031384
 40
0.0001610734
 40
0.0002318512
 40
0.0004119004
 40
0.0006432166
 40
0.0009257303
 40
0.0012593722
 40
0.0016440729
 40
0.0025663138
 40
0.0036916031
 40
0.0050190312
 40
0.0065476887
 40
0.0082765238
 40
0.010203831
 40
0.0123277171
 40
0.0146462895
 40
0.0198596685
 40
0.0258272839
 40
0.0325315631
 40
0.0399516144
 40
0.0480651467
 40
0.0568498404
 40
0.0662833343
 40
0.0763424731
 40
0.0982414986
 40
0.1223575652
 40
0.1485076799
 40
0.1765170767
 40
0.2062216852
 40
0.237470221
 40
0.270123911
 40
0.3391538931
 40
0.3753150102
 40
0.4124456464
 40
0.4504656636
 40
0.4893026262
 40
0.5288899665
 40
0.5691697207
 40
0.6100921983
 40
0.630781009
 40
0.6516141672
 40
0.6936898398
 40
0.7362822019
 40
0.7793536154
 40
0.8228614095
 40
0.8447664981
 40
0.8667608543
 40
0.8888356904
 40
0.9109809709
 40
0.9331848266
 40
0.9554339057
 40
1.0
 40
1.0
 40
1.0
 40
1.0
 10
3.7038731179
 20
3.0709942502
 30
0.0
 10
3.7038728281
 20
3.070994108
 30
0.0
 10
3.7038720954
 20
3.0709929607
 30
0.0
 10
3.7038699388
 20
3.070991083
 30
0.0
 10
3.703866692
 20
3.0709874845
 30
0.0
 10
3.7038619898
 20
3.0709826696
 30
0.0
 10
3.7038560129
 20
3.0709763921
 30
0.0
 10
3.703845363
 20
3.0709652839
 30
0.0
 10
3.7038287535
 20
3.0709479116
 30
0.0
 10
3.7038048495
 20
3.0709229142
 30
0.0
 10
3.7037756675
 20
3.0708923696
 30
0.0
 10
3.7037412142
 20
3.0708562871
 30
0.0
 10
3.7036847588
 20
3.0707971225
 30
0.0
 10
3.7036011033
 20
3.0707093685
 30
0.0
 10
3.703485059
 20
3.0705875673
 30
0.0
 10
3.7033481842
 20
3.0704438611
 30
0.0
 10
3.7031905671
 20
3.0702783636
 30
0.0
 10
3.7030123239
 20
3.0700912165
 30
0.0
 10
3.7028136513
 20
3.0698825528
 30
0.0
 10
3.7025947744
 20
3.0696525358
 30
0.0
 10
3.7022631165
 20
3.0693037285
 30
0.0
 10
3.7017997882
 20
3.0688157342
 30
0.0
 10
3.7011864673
 20
3.0681686964
 30
0.0
 10
3.7004980018
 20
3.0674413288
 30
0.0
 10
3.6997368314
 20
3.0666354932
 30
0.0
 10
3.698905622
 20
3.065753165
 30
0.0
 10
3.6980069329
 20
3.0647965228
 30
0.0
 10
3.6970432721
 20
3.0637678535
 30
0.0
 10
3.6956349523
 20
3.0622599955
 30
0.0
 10
3.6937324852
 20
3.0602122122
 30
0.0
 10
3.6912947518
 20
3.0575669314
 30
0.0
 10
3.6886638829
 20
3.0546854898
 30
0.0
 10
3.6858615222
 20
3.0515834768
 30
0.0
 10
3.6829087893
 20
3.0482749208
 30
0.0
 10
3.679825913
 20
3.0447723433
 30
0.0
 10
3.6754869347
 20
3.0397642236
 30
0.0
 10
3.6710577373
 20
3.0345104147
 30
0.0
 10
3.6665764168
 20
3.0290104903
 30
0.0
 10
3.6631288123
 20
3.0246627798
 30
0.0
 10
3.6596647914
 20
3.0201586036
 30
0.0
 10
3.6562037859
 20
3.0154985427
 30
0.0
 10
3.6527703905
 20
3.0106789431
 30
0.0
 10
3.6493899919
 20
3.0056957464
 30
0.0
 10
3.6466499163
 20
3.0014184277
 30
0.0
 10
3.6445122167
 20
2.9979083793
 30
0.0
 10
3.6424031693
 20
2.9943142392
 30
0.0
 10
3.6398652891
 20
2.9897065975
 30
0.0
 10
3.6370315814
 20
2.9840020258
 30
0.0
 10
3.6344503402
 20
2.9781001859
 30
0.0
 10
3.632566071
 20
2.9730274478
 30
0.0
 10
3.631251921
 20
2.9688725935
 30
0.0
 10
3.6303710826
 20
2.965703351
 30
0.0
 10
3.6296082411
 20
2.9624912689
 30
0.0
 10
3.6289707144
 20
2.9592413129
 30
0.0
 10
3.6284646552
 20
2.955959332
 30
0.0
 10
3.6279723272
 20
2.9515485855
 30
0.0
 10
3.6278181098
 20
2.9482157355
 30
0.0
 10
3.6278182401
 20
2.9459942502
 30
0.0
  0
SPLINE
  5
354
100
AcDbEntity
  8
0
100
AcDbSpline
 62
7
  6
CONTINUOUS
 70
0
 71
3
 72
62
 73
58
 74
0
 42
0.0000001
 43
0.0000001
 44
0.0000000001
 40
0.0
 40
0.0
 40
0.0
 40
0.0
 40
0.0000064784
 40
0.0000258348
 40
0.0000580604
 40
0.0001031464
 40
0.0001610842
 40
0.0002318648
 40
0.0004119199
 40
0.0006432416
 40
0.0009257599
 40
0.0012594047
 40
0.001644106
 40
0.0025663399
 40
0.0036916158
 40
0.0050190319
 40
0.0065476861
 40
0.0082765261
 40
0.0102038381
 40
0.0123277277
 40
0.0146463005
 40
0.0198596623
 40
0.0258272546
 40
0.0325315161
 40
0.0399515498
 40
0.0480651074
 40
0.0568498432
 40
0.0662833265
 40
0.0763423823
 40
0.0982413714
 40
0.122357468
 40
0.1485074856
 40
0.1765169027
 40
0.2062214671
 40
0.2374699796
 40
0.2701236876
 40
0.3391534908
 40
0.3753147169
 40
0.4124453936
 40
0.4504653455
 40
0.4893020884
 40
0.528889454
 40
0.5691693488
 40
0.61009177
 40
0.6307806031
 40
0.6516137424
 40
0.6936894489
 40
0.7362818772
 40
0.7793533558
 40
0.8228611859
 40
0.8447663029
 40
0.8667606758
 40
0.8888355427
 40
0.9109808586
 40
0.9331847329
 40
0.955433837
 40
1.0
 40
1.0
 40
1.0
 40
1.0
 10
5.3513731179
 20
2.8209942502
 30
0.0
 10
5.3513734079
 20
2.8209943923
 30
0.0
 10
5.3513741408
 20
2.82099554
 30
0.0
 10
5.3513762978
 20
2.8209974175
 30
0.0
 10
5.351379545
 20
2.8210010161
 30
0.0
 10
5.3513842477
 20
2.8210058309
 30
0.0
 10
5.3513902252
 20
2.8210121084
 30
0.0
 10
5.3514008761
 20
2.8210232165
 30
0.0
 10
5.3514174867
 20
2.8210405887
 30
0.0
 10
5.3514413919
 20
2.821065586
 30
0.0
 10
5.351470575
 20
2.8210961305
 30
0.0
 10
5.3515050289
 20
2.8211322129
 30
0.0
 10
5.3515614844
 20
2.8211913773
 30
0.0
 10
5.3516451383
 20
2.8212791312
 30
0.0
 10
5.3517611802
 20
2.8214009325
 30
0.0
 10
5.3518980528
 20
2.8215446388
 30
0.0
 10
5.3520556693
 20
2.8217101361
 30
0.0
 10
5.3522339135
 20
2.8218972825
 30
0.0
 10
5.3524325877
 20
2.8221059457
 30
0.0
 10
5.3526514658
 20
2.822335962
 30
0.0
 10
5.3529831236
 20
2.8226847684
 30
0.0
 10
5.3534464487
 20
2.8231727628
 30
0.0
 10
5.3540597659
 20
2.8238197998
 30
0.0
 10
5.3547482277
 20
2.8245471667
 30
0.0
 10
5.3555093956
 20
2.8253530036
 30
0.0
 10
5.356340612
 20
2.8262353283
 30
0.0
 10
5.3572393129
 20
2.827191963
 30
0.0
 10
5.3582029717
 20
2.8282206303
 30
0.0
 10
5.3596112655
 20
2.8297285031
 30
0.0
 10
5.3615137356
 20
2.8317762767
 30
0.0
 10
5.3639514818
 20
2.8344215379
 30
0.0
 10
5.366582321
 20
2.8373030023
 30
0.0
 10
5.3693846997
 20
2.8404049898
 30
0.0
 10
5.3723374146
 20
2.8437135578
 30
0.0
 10
5.3754202981
 20
2.8472161242
 30
0.0
 10
5.3797592926
 20
2.8522242165
 30
0.0
 10
5.3841884062
 20
2.8574780903
 30
0.0
 10
5.3886698043
 20
2.8629779473
 30
0.0
 10
5.3921174533
 20
2.8673256264
 30
0.0
 10
5.3955814842
 20
2.87182978
 30
0.0
 10
5.3990422273
 20
2.8764900184
 30
0.0
 10
5.4024756856
 20
2.8813095641
 30
0.0
 10
5.4058562865
 20
2.8862926317
 30
0.0
 10
5.4085962165
 20
2.8905700503
 30
0.0
 10
5.4107339028
 20
2.894080102
 30
0.0
 10
5.4128429152
 20
2.8976742644
 30
0.0
 10
5.4153807418
 20
2.9022819377
 30
0.0
 10
5.418214563
 20
2.9079864576
 30
0.0
 10
5.4207959994
 20
2.9138882205
 30
0.0
 10
5.4226803227
 20
2.9189609482
 30
0.0
 10
5.4239944138
 20
2.9231158253
 30
0.0
 10
5.4248751415
 20
2.9262851028
 30
0.0
 10
5.4256378335
 20
2.9294972237
 30
0.0
 10
5.4262752985
 20
2.9327471937
 30
0.0
 10
5.4267814059
 20
2.9360291695
 30
0.0
 10
5.4272738438
 20
2.9404399077
 30
0.0
 10
5.4274281366
 20
2.9437727619
 30
0.0
 10
5.4274279958
 20
2.9459942502
 30
0.0
  0
SPLINE
  5
355
100
AcDbEntity
  8
0
100
AcDbSpline
 62
7
  6
CONTINUOUS
 70
0
 71
3
 72
39
 73
35
 74
0
 42
0.0000001
 43
0.0000001
 44
0.0000000001
 40
0.0
 40
0.0
 40
0.0
 40
0.0
 40
0.0036111231
 40
0.0073101765
 40
0.0111791037
 40
0.0152897085
 40
0.0197020217
 40
0.0244646912
 40
0.0296164633
 40
0.0351879883
 40
0.0412035204
 40
0.0476823472
 40
0.0546399232
 40
0.0620887432
 40
0.0784947881
 40
0.0969293972
 40
0.1173715635
 40
0.1397856725
 40
0.1641271551
 40
0.1903454808
 40
0.218386025
 40
0.2481912768
 40
0.2797016472
 40
0.3128560257
 40
0.3475921736
 40
0.3838470097
 40
0.4606525976
 40
0.501042836
 40
0.5426198518
 40
0.6289052456
 40
0.7186501532
 40
0.8109911803
 40
0.9050630461
 40
1.0
 40
1.0
 40
1.0
 40
1.0
 10
4.6700593838
 20
5.2895729483
 30
0.0
 10
4.6700593838
 20
5.2897498954
 30
0.0
 10
4.6700304437
 20
5.2901087246
 30
0.0
 10
4.669901035
 20
5.2906430675
 30
0.0
 10
4.66968616
 20
5.2911754603
 30
0.0
 10
4.6693865559
 20
5.2917053429
 30
0.0
 10
4.6690027472
 20
5.2922326874
 30
0.0
 10
4.6685350082
 20
5.2927574914
 30
0.0
 10
4.6679834306
 20
5.2932797424
 30
0.0
 10
4.6673480037
 20
5.2937993488
 30
0.0
 10
4.6666286719
 20
5.2943161507
 30
0.0
 10
4.6658253654
 20
5.2948299259
 30
0.0
 10
4.6649380218
 20
5.2953404358
 30
0.0
 10
4.6635991399
 20
5.2960390368
 30
0.0
 10
4.6617099253
 20
5.296894394
 30
0.0
 10
4.6591829246
 20
5.2978730206
 30
0.0
 10
4.656336272
 20
5.2988328271
 30
0.0
 10
4.6531795661
 20
5.2997714936
 30
0.0
 10
4.6497224566
 20
5.3006867905
 30
0.0
 10
4.6459747897
 20
5.3015764806
 30
0.0
 10
4.6419464729
 20
5.3024383613
 30
0.0
 10
4.6376474704
 20
5.3032702488
 30
0.0
 10
4.6330877764
 20
5.3040699782
 30
0.0
 10
4.6282774094
 20
5.3048353981
 30
0.0
 10
4.6232263924
 20
5.3055643704
 30
0.0
 10
4.6160451975
 20
5.3065030621
 30
0.0
 10
4.6085714529
 20
5.3073357677
 30
0.0
 10
4.6008264815
 20
5.3080736437
 30
0.0
 10
4.5926115878
 20
5.3087729352
 30
0.0
 10
4.5819746796
 20
5.30952558
 30
0.0
 10
4.5688427378
 20
5.3102314988
 30
0.0
 10
4.5553200126
 20
5.310744089
 30
0.0
 10
4.5415367685
 20
5.3110568111
 30
0.0
 10
4.5322750813
 20
5.3111276152
 30
0.0
 10
4.5276231179
 20
5.3111276152
 30
0.0
  0
SPLINE
  5
356
100
AcDbEntity
  8
0
100
AcDbSpline
 62
7
  6
CONTINUOUS
 70
0
 71
3
 72
60
 73
56
 74
0
 42
0.0000001
 43
0.0000001
 44
0.0000000001
 40
0.0
 40
0.0
 40
0.0
 40
0.0
 40
0.0445669576
 40
0.0668166299
 40
0.0890212981
 40
0.1111677652
 40
0.1332442714
 40
0.1771406062
 40
0.2206513872
 40
0.2637245891
 40
0.3063183369
 40
0.3483950496
 40
0.3899156014
 40
0.430837668
 40
0.4711181316
 40
0.5107057414
 40
0.5875582215
 40
0.6246895189
 40
0.6608497845
 40
0.6959472508
 40
0.7298796941
 40
0.762533156
 40
0.7937813369
 40
0.8234855973
 40
0.8514945348
 40
0.8776444405
 40
0.9017603942
 40
0.923658768
 40
0.9337175695
 40
0.943151228
 40
0.9519363213
 40
0.960049735
 40
0.9674690123
 40
0.9741730044
 40
0.9801412445
 40
0.9853548397
 40
0.9876729507
 40
0.989796089
 40
0.9917225714
 40
0.9934507147
 40
0.9949789493
 40
0.9963062136
 40
0.9974315878
 40
0.9983541524
 40
0.998739097
 40
0.9990730175
 40
0.999355824
 40
0.9995874267
 40
0.9997677357
 40
0.9998386269
 40
0.9998966609
 40
0.9999418264
 40
0.9999741123
 40
0.9999935073
 40
1.0
 40
1.0
 40
1.0
 40
1.0
 10
3.6278182401
 20
2.9459942502
 30
0.0
 10
3.6278182154
 20
2.9437727427
 30
0.0
 10
3.6279715876
 20
2.9404398494
 30
0.0
 10
3.6284628596
 20
2.936028901
 30
0.0
 10
3.6289685189
 20
2.9327467559
 30
0.0
 10
3.6296070093
 20
2.9294967838
 30
0.0
 10
3.6306247454
 20
2.9252228791
 30
0.0
 10
3.6321861841
 20
2.9199884223
 30
0.0
 10
3.6344509904
 20
2.9138874029
 30
0.0
 10
3.6370308618
 20
2.907984465
 30
0.0
 10
3.6398663426
 20
2.9022805926
 30
0.0
 10
3.6429026911
 20
2.8967699767
 30
0.0
 10
3.6460909972
 20
2.8914433088
 30
0.0
 10
3.6493901461
 20
2.8862909202
 30
0.0
 10
3.6527717092
 20
2.8813084769
 30
0.0
 10
3.6573056621
 20
2.8749462508
 30
0.0
 10
3.6619263766
 20
2.8688408779
 30
0.0
 10
3.6665778078
 20
2.8629775477
 30
0.0
 10
3.6699901166
 20
2.8587884872
 30
0.0
 10
3.6733480455
 20
2.8547613073
 30
0.0
 10
3.6766331238
 20
2.8509013395
 30
0.0
 10
3.6798264966
 20
2.8472155562
 30
0.0
 10
3.6829093072
 20
2.8437130493
 30
0.0
 10
3.6858619955
 20
2.8404045848
 30
0.0
 10
3.6886642345
 20
2.8373025835
 30
0.0
 10
3.6912950883
 20
2.83442123
 30
0.0
 10
3.693732831
 20
2.8317760697
 30
0.0
 10
3.6956351913
 20
2.8297282982
 30
0.0
 10
3.6970434074
 20
2.8282204261
 30
0.0
 10
3.6980071098
 20
2.8271917982
 30
0.0
 10
3.6989059024
 20
2.8262352396
 30
0.0
 10
3.6997371011
 20
2.8253529509
 30
0.0
 10
3.7004981128
 20
2.8245470606
 30
0.0
 10
3.7011865046
 20
2.823819666
 30
0.0
 10
3.7017999572
 20
2.8231727266
 30
0.0
 10
3.7022633634
 20
2.8226847889
 30
0.0
 10
3.7025949122
 20
2.8223359524
 30
0.0
 10
3.7028136315
 20
2.8221059296
 30
0.0
 10
3.7030121284
 20
2.8218972581
 30
0.0
 10
3.7031902201
 20
2.8217101037
 30
0.0
 10
3.7033477437
 20
2.8215446081
 30
0.0
 10
3.703484583
 20
2.8214009052
 30
0.0
 10
3.7036006463
 20
2.8212791073
 30
0.0
 10
3.7036843552
 20
2.821191361
 30
0.0
 10
3.7037408794
 20
2.8211322048
 30
0.0
 10
3.7037753927
 20
2.8210961242
 30
0.0
 10
3.703804638
 20
2.8210655814
 30
0.0
 10
3.7038286035
 20
2.8210405853
 30
0.0
 10
3.7038452625
 20
2.8210232156
 30
0.0
 10
3.7038559468
 20
2.8210121074
 30
0.0
 10
3.7038619464
 20
2.8210058327
 30
0.0
 10
3.7038666629
 20
2.8210010116
 30
0.0
 10
3.7038699306
 20
2.8209974275
 30
0.0
 10
3.7038720823
 20
2.8209955246
 30
0.0
 10
3.7038728327
 20
2.8209944032
 30
0.0
 10
3.7038731179
 20
2.8209942502
 30
0.0
  0
SPLINE
  5
357
100
AcDbEntity
  8
0
100
AcDbSpline
 62
7
  6
CONTINUOUS
 70
0
 71
3
 72
60
 73
56
 74
0
 42
0.0000001
 43
0.0000001
 44
0.0000000001
 40
0.0
 40
0.0
 40
0.0
 40
0.0
 40
0.0445669592
 40
0.0668166315
 40
0.0890212994
 40
0.1111677664
 40
0.1332442723
 40
0.1771406067
 40
0.2206513882
 40
0.2637245948
 40
0.3063183517
 40
0.3483950633
 40
0.3899155811
 40
0.4308375973
 40
0.471118054
 40
0.5107057089
 40
0.5875581896
 40
0.6246894355
 40
0.6608497875
 40
0.6959472834
 40
0.729879648
 40
0.7625331347
 40
0.7937813606
 40
0.8234856007
 40
0.8514945115
 40
0.8776444841
 40
0.901760355
 40
0.9236587652
 40
0.9337176889
 40
0.9431513345
 40
0.9519362842
 40
0.9600496356
 40
0.9674690144
 40
0.9741730554
 40
0.9801411715
 40
0.985354731
 40
0.9876729453
 40
0.989796243
 40
0.9917228927
 40
0.9934511627
 40
0.994979447
 40
0.9963066928
 40
0.9974319998
 40
0.9983544681
 40
0.9987393597
 40
0.999073227
 40
0.9993559822
 40
0.9995875374
 40
0.9997678047
 40
0.9998386779
 40
0.9998966962
 40
0.9999418486
 40
0.999974124
 40
0.9999935115
 40
1.0
 40
1.0
 40
1.0
 40
1.0
 10
4.6278182401
 20
2.9459942502
 30
0.0
 10
4.6278182149
 20
2.9482157579
 30
0.0
 10
4.6279715881
 20
2.9515486514
 30
0.0
 10
4.6284628614
 20
2.9559595999
 30
0.0
 10
4.6289685209
 20
2.959241745
 30
0.0
 10
4.6296070099
 20
2.9624917175
 30
0.0
 10
4.6306247422
 20
2.9667656233
 30
0.0
 10
4.632186176
 20
2.9720000816
 30
0.0
 10
4.6344509766
 20
2.9781011039
 30
0.0
 10
4.637030863
 20
2.984004037
 30
0.0
 10
4.639866379
 20
2.9897078927
 30
0.0
 10
4.6429027234
 20
2.9952185088
 30
0.0
 10
4.6460909721
 20
3.0005452056
 30
0.0
 10
4.6493900504
 20
3.0056976349
 30
0.0
 10
4.6527716237
 20
3.0106800718
 30
0.0
 10
4.6573056536
 20
3.017042246
 30
0.0
 10
4.6619263815
 20
3.0231476062
 30
0.0
 10
4.6665777474
 20
3.0290109913
 30
0.0
 10
4.6699901182
 20
3.0332000062
 30
0.0
 10
4.6733480677
 20
3.0372271711
 30
0.0
 10
4.6766330979
 20
3.0410871786
 30
0.0
 10
4.6798264871
 20
3.0447729475
 30
0.0
 10
4.6829093156
 20
3.0482754421
 30
0.0
 10
4.6858619963
 20
3.0515839133
 30
0.0
 10
4.6886642231
 20
3.0546859274
 30
0.0
 10
4.6912951017
 20
3.0575672556
 30
0.0
 10
4.6937328232
 20
3.0602124369
 30
0.0
 10
4.6956351786
 20
3.0622602184
 30
0.0
 10
4.6970434344
 20
3.0637680635
 30
0.0
 10
4.6980071357
 20
3.0647966901
 30
0.0
 10
4.6989058951
 20
3.0657532649
 30
0.0
 10
4.6997370771
 20
3.0666355624
 30
0.0
 10
4.7004981101
 20
3.0674414387
 30
0.0
 10
4.7011865155
 20
3.0681688222
 30
0.0
 10
4.7017999437
 20
3.0688157772
 30
0.0
 10
4.702263336
 20
3.0693037242
 30
0.0
 10
4.7025949099
 20
3.0696525526
 30
0.0
 10
4.7028136634
 20
3.0698825724
 30
0.0
 10
4.7030121964
 20
3.0700912408
 30
0.0
 10
4.7031903162
 20
3.0702783922
 30
0.0
 10
4.7033478513
 20
3.0704438876
 30
0.0
 10
4.7034846873
 20
3.0705875912
 30
0.0
 10
4.7036007365
 20
3.07070939
 30
0.0
 10
4.7036844282
 20
3.0707971379
 30
0.0
 10
4.7037409366
 20
3.0708562952
 30
0.0
 10
4.7037754384
 20
3.0708923761
 30
0.0
 10
4.7038046724
 20
3.070922919
 30
0.0
 10
4.7038286276
 20
3.0709479153
 30
0.0
 10
4.7038452787
 20
3.0709652852
 30
0.0
 10
4.7038559576
 20
3.0709763934
 30
0.0
 10
4.7038619537
 20
3.0709826683
 30
0.0
 10
4.7038666677
 20
3.0709874889
 30
0.0
 10
4.7038699327
 20
3.0709910738
 30
0.0
 10
4.7038720839
 20
3.070992975
 30
0.0
 10
4.7038728326
 20
3.0709940979
 30
0.0
 10
4.7038731179
 20
3.0709942502
 30
0.0
  0
SPLINE
  5
358
100
AcDbEntity
  8
0
100
AcDbSpline
 62
7
  6
CONTINUOUS
 70
0
 71
3
 72
60
 73
56
 74
0
 42
0.0000001
 43
0.0000001
 44
0.0000000001
 40
0.0
 40
0.0
 40
0.0
 40
0.0
 40
0.0445669609
 40
0.0668166332
 40
0.0890212995
 40
0.1111677661
 40
0.1332442703
 40
0.1771406006
 40
0.2206513855
 40
0.2637245948
 40
0.3063183454
 40
0.3483950524
 40
0.3899155887
 40
0.430837623
 40
0.4711180772
 40
0.5107057133
 40
0.5875581943
 40
0.6246894562
 40
0.6608497863
 40
0.6959472761
 40
0.7298796635
 40
0.7625331409
 40
0.7937813513
 40
0.8234855998
 40
0.8514945221
 40
0.8776444608
 40
0.9017603824
 40
0.9236587684
 40
0.9337176208
 40
0.9431512749
 40
0.951936309
 40
0.9600496951
 40
0.9674690113
 40
0.9741730234
 40
0.9801412166
 40
0.9853547992
 40
0.9876729511
 40
0.9897961521
 40
0.9917226999
 40
0.9934508922
 40
0.9949791451
 40
0.9963064008
 40
0.9974317475
 40
0.9983542738
 40
0.9987391977
 40
0.9990730976
 40
0.9993558844
 40
0.9995874689
 40
0.999767762
 40
0.9998386463
 40
0.9998966744
 40
0.9999418349
 40
0.9999741168
 40
0.9999935089
 40
1.0
 40
1.0
 40
1.0
 40
1.0
 10
5.4274279958
 20
2.9459942502
 30
0.0
 10
5.4274280232
 20
2.9482157579
 30
0.0
 10
5.4272746315
 20
2.9515486513
 30
0.0
 10
5.4267833361
 20
2.9559595968
 30
0.0
 10
5.4262776766
 20
2.9592417414
 30
0.0
 10
5.4256392079
 20
2.9624917173
 30
0.0
 10
5.4246215206
 20
2.9667656333
 30
0.0
 10
5.4230600895
 20
2.972000094
 30
0.0
 10
5.4207952439
 20
2.9781010995
 30
0.0
 10
5.4182153414
 20
2.984004024
 30
0.0
 10
5.4153798674
 20
2.9897078995
 30
0.0
 10
5.4123435315
 20
2.9952185213
 30
0.0
 10
5.4091552459
 20
3.0005451979
 30
0.0
 10
5.4058561451
 20
3.0056976141
 30
0.0
 10
5.4024745819
 20
3.010680057
 30
0.0
 10
5.3979405831
 20
3.0170422516
 30
0.0
 10
5.3933198554
 20
3.0231476123
 30
0.0
 10
5.3886684708
 20
3.0290109817
 30
0.0
 10
5.3852561163
 20
3.0332000088
 30
0.0
 10
5.3818981719
 20
3.0372271773
 30
0.0
 10
5.3786131282
 20
3.0410871735
 30
0.0
 10
5.3754197448
 20
3.0447729471
 30
0.0
 10
5.3723369224
 20
3.0482754456
 30
0.0
 10
5.3693842393
 20
3.0515839148
 30
0.0
 10
5.3665820068
 20
3.0546859224
 30
0.0
 10
5.3639511411
 20
3.0575672641
 30
0.0
 10
5.3615134066
 20
3.0602124328
 30
0.0
 10
5.3596110492
 20
3.0622602092
 30
0.0
 10
5.3582028166
 20
3.06376807
 30
0.0
 10
5.3572391145
 20
3.0647966972
 30
0.0
 10
5.3563403357
 20
3.0657532624
 30
0.0
 10
5.3555091443
 20
3.0666355548
 30
0.0
 10
5.3547481245
 20
3.0674414396
 30
0.0
 10
5.3540597272
 20
3.0681688297
 30
0.0
 10
5.3534462838
 20
3.0688157752
 30
0.0
 10
5.3529828827
 20
3.0693037165
 30
0.0
 10
5.352651324
 20
3.0696525498
 30
0.0
 10
5.3524325912
 20
3.0698825714
 30
0.0
 10
5.3522340802
 20
3.0700912417
 30
0.0
 10
5.3520559777
 20
3.0702783949
 30
0.0
 10
5.3518984498
 20
3.0704438905
 30
0.0
 10
5.3517616121
 20
3.0705875936
 30
0.0
 10
5.3516455546
 20
3.0707093919
 30
0.0
 10
5.3515618526
 20
3.0707971389
 30
0.0
 10
5.3515053346
 20
3.0708562955
 30
0.0
 10
5.3514708257
 20
3.0708923762
 30
0.0
 10
5.3514415848
 20
3.0709229191
 30
0.0
 10
5.3514176232
 20
3.0709479152
 30
0.0
 10
5.3514009672
 20
3.070965285
 30
0.0
 10
5.351390285
 20
3.0709763932
 30
0.0
 10
5.3513842867
 20
3.070982668
 30
0.0
 10
5.3513795712
 20
3.0709874889
 30
0.0
 10
5.3513763045
 20
3.0709910732
 30
0.0
 10
5.351374153
 20
3.0709929755
 30
0.0
 10
5.3513734032
 20
3.0709940975
 30
0.0
 10
5.3513731179
 20
3.0709942502
 30
0.0
  0
SPLINE
  5
359
100
AcDbEntity
  8
0
100
AcDbSpline
 62
7
  6
CONTINUOUS
 70
0
 71
3
 72
71
 73
67
 74
0
 42
0.0000001
 43
0.0000001
 44
0.0000000001
 40
0.0
 40
0.0
 40
0.0
 40
0.0
 40
0.0018044688
 40
0.0036546152
 40
0.0055924882
 40
0.0076547023
 40
0.0098715256
 40
0.0122670124
 40
0.0148598354
 40
0.0176643358
 40
0.0206913572
 40
0.0239490982
 40
0.0274435707
 40
0.0311791885
 40
0.0351589852
 40
0.0393849664
 40
0.0485785065
 40
0.0587616175
 40
0.0699266285
 40
0.0820594104
 40
0.0951406711
 40
0.1091468166
 40
0.124050552
 40
0.1398213206
 40
0.1564256406
 40
0.1738273745
 40
0.1919879559
 40
0.2304197871
 40
0.2713717803
 40
0.3144660344
 40
0.3593016669
 40
0.4054594319
 40
0.4525062913
 40
0.5
 40
0.5474937087
 40
0.5945405681
 40
0.6406983331
 40
0.6855339656
 40
0.7286282197
 40
0.7695802129
 40
0.8080120441
 40
0.8261726255
 40
0.8435743594
 40
0.8601786794
 40
0.875949448
 40
0.8908531834
 40
0.9048593289
 40
0.9179405896
 40
0.9300733715
 40
0.9412383825
 40
0.9514214935
 40
0.9606150336
 40
0.9648410148
 40
0.9688208115
 40
0.9725564293
 40
0.9760509018
 40
0.9793086428
 40
0.9823356642
 40
0.9851401646
 40
0.9877329876
 40
0.9901284744
 40
0.9923452977
 40
0.9944075118
 40
0.9963453848
 40
0.9981955312
 40
1.0
 40
1.0
 40
1.0
 40
1.0
 10
4.6701231179
 20
4.7199533461
 30
0.0
 10
4.6701231179
 20
4.7201302432
 30
0.0
 10
4.6700936258
 20
4.7204891619
 30
0.0
 10
4.669961885
 20
4.7210234788
 30
0.0
 10
4.6697432662
 20
4.7215557552
 30
0.0
 10
4.6694387151
 20
4.7220854372
 30
0.0
 10
4.6690489594
 20
4.7226125461
 30
0.0
 10
4.6685745095
 20
4.7231371254
 30
0.0
 10
4.6680157311
 20
4.7236591935
 30
0.0
 10
4.6673729286
 20
4.7241786634
 30
0.0
 10
4.6666464335
 20
4.7246954053
 30
0.0
 10
4.6658365964
 20
4.7252091955
 30
0.0
 10
4.6649438418
 20
4.72571981
 30
0.0
 10
4.6639686377
 20
4.7262269583
 30
0.0
 10
4.6629115284
 20
4.7267303878
 30
0.0
 10
4.6613492668
 20
4.7274156189
 30
0.0
 10
4.659191857
 20
4.7282549005
 30
0.0
 10
4.6563556617
 20
4.7292166266
 30
0.0
 10
4.6532103194
 20
4.7301568037
 30
0.0
 10
4.6497632161
 20
4.7310731006
 30
0.0
 10
4.6460224091
 20
4.7319632037
 30
0.0
 10
4.6419967788
 20
4.7328248886
 30
0.0
 10
4.6376959198
 20
4.7336560084
 30
0.0
 10
4.6331301223
 20
4.7344545046
 30
0.0
 10
4.6283103337
 20
4.7352184003
 30
0.0
 10
4.623248124
 20
4.7359458387
 30
0.0
 10
4.6160548121
 20
4.7368824449
 30
0.0
 10
4.6065500984
 20
4.7379409676
 30
0.0
 10
4.5945909205
 20
4.7390184491
 30
0.0
 10
4.5819874205
 20
4.7399149776
 30
0.0
 10
4.5688608379
 20
4.7406216846
 30
0.0
 10
4.5553374122
 20
4.7411315279
 30
0.0
 10
4.5415472696
 20
4.7414394642
 30
0.0
 10
4.5276231179
 20
4.7415424485
 30
0.0
 10
4.5136989662
 20
4.7414394642
 30
0.0
 10
4.4999088237
 20
4.7411315279
 30
0.0
 10
4.486385398
 20
4.7406216846
 30
0.0
 10
4.4732588154
 20
4.7399149776
 30
0.0
 10
4.4606553153
 20
4.7390184491
 30
0.0
 10
4.4486961375
 20
4.7379409676
 30
0.0
 10
4.4391914238
 20
4.7368824449
 30
0.0
 10
4.4319981119
 20
4.7359458387
 30
0.0
 10
4.4269359022
 20
4.7352184003
 30
0.0
 10
4.4221161136
 20
4.7344545046
 30
0.0
 10
4.4175503161
 20
4.7336560084
 30
0.0
 10
4.4132494571
 20
4.7328248886
 30
0.0
 10
4.4092238267
 20
4.7319632037
 30
0.0
 10
4.4054830198
 20
4.7310731006
 30
0.0
 10
4.4020359165
 20
4.7301568037
 30
0.0
 10
4.3988905742
 20
4.7292166266
 30
0.0
 10
4.3960543789
 20
4.7282549005
 30
0.0
 10
4.3938969691
 20
4.7274156189
 30
0.0
 10
4.3923347075
 20
4.7267303878
 30
0.0
 10
4.3912775982
 20
4.7262269583
 30
0.0
 10
4.3903023941
 20
4.72571981
 30
0.0
 10
4.3894096395
 20
4.7252091955
 30
0.0
 10
4.3885998024
 20
4.7246954053
 30
0.0
 10
4.3878733072
 20
4.7241786634
 30
0.0
 10
4.3872305048
 20
4.7236591935
 30
0.0
 10
4.3866717264
 20
4.7231371254
 30
0.0
 10
4.3861972765
 20
4.7226125461
 30
0.0
 10
4.3858075208
 20
4.7220854372
 30
0.0
 10
4.3855029697
 20
4.7215557552
 30
0.0
 10
4.3852843508
 20
4.7210234788
 30
0.0
 10
4.38515261
 20
4.7204891619
 30
0.0
 10
4.3851231179
 20
4.7201302432
 30
0.0
 10
4.3851231179
 20
4.7199533461
 30
0.0
  0
SPLINE
  5
35A
100
AcDbEntity
  8
0
100
AcDbSpline
 62
7
  6
CONTINUOUS
 70
0
 71
3
 72
71
 73
67
 74
0
 42
0.0000001
 43
0.0000001
 44
0.0000000001
 40
0.0
 40
0.0
 40
0.0
 40
0.0
 40
0.0018044672
 40
0.0036546095
 40
0.0055924779
 40
0.0076546887
 40
0.0098715107
 40
0.0122669951
 40
0.0148598168
 40
0.0176643155
 40
0.0206913361
 40
0.0239490766
 40
0.0274435484
 40
0.0311791662
 40
0.0351589619
 40
0.0393849429
 40
0.0485784806
 40
0.0587615887
 40
0.0699265972
 40
0.0820593781
 40
0.0951406387
 40
0.1091467843
 40
0.1240505198
 40
0.1398212884
 40
0.1564256085
 40
0.173827343
 40
0.1919879251
 40
0.2304197588
 40
0.2713717554
 40
0.3144660136
 40
0.3593016508
 40
0.4054594209
 40
0.4525062857
 40
0.5
 40
0.5474937143
 40
0.5945405791
 40
0.6406983492
 40
0.6855339864
 40
0.7286282446
 40
0.7695802412
 40
0.8080120748
 40
0.826172657
 40
0.8435743915
 40
0.8601787116
 40
0.8759494802
 40
0.8908532157
 40
0.9048593613
 40
0.9179406219
 40
0.9300734028
 40
0.9412384113
 40
0.9514215194
 40
0.9606150571
 40
0.9648410381
 40
0.9688208338
 40
0.9725564516
 40
0.9760509234
 40
0.9793086639
 40
0.9823356845
 40
0.9851401832
 40
0.9877330049
 40
0.9901284893
 40
0.9923453113
 40
0.9944075221
 40
0.9963453905
 40
0.9981955328
 40
1.0
 40
1.0
 40
1.0
 40
1.0
 10
4.6676231179
 20
4.7174821113
 30
0.0
 10
4.6676231179
 20
4.7176559049
 30
0.0
 10
4.6675941436
 20
4.7180085262
 30
0.0
 10
4.6674647145
 20
4.7185334683
 30
0.0
 10
4.6672499313
 20
4.7190564053
 30
0.0
 10
4.6669507244
 20
4.7195767942
 30
0.0
 10
4.666567807
 20
4.7200946551
 30
0.0
 10
4.6661016818
 20
4.7206100316
 30
0.0
 10
4.6655527068
 20
4.7211229402
 30
0.0
 10
4.6649211823
 20
4.7216332969
 30
0.0
 10
4.664207433
 20
4.7221409731
 30
0.0
 10
4.6634118039
 20
4.7226457496
 30
0.0
 10
4.662534712
 20
4.7231474062
 30
0.0
 10
4.6615766169
 20
4.7236456572
 30
0.0
 10
4.6605380536
 20
4.724140255
 30
0.0
 10
4.6590032005
 20
4.7248134643
 30
0.0
 10
4.6568836406
 20
4.7256380219
 30
0.0
 10
4.654097204
 20
4.7265828756
 30
0.0
 10
4.6510070438
 20
4.7275065585
 30
0.0
 10
4.6476204164
 20
4.7284067803
 30
0.0
 10
4.6439452378
 20
4.7292812677
 30
0.0
 10
4.6399902326
 20
4.7301278355
 30
0.0
 10
4.6357648272
 20
4.7309443744
 30
0.0
 10
4.6312791314
 20
4.7317288621
 30
0.0
 10
4.6265439005
 20
4.7324793562
 30
0.0
 10
4.6215705013
 20
4.7331940327
 30
0.0
 10
4.6145033875
 20
4.7341142074
 30
0.0
 10
4.6051654226
 20
4.7351541598
 30
0.0
 10
4.5934160539
 20
4.7362127384
 30
0.0
 10
4.5810336668
 20
4.7370935385
 30
0.0
 10
4.5681373737
 20
4.7377878472
 30
0.0
 10
4.5548511997
 20
4.7382887461
 30
0.0
 10
4.5413029879
 20
4.7385912801
 30
0.0
 10
4.5276231179
 20
4.7386924576
 30
0.0
 10
4.513943248
 20
4.7385912801
 30
0.0
 10
4.5003950362
 20
4.7382887461
 30
0.0
 10
4.4871088622
 20
4.7377878472
 30
0.0
 10
4.4742125691
 20
4.7370935385
 30
0.0
 10
4.4618301819
 20
4.7362127384
 30
0.0
 10
4.4500808133
 20
4.7351541598
 30
0.0
 10
4.4407428484
 20
4.7341142074
 30
0.0
 10
4.4336757345
 20
4.7331940327
 30
0.0
 10
4.4287023354
 20
4.7324793562
 30
0.0
 10
4.4239671045
 20
4.7317288621
 30
0.0
 10
4.4194814087
 20
4.7309443744
 30
0.0
 10
4.4152560033
 20
4.7301278355
 30
0.0
 10
4.4113009981
 20
4.7292812677
 30
0.0
 10
4.4076258195
 20
4.7284067803
 30
0.0
 10
4.4042391921
 20
4.7275065585
 30
0.0
 10
4.4011490319
 20
4.7265828756
 30
0.0
 10
4.3983625953
 20
4.7256380219
 30
0.0
 10
4.3962430354
 20
4.7248134643
 30
0.0
 10
4.3947081823
 20
4.724140255
 30
0.0
 10
4.393669619
 20
4.7236456572
 30
0.0
 10
4.3927115239
 20
4.7231474062
 30
0.0
 10
4.391834432
 20
4.7226457496
 30
0.0
 10
4.3910388028
 20
4.7221409731
 30
0.0
 10
4.3903250536
 20
4.7216332969
 30
0.0
 10
4.3896935291
 20
4.7211229402
 30
0.0
 10
4.3891445541
 20
4.7206100316
 30
0.0
 10
4.3886784289
 20
4.7200946551
 30
0.0
 10
4.3882955115
 20
4.7195767942
 30
0.0
 10
4.3879963045
 20
4.7190564053
 30
0.0
 10
4.3877815214
 20
4.7185334683
 30
0.0
 10
4.3876520923
 20
4.7180085262
 30
0.0
 10
4.3876231179
 20
4.7176559049
 30
0.0
 10
4.3876231179
 20
4.7174821113
 30
0.0
  0
SPLINE
  5
35B
100
AcDbEntity
  8
0
100
AcDbSpline
 62
7
  6
CONTINUOUS
 70
0
 71
3
 72
71
 73
67
 74
0
 42
0.0000001
 43
0.0000001
 44
0.0000000001
 40
0.0
 40
0.0
 40
0.0
 40
0.0
 40
0.0018044672
 40
0.0036546095
 40
0.0055924779
 40
0.0076546887
 40
0.0098715107
 40
0.0122669951
 40
0.0148598168
 40
0.0176643155
 40
0.0206913361
 40
0.0239490766
 40
0.0274435484
 40
0.0311791662
 40
0.0351589619
 40
0.0393849429
 40
0.0485784806
 40
0.0587615887
 40
0.0699265972
 40
0.0820593781
 40
0.0951406387
 40
0.1091467843
 40
0.1240505198
 40
0.1398212884
 40
0.1564256085
 40
0.173827343
 40
0.1919879251
 40
0.2304197588
 40
0.2713717554
 40
0.3144660136
 40
0.3593016508
 40
0.4054594209
 40
0.4525062857
 40
0.5
 40
0.5474937143
 40
0.5945405791
 40
0.6406983492
 40
0.6855339864
 40
0.7286282446
 40
0.7695802412
 40
0.8080120748
 40
0.826172657
 40
0.8435743915
 40
0.8601787116
 40
0.8759494802
 40
0.8908532157
 40
0.9048593613
 40
0.9179406219
 40
0.9300734028
 40
0.9412384113
 40
0.9514215194
 40
0.9606150571
 40
0.9648410381
 40
0.9688208338
 40
0.9725564516
 40
0.9760509234
 40
0.9793086639
 40
0.9823356845
 40
0.9851401832
 40
0.9877330049
 40
0.9901284893
 40
0.9923453113
 40
0.9944075221
 40
0.9963453905
 40
0.9981955328
 40
1.0
 40
1.0
 40
1.0
 40
1.0
 10
4.3876231179
 20
4.7174821113
 30
0.0
 10
4.3876231179
 20
4.7173083178
 30
0.0
 10
4.3876520923
 20
4.7169556965
 30
0.0
 10
4.3877815214
 20
4.7164307544
 30
0.0
 10
4.3879963045
 20
4.7159078174
 30
0.0
 10
4.3882955115
 20
4.7153874284
 30
0.0
 10
4.3886784289
 20
4.7148695675
 30
0.0
 10
4.3891445541
 20
4.7143541911
 30
0.0
 10
4.3896935291
 20
4.7138412824
 30
0.0
 10
4.3903250536
 20
4.7133309258
 30
0.0
 10
4.3910388028
 20
4.7128232496
 30
0.0
 10
4.391834432
 20
4.7123184731
 30
0.0
 10
4.3927115239
 20
4.7118168164
 30
0.0
 10
4.393669619
 20
4.7113185655
 30
0.0
 10
4.3947081823
 20
4.7108239677
 30
0.0
 10
4.3962430354
 20
4.7101507584
 30
0.0
 10
4.3983625953
 20
4.7093262008
 30
0.0
 10
4.4011490319
 20
4.708381347
 30
0.0
 10
4.4042391921
 20
4.7074576641
 30
0.0
 10
4.4076258195
 20
4.7065574424
 30
0.0
 10
4.4113009981
 20
4.705682955
 30
0.0
 10
4.4152560033
 20
4.7048363871
 30
0.0
 10
4.4194814087
 20
4.7040198483
 30
0.0
 10
4.4239671045
 20
4.7032353606
 30
0.0
 10
4.4287023354
 20
4.7024848665
 30
0.0
 10
4.4336757345
 20
4.70177019
 30
0.0
 10
4.4407428484
 20
4.7008500153
 30
0.0
 10
4.4500808133
 20
4.6998100629
 30
0.0
 10
4.4618301819
 20
4.6987514843
 30
0.0
 10
4.4742125691
 20
4.6978706842
 30
0.0
 10
4.4871088622
 20
4.6971763754
 30
0.0
 10
4.5003950362
 20
4.6966754766
 30
0.0
 10
4.513943248
 20
4.6963729426
 30
0.0
 10
4.5276231179
 20
4.6962717651
 30
0.0
 10
4.5413029879
 20
4.6963729426
 30
0.0
 10
4.5548511997
 20
4.6966754766
 30
0.0
 10
4.5681373737
 20
4.6971763754
 30
0.0
 10
4.5810336668
 20
4.6978706842
 30
0.0
 10
4.5934160539
 20
4.6987514843
 30
0.0
 10
4.6051654226
 20
4.6998100629
 30
0.0
 10
4.6145033875
 20
4.7008500153
 30
0.0
 10
4.6215705013
 20
4.70177019
 30
0.0
 10
4.6265439005
 20
4.7024848665
 30
0.0
 10
4.6312791314
 20
4.7032353606
 30
0.0
 10
4.6357648272
 20
4.7040198483
 30
0.0
 10
4.6399902326
 20
4.7048363871
 30
0.0
 10
4.6439452378
 20
4.705682955
 30
0.0
 10
4.6476204164
 20
4.7065574424
 30
0.0
 10
4.6510070438
 20
4.7074576641
 30
0.0
 10
4.654097204
 20
4.708381347
 30
0.0
 10
4.6568836406
 20
4.7093262008
 30
0.0
 10
4.6590032005
 20
4.7101507584
 30
0.0
 10
4.6605380536
 20
4.7108239677
 30
0.0
 10
4.6615766169
 20
4.7113185655
 30
0.0
 10
4.662534712
 20
4.7118168164
 30
0.0
 10
4.6634118039
 20
4.7123184731
 30
0.0
 10
4.664207433
 20
4.7128232496
 30
0.0
 10
4.6649211823
 20
4.7133309258
 30
0.0
 10
4.6655527068
 20
4.7138412824
 30
0.0
 10
4.6661016818
 20
4.7143541911
 30
0.0
 10
4.666567807
 20
4.7148695675
 30
0.0
 10
4.6669507244
 20
4.7153874284
 30
0.0
 10
4.6672499313
 20
4.7159078174
 30
0.0
 10
4.6674647145
 20
4.7164307544
 30
0.0
 10
4.6675941436
 20
4.7169556965
 30
0.0
 10
4.6676231179
 20
4.7173083178
 30
0.0
 10
4.6676231179
 20
4.7174821113
 30
0.0
  0
SPLINE
  5
35C
100
AcDbEntity
  8
0
100
AcDbSpline
 62
7
  6
CONTINUOUS
 70
0
 71
3
 72
60
 73
56
 74
0
 42
0.0000001
 43
0.0000001
 44
0.0000000001
 40
0.0
 40
0.0
 40
0.0
 40
0.0
 40
0.0445669613
 40
0.0668166333
 40
0.089021298
 40
0.1111677643
 40
0.133244267
 40
0.1771405937
 40
0.2206513826
 40
0.2637245867
 40
0.306318313
 40
0.3483950187
 40
0.3899156109
 40
0.4308376479
 40
0.4711180593
 40
0.5107056771
 40
0.5875582247
 40
0.6246894532
 40
0.6608497782
 40
0.6959472755
 40
0.7298796629
 40
0.7625331408
 40
0.7937813521
 40
0.8234855994
 40
0.8514945202
 40
0.8776444619
 40
0.9017603816
 40
0.9236587682
 40
0.9337176244
 40
0.9431512793
 40
0.9519363106
 40
0.9600496945
 40
0.9674690116
 40
0.9741730253
 40
0.9801412187
 40
0.9853548005
 40
0.9876729518
 40
0.9897961524
 40
0.9917226998
 40
0.9934508918
 40
0.9949791444
 40
0.9963064
 40
0.9974317468
 40
0.9983542733
 40
0.9987391973
 40
0.9990730973
 40
0.9993558842
 40
0.9995874689
 40
0.999767762
 40
0.9998386464
 40
0.9998966745
 40
0.999941835
 40
0.9999741169
 40
0.999993509
 40
1.0
 40
1.0
 40
1.0
 40
1.0
 10
4.4274279958
 20
2.9459942502
 30
0.0
 10
4.4274280238
 20
2.9437727426
 30
0.0
 10
4.4272746109
 20
2.9404398494
 30
0.0
 10
4.4267832915
 20
2.9360289071
 30
0.0
 10
4.4262776327
 20
2.9327467628
 30
0.0
 10
4.4256391857
 20
2.9294967832
 30
0.0
 10
4.4246215458
 20
2.9252228561
 30
0.0
 10
4.4230601073
 20
2.9199883955
 30
0.0
 10
4.4207952084
 20
2.9138874104
 30
0.0
 10
4.4182153202
 20
2.907984484
 30
0.0
 10
4.4153799708
 20
2.9022805481
 30
0.0
 10
4.4123436007
 20
2.8967699401
 30
0.0
 10
4.4091551832
 20
2.8914433401
 30
0.0
 10
4.4058560989
 20
2.8862909142
 30
0.0
 10
4.4024745921
 20
2.8813084365
 30
0.0
 10
4.397940623
 20
2.8749462194
 30
0.0
 10
4.3933198149
 20
2.8688409191
 30
0.0
 10
4.3886684761
 20
2.8629775122
 30
0.0
 10
4.3852561198
 20
2.8587884885
 30
0.0
 10
4.3818981707
 20
2.8547613238
 30
0.0
 10
4.3786131283
 20
2.8509013262
 30
0.0
 10
4.3754197445
 20
2.8472155529
 30
0.0
 10
4.3723369217
 20
2.8437130547
 30
0.0
 10
4.3693842391
 20
2.8404045854
 30
0.0
 10
4.3665820072
 20
2.8373025772
 30
0.0
 10
4.3639511405
 20
2.8344212365
 30
0.0
 10
4.3615134066
 20
2.8317760674
 30
0.0
 10
4.3596110495
 20
2.8297282906
 30
0.0
 10
4.3582028157
 20
2.8282204306
 30
0.0
 10
4.3572391134
 20
2.8271918035
 30
0.0
 10
4.3563403352
 20
2.826235238
 30
0.0
 10
4.3555091443
 20
2.8253529454
 30
0.0
 10
4.3547481243
 20
2.8245470608
 30
0.0
 10
4.3540597267
 20
2.8238196708
 30
0.0
 10
4.3534462833
 20
2.8231727253
 30
0.0
 10
4.3529828824
 20
2.822684784
 30
0.0
 10
4.3526513238
 20
2.8223359506
 30
0.0
 10
4.3524325912
 20
2.822105929
 30
0.0
 10
4.3522340802
 20
2.8218972587
 30
0.0
 10
4.3520559778
 20
2.8217101055
 30
0.0
 10
4.3518984499
 20
2.8215446099
 30
0.0
 10
4.3517616122
 20
2.8214009068
 30
0.0
 10
4.3516455547
 20
2.8212791085
 30
0.0
 10
4.3515618527
 20
2.8211913616
 30
0.0
 10
4.3515053346
 20
2.8211322049
 30
0.0
 10
4.3514708258
 20
2.8210961242
 30
0.0
 10
4.3514415848
 20
2.8210655814
 30
0.0
 10
4.3514176232
 20
2.8210405852
 30
0.0
 10
4.3514009672
 20
2.8210232154
 30
0.0
 10
4.3513902849
 20
2.8210121072
 30
0.0
 10
4.3513842867
 20
2.8210058325
 30
0.0
 10
4.3513795712
 20
2.8210010115
 30
0.0
 10
4.3513763045
 20
2.8209974272
 30
0.0
 10
4.351374153
 20
2.8209955248
 30
0.0
 10
4.3513734032
 20
2.820994403
 30
0.0
 10
4.3513731179
 20
2.8209942502
 30
0.0
  0
SPLINE
  5
35D
100
AcDbEntity
  8
0
100
AcDbSpline
 62
7
  6
CONTINUOUS
 70
0
 71
3
 72
39
 73
35
 74
0
 42
0.0000001
 43
0.0000001
 44
0.0000000001
 40
0.0
 40
0.0
 40
0.0
 40
0.0
 40
0.0036111231
 40
0.0073101765
 40
0.0111791037
 40
0.0152897085
 40
0.0197020217
 40
0.0244646912
 40
0.0296164633
 40
0.0351879883
 40
0.0412035204
 40
0.0476823472
 40
0.0546399232
 40
0.0620887432
 40
0.0784947881
 40
0.0969293972
 40
0.1173715635
 40
0.1397856725
 40
0.1641271551
 40
0.1903454808
 40
0.218386025
 40
0.2481912768
 40
0.2797016472
 40
0.3128560257
 40
0.3475921736
 40
0.3838470097
 40
0.4606525976
 40
0.501042836
 40
0.5426198518
 40
0.6289052456
 40
0.7186501532
 40
0.8109911803
 40
0.9050630461
 40
1.0
 40
1.0
 40
1.0
 40
1.0
 10
4.6700593838
 20
5.3822442502
 30
0.0
 10
4.6700593838
 20
5.3824211972
 30
0.0
 10
4.6700304437
 20
5.3827800265
 30
0.0
 10
4.669901035
 20
5.3833143694
 30
0.0
 10
4.66968616
 20
5.3838467622
 30
0.0
 10
4.6693865559
 20
5.3843766448
 30
0.0
 10
4.6690027472
 20
5.3849039892
 30
0.0
 10
4.6685350082
 20
5.3854287933
 30
0.0
 10
4.6679834306
 20
5.3859510443
 30
0.0
 10
4.6673480037
 20
5.3864706507
 30
0.0
 10
4.6666286719
 20
5.3869874526
 30
0.0
 10
4.6658253654
 20
5.3875012278
 30
0.0
 10
4.6649380218
 20
5.3880117377
 30
0.0
 10
4.6635991399
 20
5.3887103387
 30
0.0
 10
4.6617099253
 20
5.3895656959
 30
0.0
 10
4.6591829246
 20
5.3905443225
 30
0.0
 10
4.656336272
 20
5.391504129
 30
0.0
 10
4.6531795661
 20
5.3924427955
 30
0.0
 10
4.6497224566
 20
5.3933580923
 30
0.0
 10
4.6459747897
 20
5.3942477825
 30
0.0
 10
4.6419464729
 20
5.3951096632
 30
0.0
 10
4.6376474704
 20
5.3959415506
 30
0.0
 10
4.6330877764
 20
5.3967412801
 30
0.0
 10
4.6282774094
 20
5.3975067
 30
0.0
 10
4.6232263924
 20
5.3982356723
 30
0.0
 10
4.6160451975
 20
5.399174364
 30
0.0
 10
4.6085714529
 20
5.4000070696
 30
0.0
 10
4.6008264815
 20
5.4007449456
 30
0.0
 10
4.5926115878
 20
5.4014442371
 30
0.0
 10
4.5819746796
 20
5.4021968818
 30
0.0
 10
4.5688427378
 20
5.4029028006
 30
0.0
 10
4.5553200126
 20
5.4034153909
 30
0.0
 10
4.5415367685
 20
5.403728113
 30
0.0
 10
4.5322750813
 20
5.4037989171
 30
0.0
 10
4.5276231179
 20
5.4037989171
 30
0.0
  0
LINE
  5
35E
100
AcDbEntity
  8
0
100
AcDbLine
 62
7
  6
CONTINUOUS
 10
4.5276231179
 20
4.7306401154
 11
4.5279198953
 21
4.730640014
  0
LINE
  5
35F
100
AcDbEntity
  8
0
100
AcDbLine
 62
7
  6
CONTINUOUS
 10
4.5512053933
 20
4.7299784081
 11
4.551632781
 21
4.7299533098
  0
LINE
  5
360
100
AcDbEntity
  8
0
100
AcDbLine
 62
7
  6
CONTINUOUS
 10
4.551632781
 20
4.7299533098
 11
4.5519365701
 21
4.7299351534
  0
SPLINE
  5
361
100
AcDbEntity
  8
0
100
AcDbSpline
 62
7
  6
CONTINUOUS
 70
0
 71
3
 72
12
 73
8
 74
0
 42
0.0000001
 43
0.0000001
 44
0.0000000001
 40
0.0
 40
0.0
 40
0.0
 40
0.0
 40
0.2971452078
 40
0.5560801176
 40
0.7858452563
 40
0.8939679824
 40
1.0
 40
1.0
 40
1.0
 40
1.0
 10
4.5923893188
 20
4.7224087203
 30
0.0
 10
4.5925418579
 20
4.7222768442
 30
0.0
 10
4.5928136991
 20
4.7220129649
 30
0.0
 10
4.593132253
 20
4.7215816835
 30
0.0
 10
4.5932986113
 20
4.7212074513
 30
0.0
 10
4.5933625908
 20
4.7209122077
 30
0.0
 10
4.5933731146
 20
4.7207666695
 30
0.0
 10
4.5933731146
 20
4.7206947165
 30
0.0
  0
LINE
  5
362
100
AcDbEntity
  8
0
100
AcDbLine
 62
7
  6
CONTINUOUS
 10
4.5276231179
 20
4.7306401154
 11
4.5273263406
 21
4.730640014
  0
LINE
  5
363
100
AcDbEntity
  8
0
100
AcDbLine
 62
7
  6
CONTINUOUS
 10
4.5040408426
 20
4.7299784081
 11
4.5036134549
 21
4.7299533098
  0
LINE
  5
364
100
AcDbEntity
  8
0
100
AcDbLine
 62
7
  6
CONTINUOUS
 10
4.5036134549
 20
4.7299533098
 11
4.5033096658
 21
4.7299351534
  0
SPLINE
  5
365
100
AcDbEntity
  8
0
100
AcDbSpline
 62
7
  6
CONTINUOUS
 70
0
 71
3
 72
12
 73
8
 74
0
 42
0.0000001
 43
0.0000001
 44
0.0000000001
 40
0.0
 40
0.0
 40
0.0
 40
0.0
 40
0.2971452078
 40
0.5560801176
 40
0.7858452563
 40
0.8939679824
 40
1.0
 40
1.0
 40
1.0
 40
1.0
 10
4.4628569171
 20
4.7224087203
 30
0.0
 10
4.462704378
 20
4.7222768442
 30
0.0
 10
4.4624325368
 20
4.7220129649
 30
0.0
 10
4.4621139829
 20
4.7215816835
 30
0.0
 10
4.4619476246
 20
4.7212074513
 30
0.0
 10
4.4618836451
 20
4.7209122077
 30
0.0
 10
4.4618731213
 20
4.7207666695
 30
0.0
 10
4.4618731213
 20
4.7206947165
 30
0.0
  0
SPLINE
  5
366
100
AcDbEntity
  8
0
100
AcDbSpline
 62
7
  6
CONTINUOUS
 70
0
 71
3
 72
37
 73
33
 74
0
 42
0.0000001
 43
0.0000001
 44
0.0000000001
 40
0.0
 40
0.0
 40
0.0
 40
0.0
 40
0.1000909026
 40
0.1990962425
 40
0.2959457817
 40
0.3895931775
 40
0.4790309452
 40
0.563303086
 40
0.6415179792
 40
0.7128620749
 40
0.7457299069
 40
0.7766186432
 40
0.8054562483
 40
0.8321795575
 40
0.8567355877
 40
0.8790834782
 40
0.8991974588
 40
0.9170716715
 40
0.9327278484
 40
0.9397439118
 40
0.946234079
 40
0.9522168035
 40
0.9577175065
 40
0.9627701525
 40
0.9674200886
 40
0.9717266859
 40
0.9757654126
 40
0.9796284226
 40
0.9834211212
 40
0.9872549462
 40
0.9912377401
 40
1.0
 40
1.0
 40
1.0
 40
1.0
 10
4.5276231179
 20
4.711495427
 30
0.0
 10
4.5254909569
 20
4.711495427
 30
0.0
 10
4.5212496808
 20
4.7115290739
 30
0.0
 10
4.5149469175
 20
4.7116801811
 30
0.0
 10
4.5087846357
 20
4.7119301077
 30
0.0
 10
4.5028311094
 20
4.7122759855
 30
0.0
 10
4.4971522838
 20
4.7127138457
 30
0.0
 10
4.4918109773
 20
4.7132385914
 30
0.0
 10
4.4868662853
 20
4.7138441806
 30
0.0
 10
4.4830230791
 20
4.7144248434
 30
0.0
 10
4.4801897341
 20
4.7149304208
 30
0.0
 10
4.4782549696
 20
4.7153149603
 30
0.0
 10
4.476457005
 20
4.7157141483
 30
0.0
 10
4.474800761
 20
4.7161268525
 30
0.0
 10
4.4732907259
 20
4.7165518683
 30
0.0
 10
4.4719309506
 20
4.7169879588
 30
0.0
 10
4.4707249172
 20
4.717433854
 30
0.0
 10
4.4696757339
 20
4.7178883045
 30
0.0
 10
4.4689079947
 20
4.7182864308
 30
0.0
 10
4.4683783467
 20
4.7186115558
 30
0.0
 10
4.4680367329
 20
4.7188478984
 30
0.0
 10
4.4677361973
 20
4.7190856116
 30
0.0
 10
4.4674769028
 20
4.7193246263
 30
0.0
 10
4.4672590164
 20
4.7195649267
 30
0.0
 10
4.4670827393
 20
4.7198065429
 30
0.0
 10
4.4669483563
 20
4.7200495241
 30
0.0
 10
4.4668563386
 20
4.7202938662
 30
0.0
 10
4.4668072306
 20
4.7205393123
 30
0.0
 10
4.4668014888
 20
4.7207852577
 30
0.0
 10
4.4668392085
 20
4.721030936
 30
0.0
 10
4.4669502792
 20
4.7213675603
 30
0.0
 10
4.4670945505
 20
4.7216025605
 30
0.0
 10
4.4672078734
 20
4.7217508788
 30
0.0
  0
SPLINE
  5
367
100
AcDbEntity
  8
0
100
AcDbSpline
 62
7
  6
CONTINUOUS
 70
0
 71
3
 72
32
 73
28
 74
0
 42
0.0000001
 43
0.0000001
 44
0.0000000001
 40
0.0
 40
0.0
 40
0.0
 40
0.0
 40
0.0933989983
 40
0.1859558532
 40
0.2768398476
 40
0.3652342135
 40
0.4503477828
 40
0.5314223531
 40
0.6077412431
 40
0.6786375272
 40
0.7435034976
 40
0.7735050736
 40
0.8018036885
 40
0.8283451946
 40
0.8530820157
 40
0.8759739464
 40
0.8969893157
 40
0.9161070662
 40
0.9333196875
 40
0.9486375413
 40
0.9620964568
 40
0.9737707631
 40
0.9837951647
 40
0.988261412
 40
0.9924138353
 40
0.996305153
 40
1.0
 40
1.0
 40
1.0
 40
1.0
 10
4.5276231179
 20
4.7129150457
 30
0.0
 10
4.5257180358
 20
4.7129150457
 30
0.0
 10
4.5219249902
 20
4.7129424928
 30
0.0
 10
4.5162793713
 20
4.7130658028
 30
0.0
 10
4.5107382247
 20
4.7132700219
 30
0.0
 10
4.5053525645
 20
4.7135532211
 30
0.0
 10
4.500171977
 20
4.7139127076
 30
0.0
 10
4.495244133
 20
4.7143450662
 30
0.0
 10
4.4906143154
 20
4.7148461284
 30
0.0
 10
4.48632508
 20
4.715411118
 30
0.0
 10
4.4829855336
 20
4.7159434278
 30
0.0
 10
4.4805153412
 20
4.7164018498
 30
0.0
 10
4.4788199187
 20
4.7167492604
 30
0.0
 10
4.4772368648
 20
4.7171084188
 30
0.0
 10
4.475769783
 20
4.717478483
 30
0.0
 10
4.4744219887
 20
4.71785856
 30
0.0
 10
4.4731964932
 20
4.71824774
 30
0.0
 10
4.4720959803
 20
4.7186450882
 30
0.0
 10
4.4711227544
 20
4.7190496709
 30
0.0
 10
4.4702787411
 20
4.7194605652
 30
0.0
 10
4.4695652717
 20
4.7198770739
 30
0.0
 10
4.4689834623
 20
4.7202985813
 30
0.0
 10
4.4685945197
 20
4.7206677449
 30
0.0
 10
4.4683580936
 20
4.7209663442
 30
0.0
 10
4.4682217037
 20
4.7211826858
 30
0.0
 10
4.4681195938
 20
4.7213999674
 30
0.0
 10
4.4680736924
 20
4.7215484252
 30
0.0
 10
4.4680570587
 20
4.7216219313
 30
0.0
  0
SPLINE
  5
368
100
AcDbEntity
  8
0
100
AcDbSpline
 62
7
  6
CONTINUOUS
 70
0
 71
3
 72
61
 73
57
 74
0
 42
0.0000001
 43
0.0000001
 44
0.0000000001
 40
0.0
 40
0.0
 40
0.0
 40
0.0
 40
0.0000066582
 40
0.0000265452
 40
0.0000596512
 40
0.0001059662
 40
0.0001654802
 40
0.0002381833
 40
0.0004231167
 40
0.0006606868
 40
0.000950814
 40
0.0012934185
 40
0.0016884204
 40
0.0026352212
 40
0.003790325
 40
0.0051528156
 40
0.0067217703
 40
0.0084958506
 40
0.0104730775
 40
0.0126514173
 40
0.0150288338
 40
0.0203722868
 40
0.0264856306
 40
0.0333492177
 40
0.0409396719
 40
0.0492331445
 40
0.0582058378
 40
0.0678336352
 40
0.0780912443
 40
0.1003938191
 40
0.1249111795
 40
0.1514514025
 40
0.179831607
 40
0.2098797667
 40
0.2414395481
 40
0.2743709201
 40
0.3085428395
 40
0.343836323
 40
0.3801523146
 40
0.4173967709
 40
0.4554821386
 40
0.494335127
 40
0.5338903892
 40
0.5740883425
 40
0.5944095277
 40
0.6148690357
 40
0.6561805428
 40
0.6979841136
 40
0.7402283303
 40
0.7828619579
 40
0.8258387879
 40
0.847442271
 40
0.8691117275
 40
0.9126105616
 40
0.9562645858
 40
1.0
 40
1.0
 40
1.0
 40
1.0
 10
3.6838731179
 20
3.0909942502
 30
0.0
 10
3.6838729883
 20
3.0909939138
 30
0.0
 10
3.6838719466
 20
3.0909928575
 30
0.0
 10
3.6838702389
 20
3.090990141
 30
0.0
 10
3.6838669696
 20
3.0909858499
 30
0.0
 10
3.683862594
 20
3.0909797391
 30
0.0
 10
3.6838568903
 20
3.0909719309
 30
0.0
 10
3.6838467979
 20
3.0909580388
 30
0.0
 10
3.6838310157
 20
3.0909363609
 30
0.0
 10
3.6838083084
 20
3.0909051643
 30
0.0
 10
3.6837805649
 20
3.0908670734
 30
0.0
 10
3.683747795
 20
3.090822098
 30
0.0
 10
3.68369407
 20
3.0907483975
 30
0.0
 10
3.6836144053
 20
3.0906391645
 30
0.0
 10
3.6835038854
 20
3.090487597
 30
0.0
 10
3.6833735626
 20
3.0903087776
 30
0.0
 10
3.6832235786
 20
3.0901028159
 30
0.0
 10
3.6830540939
 20
3.089869879
 30
0.0
 10
3.6828652787
 20
3.0896102016
 30
0.0
 10
3.6826573323
 20
3.0893240437
 30
0.0
 10
3.6823423384
 20
3.0888903653
 30
0.0
 10
3.681902393
 20
3.0882841075
 30
0.0
 10
3.6813205253
 20
3.0874807126
 30
0.0
 10
3.6806682809
 20
3.0865780652
 30
0.0
 10
3.6799479356
 20
3.0855789896
 30
0.0
 10
3.6791619782
 20
3.0844864339
 30
0.0
 10
3.6783131729
 20
3.0833031987
 30
0.0
 10
3.6774042965
 20
3.0820321738
 30
0.0
 10
3.6760786509
 20
3.0801718703
 30
0.0
 10
3.6742920016
 20
3.0776501197
 30
0.0
 10
3.6720085431
 20
3.0743999008
 30
0.0
 10
3.6695526428
 20
3.0708687082
 30
0.0
 10
3.6669462376
 20
3.0670774874
 30
0.0
 10
3.6642102412
 20
3.0630456358
 30
0.0
 10
3.6613650025
 20
3.0587902354
 30
0.0
 10
3.6584313215
 20
3.0543255578
 30
0.0
 10
3.6554277641
 20
3.0496651359
 30
0.0
 10
3.6523720822
 20
3.0448205708
 30
0.0
 10
3.6492855097
 20
3.0397992129
 30
0.0
 10
3.6461866785
 20
3.0346084968
 30
0.0
 10
3.6430940675
 20
3.0292547629
 30
0.0
 10
3.6400290673
 20
3.0237414664
 30
0.0
 10
3.6370152255
 20
3.0180700557
 30
0.0
 10
3.6345770838
 20
3.0132303611
 30
0.0
 10
3.6326752781
 20
3.0092794978
 30
0.0
 10
3.6307981181
 20
3.0052502565
 30
0.0
 10
3.6285361224
 20
3.000117537
 30
0.0
 10
3.6260019211
 20
2.9938192272
 30
0.0
 10
3.6236739326
 20
2.9873652967
 30
0.0
 10
3.6215877075
 20
2.980762179
 30
0.0
 10
3.6200940566
 20
2.9751497919
 30
0.0
 10
3.6190677034
 20
2.9705933797
 30
0.0
 10
3.6181601859
 20
2.9659830105
 30
0.0
 10
3.6172682115
 20
2.9601550352
 30
0.0
 10
3.6166038104
 20
2.9530953804
 30
0.0
 10
3.6164481211
 20
2.9483623434
 30
0.0
 10
3.6164485868
 20
2.9459942487
 30
0.0
  0
SPLINE
  5
369
100
AcDbEntity
  8
0
100
AcDbSpline
 62
7
  6
CONTINUOUS
 70
0
 71
3
 72
21
 73
17
 74
0
 42
0.0000001
 43
0.0000001
 44
0.0000000001
 40
0.0
 40
0.0
 40
0.0
 40
0.0
 40
0.0357389101
 40
0.0725040742
 40
0.1112311344
 40
0.152720926
 40
0.1976216478
 40
0.2464367822
 40
0.299548658
 40
0.3572443783
 40
0.4197360919
 40
0.4871801568
 40
0.5596872975
 40
0.6373355788
 40
0.8082132164
 40
1.0
 40
1.0
 40
1.0
 40
1.0
 10
4.4163731179
 20
4.7174821113
 30
0.0
 10
4.4163731179
 20
4.717334758
 30
0.0
 10
4.4163994151
 20
4.7170352116
 30
0.0
 10
4.4165167265
 20
4.7165898485
 30
0.0
 10
4.416711199
 20
4.7161465498
 30
0.0
 10
4.4169818545
 20
4.7157057677
 30
0.0
 10
4.4173279961
 20
4.7152674063
 30
0.0
 10
4.4177491612
 20
4.7148313797
 30
0.0
 10
4.4182450284
 20
4.7143976618
 30
0.0
 10
4.4188153146
 20
4.7139663384
 30
0.0
 10
4.4194597012
 20
4.7135375459
 30
0.0
 10
4.4201778369
 20
4.7131115114
 30
0.0
 10
4.4209692873
 20
4.7126884376
 30
0.0
 10
4.4221601895
 20
4.7121100849
 30
0.0
 10
4.4238333975
 20
4.7114025637
 30
0.0
 10
4.4252397748
 20
4.710892965
 30
0.0
 10
4.4259884798
 20
4.7106385621
 30
0.0
  0
LINE
  5
36A
100
AcDbEntity
  8
0
100
AcDbLine
 62
7
  6
CONTINUOUS
 10
4.426749708
 20
4.7103855492
 11
4.4315072626
 21
4.7090083932
  0
LINE
  5
36B
100
AcDbEntity
  8
0
100
AcDbLine
 62
7
  6
CONTINUOUS
 10
4.6237389733
 20
4.7090083932
 11
4.6284965278
 21
4.7103855492
  0
SPLINE
  5
36C
100
AcDbEntity
  8
0
100
AcDbSpline
 62
7
  6
CONTINUOUS
 70
0
 71
3
 72
21
 73
17
 74
0
 42
0.0000001
 43
0.0000001
 44
0.0000000001
 40
0.0
 40
0.0
 40
0.0
 40
0.0
 40
0.1917867832
 40
0.3626644204
 40
0.4403127016
 40
0.5128198422
 40
0.5802639071
 40
0.6427556207
 40
0.7004513409
 40
0.7535632168
 40
0.8023783512
 40
0.8472790732
 40
0.888768865
 40
0.9274959253
 40
0.9642610897
 40
1.0
 40
1.0
 40
1.0
 40
1.0
 10
4.6292577563
 20
4.7106385621
 30
0.0
 10
4.6300064612
 20
4.7108929651
 30
0.0
 10
4.6314128386
 20
4.7114025638
 30
0.0
 10
4.6330860465
 20
4.712110085
 30
0.0
 10
4.6342769487
 20
4.7126884377
 30
0.0
 10
4.635068399
 20
4.7131115115
 30
0.0
 10
4.6357865347
 20
4.7135375459
 30
0.0
 10
4.6364309213
 20
4.7139663385
 30
0.0
 10
4.6370012075
 20
4.7143976618
 30
0.0
 10
4.6374970747
 20
4.7148313797
 30
0.0
 10
4.6379182398
 20
4.7152674064
 30
0.0
 10
4.6382643814
 20
4.7157057677
 30
0.0
 10
4.6385350369
 20
4.7161465498
 30
0.0
 10
4.6387295094
 20
4.7165898485
 30
0.0
 10
4.6388468208
 20
4.7170352116
 30
0.0
 10
4.6388731179
 20
4.717334758
 30
0.0
 10
4.6388731179
 20
4.7174821113
 30
0.0
  0
LINE
  5
36D
100
AcDbEntity
  8
0
100
AcDbLine
 62
7
  6
CONTINUOUS
 10
4.4569846195
 20
4.7083673283
 11
4.4598220601
 21
4.7075249884
  0
LINE
  5
36E
100
AcDbEntity
  8
0
100
AcDbLine
 62
7
  6
CONTINUOUS
 10
4.5954241758
 20
4.7075249884
 11
4.5982616164
 21
4.7083673283
  0
LINE
  5
36F
100
AcDbEntity
  8
0
100
AcDbLine
 62
7
  6
CONTINUOUS
 10
4.4504035451
 20
4.7119096174
 11
4.4513812605
 21
4.7109758765
  0
LINE
  5
370
100
AcDbEntity
  8
0
100
AcDbLine
 62
7
  6
CONTINUOUS
 10
4.4256962303
 20
4.7113176953
 11
4.4260832191
 21
4.7109027446
  0
LINE
  5
371
100
AcDbEntity
  8
0
100
AcDbLine
 62
7
  6
CONTINUOUS
 10
4.6038649754
 20
4.7109758765
 11
4.6048426908
 21
4.7119096174
  0
LINE
  5
372
100
AcDbEntity
  8
0
100
AcDbLine
 62
7
  6
CONTINUOUS
 10
4.4266739457
 20
4.7161780702
 11
4.4256962303
 21
4.7152443293
  0
LINE
  5
373
100
AcDbEntity
  8
0
100
AcDbLine
 62
7
  6
CONTINUOUS
 10
4.6295500056
 20
4.7152443293
 11
4.6285722902
 21
4.7161780702
  0
SPLINE
  5
374
100
AcDbEntity
  8
0
100
AcDbSpline
 62
7
  6
CONTINUOUS
 70
0
 71
3
 72
59
 73
55
 74
0
 42
0.0000001
 43
0.0000001
 44
0.0000000001
 40
0.0
 40
0.0
 40
0.0
 40
0.0
 40
0.0437341164
 40
0.06557794
 40
0.0873922101
 40
0.109167319
 40
0.1308933799
 40
0.152561451
 40
0.1741638039
 40
0.2171404129
 40
0.2597759882
 40
0.3020200781
 40
0.3438196785
 40
0.364540088
 40
0.3851333028
 40
0.4259141062
 40
0.4661108711
 40
0.5056645909
 40
0.5445173123
 40
0.5826046423
 40
0.6198472894
 40
0.6561620765
 40
0.6914586874
 40
0.7256297958
 40
0.7585595579
 40
0.7901209149
 40
0.820169074
 40
0.8485485222
 40
0.8750890542
 40
0.899606828
 40
0.9219091049
 40
0.9417941727
 40
0.9507674434
 40
0.9590613526
 40
0.9666512944
 40
0.9735142394
 40
0.9796281629
 40
0.9849723189
 40
0.9895270969
 40
0.9915033445
 40
0.9932765009
 40
0.9948448476
 40
0.9962070802
 40
0.9973622462
 40
0.9983094045
 40
0.998704687
 40
0.9990476213
 40
0.9993381016
 40
0.9995760224
 40
0.9997612782
 40
0.9998937635
 40
0.9999401842
 40
0.9999733726
 40
1.0
 40
1.0
 40
1.0
 40
1.0
 10
3.6164485868
 20
2.9459942487
 30
0.0
 10
3.6164483302
 20
2.9436262005
 30
0.0
 10
3.6165642846
 20
2.9400741561
 30
0.0
 10
3.6169348115
 20
2.9353562741
 30
0.0
 10
3.617317239
 20
2.9318334223
 30
0.0
 10
3.6178020281
 20
2.9283297129
 30
0.0
 10
3.6183870016
 20
2.9248493565
 30
0.0
 10
3.6190688004
 20
2.9213962285
 30
0.0
 10
3.6200961322
 20
2.9168401813
 30
0.0
 10
3.6215896272
 20
2.9112276983
 30
0.0
 10
3.6236724199
 20
2.9046233388
 30
0.0
 10
3.626000027
 20
2.8981692742
 30
0.0
 10
3.6281207329
 20
2.8929067012
 30
0.0
 10
3.6299027428
 20
2.8887741203
 30
0.0
 10
3.6317226233
 20
2.8847184547
 30
0.0
 10
3.6340777657
 20
2.8797477916
 30
0.0
 10
3.6370150199
 20
2.8739191634
 30
0.0
 10
3.6400292671
 20
2.868248055
 30
0.0
 10
3.6430945219
 20
2.8627348348
 30
0.0
 10
3.6461858976
 20
2.8573803204
 30
0.0
 10
3.6492854098
 20
2.8521899948
 30
0.0
 10
3.6523728055
 20
2.8471690777
 30
0.0
 10
3.6554271004
 20
2.8423235009
 30
0.0
 10
3.6584310005
 20
2.8376631799
 30
0.0
 10
3.6613653279
 20
2.8331989224
 30
0.0
 10
3.6642099394
 20
2.8289430446
 30
0.0
 10
3.6669460514
 20
2.8249111565
 30
0.0
 10
3.6695526518
 20
2.8211200443
 30
0.0
 10
3.6720084654
 20
2.8175887417
 30
0.0
 10
3.6742918777
 20
2.8143384133
 30
0.0
 10
3.6763799456
 20
2.8113913008
 30
0.0
 10
3.6779894618
 20
2.8091366807
 30
0.0
 10
3.6791619376
 20
2.8075020276
 30
0.0
 10
3.6799478385
 20
2.8064093811
 30
0.0
 10
3.6806682332
 20
2.8054103738
 30
0.0
 10
3.681320571
 20
2.8045078186
 30
0.0
 10
3.6819023979
 20
2.8037043392
 30
0.0
 10
3.6824115052
 20
2.8030025074
 30
0.0
 10
3.6827895156
 20
2.8024823572
 30
0.0
 10
3.6830540824
 20
2.8021187881
 30
0.0
 10
3.6832235851
 20
2.8018860289
 30
0.0
 10
3.6833735779
 20
2.8016801904
 30
0.0
 10
3.6835039024
 20
2.8015014233
 30
0.0
 10
3.6836144228
 20
2.801349843
 30
0.0
 10
3.6836940812
 20
2.8012405568
 30
0.0
 10
3.6837477997
 20
2.8011667856
 30
0.0
 10
3.6837805671
 20
2.8011217433
 30
0.0
 10
3.6838083122
 20
2.8010835835
 30
0.0
 10
3.6838310094
 20
2.801052311
 30
0.0
 10
3.6838487094
 20
2.801027978
 30
0.0
 10
3.6838602242
 20
2.8010119776
 30
0.0
 10
3.6838670425
 20
2.8010027275
 30
0.0
 10
3.6838702751
 20
2.800997981
 30
0.0
 10
3.6838724474
 20
2.8009955266
 30
0.0
 10
3.6838731179
 20
2.8009942502
 30
0.0
  0
LINE
  5
375
100
AcDbEntity
  8
0
100
AcDbLine
 62
7
  6
CONTINUOUS
 10
4.4375332695
 20
4.7207548609
 11
4.4346958288
 21
4.719912521
  0
LINE
  5
376
100
AcDbEntity
  8
0
100
AcDbLine
 62
7
  6
CONTINUOUS
 10
4.620550407
 20
4.719912521
 11
4.6177129664
 21
4.7207548609
  0
SPLINE
  5
377
100
AcDbEntity
  8
0
100
AcDbSpline
 62
7
  6
CONTINUOUS
 70
0
 71
3
 72
61
 73
57
 74
0
 42
0.0000001
 43
0.0000001
 44
0.0000000001
 40
0.0
 40
0.0
 40
0.0
 40
0.0
 40
0.0000066597
 40
0.0000265489
 40
0.0000596576
 40
0.0001059756
 40
0.0001654929
 40
0.0002381994
 40
0.0004231399
 40
0.0006607166
 40
0.0009508488
 40
0.0012934563
 40
0.001688458
 40
0.002635249
 40
0.0037903375
 40
0.0051528167
 40
0.0067217717
 40
0.0084958562
 40
0.0104730865
 40
0.0126514276
 40
0.0150288417
 40
0.0203722735
 40
0.0264855963
 40
0.0333491462
 40
0.0409395999
 40
0.0492331405
 40
0.0582058676
 40
0.0678335739
 40
0.0780910693
 40
0.1003936979
 40
0.1249110606
 40
0.1514511285
 40
0.1798313375
 40
0.209879683
 40
0.2414392261
 40
0.2743704913
 40
0.3085424666
 40
0.3438361143
 40
0.3801517909
 40
0.4173959685
 40
0.455482014
 40
0.4943351013
 40
0.5338899312
 40
0.57408796
 40
0.5944091975
 40
0.6148687247
 40
0.6561804791
 40
0.6979839677
 40
0.7402279439
 40
0.782861374
 40
0.8258382933
 40
0.8474418807
 40
0.8691114674
 40
0.9126104462
 40
0.9562645066
 40
1.0
 40
1.0
 40
1.0
 40
1.0
 10
5.3713731179
 20
2.8009942502
 30
0.0
 10
5.3713732471
 20
2.8009945869
 30
0.0
 10
5.37137429
 20
2.800995643
 30
0.0
 10
5.3713759965
 20
2.8009983603
 30
0.0
 10
5.3713792666
 20
2.8010026517
 30
0.0
 10
5.3713836418
 20
2.8010087632
 30
0.0
 10
5.3713893457
 20
2.8010165721
 30
0.0
 10
5.3713994379
 20
2.8010304652
 30
0.0
 10
5.37141522
 20
2.8010521442
 30
0.0
 10
5.3714379272
 20
2.8010833422
 30
0.0
 10
5.3714656706
 20
2.8011214341
 30
0.0
 10
5.3714984404
 20
2.8011664101
 30
0.0
 10
5.3715521653
 20
2.8012401102
 30
0.0
 10
5.3716318299
 20
2.8013493415
 30
0.0
 10
5.3717423499
 20
2.8015009064
 30
0.0
 10
5.3718726727
 20
2.801679724
 30
0.0
 10
5.3720226564
 20
2.8018856854
 30
0.0
 10
5.3721921405
 20
2.8021186232
 30
0.0
 10
5.372380955
 20
2.8023783016
 30
0.0
 10
5.3725889008
 20
2.80266446
 30
0.0
 10
5.3729038945
 20
2.8030981369
 30
0.0
 10
5.3733438391
 20
2.8037043921
 30
0.0
 10
5.3739257054
 20
2.8045077824
 30
0.0
 10
5.3745779519
 20
2.8054104241
 30
0.0
 10
5.3752982978
 20
2.8064095009
 30
0.0
 10
5.3760842458
 20
2.8075020697
 30
0.0
 10
5.3769330443
 20
2.8086853101
 30
0.0
 10
5.3778419284
 20
2.8099563178
 30
0.0
 10
5.3791675887
 20
2.8118166001
 30
0.0
 10
5.380954213
 20
2.8143383638
 30
0.0
 10
5.3832376618
 20
2.8175885817
 30
0.0
 10
5.3856935899
 20
2.821119744
 30
0.0
 10
5.3882999896
 20
2.8249109699
 30
0.0
 10
5.3910359152
 20
2.8289428647
 30
0.0
 10
5.3938812261
 20
2.8331982049
 30
0.0
 10
5.3968149017
 20
2.8376628662
 30
0.0
 10
5.39981846
 20
2.8423232936
 30
0.0
 10
5.4028740232
 20
2.8471679257
 30
0.0
 10
5.4059607278
 20
2.8521891718
 30
0.0
 10
5.4090597151
 20
2.8573798013
 30
0.0
 10
5.412151912
 20
2.8627338047
 30
0.0
 10
5.4152169659
 20
2.8682470866
 30
0.0
 10
5.4182310124
 20
2.8739183731
 30
0.0
 10
5.4206690421
 20
2.8787581053
 30
0.0
 10
5.4225708721
 20
2.8827089641
 30
0.0
 10
5.4244480249
 20
2.8867382276
 30
0.0
 10
5.4267097807
 20
2.8918710615
 30
0.0
 10
5.4292440956
 20
2.8981693153
 30
0.0
 10
5.4315722746
 20
2.9046231443
 30
0.0
 10
5.4336587771
 20
2.9112261552
 30
0.0
 10
5.4351523614
 20
2.9168385634
 30
0.0
 10
5.4361785749
 20
2.9213950246
 30
0.0
 10
5.4370858367
 20
2.9260054642
 30
0.0
 10
5.4379777234
 20
2.931833461
 30
0.0
 10
5.4386423464
 20
2.9388931047
 30
0.0
 10
5.438798126
 20
2.943626148
 30
0.0
 10
5.4387976495
 20
2.9459942465
 30
0.0
  0
SPLINE
  5
378
100
AcDbEntity
  8
0
100
AcDbSpline
 62
7
  6
CONTINUOUS
 70
0
 71
3
 72
59
 73
55
 74
0
 42
0.0000001
 43
0.0000001
 44
0.0000000001
 40
0.0
 40
0.0
 40
0.0
 40
0.0
 40
0.0437341373
 40
0.065577967
 40
0.0873922433
 40
0.1091673694
 40
0.1308934597
 40
0.1525615548
 40
0.1741639245
 40
0.217140523
 40
0.2597760536
 40
0.3020201318
 40
0.3438197553
 40
0.3645401774
 40
0.3851334319
 40
0.4259143349
 40
0.4661111583
 40
0.5056647924
 40
0.5445173761
 40
0.5826047965
 40
0.6198474524
 40
0.6561621115
 40
0.6914587271
 40
0.7256298664
 40
0.7585595945
 40
0.7901209432
 40
0.8201691328
 40
0.8485485501
 40
0.8750890748
 40
0.8996068715
 40
0.9219090902
 40
0.9417942558
 40
0.9507674862
 40
0.9590613257
 40
0.9666512723
 40
0.9735142549
 40
0.9796281491
 40
0.9849722677
 40
0.9895271383
 40
0.991503464
 40
0.9932766891
 40
0.9948450727
 40
0.9962073039
 40
0.9973624412
 40
0.9983095547
 40
0.9987048122
 40
0.9990477214
 40
0.9993381775
 40
0.9995760758
 40
0.9997613119
 40
0.999893781
 40
0.9999401953
 40
0.9999733786
 40
1.0
 40
1.0
 40
1.0
 40
1.0
 10
5.4387976495
 20
2.9459942465
 30
0.0
 10
5.43879791
 20
2.9483622959
 30
0.0
 10
5.4386819369
 20
2.951914342
 30
0.0
 10
5.4383113805
 20
2.9566322235
 30
0.0
 10
5.4379289416
 20
2.9601550756
 30
0.0
 10
5.4374441656
 20
2.9636587894
 30
0.0
 10
5.4368592361
 20
2.9671391571
 30
0.0
 10
5.4361774681
 20
2.9705922953
 30
0.0
 10
5.4351501523
 20
2.9751483482
 30
0.0
 10
5.433656637
 20
2.9807608249
 30
0.0
 10
5.4315737785
 20
2.9873651601
 30
0.0
 10
5.4292461513
 20
2.9938192145
 30
0.0
 10
5.4271254777
 20
2.9990818022
 30
0.0
 10
5.4253434598
 20
3.0032143842
 30
0.0
 10
5.4235236037
 20
3.0072700698
 30
0.0
 10
5.4211685117
 20
3.0122407689
 30
0.0
 10
5.4182312852
 20
3.0180694162
 30
0.0
 10
5.4152170054
 20
3.023740498
 30
0.0
 10
5.412151672
 20
3.029253666
 30
0.0
 10
5.4090603543
 20
3.0346082112
 30
0.0
 10
5.4059608597
 20
3.0397985463
 30
0.0
 10
5.4028734066
 20
3.044819421
 30
0.0
 10
5.399819124
 20
3.0496649995
 30
0.0
 10
5.3968152403
 20
3.0543253316
 30
0.0
 10
5.3938809005
 20
3.0587895805
 30
0.0
 10
5.391036287
 20
3.0630454563
 30
0.0
 10
5.388300187
 20
3.067077352
 30
0.0
 10
5.3856935798
 20
3.0708684593
 30
0.0
 10
5.3832377631
 20
3.0743997588
 30
0.0
 10
5.3809543652
 20
3.0776500948
 30
0.0
 10
5.3788662737
 20
3.0805971948
 30
0.0
 10
5.377256782
 20
3.0828518323
 30
0.0
 10
5.3760842999
 20
3.0844864804
 30
0.0
 10
5.3752983918
 20
3.0855791146
 30
0.0
 10
5.3745779986
 20
3.0865781212
 30
0.0
 10
5.3739256678
 20
3.0874806824
 30
0.0
 10
5.3733438387
 20
3.0882841583
 30
0.0
 10
5.3728347228
 20
3.0889859856
 30
0.0
 10
5.3724567162
 20
3.0895061475
 30
0.0
 10
5.3721921533
 20
3.0898697355
 30
0.0
 10
5.3720226521
 20
3.0901025081
 30
0.0
 10
5.37187266
 20
3.0903083541
 30
0.0
 10
5.3717423352
 20
3.0904871215
 30
0.0
 10
5.3716318145
 20
3.0906386965
 30
0.0
 10
5.3715521554
 20
3.0907479756
 30
0.0
 10
5.3714984364
 20
3.0908217401
 30
0.0
 10
5.3714656688
 20
3.0908667773
 30
0.0
 10
5.3714379235
 20
3.0909049322
 30
0.0
 10
5.3714152264
 20
3.0909362002
 30
0.0
 10
5.3713975259
 20
3.090960529
 30
0.0
 10
5.3713860121
 20
3.0909765272
 30
0.0
 10
5.3713791924
 20
3.0909857747
 30
0.0
 10
5.3713759625
 20
3.0909905214
 30
0.0
 10
5.3713737853
 20
3.0909929726
 30
0.0
 10
5.3713731179
 20
3.0909942502
 30
0.0
  0
ELLIPSE
  5
379
100
AcDbEntity
  8
0
100
AcDbEllipse
 62
7
  6
CONTINUOUS
 10
4.5276231179
 20
4.7112803088
 30
0.0
 11
0.0763700487
 21
0.0190763864
 31
0.0
 40
0.7644786049
 41
2.706943288
 42
2.7556226393
  0
ELLIPSE
  5
37A
100
AcDbEntity
  8
0
100
AcDbEllipse
 62
7
  6
CONTINUOUS
 10
4.5276231179
 20
4.7112803088
 30
0.0
 11
0.0776026747
 21
-0.010073695
 31
0.0
 40
0.474907773
 41
0.258853807
 42
0.375729684
  0
ELLIPSE
  5
37B
100
AcDbEntity
  8
0
100
AcDbEllipse
 62
7
  6
CONTINUOUS
 10
4.5786424039
 20
4.7983744672
 30
0.0
 11
0.1256275217
 21
0.1136293373
 31
0.0
 40
0.5769452805
 41
-1.7515328715
 42
-1.7136649526
  0
ELLIPSE
  5
37C
100
AcDbEntity
  8
0
100
AcDbEllipse
 62
7
  6
CONTINUOUS
 10
4.5276231179
 20
4.7112803088
 30
0.0
 11
0.0770839329
 21
-0.0266618484
 31
0.0
 40
0.3808919632
 41
0.6424315011
 42
0.7593073781
  0
ELLIPSE
  5
37D
100
AcDbEntity
  8
0
100
AcDbEllipse
 62
7
  6
CONTINUOUS
 10
4.6070875189
 20
4.7952484225
 30
0.0
 11
0.1472865114
 21
0.1169623571
 31
0.0
 40
0.3916518469
 41
-1.9023705699
 42
-1.8611499445
  0
ELLIPSE
  5
37E
100
AcDbEntity
  8
0
100
AcDbEllipse
 62
7
  6
CONTINUOUS
 10
4.5276231179
 20
4.7112803088
 30
0.0
 11
0.0771896812
 21
-0.0377530754
 31
0.0
 40
0.2468008202
 41
0.9457297314
 42
1.0626056084
  0
ELLIPSE
  5
37F
100
AcDbEntity
  8
0
100
AcDbEllipse
 62
7
  6
CONTINUOUS
 10
4.6277541046
 20
4.7909457911
 30
0.0
 11
0.1632075818
 21
0.1173478697
 31
0.0
 40
0.2508682184
 41
-2.0600729705
 42
-2.0104998493
  0
ELLIPSE
  5
380
100
AcDbEntity
  8
0
100
AcDbEllipse
 62
7
  6
CONTINUOUS
 10
4.5276231179
 20
4.7112803088
 30
0.0
 11
0.0776073327
 21
-0.0449269559
 31
0.0
 40
0.1047902948
 41
1.2003501317
 42
1.3172260088
  0
ELLIPSE
  5
381
100
AcDbEntity
  8
0
100
AcDbEllipse
 62
7
  6
CONTINUOUS
 10
4.6386191717
 20
4.7858877445
 30
0.0
 11
0.1719235268
 21
0.1145408751
 31
0.0
 40
0.1351315396
 41
-2.2216129982
 42
-2.1471416379
  0
ELLIPSE
  5
382
100
AcDbEntity
  8
0
100
AcDbEllipse
 62
7
  6
CONTINUOUS
 10
4.4166270642
 20
4.7805693996
 30
0.0
 11
0.1725916848
 21
-0.1086799838
 31
0.0
 40
0.0281814881
 41
-0.8350323949
 42
-0.7518331913
  0
ELLIPSE
  5
383
100
AcDbEntity
  8
0
100
AcDbEllipse
 62
7
  6
CONTINUOUS
 10
4.6386191717
 20
4.7805693996
 30
0.0
 11
0.1725916848
 21
0.1086799838
 31
0.0
 40
0.0281814881
 41
-2.3897594623
 42
-2.3065602587
  0
ELLIPSE
  5
384
100
AcDbEntity
  8
0
100
AcDbEllipse
 62
7
  6
CONTINUOUS
 10
4.4166270642
 20
4.7858877445
 30
0.0
 11
0.1719235268
 21
-0.1145408751
 31
0.0
 40
0.1351315396
 41
-0.9944510157
 42
-0.9199796553
  0
ELLIPSE
  5
385
100
AcDbEntity
  8
0
100
AcDbEllipse
 62
7
  6
CONTINUOUS
 10
4.5276231179
 20
4.7112803088
 30
0.0
 11
0.0776073327
 21
0.0449269559
 31
0.0
 40
0.1047902948
 41
1.8243666448
 42
1.9412425218
  0
ELLIPSE
  5
386
100
AcDbEntity
  8
0
100
AcDbEllipse
 62
7
  6
CONTINUOUS
 10
4.4274921313
 20
4.7909457911
 30
0.0
 11
0.1632075818
 21
-0.1173478697
 31
0.0
 40
0.2508682184
 41
-1.1310928043
 42
-1.0815196831
  0
ELLIPSE
  5
387
100
AcDbEntity
  8
0
100
AcDbEllipse
 62
7
  6
CONTINUOUS
 10
4.5276231179
 20
4.7112803088
 30
0.0
 11
0.0771896812
 21
0.0377530754
 31
0.0
 40
0.2468008202
 41
2.0789870452
 42
2.1958629222
  0
ELLIPSE
  5
388
100
AcDbEntity
  8
0
100
AcDbEllipse
 62
7
  6
CONTINUOUS
 10
4.448158717
 20
4.7952484225
 30
0.0
 11
0.1472865114
 21
-0.1169623571
 31
0.0
 40
0.3916518469
 41
-1.2804427091
 42
-1.2392220837
  0
ELLIPSE
  5
389
100
AcDbEntity
  8
0
100
AcDbEllipse
 62
7
  6
CONTINUOUS
 10
4.5276231179
 20
4.7112803088
 30
0.0
 11
0.0770839329
 21
0.0266618484
 31
0.0
 40
0.3808919632
 41
2.3822852755
 42
2.4991611525
  0
ELLIPSE
  5
38A
100
AcDbEntity
  8
0
100
AcDbEllipse
 62
7
  6
CONTINUOUS
 10
4.4766038319
 20
4.7983744672
 30
0.0
 11
-0.1256275217
 21
0.1136293373
 31
0.0
 40
0.5769452805
 41
-4.5695203546
 42
-4.5316524357
  0
ELLIPSE
  5
38B
100
AcDbEntity
  8
0
100
AcDbEllipse
 62
7
  6
CONTINUOUS
 10
4.5276231179
 20
4.7112803088
 30
0.0
 11
0.0776026747
 21
0.010073695
 31
0.0
 40
0.474907773
 41
2.7658629696
 42
2.8827388466
  0
ELLIPSE
  5
38C
100
AcDbEntity
  8
0
100
AcDbEllipse
 62
7
  6
CONTINUOUS
 10
4.5100430701
 20
4.7664392179
 30
0.0
 11
0.1319757379
 21
-0.032095339
 31
0.0
 40
0.5981924693
 41
-2.186159109
 42
-2.1110484765
  0
ELLIPSE
  5
38D
100
AcDbEntity
  8
0
100
AcDbEllipse
 62
7
  6
CONTINUOUS
 10
4.4766038319
 20
4.7680826769
 30
0.0
 11
0.1390336763
 21
-0.0683500243
 31
0.0
 40
0.400608112
 41
-1.7375662403
 42
-1.6765756426
  0
ELLIPSE
  5
38E
100
AcDbEntity
  8
0
100
AcDbEllipse
 62
7
  6
CONTINUOUS
 10
4.5276231179
 20
4.7112803088
 30
0.0
 11
0.0738045199
 21
0.0390996919
 31
0.0
 40
0.6254045512
 41
2.2519725098
 42
2.3102099534
  0
ELLIPSE
  5
38F
100
AcDbEntity
  8
0
100
AcDbEllipse
 62
7
  6
CONTINUOUS
 10
4.448158717
 20
4.7712087216
 30
0.0
 11
0.1530163988
 21
-0.0871625994
 31
0.0
 40
0.2229739838
 41
-1.4711417108
 42
-1.4144187726
  0
ELLIPSE
  5
390
100
AcDbEntity
  8
0
100
AcDbEllipse
 62
7
  6
CONTINUOUS
 10
4.5276231179
 20
4.7112803088
 30
0.0
 11
0.0745368479
 21
0.0471035314
 31
0.0
 40
0.4696165267
 41
1.9477181976
 42
2.0274962156
  0
ELLIPSE
  5
391
100
AcDbEntity
  8
0
100
AcDbEllipse
 62
7
  6
CONTINUOUS
 10
4.4274921313
 20
4.775511353
 30
0.0
 11
0.1656217094
 21
-0.0997583324
 31
0.0
 40
0.0855355287
 41
-1.2634283748
 42
-1.2085027131
  0
ELLIPSE
  5
392
100
AcDbEntity
  8
0
100
AcDbEllipse
 62
7
  6
CONTINUOUS
 10
4.5276231179
 20
4.7112803088
 30
0.0
 11
0.0760448961
 21
0.0505356869
 31
0.0
 40
0.3204410998
 41
1.675140304
 42
1.792016181
  0
ELLIPSE
  5
393
100
AcDbEntity
  8
0
100
AcDbEllipse
 62
7
  6
CONTINUOUS
 10
4.5276231179
 20
4.7112803088
 30
0.0
 11
0.0777292336
 21
-0.0492433608
 31
0.0
 40
0.0364896329
 41
1.7911926689
 42
1.9080685459
  0
ELLIPSE
  5
394
100
AcDbEntity
  8
0
100
AcDbEllipse
 62
7
  6
CONTINUOUS
 10
4.5276231179
 20
4.7112803088
 30
0.0
 11
0.0772205415
 21
0.0511072113
 31
0.0
 40
0.177238619
 41
1.454027336
 42
1.570903213
  0
ELLIPSE
  5
395
100
AcDbEntity
  8
0
100
AcDbEllipse
 62
7
  6
CONTINUOUS
 10
4.5276231179
 20
4.7112803088
 30
0.0
 11
0.0772205415
 21
-0.0511072113
 31
0.0
 40
0.177238619
 41
1.5706894406
 42
1.6875653176
  0
ELLIPSE
  5
396
100
AcDbEntity
  8
0
100
AcDbEllipse
 62
7
  6
CONTINUOUS
 10
4.5276231179
 20
4.7112803088
 30
0.0
 11
0.0777292336
 21
0.0492433608
 31
0.0
 40
0.0364896329
 41
1.2335241077
 42
1.3503999847
  0
ELLIPSE
  5
397
100
AcDbEntity
  8
0
100
AcDbEllipse
 62
7
  6
CONTINUOUS
 10
4.5276231179
 20
4.7112803088
 30
0.0
 11
0.0760448961
 21
-0.0505356869
 31
0.0
 40
0.3204410998
 41
1.3495764726
 42
1.4664523496
  0
ELLIPSE
  5
398
100
AcDbEntity
  8
0
100
AcDbEllipse
 62
7
  6
CONTINUOUS
 10
4.6277541046
 20
4.775511353
 30
0.0
 11
0.1656217094
 21
0.0997583324
 31
0.0
 40
0.0855355287
 41
-1.9330899405
 42
-1.8781642788
  0
ELLIPSE
  5
399
100
AcDbEntity
  8
0
100
AcDbEllipse
 62
7
  6
CONTINUOUS
 10
4.5276231179
 20
4.7112803088
 30
0.0
 11
0.0745368479
 21
-0.0471035314
 31
0.0
 40
0.4696165267
 41
1.1140964379
 42
1.193874456
  0
ELLIPSE
  5
39A
100
AcDbEntity
  8
0
100
AcDbEllipse
 62
7
  6
CONTINUOUS
 10
4.6070875189
 20
4.7712087216
 30
0.0
 11
0.1530163988
 21
0.0871625994
 31
0.0
 40
0.2229739838
 41
-1.727173881
 42
-1.6704509428
  0
ELLIPSE
  5
39B
100
AcDbEntity
  8
0
100
AcDbEllipse
 62
7
  6
CONTINUOUS
 10
4.5276231179
 20
4.7112803088
 30
0.0
 11
0.0738045199
 21
-0.0390996919
 31
0.0
 40
0.6254045512
 41
0.8313827002
 42
0.8896201438
  0
ELLIPSE
  5
39C
100
AcDbEntity
  8
0
100
AcDbEllipse
 62
7
  6
CONTINUOUS
 10
4.5786424039
 20
4.7680826769
 30
0.0
 11
0.1390336763
 21
0.0683500243
 31
0.0
 40
0.400608112
 41
-1.465017011
 42
-1.4040264133
  0
ELLIPSE
  5
39D
100
AcDbEntity
  8
0
100
AcDbEllipse
 62
7
  6
CONTINUOUS
 10
4.5276231179
 20
4.7112803088
 30
0.0
 11
0.0763700487
 21
-0.0190763864
 31
0.0
 40
0.7644786049
 41
0.3859700143
 42
0.4346493656
  0
ELLIPSE
  5
39E
100
AcDbEntity
  8
0
100
AcDbEllipse
 62
7
  6
CONTINUOUS
 10
4.5452031658
 20
4.7664392179
 30
0.0
 11
0.1319757379
 21
0.032095339
 31
0.0
 40
0.5981924693
 41
-1.0305441771
 42
-0.9554335446
  0
ELLIPSE
  5
39F
100
AcDbEntity
  8
0
100
AcDbEllipse
 62
7
  6
CONTINUOUS
 10
4.5452031658
 20
4.8000179262
 30
0.0
 11
0.0959594658
 21
0.1114589132
 31
0.0
 40
0.8309556449
 41
-3.4965340947
 42
-3.4331034856
  0
ELLIPSE
  5
3A0
100
AcDbEntity
  8
0
100
AcDbEllipse
 62
7
  6
CONTINUOUS
 10
4.5276231179
 20
4.7112803088
 30
0.0
 11
0.0738045199
 21
0.0390996919
 31
0.0
 40
0.6254045512
 41
-0.7509751889
 42
-0.6340993119
  0
ELLIPSE
  5
3A1
100
AcDbEntity
  8
0
100
AcDbEllipse
 62
7
  6
CONTINUOUS
 10
4.5566707154
 20
4.7342173298
 30
0.0
 11
0.0062483307
 21
0.0039584695
 31
0.0
 40
0.0364896329
 41
8.0235900109
 42
10.6583020684
  0
ELLIPSE
  5
3A2
100
AcDbEntity
  8
0
100
AcDbEllipse
 62
7
  6
CONTINUOUS
 10
4.5276231179
 20
4.7112803088
 30
0.0
 11
0.0745368479
 21
0.0471035314
 31
0.0
 40
0.4696165267
 41
-1.0336889266
 42
-0.9168130496
  0
ELLIPSE
  5
3A3
100
AcDbEntity
  8
0
100
AcDbEllipse
 62
7
  6
CONTINUOUS
 10
4.5276231179
 20
4.7112803088
 30
0.0
 11
0.0760448961
 21
0.0505356869
 31
0.0
 40
0.3204410998
 41
-1.2691689613
 42
-1.1522930843
  0
ELLIPSE
  5
3A4
100
AcDbEntity
  8
0
100
AcDbEllipse
 62
7
  6
CONTINUOUS
 10
4.5828749317
 20
4.7091916945
 30
0.0
 11
0.0061129338
 21
0.0040623543
 31
0.0
 40
0.3204410998
 41
2.5382687327
 42
3.9884635997
  0
ELLIPSE
  5
3A5
100
AcDbEntity
  8
0
100
AcDbEllipse
 62
7
  6
CONTINUOUS
 10
4.5276231179
 20
4.7112803088
 30
0.0
 11
0.0772205415
 21
0.0511072113
 31
0.0
 40
0.177238619
 41
-1.4902819292
 42
-1.3734060522
  0
ELLIPSE
  5
3A6
100
AcDbEntity
  8
0
100
AcDbEllipse
 62
7
  6
CONTINUOUS
 10
4.5566707154
 20
4.7071721031
 30
0.0
 11
0.006207439
 21
0.0041082967
 31
0.0
 40
0.177238619
 41
1.957405197
 42
4.4877075795
  0
ELLIPSE
  5
3A7
100
AcDbEntity
  8
0
100
AcDbEllipse
 62
7
  6
CONTINUOUS
 10
4.5276231179
 20
4.7064761994
 30
0.0
 11
0.0062483307
 21
-0.0039584695
 31
0.0
 40
0.0364896329
 41
-1.3906037403
 42
1.5939092806
  0
ELLIPSE
  5
3A8
100
AcDbEntity
  8
0
100
AcDbEllipse
 62
7
  6
CONTINUOUS
 10
4.5276231179
 20
4.7112803088
 30
0.0
 11
0.0777292336
 21
-0.0492433608
 31
0.0
 40
0.0364896329
 41
-1.547683373
 42
-1.430807496
  0
ELLIPSE
  5
3A9
100
AcDbEntity
  8
0
100
AcDbEllipse
 62
7
  6
CONTINUOUS
 10
4.5276231179
 20
4.7112803088
 30
0.0
 11
0.0777292336
 21
0.0492433608
 31
0.0
 40
0.0364896329
 41
-1.7107851576
 42
-1.5939092806
  0
ELLIPSE
  5
3AA
100
AcDbEntity
  8
0
100
AcDbEllipse
 62
7
  6
CONTINUOUS
 10
4.5276231179
 20
4.7064761994
 30
0.0
 11
0.0062483307
 21
0.0039584695
 31
0.0
 40
0.0364896329
 41
7.8308686802
 42
10.8153817011
  0
ELLIPSE
  5
3AB
100
AcDbEntity
  8
0
100
AcDbEllipse
 62
7
  6
CONTINUOUS
 10
4.4985755205
 20
4.7071721031
 30
0.0
 11
0.006207439
 21
-0.0041082967
 31
0.0
 40
0.177238619
 41
4.9370703837
 42
7.4673727626
  0
ELLIPSE
  5
3AC
100
AcDbEntity
  8
0
100
AcDbEllipse
 62
7
  6
CONTINUOUS
 10
4.5276231179
 20
4.7112803088
 30
0.0
 11
0.0772205415
 21
-0.0511072113
 31
0.0
 40
0.177238619
 41
-1.7681866014
 42
-1.6513107244
  0
ELLIPSE
  5
3AD
100
AcDbEntity
  8
0
100
AcDbEllipse
 62
7
  6
CONTINUOUS
 10
4.4723713042
 20
4.7091916945
 30
0.0
 11
0.0061129338
 21
-0.0040623543
 31
0.0
 40
0.3204410998
 41
5.4363143711
 42
6.886509219
  0
ELLIPSE
  5
3AE
100
AcDbEntity
  8
0
100
AcDbEllipse
 62
7
  6
CONTINUOUS
 10
4.5276231179
 20
4.7112803088
 30
0.0
 11
0.0760448961
 21
-0.0505356869
 31
0.0
 40
0.3204410998
 41
-1.9892995693
 42
-1.8724236923
  0
ELLIPSE
  5
3AF
100
AcDbEntity
  8
0
100
AcDbEllipse
 62
7
  6
CONTINUOUS
 10
4.5276231179
 20
4.7112803088
 30
0.0
 11
0.0745368479
 21
-0.0471035314
 31
0.0
 40
0.4696165267
 41
-2.224779604
 42
-2.107903727
  0
ELLIPSE
  5
3B0
100
AcDbEntity
  8
0
100
AcDbEllipse
 62
7
  6
CONTINUOUS
 10
4.5276231179
 20
4.7112803088
 30
0.0
 11
0.0738045199
 21
-0.0390996919
 31
0.0
 40
0.6254045512
 41
-2.5074933417
 42
-2.3906174647
  0
ELLIPSE
  5
3B1
100
AcDbEntity
  8
0
100
AcDbEllipse
 62
7
  6
CONTINUOUS
 10
4.5100430701
 20
4.8000179262
 30
0.0
 11
-0.0959594658
 21
0.1114589132
 31
0.0
 40
0.8309556449
 41
-4.7100639628
 42
-4.6294253607
  0
ELLIPSE
  5
3B2
100
AcDbEntity
  8
0
100
AcDbEllipse
 62
7
  6
CONTINUOUS
 10
4.5276231179
 20
4.7112803088
 30
0.0
 11
0.0763700487
 21
-0.0190763864
 31
0.0
 40
0.7644786049
 41
-2.880841679
 42
-2.8360301506
  0
ELLIPSE
  5
3B3
100
AcDbEntity
  8
0
100
AcDbEllipse
 62
7
  6
CONTINUOUS
 10
4.5786424039
 20
4.7983744672
 30
0.0
 11
0.1256275217
 21
0.1136293373
 31
0.0
 40
0.5769452805
 41
-3.5886510787
 42
-3.5308764105
  0
ELLIPSE
  5
3B4
100
AcDbEntity
  8
0
100
AcDbEllipse
 62
7
  6
CONTINUOUS
 10
4.4515755205
 20
4.7290521511
 30
0.0
 11
0.0059328392
 21
0.0031430621
 31
0.0
 40
0.6254045512
 41
2.685419221
 42
4.3980297875
  0
ELLIPSE
  5
3B5
100
AcDbEntity
  8
0
100
AcDbEllipse
 62
7
  6
CONTINUOUS
 10
4.6070875189
 20
4.7952484225
 30
0.0
 11
0.1472865114
 21
0.1169623571
 31
0.0
 40
0.3916518469
 41
2.5460440175
 42
2.6014711983
  0
ELLIPSE
  5
3B6
100
AcDbEntity
  8
0
100
AcDbEllipse
 62
7
  6
CONTINUOUS
 10
4.4723713042
 20
4.7321977384
 30
0.0
 11
0.005991708
 21
0.0037864575
 31
0.0
 40
0.4696165267
 41
2.340370843
 42
4.6846327565
  0
ELLIPSE
  5
3B7
100
AcDbEntity
  8
0
100
AcDbEllipse
 62
7
  6
CONTINUOUS
 10
4.6277541046
 20
4.7909457911
 30
0.0
 11
0.1632075818
 21
0.1173478697
 31
0.0
 40
0.2508682184
 41
2.3894129399
 42
2.4437687976
  0
ELLIPSE
  5
3B8
100
AcDbEntity
  8
0
100
AcDbEllipse
 62
7
  6
CONTINUOUS
 10
4.4985755205
 20
4.7342173298
 30
0.0
 11
0.0061129338
 21
0.0040623543
 31
0.0
 40
0.3204410998
 41
2.1744317829
 42
4.8167329575
  0
ELLIPSE
  5
3B9
100
AcDbEntity
  8
0
100
AcDbEllipse
 62
7
  6
CONTINUOUS
 10
4.4166270642
 20
4.7805693996
 30
0.0
 11
0.1725916848
 21
-0.1086799838
 31
0.0
 40
0.0281814881
 41
1.0275103477
 42
1.0816637974
  0
ELLIPSE
  5
3BA
100
AcDbEntity
  8
0
100
AcDbEllipse
 62
7
  6
CONTINUOUS
 10
4.4985755205
 20
4.7342173298
 30
0.0
 11
0.0062483307
 21
-0.0039584695
 31
0.0
 40
0.0364896329
 41
-1.2335241077
 42
1.4011879501
  0
ELLIPSE
  5
3BB
100
AcDbEntity
  8
0
100
AcDbEllipse
 62
7
  6
CONTINUOUS
 10
4.6386191717
 20
4.7858877445
 30
0.0
 11
0.1719235268
 21
0.1145408751
 31
0.0
 40
0.1351315396
 41
2.2282359358
 42
2.2822287699
  0
ELLIPSE
  5
3BC
100
AcDbEntity
  8
0
100
AcDbEllipse
 62
7
  6
CONTINUOUS
 10
4.5276231179
 20
4.7349132336
 30
0.0
 11
0.006207439
 21
0.0041082967
 31
0.0
 40
0.177238619
 41
8.2597532375
 42
10.8788052968
  0
ELLIPSE
  5
3BD
100
AcDbEntity
  8
0
100
AcDbEllipse
 62
7
  6
CONTINUOUS
 10
4.4166270642
 20
4.7858877445
 30
0.0
 11
0.1719235268
 21
-0.1145408751
 31
0.0
 40
0.1351315396
 41
0.8593638837
 42
0.9133567178
  0
ELLIPSE
  5
3BE
100
AcDbEntity
  8
0
100
AcDbEllipse
 62
7
  6
CONTINUOUS
 10
4.5276231179
 20
4.7349132336
 30
0.0
 11
0.006207439
 21
-0.0041082967
 31
0.0
 40
0.177238619
 41
-1.454027336
 42
1.1650247235
  0
ELLIPSE
  5
3BF
100
AcDbEntity
  8
0
100
AcDbEllipse
 62
7
  6
CONTINUOUS
 10
4.6386191717
 20
4.7805693996
 30
0.0
 11
0.1725916848
 21
0.1086799838
 31
0.0
 40
0.0281814881
 41
2.0599288561
 42
2.1140823059
  0
ELLIPSE
  5
3C0
100
AcDbEntity
  8
0
100
AcDbEllipse
 62
7
  6
CONTINUOUS
 10
4.4274921313
 20
4.7909457911
 30
0.0
 11
0.1632075818
 21
-0.1173478697
 31
0.0
 40
0.2508682184
 41
0.697823856
 42
0.7521797137
  0
ELLIPSE
  5
3C1
100
AcDbEntity
  8
0
100
AcDbEllipse
 62
7
  6
CONTINUOUS
 10
4.5566707154
 20
4.7342173298
 30
0.0
 11
0.0061129338
 21
-0.0040623543
 31
0.0
 40
0.3204410998
 41
4.6080450032
 42
7.2503461781
  0
ELLIPSE
  5
3C2
100
AcDbEntity
  8
0
100
AcDbEllipse
 62
7
  6
CONTINUOUS
 10
4.448158717
 20
4.7952484225
 30
0.0
 11
0.1472865114
 21
-0.1169623571
 31
0.0
 40
0.3916518469
 41
0.5401214553
 42
0.5955486361
  0
ELLIPSE
  5
3C3
100
AcDbEntity
  8
0
100
AcDbEllipse
 62
7
  6
CONTINUOUS
 10
4.5828749317
 20
4.7321977384
 30
0.0
 11
0.005991708
 21
-0.0037864575
 31
0.0
 40
0.4696165267
 41
4.7401452049
 42
7.0844071173
  0
ELLIPSE
  5
3C4
100
AcDbEntity
  8
0
100
AcDbEllipse
 62
7
  6
CONTINUOUS
 10
4.4766038319
 20
4.7983744672
 30
0.0
 11
-0.1256275217
 21
0.1136293373
 31
0.0
 40
0.5769452805
 41
-2.7523088966
 42
-2.6945342285
  0
ELLIPSE
  5
3C5
100
AcDbEntity
  8
0
100
AcDbEllipse
 62
7
  6
CONTINUOUS
 10
4.6036707154
 20
4.7290521511
 30
0.0
 11
0.0059328392
 21
-0.0031430621
 31
0.0
 40
0.6254045512
 41
5.0267481747
 42
6.7393587481
  0
ELLIPSE
  5
3C6
100
AcDbEntity
  8
0
100
AcDbEllipse
 62
7
  6
CONTINUOUS
 10
4.5100430701
 20
4.8000179262
 30
0.0
 11
-0.0959594658
 21
0.1114589132
 31
0.0
 40
0.8309556449
 41
-2.8500818216
 42
-2.7866512124
  0
ELLIPSE
  5
3C7
100
AcDbEntity
  8
0
100
AcDbEllipse
 62
7
  6
CONTINUOUS
 10
4.5452031658
 20
4.8000179262
 30
0.0
 11
0.0959594658
 21
0.1114589132
 31
0.0
 40
0.8309556449
 41
-1.6537599465
 42
-1.5731213444
  0
ELLIPSE
  5
3C8
100
AcDbEntity
  8
0
100
AcDbEllipse
 62
7
  6
CONTINUOUS
 10
4.5276231179
 20
4.7112803088
 30
0.0
 11
0.0763700487
 21
0.0190763864
 31
0.0
 40
0.7644786049
 41
-0.305562503
 42
-0.2607509746
  0
ENDSEC
  0
SECTION
  2
OBJECTS
  0
DICTIONARY
  5
C
100
AcDbDictionary
280
0
281
1
  3
ACAD_GROUP
350
D
  3
ACAD_MLINESTYLE
350
17
  3
ACAD_LAYOUT
350
1A
  3
ACAD_PLOTSETTINGS
350
19
  3
ACAD_PLOTSTYLENAME
350
E
  0
DICTIONARY
  5
D
102
{ACAD_REACTORS
330
C
102
}
100
AcDbDictionary
280
0
281
1
  0
ACDBDICTIONARYWDFLT
  5
E
102
{ACAD_REACTORS
330
C
102
}
100
AcDbDictionary
281
1
  3
Normal
350
F
100
AcDbDictionaryWithDefault
340
F
  0
DICTIONARY
  5
17
102
{ACAD_REACTORS
330
C
102
}
100
AcDbDictionary
280
0
281
1
  3
Standard
350
18
  0
DICTIONARY
  5
19
102
{ACAD_REACTORS
330
C
102
}
100
AcDbDictionary
281
1
  0
DICTIONARY
  5
1A
102
{ACAD_REACTORS
330
C
102
}
100
AcDbDictionary
281
1
  3
Model
350
3C9
  3
Layout1
350
3CA
  0
ACDBPLACEHOLDER
  5
F
102
{ACAD_REACTORS
330
E
102
}
  0
MLINESTYLE
  5
18
102
{ACAD_REACTORS
330
17
102
}
100
AcDbMlineStyle
  2
STANDARD
 70
0
  3

 62
256
 51
90.0
 52
90.0
 71
2
 49
0.5
 62
256
  6
BYLAYER
 49
-0.5
 62
256
  6
BYLAYER
  0
LAYOUT
  5
3C9
102
{ACAD_REACTORS
330
1A
102
}
100
AcDbPlotSettings
  1

  2
none_device
  4
ANSI_A_(11.00_x_8.50_Inches)
  6

 40
0.0
 41
0.0
 42
0.0
 43
0.0
 44
279.4
 45
215.9
 46
0.0
 47
0.0
 48
0.0
 49
0.0
140
0.0
141
0.0
142
1.0
143
1.0
 70
1024
 72
0
 73
0
 74
0
  7

 75
0
147
1.0
148
0.0
149
0.0
100
AcDbLayout
  1
Model
 70
0
 71
0
 10
0.0
 20
0.0
 11
11.0
 21
8.5
 12
0.0
 22
0.0
 32
0.0
 14
0.0
 24
0.0
 34
0.0
 15
0.0
 25
0.0
 35
0.0
146
0.0
 13
0.0
 23
0.0
 33
0.0
 16
1.0
 26
0.0
 36
0.0
 17
0.0
 27
1.0
 37
0.0
 76
0
330
202
345
0
346
0
  0
LAYOUT
  5
3CA
102
{ACAD_REACTORS
330
1A
102
}
100
AcDbPlotSettings
  1

  2
none_device
  4
ANSI_A_(11.00_x_8.50_Inches)
  6

 40
0.0
 41
0.0
 42
0.0
 43
0.0
 44
279.4
 45
215.9
 46
0.0
 47
0.0
 48
0.0
 49
0.0
140
0.0
141
0.0
142
1.0
143
1.0
 70
0
 72
0
 73
0
 74
0
  7

 75
0
147
1.0
148
0.0
149
0.0
100
AcDbLayout
  1
Layout1
 70
0
 71
1
 10
0.0
 20
0.0
 11
11.0
 21
8.5
 12
0.0
 22
0.0
 32
0.0
 14
0.0
 24
0.0
 34
0.0
 15
0.0
 25
0.0
 35
0.0
146
0.0
 13
0.0
 23
0.0
 33
0.0
 16
1.0
 26
0.0
 36
0.0
 17
0.0
 27
1.0
 37
0.0
 76
0
330
203
345
0
346
0
  0
ENDSEC
  0
EOF
