999
DXF file: 1500-5463_TOP.dxf
999
Pro/ENGINEER 2019352 by Parametric Technology Corporation
  0
SECTION
  2
HEADER
  9
$ACADVER
  1
AC1032
  9
$DWGCODEPAGE
  3
ANSI_1252
  9
$EXTMAX
 10
11.0
 20
8.5
 30
0.0
  9
$EXTMIN
 10
0.0
 20
0.0
 30
0.0
  9
$LIMMIN
 10
0.0
 20
0.0
  9
$LIMMAX
 10
11.0
 20
8.5
  9
$VIEWCTR
 10
5.5
 20
4.25
  9
$VIEWSIZE
 40
8.5
  9
$CLAYER
  8
0
  9
$LTSCALE
 40
0.605
  9
$CELTYPE
  6
BYLAYER
  9
$DIMSCALE
 40
1.0
  9
$DIMASZ
 40
0.1
  9
$DIMEXO
 40
0.0625
  9
$DIMDLI
 40
0.418
  9
$DIMEXE
 40
0.125
  9
$DIMCEN
 40
0.099
  9
$DIMLFAC
 40
1.0
  9
$DIMBLK
  1
_FILLED
  9
$DIMALT
 70
1
  9
$DIMALTD
 70
2
  9
$DIMALTTD
 70
2
  9
$DIMALTF
 40
25.4
  9
$DIMTXT
 40
0.08
  9
$DIMTOL
 70
1
  9
$DIMLIM
 70
0
  9
$DIMTFAC
 40
1.0
  9
$DIMTP
 40
0.001
  9
$DIMTM
 40
0.001
  9
$DIMGAP
 40
0.09
  9
$DIMDSEP
 70
46
  9
$AUNITS
 70
0
  9
$PDMODE
 70
3
  9
$PDSIZE
 40
0.3125
  9
$HANDSEED
  5
269
  9
$TILEMODE
 70
1
  9
$MEASUREMENT
 70
0
  9
$INSUNITS
 70
1
  0
ENDSEC
  0
SECTION
  2
CLASSES
  0
CLASS
  1
ACDBDICTIONARYWDFLT
  2
AcDbDictionaryWithDefault
  3
AutoCAD 2000
 90
0
 91
1
280
0
281
0
  0
CLASS
  1
ACDBPLACEHOLDER
  2
AcDbPlaceHolder
  3
AutoCAD 2000
 90
0
 91
1
280
0
281
0
  0
CLASS
  1
LAYOUT
  2
AcDbLayout
  3
AutoCAD 2000
 90
0
 91
0
280
0
281
0
  0
ENDSEC
  0
SECTION
  2
TABLES
  0
TABLE
  2
VPORT
  5
8
100
AcDbSymbolTable
 70
2
  0
VPORT
  5
1F4
100
AcDbSymbolTableRecord
100
AcDbViewportTableRecord
  2
*ACTIVE
 70
0
 10
0.0
 20
0.0
 11
1.0
 21
1.0
 12
5.5
 22
4.25
 13
0.0
 23
0.0
 14
1.0
 24
1.0
 15
0.0
 25
0.0
 16
0.0
 26
0.0
 36
1.0
 17
0.0
 27
0.0
 37
0.0
 40
8.5
 41
1.2941176471
 42
50.0
 43
0.0
 44
0.0
 50
0.0
 51
0.0
 71
0
 72
100
 73
1
 74
1
 75
0
 76
0
 77
0
 78
0
  0
ENDTAB
  0
TABLE
  2
LTYPE
  5
5
100
AcDbSymbolTable
 70
6
  0
LTYPE
  5
14
100
AcDbSymbolTableRecord
100
AcDbLinetypeTableRecord
  2
BYBLOCK
 70
0
  3

 72
65
 73
0
 40
0.0
  0
LTYPE
  5
15
100
AcDbSymbolTableRecord
100
AcDbLinetypeTableRecord
  2
BYLAYER
 70
0
  3

 72
65
 73
0
 40
0.0
  0
LTYPE
  5
16
100
AcDbSymbolTableRecord
100
AcDbLinetypeTableRecord
  2
CONTINUOUS
 70
64
  3
Solid line
 72
65
 73
0
 40
0.0
  0
LTYPE
  5
1F5
100
AcDbSymbolTableRecord
100
AcDbLinetypeTableRecord
  2
CENTER
 70
64
  3
____ _ ____ _ ____ _ ____ _ ____ _ ____ _ ____
 72
65
 73
4
 40
0.6
 49
0.375
 74
0
 49
-0.075
 74
0
 49
0.075
 74
0
 49
-0.075
 74
0
  0
LTYPE
  5
1F6
100
AcDbSymbolTableRecord
100
AcDbLinetypeTableRecord
  2
HIDDEN
 70
64
  3
- - - - - - - - - - - - - - - - - - - -
 72
65
 73
2
 40
0.2
 49
0.1
 74
0
 49
-0.1
 74
0
  0
LTYPE
  5
1F7
100
AcDbSymbolTableRecord
100
AcDbLinetypeTableRecord
  2
PHANTOM
 70
64
  3
_____ _ _ _____ _ _ _____ _ _ _____
 72
65
 73
6
 40
0.8
 49
0.45
 74
0
 49
-0.05
 74
0
 49
0.1
 74
0
 49
-0.05
 74
0
 49
0.1
 74
0
 49
-0.05
 74
0
  0
LTYPE
  5
1F8
100
AcDbSymbolTableRecord
100
AcDbLinetypeTableRecord
  2
DOT
 70
64
  3
. . . . . . . . . . . . . . . . . . . .
 72
65
 73
2
 40
0.2
 49
0.1
 74
0
 49
-0.1
 74
0
  0
LTYPE
  5
1F9
100
AcDbSymbolTableRecord
100
AcDbLinetypeTableRecord
  2
DASHED
 70
64
  3
- - - - - - - - - - - - - - - - - - - -
 72
65
 73
2
 40
0.2
 49
0.1
 74
0
 49
-0.1
 74
0
  0
ENDTAB
  0
TABLE
  2
LAYER
  5
2
100
AcDbSymbolTable
 70
36
  0
LAYER
  5
10
100
AcDbSymbolTableRecord
100
AcDbLayerTableRecord
  2
0
 70
0
 62
7
  6
CONTINUOUS
370
-3
390
F
  0
LAYER
  5
1FA
100
AcDbSymbolTableRecord
100
AcDbLayerTableRecord
  2
DEFAULT_1
 70
0
 62
7
  6
CENTER
370
-3
390
F
  0
LAYER
  5
1FB
100
AcDbSymbolTableRecord
100
AcDbLayerTableRecord
  2
DEFAULT_2
 70
0
 62
8
  6
HIDDEN
370
-3
390
F
  0
LAYER
  5
1FC
100
AcDbSymbolTableRecord
100
AcDbLayerTableRecord
  2
DEFAULT_3
 70
0
 62
7
  6
PHANTOM
370
-3
390
F
  0
LAYER
  5
1FD
100
AcDbSymbolTableRecord
100
AcDbLayerTableRecord
  2
DEFAULT_COORDINATE_SYSTEM
 70
0
 62
7
  6
CONTINUOUS
370
-3
390
F
  0
LAYER
  5
1FE
100
AcDbSymbolTableRecord
100
AcDbLayerTableRecord
  2
DEFAULT_DATUM_AXES
 70
0
 62
7
  6
CONTINUOUS
370
-3
390
F
  0
LAYER
  5
1FF
100
AcDbSymbolTableRecord
100
AcDbLayerTableRecord
  2
DEFAULT_DATUM_PLANES
 70
0
 62
7
  6
CONTINUOUS
370
-3
390
F
  0
ENDTAB
  0
TABLE
  2
STYLE
  5
3
100
AcDbSymbolTable
 70
1
  0
STYLE
  5
11
100
AcDbSymbolTableRecord
100
AcDbTextStyleTableRecord
  2
STANDARD
 70
0
 40
0.0
 41
0.8
 50
0.0
 71
0
 42
0.2
  3
txt
  4

  0
STYLE
  5
200
100
AcDbSymbolTableRecord
100
AcDbTextStyleTableRecord
  2
TEXTSTYLE_1
 70
0
 40
0.0
 41
0.8
 50
0.0
 71
0
 42
0.2
  3
gdt
  4

  0
ENDTAB
  0
TABLE
  2
VIEW
  5
6
100
AcDbSymbolTable
 70
0
  0
ENDTAB
  0
TABLE
  2
UCS
  5
7
100
AcDbSymbolTable
 70
0
  0
ENDTAB
  0
TABLE
  2
APPID
  5
9
100
AcDbSymbolTable
 70
1
  0
APPID
  5
201
100
AcDbSymbolTableRecord
100
AcDbRegAppTableRecord
  2
ACAD
 70
0
  0
ENDTAB
  0
TABLE
  2
BLOCK_RECORD
  5
1
100
AcDbSymbolTable
 70
0
  0
BLOCK_RECORD
  5
202
100
AcDbSymbolTableRecord
100
AcDbBlockTableRecord
  2
*Model_Space
  0
BLOCK_RECORD
  5
203
100
AcDbSymbolTableRecord
100
AcDbBlockTableRecord
  2
*Paper_Space
  0
BLOCK_RECORD
  5
204
100
AcDbSymbolTableRecord
100
AcDbBlockTableRecord
  2
_FILLED
  0
ENDTAB
  0
TABLE
  2
DIMSTYLE
  5
A
100
AcDbSymbolTable
 70
1
100
AcDbDimStyleTable
 71
0
  0
DIMSTYLE
105
205
100
AcDbSymbolTableRecord
100
AcDbDimStyleTableRecord
  2
STANDARD
 70
0
  3

  4

 40
1.0
 41
0.1
 42
0.0625
 43
0.38
 44
0.125
 45
0.0
 46
0.0
 47
0.001
 48
0.001
140
0.08
141
0.09
142
0.0
143
25.4
144
1.0
145
0.0
146
1.0
147
0.09
 71
1.0
 72
0.0
 73
1
 74
1
 75
0
 76
0
 77
0
 78
4
 79
1
170
1
171
2
172
0
173
0
174
0
175
0
176
0
177
0
178
0
270
2
179
3
271
3
272
3
273
2
274
2
275
0
280
0
281
0
282
0
283
1
284
4
285
0
286
0
287
3
288
0
340
11
278
46
341
204
342
204
343
204
344
204
  0
ENDTAB
  0
ENDSEC
  0
SECTION
  2
BLOCKS
  0
BLOCK
  5
20
100
AcDbEntity
  8
0
100
AcDbBlockBegin
  2
*Model_Space
 70
0
 10
0.0
 20
0.0
 30
0.0
  3
*Model_Space
  1

  0
ENDBLK
  5
21
100
AcDbEntity
  8
0
100
AcDbBlockEnd
  0
BLOCK
  5
1C
100
AcDbEntity
  8
0
100
AcDbBlockBegin
  2
*Paper_Space
 70
0
 10
0.0
 20
0.0
 30
0.0
  3
*Paper_Space
  1

  0
ENDBLK
  5
1D
100
AcDbEntity
  8
0
100
AcDbBlockEnd
  0
BLOCK
  5
206
100
AcDbEntity
  8
0
100
AcDbBlockBegin
  2
_FILLED
 70
64
 10
0.0
 20
0.0
  3
_FILLED
  1

  0
SOLID
  5
207
100
AcDbEntity
  8
0
  6
BYBLOCK
 62
0
100
AcDbTrace
 10
0.0
 20
0.0
 11
-1.0
 21
0.2
 12
-1.0
 22
-0.2
 13
-1.0
 23
-0.2
  0
ENDBLK
  5
208
100
AcDbEntity
  8
0
  6
BYBLOCK
 62
0
100
AcDbBlockEnd
  0
ENDSEC
  0
SECTION
  2
ENTITIES
  0
MTEXT
  5
209
100
AcDbEntity
  8
0
100
AcDbMText
 62
2
  6
CONTINUOUS
  7
STANDARD
 71
3
 72
1
 10
4.9584967064
 20
1.9472966353
 30
0.0
 11
1.0
 21
0.0
 31
0.0
 73
2
 44
0.9
  1
SCALE 0.250
 40
0.08
 41
0.704
  0
LINE
  5
20A
100
AcDbEntity
  8
0
100
AcDbLine
 62
7
  6
CONTINUOUS
 10
0.0
 20
0.0
 11
0.0
 21
8.5
  0
LINE
  5
20B
100
AcDbEntity
  8
0
100
AcDbLine
 62
7
  6
CONTINUOUS
 10
0.0
 20
0.0
 11
11.0
 21
0.0
  0
LINE
  5
20C
100
AcDbEntity
  8
0
100
AcDbLine
 62
7
  6
CONTINUOUS
 10
0.0
 20
8.5
 11
11.0
 21
8.5
  0
LINE
  5
20D
100
AcDbEntity
  8
0
100
AcDbLine
 62
7
  6
CONTINUOUS
 10
11.0
 20
0.0
 11
11.0
 21
8.5
  0
LINE
  5
20E
100
AcDbEntity
  8
0
100
AcDbLine
 62
7
  6
CONTINUOUS
 10
2.7803731179
 20
5.3866454914
 11
2.7853731179
 21
5.3916454913
  0
LINE
  5
20F
100
AcDbEntity
  8
0
100
AcDbLine
 62
7
  6
CONTINUOUS
 10
2.7803731179
 20
5.2403954914
 11
2.7803731179
 21
5.3866454914
  0
LINE
  5
210
100
AcDbEntity
  8
0
100
AcDbLine
 62
7
  6
CONTINUOUS
 10
2.7853731179
 20
5.2353954914
 11
2.7853731179
 21
5.3916454914
  0
LINE
  5
211
100
AcDbEntity
  8
0
100
AcDbLine
 62
7
  6
CONTINUOUS
 10
3.749123118
 20
5.2403954914
 11
3.744123118
 21
5.2353954914
  0
LINE
  5
212
100
AcDbEntity
  8
0
100
AcDbLine
 62
7
  6
CONTINUOUS
 10
3.7441231179
 20
5.3916454914
 11
3.7441231179
 21
5.2353954914
  0
LINE
  5
213
100
AcDbEntity
  8
0
100
AcDbLine
 62
7
  6
CONTINUOUS
 10
3.7491231179
 20
5.3866454914
 11
3.7491231179
 21
5.2403954914
  0
LINE
  5
214
100
AcDbEntity
  8
0
100
AcDbLine
 62
7
  6
CONTINUOUS
 10
2.7803731179
 20
5.2403954915
 11
2.7853731179
 21
5.2353954915
  0
LINE
  5
215
100
AcDbEntity
  8
0
100
AcDbLine
 62
7
  6
CONTINUOUS
 10
4.3851966712
 20
3.2703285405
 11
4.3851929904
 21
3.270527719
  0
LINE
  5
216
100
AcDbEntity
  8
0
100
AcDbLine
 62
7
  6
CONTINUOUS
 10
4.3851949066
 20
3.2703285222
 11
4.3851929232
 21
3.2705277184
  0
LINE
  5
217
100
AcDbEntity
  8
0
100
AcDbLine
 62
7
  6
CONTINUOUS
 10
4.3851231179
 20
3.2703271813
 11
4.3851231179
 21
3.1846757418
  0
LINE
  5
218
100
AcDbEntity
  8
0
100
AcDbLine
 62
7
  6
CONTINUOUS
 10
4.3851868559
 20
5.3135534364
 11
4.3851868521
 21
3.2718397895
  0
LINE
  5
219
100
AcDbEntity
  8
0
100
AcDbLine
 62
7
  6
CONTINUOUS
 10
5.3061231179
 20
5.3866454914
 11
5.3111231179
 21
5.3916454914
  0
LINE
  5
21A
100
AcDbEntity
  8
0
100
AcDbLine
 62
7
  6
CONTINUOUS
 10
4.6700593838
 20
3.2718397895
 11
4.6700593752
 21
5.313570446
  0
LINE
  5
21B
100
AcDbEntity
  8
0
100
AcDbLine
 62
7
  6
CONTINUOUS
 10
4.6701231179
 20
3.2703271813
 11
4.6701231179
 21
3.1846757418
  0
LINE
  5
21C
100
AcDbEntity
  8
0
100
AcDbLine
 62
7
  6
CONTINUOUS
 10
4.6700533127
 20
3.2705277184
 11
4.6700513292
 21
3.2703285222
  0
LINE
  5
21D
100
AcDbEntity
  8
0
100
AcDbLine
 62
7
  6
CONTINUOUS
 10
4.6700532455
 20
3.270527719
 11
4.6700495647
 21
3.2703285405
  0
LINE
  5
21E
100
AcDbEntity
  8
0
100
AcDbLine
 62
7
  6
CONTINUOUS
 10
3.749123118
 20
5.3866454914
 11
3.744123118
 21
5.3916454914
  0
LINE
  5
21F
100
AcDbEntity
  8
0
100
AcDbLine
 62
7
  6
CONTINUOUS
 10
6.274873118
 20
5.2403954915
 11
6.269873118
 21
5.2353954915
  0
LINE
  5
220
100
AcDbEntity
  8
0
100
AcDbLine
 62
7
  6
CONTINUOUS
 10
5.3061231179
 20
5.2403954914
 11
5.3061231179
 21
5.3866454914
  0
LINE
  5
221
100
AcDbEntity
  8
0
100
AcDbLine
 62
7
  6
CONTINUOUS
 10
5.3111231179
 20
5.2353954914
 11
5.3111231179
 21
5.3916454914
  0
LINE
  5
222
100
AcDbEntity
  8
0
100
AcDbLine
 62
7
  6
CONTINUOUS
 10
3.6278182401
 20
5.1885204914
 11
4.3851868521
 21
5.1885204914
  0
LINE
  5
223
100
AcDbEntity
  8
0
100
AcDbLine
 62
7
  6
CONTINUOUS
 10
4.6700593838
 20
5.1885204914
 11
5.4274279958
 21
5.1885204914
  0
LINE
  5
224
100
AcDbEntity
  8
0
100
AcDbLine
 62
7
  6
CONTINUOUS
 10
6.2698731179
 20
5.2353954914
 11
5.3111231179
 21
5.2353954914
  0
LINE
  5
225
100
AcDbEntity
  8
0
100
AcDbLine
 62
7
  6
CONTINUOUS
 10
2.7853731179
 20
5.2353954914
 11
3.7441231179
 21
5.2353954914
  0
LINE
  5
226
100
AcDbEntity
  8
0
100
AcDbLine
 62
7
  6
CONTINUOUS
 10
6.2698731179
 20
5.3916454914
 11
5.3111231179
 21
5.3916454914
  0
LINE
  5
227
100
AcDbEntity
  8
0
100
AcDbLine
 62
7
  6
CONTINUOUS
 10
2.7853731179
 20
5.3916454914
 11
3.7441231179
 21
5.3916454914
  0
LINE
  5
228
100
AcDbEntity
  8
0
100
AcDbLine
 62
7
  6
CONTINUOUS
 10
3.6278182401
 20
5.4385204914
 11
4.4274279958
 21
5.4385204914
  0
LINE
  5
229
100
AcDbEntity
  8
0
100
AcDbLine
 62
7
  6
CONTINUOUS
 10
4.6278182401
 20
5.4385204914
 11
5.4274279958
 21
5.4385204914
  0
LINE
  5
22A
100
AcDbEntity
  8
0
100
AcDbLine
 62
7
  6
CONTINUOUS
 10
5.3061231179
 20
5.2403954914
 11
5.3111231179
 21
5.2353954914
  0
LINE
  5
22B
100
AcDbEntity
  8
0
100
AcDbLine
 62
7
  6
CONTINUOUS
 10
6.2698731179
 20
5.3916454914
 11
6.2698731179
 21
5.2353954914
  0
LINE
  5
22C
100
AcDbEntity
  8
0
100
AcDbLine
 62
7
  6
CONTINUOUS
 10
6.2748731179
 20
5.3866454914
 11
6.2748731179
 21
5.2403954914
  0
LINE
  5
22D
100
AcDbEntity
  8
0
100
AcDbLine
 62
7
  6
CONTINUOUS
 10
6.274873118
 20
5.3866454914
 11
6.269873118
 21
5.3916454913
  0
ARC
  5
22E
100
AcDbEntity
  8
0
100
AcDbCircle
 62
7
  6
CONTINUOUS
 10
4.5269700133
 20
3.2718397878
 40
0.1417831611
100
AcDbArc
 50
179.9999993099
 51
180.5302259401
  0
ARC
  5
22F
100
AcDbEntity
  8
0
100
AcDbCircle
 62
7
  6
CONTINUOUS
 10
4.524445103
 20
3.2703264171
 40
0.1393219891
100
AcDbArc
 50
178.3495507472
 51
179.3774019063
  0
ARC
  5
230
100
AcDbEntity
  8
0
100
AcDbCircle
 62
7
  6
CONTINUOUS
 10
4.5243845007
 20
3.2703271182
 40
0.1392613827
100
AcDbArc
 50
179.377419429
 51
179.9999740403
  0
ARC
  5
231
100
AcDbEntity
  8
0
100
AcDbCircle
 62
7
  6
CONTINUOUS
 10
3.5276231179
 20
5.3135204914
 40
0.2475
100
AcDbArc
 50
30.3360057791
 51
161.5987379573
  0
ARC
  5
232
100
AcDbEntity
  8
0
100
AcDbCircle
 62
7
  6
CONTINUOUS
 10
3.5276231179
 20
5.3135204914
 40
0.2475
100
AcDbArc
 50
198.4012620427
 51
329.6639942209
  0
ARC
  5
233
100
AcDbEntity
  8
0
100
AcDbCircle
 62
7
  6
CONTINUOUS
 10
3.5276231179
 20
5.3135204914
 40
0.24
100
AcDbArc
 50
198.9973992989
 51
328.6106751105
  0
ARC
  5
234
100
AcDbEntity
  8
0
100
AcDbCircle
 62
7
  6
CONTINUOUS
 10
3.5276231179
 20
5.3135204914
 40
0.24
100
AcDbArc
 50
31.3893248888
 51
161.0026007018
  0
ARC
  5
235
100
AcDbEntity
  8
0
100
AcDbCircle
 62
7
  6
CONTINUOUS
 10
3.5276231179
 20
5.3135204914
 40
0.15625
100
AcDbArc
 50
30.0016142881
 51
149.9983857119
  0
ARC
  5
236
100
AcDbEntity
  8
0
100
AcDbCircle
 62
7
  6
CONTINUOUS
 10
3.5276231179
 20
5.3135204914
 40
0.15625
100
AcDbArc
 50
210.0016142881
 51
329.9983857119
  0
ARC
  5
237
100
AcDbEntity
  8
0
100
AcDbCircle
 62
7
  6
CONTINUOUS
 10
3.5276231179
 20
5.3135204914
 40
0.14875
100
AcDbArc
 50
31.6840594033
 51
148.3159405967
  0
ARC
  5
238
100
AcDbEntity
  8
0
100
AcDbCircle
 62
7
  6
CONTINUOUS
 10
3.5276231179
 20
5.3135204914
 40
0.14875
100
AcDbArc
 50
211.6840594033
 51
328.3159405967
  0
ARC
  5
239
100
AcDbEntity
  8
0
100
AcDbCircle
 62
7
  6
CONTINUOUS
 10
4.4274279958
 20
5.4585204914
 40
0.02
100
AcDbArc
 50
270.0000000006
 51
303.8266185026
  0
ARC
  5
23A
100
AcDbEntity
  8
0
100
AcDbCircle
 62
7
  6
CONTINUOUS
 10
3.6278182401
 20
5.4585204914
 40
0.02
100
AcDbArc
 50
236.301212842
 51
269.9999999995
  0
ARC
  5
23B
100
AcDbEntity
  8
0
100
AcDbCircle
 62
7
  6
CONTINUOUS
 10
3.6278182401
 20
5.1685204914
 40
0.02
100
AcDbArc
 50
90.0000000005
 51
123.6955491829
  0
ARC
  5
23C
100
AcDbEntity
  8
0
100
AcDbCircle
 62
7
  6
CONTINUOUS
 10
4.5282762226
 20
3.2718397878
 40
0.1417831611
100
AcDbArc
 50
359.4697740599
 51
0.0000006901
  0
ARC
  5
23D
100
AcDbEntity
  8
0
100
AcDbCircle
 62
7
  6
CONTINUOUS
 10
4.5308011329
 20
3.2703264171
 40
0.139321989
100
AcDbArc
 50
0.6225980941
 51
1.6504488569
  0
ARC
  5
23E
100
AcDbEntity
  8
0
100
AcDbCircle
 62
7
  6
CONTINUOUS
 10
4.5308617353
 20
3.2703271182
 40
0.1392613826
100
AcDbArc
 50
0.0000259597
 51
0.6225805714
  0
ARC
  5
23F
100
AcDbEntity
  8
0
100
AcDbCircle
 62
7
  6
CONTINUOUS
 10
5.5276231179
 20
5.3135204914
 40
0.2475
100
AcDbArc
 50
18.4012620427
 51
149.6639942209
  0
ARC
  5
240
100
AcDbEntity
  8
0
100
AcDbCircle
 62
7
  6
CONTINUOUS
 10
5.5276231179
 20
5.3135204914
 40
0.2475
100
AcDbArc
 50
210.3360057791
 51
341.5987379573
  0
ARC
  5
241
100
AcDbEntity
  8
0
100
AcDbCircle
 62
7
  6
CONTINUOUS
 10
4.5276231179
 20
5.3135204914
 40
0.2475
100
AcDbArc
 50
305.1358693157
 51
329.6639942209
  0
ARC
  5
242
100
AcDbEntity
  8
0
100
AcDbCircle
 62
7
  6
CONTINUOUS
 10
4.5276231179
 20
5.3135204914
 40
0.2475
100
AcDbArc
 50
30.3360057791
 51
149.6639942209
  0
ARC
  5
243
100
AcDbEntity
  8
0
100
AcDbCircle
 62
7
  6
CONTINUOUS
 10
4.5276231179
 20
5.3135204914
 40
0.2475
100
AcDbArc
 50
210.3360057791
 51
234.8641306843
  0
ARC
  5
244
100
AcDbEntity
  8
0
100
AcDbCircle
 62
7
  6
CONTINUOUS
 10
5.5276231179
 20
5.3135204914
 40
0.24
100
AcDbArc
 50
211.3893248888
 51
341.0026007018
  0
ARC
  5
245
100
AcDbEntity
  8
0
100
AcDbCircle
 62
7
  6
CONTINUOUS
 10
5.5276231179
 20
5.3135204914
 40
0.24
100
AcDbArc
 50
18.9973992989
 51
148.6106751105
  0
ARC
  5
246
100
AcDbEntity
  8
0
100
AcDbCircle
 62
7
  6
CONTINUOUS
 10
4.5276231179
 20
5.3135204914
 40
0.24
100
AcDbArc
 50
211.3893248888
 51
233.5936022928
  0
ARC
  5
247
100
AcDbEntity
  8
0
100
AcDbCircle
 62
7
  6
CONTINUOUS
 10
4.5276231179
 20
5.3135204914
 40
0.24
100
AcDbArc
 50
306.4063977067
 51
328.6106751105
  0
ARC
  5
248
100
AcDbEntity
  8
0
100
AcDbCircle
 62
7
  6
CONTINUOUS
 10
4.5276231179
 20
5.3135204914
 40
0.24
100
AcDbArc
 50
31.3893248888
 51
148.6106751105
  0
ARC
  5
249
100
AcDbEntity
  8
0
100
AcDbCircle
 62
7
  6
CONTINUOUS
 10
4.5276231179
 20
5.3135204914
 40
0.15625
100
AcDbArc
 50
335.7336142335
 51
204.2663857608
  0
ARC
  5
24A
100
AcDbEntity
  8
0
100
AcDbCircle
 62
7
  6
CONTINUOUS
 10
5.5276231179
 20
5.3135204914
 40
0.15625
100
AcDbArc
 50
210.0017433826
 51
329.9982566174
  0
ARC
  5
24B
100
AcDbEntity
  8
0
100
AcDbCircle
 62
7
  6
CONTINUOUS
 10
5.5276231179
 20
5.3135204914
 40
0.15625
100
AcDbArc
 50
30.0017433826
 51
149.9982566174
  0
ARC
  5
24C
100
AcDbEntity
  8
0
100
AcDbCircle
 62
7
  6
CONTINUOUS
 10
4.5276231179
 20
5.3135204914
 40
0.14875
100
AcDbArc
 50
343.2577787969
 51
196.7422212024
  0
ARC
  5
24D
100
AcDbEntity
  8
0
100
AcDbCircle
 62
7
  6
CONTINUOUS
 10
5.5276231179
 20
5.3135204914
 40
0.14875
100
AcDbArc
 50
211.6827610739
 51
328.3172389241
  0
ARC
  5
24E
100
AcDbEntity
  8
0
100
AcDbCircle
 62
7
  6
CONTINUOUS
 10
5.5276231179
 20
5.3135204914
 40
0.14875
100
AcDbArc
 50
31.6827610739
 51
148.3172389241
  0
ARC
  5
24F
100
AcDbEntity
  8
0
100
AcDbCircle
 62
7
  6
CONTINUOUS
 10
4.6278182401
 20
5.4585204914
 40
0.02
100
AcDbArc
 50
236.1722623146
 51
269.9999999994
  0
ARC
  5
250
100
AcDbEntity
  8
0
100
AcDbCircle
 62
7
  6
CONTINUOUS
 10
5.4274279958
 20
5.4585204914
 40
0.02
100
AcDbArc
 50
270.0000000001
 51
302.7197922455
  0
ARC
  5
251
100
AcDbEntity
  8
0
100
AcDbCircle
 62
7
  6
CONTINUOUS
 10
5.4274279958
 20
5.1685204914
 40
0.02
100
AcDbArc
 50
56.3159782988
 51
89.9999999999
  0
SPLINE
  5
252
100
AcDbEntity
  8
0
100
AcDbSpline
 62
7
  6
CONTINUOUS
 70
0
 71
3
 72
47
 73
43
 74
0
 42
0.0000001
 43
0.0000001
 44
0.0000000001
 40
0.0
 40
0.0
 40
0.0
 40
0.0
 40
0.0155411869
 40
0.0310834088
 40
0.0466271316
 40
0.0621734354
 40
0.0932670693
 40
0.124379787
 40
0.1399497188
 40
0.1555262903
 40
0.1711100006
 40
0.1867012798
 40
0.2178984339
 40
0.249129162
 40
0.2803940896
 40
0.3116925265
 40
0.3430224989
 40
0.3743808282
 40
0.405763256
 40
0.4371646063
 40
0.4685789844
 40
0.5000000016
 40
0.5314210187
 40
0.5628353967
 40
0.5942367469
 40
0.6256191745
 40
0.6569775036
 40
0.6883074757
 40
0.7196059123
 40
0.7508708395
 40
0.7821015673
 40
0.8132987212
 40
0.8288900002
 40
0.8444737104
 40
0.8600502818
 40
0.8756202135
 40
0.906732931
 40
0.9378265648
 40
0.9533728685
 40
0.9689165913
 40
0.9844588131
 40
1.0
 40
1.0
 40
1.0
 40
1.0
 10
4.3851231179
 20
3.1846757418
 30
0.0
 10
4.3851231179
 20
3.1823704373
 30
0.0
 10
4.3852376327
 20
3.1777588476
 30
0.0
 10
4.3857524823
 20
3.1708589163
 30
0.0
 10
4.3866092626
 20
3.1639919544
 30
0.0
 10
4.3882043741
 20
3.1549037028
 30
0.0
 10
4.3910421316
 20
3.1437039943
 30
0.0
 10
4.3949759784
 20
3.1328370532
 30
0.0
 10
4.3987559065
 20
3.1244073525
 30
0.0
 10
4.4019024399
 20
3.1182276564
 30
0.0
 10
4.4053519197
 20
3.1122081509
 30
0.0
 10
4.4103439433
 20
3.104414822
 30
0.0
 10
4.4173015636
 20
3.0951412617
 30
0.0
 10
4.4267089088
 20
3.0848815172
 30
0.0
 10
4.43708806
 20
3.0755826418
 30
0.0
 10
4.4483385141
 20
3.0673348184
 30
0.0
 10
4.4603519903
 20
3.0602171119
 30
0.0
 10
4.4730127544
 20
3.0542979554
 30
0.0
 10
4.4861989293
 20
3.0496341792
 30
0.0
 10
4.499783611
 20
3.0462705661
 30
0.0
 10
4.5136360943
 20
3.0442394028
 30
0.0
 10
4.5276231186
 20
3.0435601762
 30
0.0
 10
4.541610143
 20
3.044239403
 30
0.0
 10
4.5554626262
 20
3.0462705664
 30
0.0
 10
4.5690473078
 20
3.0496341796
 30
0.0
 10
4.5822334826
 20
3.0542979558
 30
0.0
 10
4.5948942465
 20
3.0602171124
 30
0.0
 10
4.6069077226
 20
3.067334819
 30
0.0
 10
4.6181581766
 20
3.0755826423
 30
0.0
 10
4.6285373276
 20
3.0848815177
 30
0.0
 10
4.6379446726
 20
3.0951412621
 30
0.0
 10
4.6449022929
 20
3.1044148224
 30
0.0
 10
4.6498943163
 20
3.1122081512
 30
0.0
 10
4.6533437961
 20
3.1182276567
 30
0.0
 10
4.6564903295
 20
3.1244073528
 30
0.0
 10
4.6602702576
 20
3.1328370534
 30
0.0
 10
4.6642041043
 20
3.1437039944
 30
0.0
 10
4.6670418618
 20
3.1549037028
 30
0.0
 10
4.6686369733
 20
3.1639919544
 30
0.0
 10
4.6694937536
 20
3.1708589163
 30
0.0
 10
4.6700086031
 20
3.1777588476
 30
0.0
 10
4.6701231179
 20
3.1823704373
 30
0.0
 10
4.6701231179
 20
3.1846757418
 30
0.0
  0
SPLINE
  5
253
100
AcDbEntity
  8
0
100
AcDbSpline
 62
7
  6
CONTINUOUS
 70
0
 71
3
 72
28
 73
24
 74
0
 42
0.0000001
 43
0.0000001
 44
0.0000000001
 40
0.0
 40
0.0
 40
0.0
 40
0.0
 40
0.0628157718
 40
0.1256510142
 40
0.1884903552
 40
0.2512980946
 40
0.3140357439
 40
0.345379077
 40
0.3766983423
 40
0.4079958409
 40
0.4392768091
 40
0.4705464421
 40
0.5018073181
 40
0.5642842239
 40
0.6267114998
 40
0.6890645684
 40
0.7513265399
 40
0.7824342169
 40
0.8135254803
 40
0.8446078408
 40
0.8756880814
 40
0.9378372562
 40
1.0
 40
1.0
 40
1.0
 40
1.0
 10
4.5276231179
 20
3.1309794106
 30
0.0
 10
4.5229973142
 20
3.1309794106
 30
0.0
 10
4.5137380675
 20
3.1314409095
 30
0.0
 10
4.4999869729
 20
3.1334755106
 30
0.0
 10
4.4864917559
 20
3.1368109315
 30
0.0
 10
4.4733806289
 20
3.1414058885
 30
0.0
 10
4.4628724987
 20
3.1462544746
 30
0.0
 10
4.4547872556
 20
3.1507223334
 30
0.0
 10
4.4488994027
 20
3.154362416
 30
0.0
 10
4.4432030479
 20
3.1582872471
 30
0.0
 10
4.4377138189
 20
3.1624908662
 30
0.0
 10
4.4324413663
 20
3.1669592902
 30
0.0
 10
4.4257162788
 20
3.1732499669
 30
0.0
 10
4.4178982839
 20
3.1817104898
 30
0.0
 10
4.4095424693
 20
3.1927065017
 30
0.0
 10
4.4022889166
 20
3.2044404689
 30
0.0
 10
4.3972256994
 20
3.2147521356
 30
0.0
 10
4.3938078296
 20
3.2232598383
 30
0.0
 10
4.3915701433
 20
3.2297576934
 30
0.0
 10
4.3896661828
 20
3.2363588884
 30
0.0
 10
4.3875716368
 20
3.2452738054
 30
0.0
 10
4.3857848914
 20
3.2565960857
 30
0.0
 10
4.385243701
 20
3.265751068
 30
0.0
 10
4.3851949066
 20
3.2703285222
 30
0.0
  0
SPLINE
  5
254
100
AcDbEntity
  8
0
100
AcDbSpline
 62
7
  6
CONTINUOUS
 70
0
 71
3
 72
31
 73
27
 74
0
 42
0.0000001
 43
0.0000001
 44
0.0000000001
 40
0.0
 40
0.0
 40
0.0
 40
0.0
 40
0.0310738123
 40
0.0621493804
 40
0.093228427
 40
0.1243126508
 40
0.1864840599
 40
0.2486950319
 40
0.2798283158
 40
0.3109753643
 40
0.3421372202
 40
0.3733147738
 40
0.43570083
 40
0.4981564896
 40
0.5606830322
 40
0.6232790105
 40
0.6546112081
 40
0.6859590133
 40
0.7173215222
 40
0.7486977069
 40
0.8114676993
 40
0.8742768787
 40
0.9057017048
 40
0.9371314855
 40
0.9685650751
 40
1.0
 40
1.0
 40
1.0
 40
1.0
 10
4.6681231146
 20
3.2707053334
 30
0.0
 10
4.6681231146
 20
3.2684330715
 30
0.0
 10
4.6680102341
 20
3.2638876038
 30
0.0
 10
4.6675027056
 20
3.2570865864
 30
0.0
 10
4.6666581294
 20
3.2503180576
 30
0.0
 10
4.6650856986
 20
3.2413599822
 30
0.0
 10
4.6622882649
 20
3.230320576
 30
0.0
 10
4.6584102866
 20
3.2196091149
 30
0.0
 10
4.6546840002
 20
3.2112999065
 30
0.0
 10
4.651582063
 20
3.205208426
 30
0.0
 10
4.6481814322
 20
3.1992747742
 30
0.0
 10
4.6432599852
 20
3.1915924197
 30
0.0
 10
4.6364006074
 20
3.18245074
 30
0.0
 10
4.6271257482
 20
3.1723366195
 30
0.0
 10
4.6168930692
 20
3.1631697978
 30
0.0
 10
4.6076497784
 20
3.1563943688
 30
0.0
 10
4.599882167
 20
3.1515324205
 30
0.0
 10
4.5938795367
 20
3.1481711545
 30
0.0
 10
4.5877172923
 20
3.1451051473
 30
0.0
 10
4.5793082746
 20
3.1414205963
 30
0.0
 10
4.5684695773
 20
3.1375872155
 30
0.0
 10
4.5573064163
 20
3.1348237425
 30
0.0
 10
4.5482465767
 20
3.133269917
 30
0.0
 10
4.5413996217
 20
3.1324351404
 30
0.0
 10
4.5345198124
 20
3.1319335135
 30
0.0
 10
4.529921786
 20
3.1318219423
 30
0.0
 10
4.5276231179
 20
3.1318219423
 30
0.0
  0
SPLINE
  5
255
100
AcDbEntity
  8
0
100
AcDbSpline
 62
7
  6
CONTINUOUS
 70
0
 71
3
 72
29
 73
25
 74
0
 42
0.0000001
 43
0.0000001
 44
0.0000000001
 40
0.0
 40
0.0
 40
0.0
 40
0.0
 40
0.0624577772
 40
0.1249490256
 40
0.1874707735
 40
0.2499984554
 40
0.3125039044
 40
0.3437524133
 40
0.3749925173
 40
0.4062277437
 40
0.4374642913
 40
0.4687074606
 40
0.4999596841
 40
0.5624713468
 40
0.6250002328
 40
0.6875174621
 40
0.7187734921
 40
0.7500201873
 40
0.7812589528
 40
0.8124938971
 40
0.8437314317
 40
0.8749762846
 40
0.9374747542
 40
1.0
 40
1.0
 40
1.0
 40
1.0
 10
4.5276231179
 20
5.4560204914
 30
0.0
 10
4.5229660836
 20
5.4560204914
 30
0.0
 10
4.5136430448
 20
5.455547191
 30
0.0
 10
4.4997999016
 20
5.4534609759
 30
0.0
 10
4.4862179926
 20
5.4500413928
 30
0.0
 10
4.4730281725
 20
5.4453310886
 30
0.0
 10
4.4624654861
 20
5.4403624669
 30
0.0
 10
4.4543435334
 20
5.4357850357
 30
0.0
 10
4.4484302952
 20
5.4320550832
 30
0.0
 10
4.4427125808
 20
5.4280334748
 30
0.0
 10
4.4372058994
 20
5.423727102
 30
0.0
 10
4.4319198385
 20
5.4191505869
 30
0.0
 10
4.4251802143
 20
5.4127074658
 30
0.0
 10
4.4173552637
 20
5.4040444918
 30
0.0
 10
4.4090128559
 20
5.3927948243
 30
0.0
 10
4.4029940369
 20
5.3827915758
 30
0.0
 10
4.3987823712
 20
5.3744719822
 30
0.0
 10
4.3959342841
 20
5.3680856708
 30
0.0
 10
4.3934072102
 20
5.3615674385
 30
0.0
 10
4.3912120105
 20
5.3549307076
 30
0.0
 10
4.3893551164
 20
5.3481909465
 30
0.0
 10
4.3873290265
 20
5.339091588
 30
0.0
 10
4.3856394692
 20
5.3275433736
 30
0.0
 10
4.3851879146
 20
5.318215508
 30
0.0
 10
4.3851868559
 20
5.3135534432
 30
0.0
  0
SPLINE
  5
256
100
AcDbEntity
  8
0
100
AcDbSpline
 62
7
  6
CONTINUOUS
 70
0
 71
3
 72
31
 73
27
 74
0
 42
0.0000001
 43
0.0000001
 44
0.0000000001
 40
0.0
 40
0.0
 40
0.0
 40
0.0
 40
0.0310738123
 40
0.0621493804
 40
0.093228427
 40
0.1243126508
 40
0.1864840599
 40
0.2486950319
 40
0.2798283158
 40
0.3109753643
 40
0.3421372202
 40
0.3733147738
 40
0.43570083
 40
0.4981564896
 40
0.5606830322
 40
0.6232790105
 40
0.6546112081
 40
0.6859590133
 40
0.7173215222
 40
0.7486977069
 40
0.8114676993
 40
0.8742768787
 40
0.9057017048
 40
0.9371314855
 40
0.9685650751
 40
1.0
 40
1.0
 40
1.0
 40
1.0
 10
4.3871231213
 20
3.2707053334
 30
0.0
 10
4.3871231213
 20
3.2684330715
 30
0.0
 10
4.3872360017
 20
3.2638876038
 30
0.0
 10
4.3877435303
 20
3.2570865864
 30
0.0
 10
4.3885881064
 20
3.2503180576
 30
0.0
 10
4.3901605373
 20
3.2413599822
 30
0.0
 10
4.392957971
 20
3.230320576
 30
0.0
 10
4.3968359493
 20
3.2196091149
 30
0.0
 10
4.4005622357
 20
3.2112999065
 30
0.0
 10
4.4036641729
 20
3.205208426
 30
0.0
 10
4.4070648037
 20
3.1992747742
 30
0.0
 10
4.4119862507
 20
3.1915924197
 30
0.0
 10
4.4188456284
 20
3.18245074
 30
0.0
 10
4.4281204877
 20
3.1723366195
 30
0.0
 10
4.4383531667
 20
3.1631697978
 30
0.0
 10
4.4475964575
 20
3.1563943688
 30
0.0
 10
4.4553640689
 20
3.1515324205
 30
0.0
 10
4.4613666992
 20
3.1481711545
 30
0.0
 10
4.4675289436
 20
3.1451051473
 30
0.0
 10
4.4759379613
 20
3.1414205963
 30
0.0
 10
4.4867766586
 20
3.1375872155
 30
0.0
 10
4.4979398195
 20
3.1348237425
 30
0.0
 10
4.5069996592
 20
3.133269917
 30
0.0
 10
4.5138466141
 20
3.1324351404
 30
0.0
 10
4.5207264235
 20
3.1319335135
 30
0.0
 10
4.5253244499
 20
3.1318219423
 30
0.0
 10
4.5276231179
 20
3.1318219423
 30
0.0
  0
SPLINE
  5
257
100
AcDbEntity
  8
0
100
AcDbSpline
 62
7
  6
CONTINUOUS
 70
0
 71
3
 72
28
 73
24
 74
0
 42
0.0000001
 43
0.0000001
 44
0.0000000001
 40
0.0
 40
0.0
 40
0.0
 40
0.0
 40
0.0621627438
 40
0.1243119186
 40
0.1553921592
 40
0.1864745197
 40
0.2175657831
 40
0.2486734601
 40
0.3109354316
 40
0.3732885002
 40
0.4357157761
 40
0.4981926819
 40
0.5294535579
 40
0.5607231909
 40
0.5920041591
 40
0.6233016577
 40
0.654620923
 40
0.6859642561
 40
0.7487019054
 40
0.8115096448
 40
0.8743489858
 40
0.9371842282
 40
1.0
 40
1.0
 40
1.0
 40
1.0
 10
4.6700513292
 20
3.2703285222
 30
0.0
 10
4.6700025348
 20
3.265751068
 30
0.0
 10
4.6694613444
 20
3.2565960857
 30
0.0
 10
4.6676745991
 20
3.2452738054
 30
0.0
 10
4.6655800531
 20
3.2363588884
 30
0.0
 10
4.6636760926
 20
3.2297576934
 30
0.0
 10
4.6614384063
 20
3.2232598383
 30
0.0
 10
4.6580205365
 20
3.2147521356
 30
0.0
 10
4.6529573193
 20
3.2044404689
 30
0.0
 10
4.6457037666
 20
3.1927065017
 30
0.0
 10
4.637347952
 20
3.1817104898
 30
0.0
 10
4.6295299571
 20
3.1732499669
 30
0.0
 10
4.6228048696
 20
3.1669592902
 30
0.0
 10
4.617532417
 20
3.1624908662
 30
0.0
 10
4.612043188
 20
3.1582872471
 30
0.0
 10
4.6063468332
 20
3.154362416
 30
0.0
 10
4.6004589803
 20
3.1507223334
 30
0.0
 10
4.5923737372
 20
3.1462544746
 30
0.0
 10
4.581865607
 20
3.1414058885
 30
0.0
 10
4.56875448
 20
3.1368109315
 30
0.0
 10
4.555259263
 20
3.1334755106
 30
0.0
 10
4.5415081684
 20
3.1314409095
 30
0.0
 10
4.5322489217
 20
3.1309794106
 30
0.0
 10
4.5276231179
 20
3.1309794106
 30
0.0
  0
SPLINE
  5
258
100
AcDbEntity
  8
0
100
AcDbSpline
 62
7
  6
CONTINUOUS
 70
0
 71
3
 72
29
 73
25
 74
0
 42
0.0000001
 43
0.0000001
 44
0.0000000001
 40
0.0
 40
0.0
 40
0.0
 40
0.0
 40
0.0625252322
 40
0.1250236665
 40
0.1562685019
 40
0.1875060259
 40
0.2187409723
 40
0.2499797501
 40
0.281226462
 40
0.3124825084
 40
0.3749997618
 40
0.4375286497
 40
0.5000402972
 40
0.5312925102
 40
0.5625356709
 40
0.5937722145
 40
0.6250074434
 40
0.6562475542
 40
0.6874960709
 40
0.7500015353
 40
0.8125292236
 40
0.8750509716
 40
0.9375422198
 40
1.0
 40
1.0
 40
1.0
 40
1.0
 10
4.6700593752
 20
5.3135704562
 30
0.0
 10
4.67005777
 20
5.3182321656
 30
0.0
 10
4.6696051905
 20
5.327559265
 30
0.0
 10
4.6679145222
 20
5.3391064132
 30
0.0
 10
4.6658876462
 20
5.3482048656
 30
0.0
 10
4.6640302137
 20
5.354943925
 30
0.0
 10
4.661834527
 20
5.3615799351
 30
0.0
 10
4.6593070388
 20
5.3680974387
 30
0.0
 10
4.6564586039
 20
5.3744830163
 30
0.0
 10
4.6522465611
 20
5.3828016288
 30
0.0
 10
4.646227428
 20
5.3928036526
 30
0.0
 10
4.6378848735
 20
5.4040518835
 30
0.0
 10
4.630059978
 20
5.4127137058
 30
0.0
 10
4.6233204957
 20
5.4191559455
 30
0.0
 10
4.618034588
 20
5.4237318226
 30
0.0
 10
4.6125281036
 20
5.4280375832
 30
0.0
 10
4.60681063
 20
5.4320586104
 30
0.0
 10
4.6008976784
 20
5.4357880226
 30
0.0
 10
4.5927761614
 20
5.4403647875
 30
0.0
 10
4.5822141137
 20
5.4453326805
 30
0.0
 10
4.5690251767
 20
5.4500422884
 30
0.0
 10
4.5554442399
 20
5.4534613617
 30
0.0
 10
4.5416021282
 20
5.455547263
 30
0.0
 10
4.5322797986
 20
5.4560204914
 30
0.0
 10
4.5276231179
 20
5.4560204914
 30
0.0
  0
SPLINE
  5
259
100
AcDbEntity
  8
0
100
AcDbSpline
 62
7
  6
CONTINUOUS
 70
0
 71
3
 72
17
 73
13
 74
0
 42
0.0000001
 43
0.0000001
 44
0.0000000001
 40
0.0
 40
0.0
 40
0.0
 40
0.0
 40
0.1362182979
 40
0.2038776248
 40
0.2709926304
 40
0.3374151137
 40
0.403020148
 40
0.5313612738
 40
0.6554927034
 40
0.7751009096
 40
0.8899976822
 40
1.0
 40
1.0
 40
1.0
 40
1.0
 10
4.3513731179
 20
5.3135204914
 30
0.0
 10
4.3513731672
 20
5.3090866404
 30
0.0
 10
4.3517109482
 20
5.3024440082
 30
0.0
 10
4.3528254965
 20
5.2936915425
 30
0.0
 10
4.3539747692
 20
5.2872413609
 30
0.0
 10
4.3554248036
 20
5.280920956
 30
0.0
 10
4.3577139665
 20
5.2727583081
 30
0.0
 10
4.3612059624
 20
5.2629947596
 30
0.0
 10
4.3662878456
 20
5.2519853769
 30
0.0
 10
4.3720555257
 20
5.2418213702
 30
0.0
 10
4.3783404221
 20
5.2325222544
 30
0.0
 10
4.3828748961
 20
5.2267664278
 30
0.0
 10
4.3851865497
 20
5.2240321157
 30
0.0
  0
SPLINE
  5
25A
100
AcDbEntity
  8
0
100
AcDbSpline
 62
7
  6
CONTINUOUS
 70
0
 71
3
 72
17
 73
13
 74
0
 42
0.0000001
 43
0.0000001
 44
0.0000000001
 40
0.0
 40
0.0
 40
0.0
 40
0.0
 40
0.1100009536
 40
0.2248972946
 40
0.3445048171
 40
0.4686357065
 40
0.596976202
 40
0.7289650344
 40
0.7960797213
 40
0.8637387079
 40
0.9317733784
 40
1.0
 40
1.0
 40
1.0
 40
1.0
 10
4.6700595951
 20
5.2240317055
 30
0.0
 10
4.6723711947
 20
5.2267660491
 30
0.0
 10
4.6769054583
 20
5.2325220356
 30
0.0
 10
4.683190647
 20
5.2418210242
 30
0.0
 10
4.6889581614
 20
5.2519850301
 30
0.0
 10
4.6940404635
 20
5.2629948974
 30
0.0
 10
4.6982603658
 20
5.2747941785
 30
0.0
 10
4.7008967015
 20
5.2851398665
 30
0.0
 10
4.702421044
 20
5.2936910802
 30
0.0
 10
4.7032545825
 20
5.3002426056
 30
0.0
 10
4.7037592982
 20
5.3068636213
 30
0.0
 10
4.7038730918
 20
5.3112997213
 30
0.0
 10
4.7038731179
 20
5.3135204914
 30
0.0
  0
SPLINE
  5
25B
100
AcDbEntity
  8
0
100
AcDbSpline
 62
7
  6
CONTINUOUS
 70
0
 71
3
 72
29
 73
25
 74
0
 42
0.0000001
 43
0.0000001
 44
0.0000000001
 40
0.0
 40
0.0
 40
0.0
 40
0.0
 40
0.0621646233
 40
0.1243162245
 40
0.1553972003
 40
0.1864793615
 40
0.2175690773
 40
0.248674186
 40
0.2797999784
 40
0.3109489051
 40
0.373296719
 40
0.4357208636
 40
0.4981964131
 40
0.5294570201
 40
0.5607263162
 40
0.5920066647
 40
0.6233031111
 40
0.6546211457
 40
0.6859633349
 40
0.748699279
 40
0.811506722
 40
0.874346818
 40
0.9371831987
 40
1.0
 40
1.0
 40
1.0
 40
1.0
 10
4.6700593838
 20
3.2860204914
 30
0.0
 10
4.6700593838
 20
3.2814112628
 30
0.0
 10
4.6696097035
 20
3.2721878657
 30
0.0
 10
4.6679220838
 20
3.2607703795
 30
0.0
 10
4.6658976145
 20
3.2517746953
 30
0.0
 10
4.6640416624
 20
3.2451109692
 30
0.0
 10
4.6618472955
 20
3.2385490882
 30
0.0
 10
4.6593209126
 20
3.2321043638
 30
0.0
 10
4.6564733843
 20
3.2257900534
 30
0.0
 10
4.6522612922
 20
3.2175622741
 30
0.0
 10
4.6462408676
 20
3.2076692137
 30
0.0
 10
4.6378979057
 20
3.1965463259
 30
0.0
 10
4.6300744526
 20
3.1879835153
 30
0.0
 10
4.6233363587
 20
3.1816147272
 30
0.0
 10
4.6180499424
 20
3.1770897261
 30
0.0
 10
4.6125428393
 20
3.1728318247
 30
0.0
 10
4.6068246714
 20
3.168855503
 30
0.0
 10
4.6009109268
 20
3.1651675684
 30
0.0
 10
4.5927863357
 20
3.1606406606
 30
0.0
 10
4.5822206292
 20
3.1557275241
 30
0.0
 10
4.5690300467
 20
3.1510709155
 30
0.0
 10
4.5554474387
 20
3.1476903586
 30
0.0
 10
4.5416036548
 20
3.1456279809
 30
0.0
 10
4.5322807026
 20
3.1451601125
 30
0.0
 10
4.5276231179
 20
3.1451601125
 30
0.0
  0
SPLINE
  5
25C
100
AcDbEntity
  8
0
100
AcDbSpline
 62
7
  6
CONTINUOUS
 70
0
 71
3
 72
48
 73
44
 74
0
 42
0.0000001
 43
0.0000001
 44
0.0000000001
 40
0.0
 40
0.0
 40
0.0
 40
0.0
 40
0.0919750808
 40
0.1815927759
 40
0.2687735638
 40
0.3533978965
 40
0.4353122464
 40
0.5142997874
 40
0.5900464077
 40
0.6621470416
 40
0.7300770123
 40
0.762260014
 40
0.7931034923
 40
0.8224817529
 40
0.8502609933
 40
0.8762888916
 40
0.9003956186
 40
0.9223849618
 40
0.9325206618
 40
0.942047877
 40
0.9509384629
 40
0.9591628928
 40
0.9666928488
 40
0.973506136
 40
0.9795823781
 40
0.9849027604
 40
0.9894501187
 40
0.9914285753
 40
0.9932073719
 40
0.9947843752
 40
0.9961574504
 40
0.9973244613
 40
0.9982833171
 40
0.9986840941
 40
0.9990321318
 40
0.9993272014
 40
0.9995690735
 40
0.999757519
 40
0.9998923081
 40
0.9999395099
 40
0.9999732115
 40
0.9999933843
 40
1.0
 40
1.0
 40
1.0
 40
1.0
 10
3.678784568
 20
5.2353889834
 30
0.0
 10
3.6775633489
 20
5.2336331024
 30
0.0
 10
3.6750774433
 20
5.230217682
 30
0.0
 10
3.6711908831
 20
5.2253208255
 30
0.0
 10
3.6672229765
 20
5.2207131015
 30
0.0
 10
3.6632054558
 20
5.2163903816
 30
0.0
 10
3.6591678557
 20
5.2123517778
 30
0.0
 10
3.6551429317
 20
5.2085974156
 30
0.0
 10
3.6511702185
 20
5.2051259682
 30
0.0
 10
3.6472915864
 20
5.2019414391
 30
0.0
 10
3.6441231245
 20
5.1994913388
 30
0.0
 10
3.6416762356
 20
5.1976783527
 30
0.0
 10
3.6399339526
 20
5.1964205692
 30
0.0
 10
3.6382606887
 20
5.1952423949
 30
0.0
 10
3.636666372
 20
5.1941468352
 30
0.0
 10
3.635162024
 20
5.1931369988
 30
0.0
 10
3.6337598968
 20
5.1922166303
 30
0.0
 10
3.6326601423
 20
5.1915091922
 30
0.0
 10
3.631842268
 20
5.1909902974
 30
0.0
 10
3.6312802515
 20
5.190636715
 30
0.0
 10
3.6307547276
 20
5.1903085986
 30
0.0
 10
3.6302677171
 20
5.1900064993
 30
0.0
 10
3.6298211272
 20
5.1897308805
 30
0.0
 10
3.6294164815
 20
5.1894824171
 30
0.0
 10
3.6290551023
 20
5.1892616883
 30
0.0
 10
3.6287382108
 20
5.1890692139
 30
0.0
 10
3.6285023739
 20
5.1889268515
 30
0.0
 10
3.6283367925
 20
5.1888274683
 30
0.0
 10
3.6282303302
 20
5.1887638077
 30
0.0
 10
3.6281358567
 20
5.1887075287
 30
0.0
 10
3.6280535221
 20
5.1886586705
 30
0.0
 10
3.6279834772
 20
5.188617271
 30
0.0
 10
3.6279328391
 20
5.1885874705
 30
0.0
 10
3.6278985876
 20
5.1885673801
 30
0.0
 10
3.6278776338
 20
5.1885551164
 30
0.0
 10
3.6278598761
 20
5.1885447391
 30
0.0
 10
3.6278452711
 20
5.1885362336
 30
0.0
 10
3.6278339986
 20
5.188529645
 30
0.0
 10
3.627826376
 20
5.1885252687
 30
0.0
 10
3.6278222756
 20
5.1885228111
 30
0.0
 10
3.6278198564
 20
5.1885215257
 30
0.0
 10
3.627819323
 20
5.1885209993
 30
0.0
 10
3.6278180863
 20
5.1885204965
 30
0.0
 10
3.6278182401
 20
5.1885204914
 30
0.0
  0
SPLINE
  5
25D
100
AcDbEntity
  8
0
100
AcDbSpline
 62
7
  6
CONTINUOUS
 70
0
 71
3
 72
51
 73
47
 74
0
 42
0.0000001
 43
0.0000001
 44
0.0000000001
 40
0.0
 40
0.0
 40
0.0
 40
0.0
 40
0.0000067294
 40
0.0000269541
 40
0.0000606478
 40
0.0001077842
 40
0.0001683369
 40
0.0002422795
 40
0.0004302296
 40
0.0006714238
 40
0.0009656519
 40
0.0013127036
 40
0.0017123688
 40
0.0026686997
 40
0.0038329326
 40
0.0052031447
 40
0.0067773315
 40
0.0085534894
 40
0.0105296158
 40
0.012703711
 40
0.0150738043
 40
0.0203941929
 40
0.0264752002
 40
0.033299083
 40
0.0408404112
 40
0.0490720743
 40
0.0579667476
 40
0.0674964099
 40
0.0776329649
 40
0.0996179918
 40
0.1237165775
 40
0.1497397148
 40
0.1775219385
 40
0.2069088677
 40
0.237758839
 40
0.2699412446
 40
0.3033445081
 40
0.3378658291
 40
0.4099647434
 40
0.4857183798
 40
0.5646982776
 40
0.6466096421
 40
0.7312354738
 40
0.8184118981
 40
0.9080269955
 40
1.0
 40
1.0
 40
1.0
 40
1.0
 10
5.4274279958
 20
5.1885204914
 30
0.0
 10
5.4274281379
 20
5.1885205571
 30
0.0
 10
5.4274269225
 20
5.1885209083
 30
0.0
 10
5.4274263557
 20
5.1885215845
 30
0.0
 10
5.4274239535
 20
5.1885227866
 30
0.0
 10
5.4274212768
 20
5.1885244334
 30
0.0
 10
5.4274175644
 20
5.1885265643
 30
0.0
 10
5.427411118
 20
5.1885303417
 30
0.0
 10
5.4274009967
 20
5.1885362448
 30
0.0
 10
5.4273864873
 20
5.188544742
 30
0.0
 10
5.4273687815
 20
5.1885551234
 30
0.0
 10
5.4273479113
 20
5.1885673863
 30
0.0
 10
5.4273137813
 20
5.1885874785
 30
0.0
 10
5.4272633164
 20
5.188617281
 30
0.0
 10
5.4271934895
 20
5.1886586834
 30
0.0
 10
5.427111383
 20
5.1887075473
 30
0.0
 10
5.427017134
 20
5.1887638336
 30
0.0
 10
5.4269108821
 20
5.1888275025
 30
0.0
 10
5.426792766
 20
5.1888985135
 30
0.0
 10
5.4266629256
 20
5.1889768291
 30
0.0
 10
5.4264666482
 20
5.1890955742
 30
0.0
 10
5.4261929358
 20
5.1892618467
 30
0.0
 10
5.4258311287
 20
5.1894825916
 30
0.0
 10
5.4254256652
 20
5.189730946
 30
0.0
 10
5.4249782014
 20
5.1900064807
 30
0.0
 10
5.4244905711
 20
5.1903086247
 30
0.0
 10
5.4239646705
 20
5.1906367882
 30
0.0
 10
5.4234024431
 20
5.1909904071
 30
0.0
 10
5.4225845513
 20
5.1915093012
 30
0.0
 10
5.4214851445
 20
5.1922168775
 30
0.0
 10
5.420083649
 20
5.1931375979
 30
0.0
 10
5.4185796782
 20
5.1941477066
 30
0.0
 10
5.4169850981
 20
5.1952432949
 30
0.0
 10
5.4153110466
 20
5.1964212222
 30
0.0
 10
5.4135681533
 20
5.1976788816
 30
0.0
 10
5.4117662989
 20
5.1990141533
 30
0.0
 10
5.4099146192
 20
5.200425262
 30
0.0
 10
5.4073530715
 20
5.2024358142
 30
0.0
 10
5.4040748344
 20
5.2051276436
 30
0.0
 10
5.4001007858
 20
5.2085977821
 30
0.0
 10
5.3960769805
 20
5.2123535754
 30
0.0
 10
5.3920394619
 20
5.2163922245
 30
0.0
 10
5.3880211206
 20
5.2207143324
 30
0.0
 10
5.3840539118
 20
5.2253228156
 30
0.0
 10
5.3801673459
 20
5.230219692
 30
0.0
 10
5.377681389
 20
5.23363515
 30
0.0
 10
5.3764601738
 20
5.2353910768
 30
0.0
  0
SPLINE
  5
25E
100
AcDbEntity
  8
0
100
AcDbSpline
 62
7
  6
CONTINUOUS
 70
0
 71
3
 72
48
 73
44
 74
0
 42
0.0000001
 43
0.0000001
 44
0.0000000001
 40
0.0
 40
0.0
 40
0.0
 40
0.0
 40
0.0919748526
 40
0.1815922476
 40
0.2687731381
 40
0.3533977176
 40
0.4353116939
 40
0.5142978046
 40
0.5900453946
 40
0.6621460684
 40
0.7300755485
 40
0.7622580303
 40
0.7931013083
 40
0.8224798689
 40
0.850260154
 40
0.8762893482
 40
0.9003971463
 40
0.9223867895
 40
0.9325222806
 40
0.942049025
 40
0.9509388148
 40
0.9591621632
 40
0.9666909835
 40
0.9735034132
 40
0.9795792624
 40
0.9848997753
 40
0.9894476191
 40
0.9914263945
 40
0.9932055362
 40
0.9947828954
 40
0.9961563215
 40
0.9973236628
 40
0.9982828148
 40
0.9986837225
 40
0.9990318763
 40
0.9993270449
 40
0.9995689966
 40
0.9997574998
 40
0.9998923226
 40
0.9999395314
 40
0.9999732331
 40
0.9999933988
 40
1.0
 40
1.0
 40
1.0
 40
1.0
 10
5.3764615463
 20
5.3916517998
 30
0.0
 10
5.3776827724
 20
5.3934076786
 30
0.0
 10
5.380168653
 20
5.3968231186
 30
0.0
 10
5.3840551549
 20
5.4017200384
 30
0.0
 10
5.3880231383
 20
5.4063277271
 30
0.0
 10
5.3920407135
 20
5.4106504239
 30
0.0
 10
5.3960782974
 20
5.4146890146
 30
0.0
 10
5.4001029914
 20
5.418443627
 30
0.0
 10
5.4040758884
 20
5.4219148808
 30
0.0
 10
5.4079545151
 20
5.4250994581
 30
0.0
 10
5.4111229409
 20
5.4275495918
 30
0.0
 10
5.4135697909
 20
5.4293626008
 30
0.0
 10
5.4153120531
 20
5.4306204094
 30
0.0
 10
5.4169853597
 20
5.4317985821
 30
0.0
 10
5.4185797702
 20
5.4328941259
 30
0.0
 10
5.4200842343
 20
5.4339039429
 30
0.0
 10
5.4214864528
 20
5.434824296
 30
0.0
 10
5.4225862391
 20
5.4355317426
 30
0.0
 10
5.4234040995
 20
5.436050649
 30
0.0
 10
5.4239660756
 20
5.4364042356
 30
0.0
 10
5.4244915336
 20
5.4367323584
 30
0.0
 10
5.4249784579
 20
5.4370344676
 30
0.0
 10
5.4254249587
 20
5.4373100981
 30
0.0
 10
5.4258295365
 20
5.4375585693
 30
0.0
 10
5.4261908846
 20
5.4377793018
 30
0.0
 10
5.4265077844
 20
5.4379717751
 30
0.0
 10
5.4267436502
 20
5.4381141335
 30
0.0
 10
5.4269092651
 20
5.4382135142
 30
0.0
 10
5.4270157555
 20
5.4382771748
 30
0.0
 10
5.4271102579
 20
5.4383334539
 30
0.0
 10
5.4271926209
 20
5.4383823122
 30
0.0
 10
5.4272626925
 20
5.4384237117
 30
0.0
 10
5.4273133514
 20
5.4384535121
 30
0.0
 10
5.4273476176
 20
5.4384736025
 30
0.0
 10
5.4273685807
 20
5.4384858663
 30
0.0
 10
5.4273863465
 20
5.4384962437
 30
0.0
 10
5.4274009578
 20
5.4385047495
 30
0.0
 10
5.4274122349
 20
5.4385113375
 30
0.0
 10
5.4274198602
 20
5.4385157151
 30
0.0
 10
5.4274239618
 20
5.438518171
 30
0.0
 10
5.427426381
 20
5.4385194591
 30
0.0
 10
5.4274269143
 20
5.4385199805
 30
0.0
 10
5.4274281493
 20
5.438520488
 30
0.0
 10
5.4274279958
 20
5.4385204914
 30
0.0
  0
SPLINE
  5
25F
100
AcDbEntity
  8
0
100
AcDbSpline
 62
7
  6
CONTINUOUS
 70
0
 71
3
 72
58
 73
54
 74
0
 42
0.0000001
 43
0.0000001
 44
0.0000000001
 40
0.0
 40
0.0
 40
0.0
 40
0.0
 40
0.0869333271
 40
0.1301126295
 40
0.1729442104
 40
0.2153334204
 40
0.2572004818
 40
0.3391021945
 40
0.4183153748
 40
0.4946400023
 40
0.567955932
 40
0.603456579
 40
0.6381569519
 40
0.6720303836
 40
0.705041846
 40
0.7371462459
 40
0.7682811691
 40
0.7983629915
 40
0.8272900214
 40
0.8549300959
 40
0.8811037292
 40
0.9055970908
 40
0.9171318334
 40
0.9281377918
 40
0.9385705264
 40
0.9483820302
 40
0.957521399
 40
0.9659322431
 40
0.9735551353
 40
0.9803257179
 40
0.9833714444
 40
0.9861806331
 40
0.9887457207
 40
0.9910601876
 40
0.9931193327
 40
0.9949186368
 40
0.9964535371
 40
0.9971203678
 40
0.9977193298
 40
0.9982498307
 40
0.9987112782
 40
0.9991030959
 40
0.999424769
 40
0.999559145
 40
0.9996757972
 40
0.9997746629
 40
0.9998556795
 40
0.9999187842
 40
0.9999639143
 40
0.9999797193
 40
0.9999910072
 40
0.99999777
 40
1.0
 40
1.0
 40
1.0
 40
1.0
 10
4.7038731179
 20
5.3135204914
 30
0.0
 10
4.7038730685
 20
5.3179566369
 30
0.0
 10
4.7035349391
 20
5.3246026987
 30
0.0
 10
4.7024192448
 20
5.3333595763
 30
0.0
 10
4.7012688184
 20
5.3398128979
 30
0.0
 10
4.6998173468
 20
5.346136252
 30
0.0
 10
4.6975259845
 20
5.3543024737
 30
0.0
 10
4.6940307786
 20
5.3640698886
 30
0.0
 10
4.6889443855
 20
5.3750831453
 30
0.0
 10
4.6831722244
 20
5.3852496941
 30
0.0
 10
4.6778743912
 20
5.3930838401
 30
0.0
 10
4.67344212
 20
5.3989154723
 30
0.0
 10
4.6700813022
 20
5.4030290819
 30
0.0
 10
4.6666672077
 20
5.4069310852
 30
0.0
 10
4.6632188429
 20
5.4106234587
 30
0.0
 10
4.6597551266
 20
5.414106872
 30
0.0
 10
4.6562970545
 20
5.417381908
 30
0.0
 10
4.6528685865
 20
5.420449604
 30
0.0
 10
4.6494939392
 20
5.4233074513
 30
0.0
 10
4.6462014319
 20
5.4259513307
 30
0.0
 10
4.6430266465
 20
5.4283785057
 30
0.0
 10
4.6404617779
 20
5.4302488508
 30
0.0
 10
4.6384999058
 20
5.4316315177
 30
0.0
 10
4.6371150901
 20
5.4325873183
 30
0.0
 10
4.6357943178
 20
5.4334809723
 30
0.0
 10
4.6345450851
 20
5.4343102774
 30
0.0
 10
4.6333754088
 20
5.43507278
 30
0.0
 10
4.6322939098
 20
5.4357659603
 30
0.0
 10
4.6313097664
 20
5.4363869685
 30
0.0
 10
4.6305543337
 20
5.4368573611
 30
0.0
 10
4.6300061508
 20
5.437195858
 30
0.0
 10
4.6296400735
 20
5.4374208049
 30
0.0
 10
4.6293054134
 20
5.4376256026
 30
0.0
 10
4.6290031092
 20
5.4378099467
 30
0.0
 10
4.62873387
 20
5.4379734553
 30
0.0
 10
4.628498332
 20
5.4381158188
 30
0.0
 10
4.628323329
 20
5.4382209826
 30
0.0
 10
4.6282006775
 20
5.4382943445
 30
0.0
 10
4.6281219488
 20
5.4383412914
 30
0.0
 10
4.6280521644
 20
5.4383827743
 30
0.0
 10
4.6279914144
 20
5.4384187686
 30
0.0
 10
4.6279397856
 20
5.4384492512
 30
0.0
 10
4.6279024947
 20
5.4384711921
 30
0.0
 10
4.6278772905
 20
5.4384859824
 30
0.0
 10
4.6278618817
 20
5.4384950083
 30
0.0
 10
4.6278488287
 20
5.4385026461
 30
0.0
 10
4.6278380974
 20
5.438508905
 30
0.0
 10
4.6278298172
 20
5.438513756
 30
0.0
 10
4.6278242194
 20
5.4385169723
 30
0.0
 10
4.6278212078
 20
5.438518787
 30
0.0
 10
4.6278194309
 20
5.4385197233
 30
0.0
 10
4.6278190381
 20
5.4385201283
 30
0.0
 10
4.6278181268
 20
5.438520481
 30
0.0
 10
4.6278182401
 20
5.4385204914
 30
0.0
  0
SPLINE
  5
260
100
AcDbEntity
  8
0
100
AcDbSpline
 62
7
  6
CONTINUOUS
 70
0
 71
3
 72
47
 73
43
 74
0
 42
0.0000001
 43
0.0000001
 44
0.0000000001
 40
0.0
 40
0.0
 40
0.0
 40
0.0
 40
0.0155379876
 40
0.0310770425
 40
0.0466176601
 40
0.0621609521
 40
0.0932489583
 40
0.1243567564
 40
0.1399245547
 40
0.1554992383
 40
0.1710813244
 40
0.1866712582
 40
0.2178666055
 40
0.2490967549
 40
0.2803623488
 40
0.3116626669
 40
0.3429956585
 40
0.3743580265
 40
0.4057453561
 40
0.4371522842
 40
0.4685727044
 40
0.5
 40
0.5314272956
 40
0.5628477158
 40
0.5942546439
 40
0.6256419735
 40
0.6570043415
 40
0.6883373331
 40
0.7196376512
 40
0.7509032451
 40
0.7821333945
 40
0.8133287418
 40
0.8289186756
 40
0.8445007617
 40
0.8600754453
 40
0.8756432436
 40
0.9067510417
 40
0.9378390479
 40
0.9533823399
 40
0.9689229575
 40
0.9844620124
 40
1.0
 40
1.0
 40
1.0
 40
1.0
 10
4.6701231179
 20
3.2703271813
 30
0.0
 10
4.6701231179
 20
3.268022585
 30
0.0
 10
4.6700086263
 20
3.2634124069
 30
0.0
 10
4.6694938804
 20
3.2565145798
 30
0.0
 10
4.6686372698
 20
3.2496496912
 30
0.0
 10
4.6670424606
 20
3.2405641047
 30
0.0
 10
4.664205203
 20
3.2293675519
 30
0.0
 10
4.6602720279
 20
3.2185036139
 30
0.0
 10
4.6564926993
 20
3.210076124
 30
0.0
 10
4.6533466059
 20
3.2038979322
 30
0.0
 10
4.649897565
 20
3.1978798161
 30
0.0
 10
4.6449060631
 20
3.1900881083
 30
0.0
 10
4.637949011
 20
3.180816282
 30
0.0
 10
4.6285422541
 20
3.1705582585
 30
0.0
 10
4.6181634516
 20
3.161260673
 30
0.0
 10
4.6069130589
 20
3.1530137609
 30
0.0
 10
4.5948993324
 20
3.1458966527
 30
0.0
 10
4.5822380068
 20
3.1399778541
 30
0.0
 10
4.5690509848
 20
3.1353142669
 30
0.0
 10
4.5554652194
 20
3.1319507376
 30
0.0
 10
4.5416114832
 20
3.1299196031
 30
0.0
 10
4.5276231179
 20
3.1292403824
 30
0.0
 10
4.5136347527
 20
3.1299196031
 30
0.0
 10
4.4997810165
 20
3.1319507376
 30
0.0
 10
4.4861952511
 20
3.1353142669
 30
0.0
 10
4.4730082291
 20
3.1399778541
 30
0.0
 10
4.4603469035
 20
3.1458966527
 30
0.0
 10
4.4483331769
 20
3.1530137609
 30
0.0
 10
4.4370827843
 20
3.161260673
 30
0.0
 10
4.4267039818
 20
3.1705582585
 30
0.0
 10
4.4172972248
 20
3.180816282
 30
0.0
 10
4.4103401728
 20
3.1900881083
 30
0.0
 10
4.4053486709
 20
3.1978798161
 30
0.0
 10
4.40189963
 20
3.2038979322
 30
0.0
 10
4.3987535366
 20
3.210076124
 30
0.0
 10
4.394974208
 20
3.2185036139
 30
0.0
 10
4.3910410329
 20
3.2293675519
 30
0.0
 10
4.3882037753
 20
3.2405641047
 30
0.0
 10
4.3866089661
 20
3.2496496912
 30
0.0
 10
4.3857523555
 20
3.2565145798
 30
0.0
 10
4.3852376096
 20
3.2634124069
 30
0.0
 10
4.3851231179
 20
3.268022585
 30
0.0
 10
4.3851231179
 20
3.2703271813
 30
0.0
  0
SPLINE
  5
261
100
AcDbEntity
  8
0
100
AcDbSpline
 62
7
  6
CONTINUOUS
 70
0
 71
3
 72
47
 73
43
 74
0
 42
0.0000001
 43
0.0000001
 44
0.0000000001
 40
0.0
 40
0.0
 40
0.0
 40
0.0
 40
0.0155379876
 40
0.0310770425
 40
0.0466176601
 40
0.0621609521
 40
0.0932489583
 40
0.1243567564
 40
0.1399245547
 40
0.1554992383
 40
0.1710813244
 40
0.1866712582
 40
0.2178666055
 40
0.2490967549
 40
0.2803623488
 40
0.3116626669
 40
0.3429956585
 40
0.3743580265
 40
0.4057453561
 40
0.4371522842
 40
0.4685727044
 40
0.5
 40
0.5314272956
 40
0.5628477158
 40
0.5942546439
 40
0.6256419735
 40
0.6570043415
 40
0.6883373331
 40
0.7196376512
 40
0.7509032451
 40
0.7821333945
 40
0.8133287418
 40
0.8289186756
 40
0.8445007617
 40
0.8600754453
 40
0.8756432436
 40
0.9067510417
 40
0.9378390479
 40
0.9533823399
 40
0.9689229575
 40
0.9844620124
 40
1.0
 40
1.0
 40
1.0
 40
1.0
 10
4.6701231179
 20
3.1846757418
 30
0.0
 10
4.6701231179
 20
3.1823711455
 30
0.0
 10
4.6700086263
 20
3.1777609674
 30
0.0
 10
4.6694938804
 20
3.1708631404
 30
0.0
 10
4.6686372698
 20
3.1639982518
 30
0.0
 10
4.6670424606
 20
3.1549126652
 30
0.0
 10
4.664205203
 20
3.1437161124
 30
0.0
 10
4.6602720279
 20
3.1328521745
 30
0.0
 10
4.6564926993
 20
3.1244246846
 30
0.0
 10
4.6533466059
 20
3.1182464928
 30
0.0
 10
4.649897565
 20
3.1122283766
 30
0.0
 10
4.6449060631
 20
3.1044366688
 30
0.0
 10
4.637949011
 20
3.0951648426
 30
0.0
 10
4.6285422541
 20
3.084906819
 30
0.0
 10
4.6181634516
 20
3.0756092335
 30
0.0
 10
4.6069130589
 20
3.0673623214
 30
0.0
 10
4.5948993324
 20
3.0602452132
 30
0.0
 10
4.5822380068
 20
3.0543264147
 30
0.0
 10
4.5690509848
 20
3.0496628274
 30
0.0
 10
4.5554652194
 20
3.0462992981
 30
0.0
 10
4.5416114832
 20
3.0442681636
 30
0.0
 10
4.5276231179
 20
3.0435889429
 30
0.0
 10
4.5136347527
 20
3.0442681636
 30
0.0
 10
4.4997810165
 20
3.0462992981
 30
0.0
 10
4.4861952511
 20
3.0496628274
 30
0.0
 10
4.4730082291
 20
3.0543264147
 30
0.0
 10
4.4603469035
 20
3.0602452132
 30
0.0
 10
4.4483331769
 20
3.0673623214
 30
0.0
 10
4.4370827843
 20
3.0756092335
 30
0.0
 10
4.4267039818
 20
3.084906819
 30
0.0
 10
4.4172972248
 20
3.0951648426
 30
0.0
 10
4.4103401728
 20
3.1044366688
 30
0.0
 10
4.4053486709
 20
3.1122283766
 30
0.0
 10
4.40189963
 20
3.1182464928
 30
0.0
 10
4.3987535366
 20
3.1244246846
 30
0.0
 10
4.394974208
 20
3.1328521745
 30
0.0
 10
4.3910410329
 20
3.1437161124
 30
0.0
 10
4.3882037753
 20
3.1549126652
 30
0.0
 10
4.3866089661
 20
3.1639982518
 30
0.0
 10
4.3857523555
 20
3.1708631404
 30
0.0
 10
4.3852376096
 20
3.1777609674
 30
0.0
 10
4.3851231179
 20
3.1823711455
 30
0.0
 10
4.3851231179
 20
3.1846757418
 30
0.0
  0
SPLINE
  5
262
100
AcDbEntity
  8
0
100
AcDbSpline
 62
7
  6
CONTINUOUS
 70
0
 71
3
 72
52
 73
48
 74
0
 42
0.0000001
 43
0.0000001
 44
0.0000000001
 40
0.0
 40
0.0
 40
0.0
 40
0.0
 40
0.0000067328
 40
0.000026959
 40
0.0000606524
 40
0.0001077868
 40
0.0001683359
 40
0.0002422734
 40
0.0004302086
 40
0.0006713827
 40
0.0009655858
 40
0.0013126084
 40
0.0017122408
 40
0.0021642736
 40
0.0026684977
 40
0.0038326491
 40
0.0052027775
 40
0.0067768845
 40
0.0085529723
 40
0.0105290442
 40
0.0127031063
 40
0.0150731907
 40
0.0203936367
 40
0.0264748051
 40
0.0332989383
 40
0.0408405369
 40
0.0490724111
 40
0.0579671816
 40
0.067496842
 40
0.0776333232
 40
0.0996180889
 40
0.1237164098
 40
0.1497394076
 40
0.1775216602
 40
0.2069087401
 40
0.2377588153
 40
0.2699412074
 40
0.3033444639
 40
0.3378658916
 40
0.4099650607
 40
0.4857186039
 40
0.5646982747
 40
0.6466096788
 40
0.7312356073
 40
0.8184118483
 40
0.9080269686
 40
1.0
 40
1.0
 40
1.0
 40
1.0
 10
3.6278182401
 20
5.4385204914
 30
0.0
 10
3.6278181018
 20
5.438520418
 30
0.0
 10
3.6278193082
 20
5.4385200858
 30
0.0
 10
3.6278198841
 20
5.4385193912
 30
0.0
 10
3.6278222811
 20
5.4385181994
 30
0.0
 10
3.6278249599
 20
5.438516548
 30
0.0
 10
3.6278286711
 20
5.4385144189
 30
0.0
 10
3.6278351173
 20
5.4385106406
 30
0.0
 10
3.6278452372
 20
5.4385047381
 30
0.0
 10
3.6278597451
 20
5.4384962406
 30
0.0
 10
3.6278774489
 20
5.4384858594
 30
0.0
 10
3.6278983168
 20
5.4384735964
 30
0.0
 10
3.6279223385
 20
5.4384594534
 30
0.0
 10
3.6279494962
 20
5.4384434321
 30
0.0
 10
3.627991945
 20
5.4384183399
 30
0.0
 10
3.6280527233
 20
5.438382299
 30
0.0
 10
3.6281348233
 20
5.438333435
 30
0.0
 10
3.6282290659
 20
5.4382771486
 30
0.0
 10
3.6283353123
 20
5.4382134795
 30
0.0
 10
3.6284534241
 20
5.4381424683
 30
0.0
 10
3.6285832619
 20
5.4380641526
 30
0.0
 10
3.6287795394
 20
5.4379454067
 30
0.0
 10
3.6290532573
 20
5.4377791335
 30
0.0
 10
3.6294150778
 20
5.4375583891
 30
0.0
 10
3.6298205615
 20
5.4373100366
 30
0.0
 10
3.6302680469
 20
5.4370345039
 30
0.0
 10
3.6307556945
 20
5.4367323614
 30
0.0
 10
3.6312816038
 20
5.4364041977
 30
0.0
 10
3.6318438319
 20
5.4360505782
 30
0.0
 10
3.6326617149
 20
5.4355316836
 30
0.0
 10
3.6337611036
 20
5.4348241034
 30
0.0
 10
3.6351625783
 20
5.4339033774
 30
0.0
 10
3.6366665377
 20
5.4328932653
 30
0.0
 10
3.6382611209
 20
5.4317976776
 30
0.0
 10
3.6399351863
 20
5.4306197563
 30
0.0
 10
3.64167809
 20
5.4293620992
 30
0.0
 10
3.643479945
 20
5.4280268226
 30
0.0
 10
3.6453316262
 20
5.42661571
 30
0.0
 10
3.6478931922
 20
5.4246051642
 30
0.0
 10
3.6511714553
 20
5.4219133521
 30
0.0
 10
3.6551454981
 20
5.4184432029
 30
0.0
 10
3.6591692705
 20
5.4146873788
 30
0.0
 10
3.6632067987
 20
5.4106487382
 30
0.0
 10
3.6672251716
 20
5.4063266544
 30
0.0
 10
3.6711923277
 20
5.4017181221
 30
0.0
 10
3.6750789126
 20
5.396821261
 30
0.0
 10
3.6775648819
 20
5.3934058063
 30
0.0
 10
3.6787860946
 20
5.3916498753
 30
0.0
  0
SPLINE
  5
263
100
AcDbEntity
  8
0
100
AcDbSpline
 62
7
  6
CONTINUOUS
 70
0
 71
3
 72
31
 73
27
 74
0
 42
0.0000001
 43
0.0000001
 44
0.0000000001
 40
0.0
 40
0.0
 40
0.0
 40
0.0
 40
0.0310728899
 40
0.0621478396
 40
0.0932265446
 40
0.1243106765
 40
0.186482769
 40
0.248695059
 40
0.279829054
 40
0.3109768801
 40
0.3421395401
 40
0.3733179055
 40
0.4357057342
 40
0.4981628854
 40
0.5606904954
 40
0.6232870309
 40
0.6546191751
 40
0.6859667794
 40
0.7173289591
 40
0.7487046699
 40
0.8114735423
 40
0.8742811761
 40
0.9057049971
 40
0.9371337098
 40
0.9685662092
 40
1.0
 40
1.0
 40
1.0
 40
1.0
 10
4.6681171963
 20
3.2703759003
 30
0.0
 10
4.6680962219
 20
3.2681169976
 30
0.0
 10
4.6679426936
 20
3.2635992769
 30
0.0
 10
4.66737831
 20
3.256842649
 30
0.0
 10
4.6664810985
 20
3.2501209658
 30
0.0
 10
4.6648442501
 20
3.2412281505
 30
0.0
 10
4.6619772939
 20
3.2302750372
 30
0.0
 10
4.6580449031
 20
3.2196539818
 30
0.0
 10
4.6542841556
 20
3.2114182267
 30
0.0
 10
4.6511608813
 20
3.2053821681
 30
0.0
 10
4.6477433978
 20
3.1995039369
 30
0.0
 10
4.6428053683
 20
3.1918950614
 30
0.0
 10
4.6359361964
 20
3.1828438405
 30
0.0
 10
4.6266661894
 20
3.1728335297
 30
0.0
 10
4.6164538846
 20
3.1637637542
 30
0.0
 10
4.6072394021
 20
3.1570619264
 30
0.0
 10
4.599501085
 20
3.1522535874
 30
0.0
 10
4.5935233996
 20
3.1489297571
 30
0.0
 10
4.5873888076
 20
3.1458981888
 30
0.0
 10
4.5790199433
 20
3.1422553383
 30
0.0
 10
4.5682370502
 20
3.1384658173
 30
0.0
 10
4.5571353018
 20
3.1357342577
 30
0.0
 10
4.5481268353
 20
3.1341984493
 30
0.0
 10
4.541319314
 20
3.1333733784
 30
0.0
 10
4.5344795112
 20
3.1328775935
 30
0.0
 10
4.5299083556
 20
3.1327673224
 30
0.0
 10
4.5276231179
 20
3.1327673224
 30
0.0
  0
SPLINE
  5
264
100
AcDbEntity
  8
0
100
AcDbSpline
 62
7
  6
CONTINUOUS
 70
0
 71
3
 72
61
 73
57
 74
0
 42
0.0000001
 43
0.0000001
 44
0.0000000001
 40
0.0
 40
0.0
 40
0.0
 40
0.0
 40
0.0000022554
 40
0.0000090357
 40
0.0000203334
 40
0.000036141
 40
0.0000564507
 40
0.0000812552
 40
0.000144318
 40
0.000225269
 40
0.0003240477
 40
0.0004405937
 40
0.0005748469
 40
0.000896233
 40
0.001287724
 40
0.0017488228
 40
0.0022789696
 40
0.0028775893
 40
0.0035441068
 40
0.0042779473
 40
0.0050785363
 40
0.0068776779
 40
0.0089370296
 40
0.0112521121
 40
0.0138182395
 40
0.0166287273
 40
0.0196757726
 40
0.0229515684
 40
0.0264482119
 40
0.0340717432
 40
0.0424824093
 40
0.0516205046
 40
0.0614292162
 40
0.0718584984
 40
0.0828617691
 40
0.0943956578
 40
0.1064195957
 40
0.1188953497
 40
0.145073417
 40
0.1727071927
 40
0.2016357078
 40
0.2317222498
 40
0.2628555623
 40
0.2949591685
 40
0.3279720029
 40
0.3618458069
 40
0.4320360704
 40
0.5053526957
 40
0.5816778741
 40
0.6608917198
 40
0.7427940554
 40
0.8270266524
 40
0.8698585511
 40
0.9130381583
 40
0.9564577634
 40
1.0
 40
1.0
 40
1.0
 40
1.0
 10
4.4274279958
 20
5.4385204914
 30
0.0
 10
4.4274280987
 20
5.4385204398
 30
0.0
 10
4.4274272089
 20
5.438520189
 30
0.0
 10
4.427426788
 20
5.438519684
 30
0.0
 10
4.4274250228
 20
5.4385188036
 30
0.0
 10
4.4274230519
 20
5.43851759
 30
0.0
 10
4.4274203197
 20
5.4385160228
 30
0.0
 10
4.4274155733
 20
5.4385132427
 30
0.0
 10
4.4274081192
 20
5.438508899
 30
0.0
 10
4.42739743
 20
5.4385026459
 30
0.0
 10
4.4273843814
 20
5.4384950061
 30
0.0
 10
4.427368995
 20
5.438485981
 30
0.0
 10
4.42734382
 20
5.4384711906
 30
0.0
 10
4.4273065739
 20
5.43844925
 30
0.0
 10
4.4272550023
 20
5.4384187673
 30
0.0
 10
4.4271943143
 20
5.4383827727
 30
0.0
 10
4.427124593
 20
5.4383412892
 30
0.0
 10
4.4270459255
 20
5.4382943415
 30
0.0
 10
4.4269583995
 20
5.4382419548
 30
0.0
 10
4.4268621026
 20
5.4381841544
 30
0.0
 10
4.4267163589
 20
5.4380964294
 30
0.0
 10
4.4265128968
 20
5.4379734359
 30
0.0
 10
4.4262436208
 20
5.4378099275
 30
0.0
 10
4.425941207
 20
5.4376255857
 30
0.0
 10
4.4256063651
 20
5.4374208016
 30
0.0
 10
4.4252400614
 20
5.4371958724
 30
0.0
 10
4.4248434343
 20
5.4369511218
 30
0.0
 10
4.4244176657
 20
5.4366869237
 30
0.0
 10
4.4237945378
 20
5.4362978661
 30
0.0
 10
4.4229516451
 20
5.4357660443
 30
0.0
 10
4.4218701947
 20
5.435072882
 30
0.0
 10
4.4207007872
 20
5.4343103807
 30
0.0
 10
4.4194520992
 20
5.4334809674
 30
0.0
 10
4.4181320008
 20
5.4325871506
 30
0.0
 10
4.4167477374
 20
5.4316312025
 30
0.0
 10
4.4153062735
 20
5.4306150225
 30
0.0
 10
4.4138143031
 20
5.4295402315
 30
0.0
 10
4.4117324236
 20
5.4280061031
 30
0.0
 10
4.4090442555
 20
5.4259523259
 30
0.0
 10
4.4057534051
 20
5.4233064743
 30
0.0
 10
4.4023782659
 20
5.4204493123
 30
0.0
 10
4.3989484995
 20
5.4173827378
 30
0.0
 10
4.3954911678
 20
5.4141067731
 30
0.0
 10
4.3920277324
 20
5.4106232466
 30
0.0
 10
4.3885788408
 20
5.4069312837
 30
0.0
 10
4.3839721632
 20
5.4016661831
 30
0.0
 10
4.3783641017
 20
5.3945510076
 30
0.0
 10
4.3720740629
 20
5.3852499595
 30
0.0
 10
4.3663019182
 20
5.3750831989
 30
0.0
 10
4.3612151941
 20
5.3640695599
 30
0.0
 10
4.3569914044
 20
5.3522655554
 30
0.0
 10
4.3543525263
 20
5.3419152453
 30
0.0
 10
4.3528266731
 20
5.333359951
 30
0.0
 10
4.3519922823
 20
5.3268051652
 30
0.0
 10
4.3514870521
 20
5.3201807828
 30
0.0
 10
4.3513731441
 20
5.3157424047
 30
0.0
 10
4.3513731179
 20
5.3135204914
 30
0.0
  0
SPLINE
  5
265
100
AcDbEntity
  8
0
100
AcDbSpline
 62
7
  6
CONTINUOUS
 70
0
 71
3
 72
31
 73
27
 74
0
 42
0.0000001
 43
0.0000001
 44
0.0000000001
 40
0.0
 40
0.0
 40
0.0
 40
0.0
 40
0.0310728899
 40
0.0621478396
 40
0.0932265446
 40
0.1243106765
 40
0.186482769
 40
0.248695059
 40
0.279829054
 40
0.3109768801
 40
0.3421395401
 40
0.3733179055
 40
0.4357057342
 40
0.4981628854
 40
0.5606904954
 40
0.6232870309
 40
0.6546191751
 40
0.6859667794
 40
0.7173289591
 40
0.7487046699
 40
0.8114735423
 40
0.8742811761
 40
0.9057049971
 40
0.9371337098
 40
0.9685662092
 40
1.0
 40
1.0
 40
1.0
 40
1.0
 10
4.3871290396
 20
3.2703759003
 30
0.0
 10
4.387150014
 20
3.2681169976
 30
0.0
 10
4.3873035423
 20
3.2635992769
 30
0.0
 10
4.3878679259
 20
3.256842649
 30
0.0
 10
4.3887651374
 20
3.2501209658
 30
0.0
 10
4.3904019858
 20
3.2412281505
 30
0.0
 10
4.393268942
 20
3.2302750372
 30
0.0
 10
4.3972013328
 20
3.2196539818
 30
0.0
 10
4.4009620803
 20
3.2114182267
 30
0.0
 10
4.4040853546
 20
3.2053821681
 30
0.0
 10
4.4075028381
 20
3.1995039369
 30
0.0
 10
4.4124408676
 20
3.1918950614
 30
0.0
 10
4.4193100395
 20
3.1828438405
 30
0.0
 10
4.4285800465
 20
3.1728335297
 30
0.0
 10
4.4387923513
 20
3.1637637542
 30
0.0
 10
4.4480068338
 20
3.1570619264
 30
0.0
 10
4.4557451509
 20
3.1522535874
 30
0.0
 10
4.4617228363
 20
3.1489297571
 30
0.0
 10
4.4678574283
 20
3.1458981888
 30
0.0
 10
4.4762262926
 20
3.1422553383
 30
0.0
 10
4.4870091857
 20
3.1384658173
 30
0.0
 10
4.4981109341
 20
3.1357342577
 30
0.0
 10
4.5071194006
 20
3.1341984493
 30
0.0
 10
4.5139269219
 20
3.1333733784
 30
0.0
 10
4.5207667247
 20
3.1328775935
 30
0.0
 10
4.5253378803
 20
3.1327673224
 30
0.0
 10
4.5276231179
 20
3.1327673224
 30
0.0
  0
SPLINE
  5
266
100
AcDbEntity
  8
0
100
AcDbSpline
 62
7
  6
CONTINUOUS
 70
0
 71
3
 72
29
 73
25
 74
0
 42
0.0000001
 43
0.0000001
 44
0.0000000001
 40
0.0
 40
0.0
 40
0.0
 40
0.0
 40
0.0628168013
 40
0.125653182
 40
0.188493278
 40
0.251300721
 40
0.3140366651
 40
0.3453788543
 40
0.3766968889
 40
0.4079933353
 40
0.4392736838
 40
0.4705429799
 40
0.5018035869
 40
0.5642791364
 40
0.626703281
 40
0.6890510949
 40
0.7202000216
 40
0.751325814
 40
0.7824309227
 40
0.8135206385
 40
0.8446027997
 40
0.8756837755
 40
0.9378353767
 40
1.0
 40
1.0
 40
1.0
 40
1.0
 10
4.5276231179
 20
3.1451601125
 30
0.0
 10
4.5229655333
 20
3.1451601125
 30
0.0
 10
4.5136425811
 20
3.1456279809
 30
0.0
 10
4.4997987971
 20
3.1476903586
 30
0.0
 10
4.4862161892
 20
3.1510709155
 30
0.0
 10
4.4730256067
 20
3.1557275241
 30
0.0
 10
4.4624599002
 20
3.1606406606
 30
0.0
 10
4.4543353091
 20
3.1651675684
 30
0.0
 10
4.4484215645
 20
3.168855503
 30
0.0
 10
4.4427033965
 20
3.1728318247
 30
0.0
 10
4.4371962935
 20
3.1770897261
 30
0.0
 10
4.4319098772
 20
3.1816147272
 30
0.0
 10
4.4251717833
 20
3.1879835153
 30
0.0
 10
4.4173483302
 20
3.1965463259
 30
0.0
 10
4.4090053683
 20
3.2076692137
 30
0.0
 10
4.4029849436
 20
3.2175622741
 30
0.0
 10
4.3987728516
 20
3.2257900534
 30
0.0
 10
4.3959253232
 20
3.2321043638
 30
0.0
 10
4.3933989404
 20
3.2385490882
 30
0.0
 10
4.3912045735
 20
3.2451109692
 30
0.0
 10
4.3893486214
 20
3.2517746953
 30
0.0
 10
4.3873241521
 20
3.2607703795
 30
0.0
 10
4.3856365324
 20
3.2721878657
 30
0.0
 10
4.3851868521
 20
3.2814112628
 30
0.0
 10
4.3851868521
 20
3.2860204914
 30
0.0
  0
ENDSEC
  0
SECTION
  2
OBJECTS
  0
DICTIONARY
  5
C
100
AcDbDictionary
280
0
281
1
  3
ACAD_GROUP
350
D
  3
ACAD_MLINESTYLE
350
17
  3
ACAD_LAYOUT
350
1A
  3
ACAD_PLOTSETTINGS
350
19
  3
ACAD_PLOTSTYLENAME
350
E
  0
DICTIONARY
  5
D
102
{ACAD_REACTORS
330
C
102
}
100
AcDbDictionary
280
0
281
1
  0
ACDBDICTIONARYWDFLT
  5
E
102
{ACAD_REACTORS
330
C
102
}
100
AcDbDictionary
281
1
  3
Normal
350
F
100
AcDbDictionaryWithDefault
340
F
  0
DICTIONARY
  5
17
102
{ACAD_REACTORS
330
C
102
}
100
AcDbDictionary
280
0
281
1
  3
Standard
350
18
  0
DICTIONARY
  5
19
102
{ACAD_REACTORS
330
C
102
}
100
AcDbDictionary
281
1
  0
DICTIONARY
  5
1A
102
{ACAD_REACTORS
330
C
102
}
100
AcDbDictionary
281
1
  3
Model
350
267
  3
Layout1
350
268
  0
ACDBPLACEHOLDER
  5
F
102
{ACAD_REACTORS
330
E
102
}
  0
MLINESTYLE
  5
18
102
{ACAD_REACTORS
330
17
102
}
100
AcDbMlineStyle
  2
STANDARD
 70
0
  3

 62
256
 51
90.0
 52
90.0
 71
2
 49
0.5
 62
256
  6
BYLAYER
 49
-0.5
 62
256
  6
BYLAYER
  0
LAYOUT
  5
267
102
{ACAD_REACTORS
330
1A
102
}
100
AcDbPlotSettings
  1

  2
none_device
  4
ANSI_A_(11.00_x_8.50_Inches)
  6

 40
0.0
 41
0.0
 42
0.0
 43
0.0
 44
279.4
 45
215.9
 46
0.0
 47
0.0
 48
0.0
 49
0.0
140
0.0
141
0.0
142
1.0
143
1.0
 70
1024
 72
0
 73
0
 74
0
  7

 75
0
147
1.0
148
0.0
149
0.0
100
AcDbLayout
  1
Model
 70
0
 71
0
 10
0.0
 20
0.0
 11
11.0
 21
8.5
 12
0.0
 22
0.0
 32
0.0
 14
0.0
 24
0.0
 34
0.0
 15
0.0
 25
0.0
 35
0.0
146
0.0
 13
0.0
 23
0.0
 33
0.0
 16
1.0
 26
0.0
 36
0.0
 17
0.0
 27
1.0
 37
0.0
 76
0
330
202
345
0
346
0
  0
LAYOUT
  5
268
102
{ACAD_REACTORS
330
1A
102
}
100
AcDbPlotSettings
  1

  2
none_device
  4
ANSI_A_(11.00_x_8.50_Inches)
  6

 40
0.0
 41
0.0
 42
0.0
 43
0.0
 44
279.4
 45
215.9
 46
0.0
 47
0.0
 48
0.0
 49
0.0
140
0.0
141
0.0
142
1.0
143
1.0
 70
0
 72
0
 73
0
 74
0
  7

 75
0
147
1.0
148
0.0
149
0.0
100
AcDbLayout
  1
Layout1
 70
0
 71
1
 10
0.0
 20
0.0
 11
11.0
 21
8.5
 12
0.0
 22
0.0
 32
0.0
 14
0.0
 24
0.0
 34
0.0
 15
0.0
 25
0.0
 35
0.0
146
0.0
 13
0.0
 23
0.0
 33
0.0
 16
1.0
 26
0.0
 36
0.0
 17
0.0
 27
1.0
 37
0.0
 76
0
330
203
345
0
346
0
  0
ENDSEC
  0
EOF
