999
DXF file: 1500-5711_front.dxf
999
Pro/ENGINEER 2018400 by Parametric Technology Corporation
  0
SECTION
  2
HEADER
  9
$ACADVER
  1
AC1027
  9
$DWGCODEPAGE
  3
ANSI_1252
  9
$EXTMAX
 10
11.0
 20
8.5
 30
0.0
  9
$EXTMIN
 10
0.0
 20
0.0
 30
0.0
  9
$LIMMIN
 10
0.0
 20
0.0
  9
$LIMMAX
 10
11.0
 20
8.5
  9
$VIEWCTR
 10
5.5
 20
4.25
  9
$VIEWSIZE
 40
8.5
  9
$CLAYER
  8
0
  9
$LTSCALE
 40
0.605
  9
$CELTYPE
  6
BYLAYER
  9
$DIMSCALE
 40
1.0
  9
$DIMASZ
 40
0.1
  9
$DIMEXO
 40
0.0625
  9
$DIMDLI
 40
0.418
  9
$DIMEXE
 40
0.125
  9
$DIMCEN
 40
0.099
  9
$DIMLFAC
 40
1.0
  9
$DIMBLK
  1
_FILLED
  9
$DIMALT
 70
1
  9
$DIMALTD
 70
1
  9
$DIMALTTD
 70
2
  9
$DIMALTF
 40
25.4
  9
$DIMTXT
 40
0.08
  9
$DIMTOL
 70
1
  9
$DIMLIM
 70
0
  9
$DIMTFAC
 40
1.0
  9
$DIMTP
 40
0.01
  9
$DIMTM
 40
0.01
  9
$DIMGAP
 40
0.09
  9
$DIMDSEP
 70
46
  9
$AUNITS
 70
0
  9
$PDMODE
 70
3
  9
$PDSIZE
 40
0.3125
  9
$HANDSEED
  5
3CD
  9
$TILEMODE
 70
1
  9
$MEASUREMENT
 70
0
  9
$INSUNITS
 70
1
  0
ENDSEC
  0
SECTION
  2
CLASSES
  0
CLASS
  1
ACDBDICTIONARYWDFLT
  2
AcDbDictionaryWithDefault
  3
AutoCAD 2000
 90
0
 91
1
280
0
281
0
  0
CLASS
  1
ACDBPLACEHOLDER
  2
AcDbPlaceHolder
  3
AutoCAD 2000
 90
0
 91
1
280
0
281
0
  0
CLASS
  1
LAYOUT
  2
AcDbLayout
  3
AutoCAD 2000
 90
0
 91
0
280
0
281
0
  0
ENDSEC
  0
SECTION
  2
TABLES
  0
TABLE
  2
VPORT
  5
8
100
AcDbSymbolTable
 70
2
  0
VPORT
  5
1F4
100
AcDbSymbolTableRecord
100
AcDbViewportTableRecord
  2
*ACTIVE
 70
0
 10
0.0
 20
0.0
 11
1.0
 21
1.0
 12
5.5
 22
4.25
 13
0.0
 23
0.0
 14
1.0
 24
1.0
 15
0.0
 25
0.0
 16
0.0
 26
0.0
 36
1.0
 17
0.0
 27
0.0
 37
0.0
 40
8.5
 41
1.2941176471
 42
50.0
 43
0.0
 44
0.0
 50
0.0
 51
0.0
 71
0
 72
100
 73
1
 74
1
 75
0
 76
0
 77
0
 78
0
  0
ENDTAB
  0
TABLE
  2
LTYPE
  5
5
100
AcDbSymbolTable
 70
6
  0
LTYPE
  5
14
100
AcDbSymbolTableRecord
100
AcDbLinetypeTableRecord
  2
BYBLOCK
 70
0
  3

 72
65
 73
0
 40
0.0
  0
LTYPE
  5
15
100
AcDbSymbolTableRecord
100
AcDbLinetypeTableRecord
  2
BYLAYER
 70
0
  3

 72
65
 73
0
 40
0.0
  0
LTYPE
  5
16
100
AcDbSymbolTableRecord
100
AcDbLinetypeTableRecord
  2
CONTINUOUS
 70
64
  3
Solid line
 72
65
 73
0
 40
0.0
  0
LTYPE
  5
1F5
100
AcDbSymbolTableRecord
100
AcDbLinetypeTableRecord
  2
CENTER
 70
64
  3
____ _ ____ _ ____ _ ____ _ ____ _ ____ _ ____
 72
65
 73
4
 40
0.6
 49
0.375
 74
0
 49
-0.075
 74
0
 49
0.075
 74
0
 49
-0.075
 74
0
  0
LTYPE
  5
1F6
100
AcDbSymbolTableRecord
100
AcDbLinetypeTableRecord
  2
HIDDEN
 70
64
  3
- - - - - - - - - - - - - - - - - - - -
 72
65
 73
2
 40
0.2
 49
0.1
 74
0
 49
-0.1
 74
0
  0
LTYPE
  5
1F7
100
AcDbSymbolTableRecord
100
AcDbLinetypeTableRecord
  2
PHANTOM
 70
64
  3
_____ _ _ _____ _ _ _____ _ _ _____
 72
65
 73
6
 40
0.8
 49
0.45
 74
0
 49
-0.05
 74
0
 49
0.1
 74
0
 49
-0.05
 74
0
 49
0.1
 74
0
 49
-0.05
 74
0
  0
LTYPE
  5
1F8
100
AcDbSymbolTableRecord
100
AcDbLinetypeTableRecord
  2
DOT
 70
64
  3
. . . . . . . . . . . . . . . . . . . .
 72
65
 73
2
 40
0.2
 49
0.1
 74
0
 49
-0.1
 74
0
  0
LTYPE
  5
1F9
100
AcDbSymbolTableRecord
100
AcDbLinetypeTableRecord
  2
DASHED
 70
64
  3
- - - - - - - - - - - - - - - - - - - -
 72
65
 73
2
 40
0.2
 49
0.1
 74
0
 49
-0.1
 74
0
  0
ENDTAB
  0
TABLE
  2
LAYER
  5
2
100
AcDbSymbolTable
 70
36
  0
LAYER
  5
10
100
AcDbSymbolTableRecord
100
AcDbLayerTableRecord
  2
0
 70
0
 62
7
  6
CONTINUOUS
370
-3
390
F
  0
LAYER
  5
1FA
100
AcDbSymbolTableRecord
100
AcDbLayerTableRecord
  2
DEFAULT_1
 70
0
 62
7
  6
CENTER
370
-3
390
F
  0
LAYER
  5
1FB
100
AcDbSymbolTableRecord
100
AcDbLayerTableRecord
  2
DEFAULT_2
 70
0
 62
8
  6
HIDDEN
370
-3
390
F
  0
LAYER
  5
1FC
100
AcDbSymbolTableRecord
100
AcDbLayerTableRecord
  2
DEFAULT_3
 70
0
 62
7
  6
PHANTOM
370
-3
390
F
  0
LAYER
  5
1FD
100
AcDbSymbolTableRecord
100
AcDbLayerTableRecord
  2
DEFAULT_COORDINATE_SYSTEM
 70
0
 62
7
  6
CONTINUOUS
370
-3
390
F
  0
LAYER
  5
1FE
100
AcDbSymbolTableRecord
100
AcDbLayerTableRecord
  2
DEFAULT_DATUM_AXES
 70
0
 62
7
  6
CONTINUOUS
370
-3
390
F
  0
LAYER
  5
1FF
100
AcDbSymbolTableRecord
100
AcDbLayerTableRecord
  2
DEFAULT_DATUM_PLANES
 70
0
 62
7
  6
CONTINUOUS
370
-3
390
F
  0
ENDTAB
  0
TABLE
  2
STYLE
  5
3
100
AcDbSymbolTable
 70
1
  0
STYLE
  5
11
100
AcDbSymbolTableRecord
100
AcDbTextStyleTableRecord
  2
STANDARD
 70
0
 40
0.0
 41
0.8
 50
0.0
 71
0
 42
0.2
  3
txt
  4

  0
STYLE
  5
200
100
AcDbSymbolTableRecord
100
AcDbTextStyleTableRecord
  2
TEXTSTYLE_1
 70
0
 40
0.0
 41
0.8
 50
0.0
 71
0
 42
0.2
  3
gdt
  4

  0
ENDTAB
  0
TABLE
  2
VIEW
  5
6
100
AcDbSymbolTable
 70
0
  0
ENDTAB
  0
TABLE
  2
UCS
  5
7
100
AcDbSymbolTable
 70
0
  0
ENDTAB
  0
TABLE
  2
APPID
  5
9
100
AcDbSymbolTable
 70
1
  0
APPID
  5
201
100
AcDbSymbolTableRecord
100
AcDbRegAppTableRecord
  2
ACAD
 70
0
  0
ENDTAB
  0
TABLE
  2
BLOCK_RECORD
  5
1
100
AcDbSymbolTable
 70
0
  0
BLOCK_RECORD
  5
202
100
AcDbSymbolTableRecord
100
AcDbBlockTableRecord
  2
*Model_Space
  0
BLOCK_RECORD
  5
203
100
AcDbSymbolTableRecord
100
AcDbBlockTableRecord
  2
*Paper_Space
  0
BLOCK_RECORD
  5
204
100
AcDbSymbolTableRecord
100
AcDbBlockTableRecord
  2
_FILLED
  0
ENDTAB
  0
TABLE
  2
DIMSTYLE
  5
A
100
AcDbSymbolTable
 70
1
100
AcDbDimStyleTable
 71
0
  0
DIMSTYLE
105
205
100
AcDbSymbolTableRecord
100
AcDbDimStyleTableRecord
  2
STANDARD
 70
0
  3

  4

 40
1.0
 41
0.1
 42
0.0625
 43
0.38
 44
0.125
 45
0.0
 46
0.0
 47
0.01
 48
0.01
140
0.08
141
0.09
142
0.0
143
25.4
144
1.0
145
0.0
146
1.0
147
0.09
 71
1.0
 72
0.0
 73
1
 74
1
 75
0
 76
0
 77
0
 78
4
 79
1
170
1
171
1
172
0
173
0
174
0
175
0
176
0
177
0
178
0
270
2
179
2
271
2
272
2
273
2
274
2
275
0
280
0
281
0
282
0
283
1
284
4
285
0
286
0
287
3
288
0
340
11
278
46
341
204
342
204
343
204
344
204
  0
ENDTAB
  0
ENDSEC
  0
SECTION
  2
BLOCKS
  0
BLOCK
  5
20
100
AcDbEntity
  8
0
100
AcDbBlockBegin
  2
*Model_Space
 70
0
 10
0.0
 20
0.0
 30
0.0
  3
*Model_Space
  1

  0
ENDBLK
  5
21
100
AcDbEntity
  8
0
100
AcDbBlockEnd
  0
BLOCK
  5
1C
100
AcDbEntity
  8
0
100
AcDbBlockBegin
  2
*Paper_Space
 70
0
 10
0.0
 20
0.0
 30
0.0
  3
*Paper_Space
  1

  0
ENDBLK
  5
1D
100
AcDbEntity
  8
0
100
AcDbBlockEnd
  0
BLOCK
  5
206
100
AcDbEntity
  8
0
100
AcDbBlockBegin
  2
_FILLED
 70
64
 10
0.0
 20
0.0
  3
_FILLED
  1

  0
SOLID
  5
207
100
AcDbEntity
  8
0
  6
BYBLOCK
 62
0
100
AcDbTrace
 10
0.0
 20
0.0
 11
-1.0
 21
0.2
 12
-1.0
 22
-0.2
 13
-1.0
 23
-0.2
  0
ENDBLK
  5
208
100
AcDbEntity
  8
0
  6
BYBLOCK
 62
0
100
AcDbBlockEnd
  0
ENDSEC
  0
SECTION
  2
ENTITIES
  0
MTEXT
  5
209
100
AcDbEntity
  8
0
100
AcDbMText
 62
2
  6
CONTINUOUS
  7
STANDARD
 71
3
 72
1
 10
5.3731754658
 20
1.453371118
 30
0.0
 11
1.0
 21
0.0
 31
0.0
 73
2
 44
0.9
  1
SCALE  .500
 40
0.08
 41
0.704
  0
LINE
  5
20A
100
AcDbEntity
  8
0
100
AcDbLine
 62
7
  6
CONTINUOUS
 10
0.0
 20
0.0
 11
0.0
 21
8.5
  0
LINE
  5
20B
100
AcDbEntity
  8
0
100
AcDbLine
 62
7
  6
CONTINUOUS
 10
0.0
 20
0.0
 11
11.0
 21
0.0
  0
LINE
  5
20C
100
AcDbEntity
  8
0
100
AcDbLine
 62
7
  6
CONTINUOUS
 10
0.0
 20
8.5
 11
11.0
 21
8.5
  0
LINE
  5
20D
100
AcDbEntity
  8
0
100
AcDbLine
 62
7
  6
CONTINUOUS
 10
11.0
 20
0.0
 11
11.0
 21
8.5
  0
LINE
  5
20E
100
AcDbEntity
  8
0
100
AcDbLine
 62
7
  6
CONTINUOUS
 10
5.0708879638
 20
2.2286118012
 11
5.3758879638
 21
2.2286118012
  0
LINE
  5
20F
100
AcDbEntity
  8
0
100
AcDbLine
 62
7
  6
CONTINUOUS
 10
5.0708879638
 20
2.2433618012
 11
5.3758879638
 21
2.2433618012
  0
LINE
  5
210
100
AcDbEntity
  8
0
100
AcDbLine
 62
7
  6
CONTINUOUS
 10
5.0708879638
 20
2.2728618012
 11
5.3758879638
 21
2.2728618012
  0
LINE
  5
211
100
AcDbEntity
  8
0
100
AcDbLine
 62
7
  6
CONTINUOUS
 10
5.0708879638
 20
2.3513618012
 11
5.3758879638
 21
2.3513618012
  0
LINE
  5
212
100
AcDbEntity
  8
0
100
AcDbLine
 62
7
  6
CONTINUOUS
 10
5.0708879638
 20
2.3808618012
 11
5.3758879638
 21
2.3808618012
  0
LINE
  5
213
100
AcDbEntity
  8
0
100
AcDbLine
 62
7
  6
CONTINUOUS
 10
5.0708879638
 20
2.4593618012
 11
5.3758879638
 21
2.4593618012
  0
LINE
  5
214
100
AcDbEntity
  8
0
100
AcDbLine
 62
7
  6
CONTINUOUS
 10
4.6862756556
 20
2.37506767
 11
4.2992822305
 21
2.5555256677
  0
LINE
  5
215
100
AcDbEntity
  8
0
100
AcDbLine
 62
7
  6
CONTINUOUS
 10
5.0708879638
 20
2.4888618012
 11
5.3758879638
 21
2.4888618012
  0
LINE
  5
216
100
AcDbEntity
  8
0
100
AcDbLine
 62
7
  6
CONTINUOUS
 10
5.0708879638
 20
2.5673618012
 11
5.3758879638
 21
2.5673618012
  0
LINE
  5
217
100
AcDbEntity
  8
0
100
AcDbLine
 62
7
  6
CONTINUOUS
 10
5.0708879638
 20
2.5968618012
 11
5.3758879638
 21
2.5968618012
  0
LINE
  5
218
100
AcDbEntity
  8
0
100
AcDbLine
 62
7
  6
CONTINUOUS
 10
4.3156792442
 20
2.5906891772
 11
4.7026726693
 21
2.4102311794
  0
LINE
  5
219
100
AcDbEntity
  8
0
100
AcDbLine
 62
7
  6
CONTINUOUS
 10
4.744470765
 20
2.499867485
 11
4.35747734
 21
2.6803254827
  0
LINE
  5
21A
100
AcDbEntity
  8
0
100
AcDbLine
 62
7
  6
CONTINUOUS
 10
5.0708879638
 20
2.6753618012
 11
5.3758879638
 21
2.6753618012
  0
LINE
  5
21B
100
AcDbEntity
  8
0
100
AcDbLine
 62
7
  6
CONTINUOUS
 10
5.0708879638
 20
2.7048618012
 11
5.3758879638
 21
2.7048618012
  0
LINE
  5
21C
100
AcDbEntity
  8
0
100
AcDbLine
 62
7
  6
CONTINUOUS
 10
4.7607826803
 20
2.5348485001
 11
4.3737892552
 21
2.7153064979
  0
LINE
  5
21D
100
AcDbEntity
  8
0
100
AcDbLine
 62
7
  6
CONTINUOUS
 10
4.802580776
 20
2.6244848057
 11
4.415587351
 21
2.8049428034
  0
LINE
  5
21E
100
AcDbEntity
  8
0
100
AcDbLine
 62
7
  6
CONTINUOUS
 10
5.0708879638
 20
2.7833618012
 11
5.3758879638
 21
2.7833618012
  0
LINE
  5
21F
100
AcDbEntity
  8
0
100
AcDbLine
 62
7
  6
CONTINUOUS
 10
5.0708879638
 20
2.8128618012
 11
5.3758879638
 21
2.8128618012
  0
LINE
  5
220
100
AcDbEntity
  8
0
100
AcDbLine
 62
7
  6
CONTINUOUS
 10
4.8188926913
 20
2.6594658208
 11
4.4318992662
 21
2.8399238186
  0
LINE
  5
221
100
AcDbEntity
  8
0
100
AcDbLine
 62
7
  6
CONTINUOUS
 10
4.860690787
 20
2.7491021264
 11
4.473697362
 21
2.9295601242
  0
LINE
  5
222
100
AcDbEntity
  8
0
100
AcDbLine
 62
7
  6
CONTINUOUS
 10
4.8770027023
 20
2.7840831416
 11
4.4900092772
 21
2.9645411393
  0
LINE
  5
223
100
AcDbEntity
  8
0
100
AcDbLine
 62
7
  6
CONTINUOUS
 10
4.9749966183
 20
2.9982877762
 11
5.073297158
 21
2.9982877762
  0
LINE
  5
224
100
AcDbEntity
  8
0
100
AcDbLine
 62
7
  6
CONTINUOUS
 10
4.918800798
 20
2.8737194471
 11
4.5318073729
 21
3.0541774449
  0
LINE
  5
225
100
AcDbEntity
  8
0
100
AcDbLine
 62
7
  6
CONTINUOUS
 10
4.9351127133
 20
2.9087004623
 11
4.5481192882
 21
3.08915846
  0
LINE
  5
226
100
AcDbEntity
  8
0
100
AcDbLine
 62
7
  6
CONTINUOUS
 10
4.9753572695
 20
2.9990611952
 11
4.5899173839
 21
3.1787947656
  0
LINE
  5
227
100
AcDbEntity
  8
0
100
AcDbLine
 62
7
  6
CONTINUOUS
 10
4.6062292992
 20
3.2137757807
 11
4.9916691848
 21
3.0340422103
  0
LINE
  5
228
100
AcDbEntity
  8
0
100
AcDbLine
 62
7
  6
CONTINUOUS
 10
5.1498311118
 20
3.480275
 11
4.8053950736
 21
3.6408881623
  0
LINE
  5
229
100
AcDbEntity
  8
0
100
AcDbLine
 62
7
  6
CONTINUOUS
 10
5.3758879638
 20
3.7186118012
 11
5.3752609549
 21
3.7186118012
  0
LINE
  5
22A
100
AcDbEntity
  8
0
100
AcDbLine
 62
7
  6
CONTINUOUS
 10
5.3758879638
 20
3.7318618012
 11
4.7908879638
 21
3.7318618012
  0
LINE
  5
22B
100
AcDbEntity
  8
0
100
AcDbLine
 62
7
  6
CONTINUOUS
 10
4.5883879638
 20
5.5568618012
 11
4.5883879638
 21
5.3443618012
  0
LINE
  5
22C
100
AcDbEntity
  8
0
100
AcDbLine
 62
7
  6
CONTINUOUS
 10
4.6333879638
 20
4.7973618012
 11
4.6333879638
 21
4.8623618012
  0
LINE
  5
22D
100
AcDbEntity
  8
0
100
AcDbLine
 62
7
  6
CONTINUOUS
 10
4.6433879638
 20
4.7723618012
 11
4.6433879638
 21
4.7973618012
  0
LINE
  5
22E
100
AcDbEntity
  8
0
100
AcDbLine
 62
7
  6
CONTINUOUS
 10
4.6746379638
 20
5.6189321432
 11
4.6662364803
 21
5.5603618012
  0
LINE
  5
22F
100
AcDbEntity
  8
0
100
AcDbLine
 62
7
  6
CONTINUOUS
 10
4.6660399409
 20
5.5568618012
 11
4.6660399409
 21
5.5603618012
  0
LINE
  5
230
100
AcDbEntity
  8
0
100
AcDbLine
 62
7
  6
CONTINUOUS
 10
4.6746379638
 20
6.5368618012
 11
4.6746379638
 21
5.6189321432
  0
LINE
  5
231
100
AcDbEntity
  8
0
100
AcDbLine
 62
7
  6
CONTINUOUS
 10
4.6858879638
 20
4.7323618012
 11
4.6858879638
 21
4.5773618012
  0
LINE
  5
232
100
AcDbEntity
  8
0
100
AcDbLine
 62
7
  6
CONTINUOUS
 10
4.7686379638
 20
5.3078739334
 11
4.7686379638
 21
5.2971996691
  0
LINE
  5
233
100
AcDbEntity
  8
0
100
AcDbLine
 62
7
  6
CONTINUOUS
 10
4.7686379638
 20
5.2734239334
 11
4.7686379638
 21
5.2627496691
  0
LINE
  5
234
100
AcDbEntity
  8
0
100
AcDbLine
 62
7
  6
CONTINUOUS
 10
4.7686379638
 20
5.2389739334
 11
4.7686379638
 21
5.2282996691
  0
LINE
  5
235
100
AcDbEntity
  8
0
100
AcDbLine
 62
7
  6
CONTINUOUS
 10
4.7686379638
 20
5.2045239334
 11
4.7686379638
 21
5.1938496691
  0
LINE
  5
236
100
AcDbEntity
  8
0
100
AcDbLine
 62
7
  6
CONTINUOUS
 10
4.7686379638
 20
5.1700739334
 11
4.7686379638
 21
5.1593996691
  0
LINE
  5
237
100
AcDbEntity
  8
0
100
AcDbLine
 62
7
  6
CONTINUOUS
 10
4.7686379638
 20
5.1356239334
 11
4.7686379638
 21
5.1249496691
  0
LINE
  5
238
100
AcDbEntity
  8
0
100
AcDbLine
 62
7
  6
CONTINUOUS
 10
4.7686379638
 20
5.1011739334
 11
4.7686379638
 21
5.0904996691
  0
LINE
  5
239
100
AcDbEntity
  8
0
100
AcDbLine
 62
7
  6
CONTINUOUS
 10
4.7686379638
 20
5.0667239334
 11
4.7686379638
 21
5.0560496691
  0
LINE
  5
23A
100
AcDbEntity
  8
0
100
AcDbLine
 62
7
  6
CONTINUOUS
 10
4.7686379638
 20
5.0322739334
 11
4.7686379638
 21
5.0215996691
  0
LINE
  5
23B
100
AcDbEntity
  8
0
100
AcDbLine
 62
7
  6
CONTINUOUS
 10
4.7686379638
 20
4.9978239334
 11
4.7686379638
 21
4.9871496691
  0
LINE
  5
23C
100
AcDbEntity
  8
0
100
AcDbLine
 62
7
  6
CONTINUOUS
 10
4.7686379638
 20
4.9633739334
 11
4.7686379638
 21
4.9526996691
  0
LINE
  5
23D
100
AcDbEntity
  8
0
100
AcDbLine
 62
7
  6
CONTINUOUS
 10
4.7686379638
 20
4.9289239334
 11
4.7686379638
 21
4.9182496691
  0
LINE
  5
23E
100
AcDbEntity
  8
0
100
AcDbLine
 62
7
  6
CONTINUOUS
 10
4.7686379638
 20
4.8944739334
 11
4.7686379638
 21
4.8837996691
  0
LINE
  5
23F
100
AcDbEntity
  8
0
100
AcDbLine
 62
7
  6
CONTINUOUS
 10
4.7686379638
 20
4.5499739334
 11
4.7686379638
 21
4.5392996691
  0
LINE
  5
240
100
AcDbEntity
  8
0
100
AcDbLine
 62
7
  6
CONTINUOUS
 10
4.7686379638
 20
5.3316496691
 11
4.7686379638
 21
5.3423239334
  0
LINE
  5
241
100
AcDbEntity
  8
0
100
AcDbLine
 62
7
  6
CONTINUOUS
 10
4.7889879638
 20
5.3263868012
 11
4.7889879638
 21
5.3133337991
  0
LINE
  5
242
100
AcDbEntity
  8
0
100
AcDbLine
 62
7
  6
CONTINUOUS
 10
4.7889879638
 20
5.2919368012
 11
4.7889879638
 21
5.2788837991
  0
LINE
  5
243
100
AcDbEntity
  8
0
100
AcDbLine
 62
7
  6
CONTINUOUS
 10
4.7889879638
 20
5.2574868012
 11
4.7889879638
 21
5.2444337991
  0
LINE
  5
244
100
AcDbEntity
  8
0
100
AcDbLine
 62
7
  6
CONTINUOUS
 10
4.7889879638
 20
5.2230368012
 11
4.7889879638
 21
5.2099837991
  0
LINE
  5
245
100
AcDbEntity
  8
0
100
AcDbLine
 62
7
  6
CONTINUOUS
 10
4.7889879638
 20
5.1885868012
 11
4.7889879638
 21
5.1755337991
  0
LINE
  5
246
100
AcDbEntity
  8
0
100
AcDbLine
 62
7
  6
CONTINUOUS
 10
4.7889879638
 20
5.1541368012
 11
4.7889879638
 21
5.1410837991
  0
LINE
  5
247
100
AcDbEntity
  8
0
100
AcDbLine
 62
7
  6
CONTINUOUS
 10
4.7889879638
 20
5.1196868012
 11
4.7889879638
 21
5.1066337991
  0
LINE
  5
248
100
AcDbEntity
  8
0
100
AcDbLine
 62
7
  6
CONTINUOUS
 10
4.7889879638
 20
5.0852368012
 11
4.7889879638
 21
5.0721837991
  0
LINE
  5
249
100
AcDbEntity
  8
0
100
AcDbLine
 62
7
  6
CONTINUOUS
 10
4.7889879638
 20
5.0507868012
 11
4.7889879638
 21
5.0377337991
  0
LINE
  5
24A
100
AcDbEntity
  8
0
100
AcDbLine
 62
7
  6
CONTINUOUS
 10
4.7889879638
 20
5.0163368012
 11
4.7889879638
 21
5.0032837991
  0
LINE
  5
24B
100
AcDbEntity
  8
0
100
AcDbLine
 62
7
  6
CONTINUOUS
 10
4.7889879638
 20
4.9818868012
 11
4.7889879638
 21
4.9688337991
  0
LINE
  5
24C
100
AcDbEntity
  8
0
100
AcDbLine
 62
7
  6
CONTINUOUS
 10
4.7889879638
 20
4.9474368012
 11
4.7889879638
 21
4.9343837991
  0
LINE
  5
24D
100
AcDbEntity
  8
0
100
AcDbLine
 62
7
  6
CONTINUOUS
 10
4.7889879638
 20
4.9129868012
 11
4.7889879638
 21
4.8999337991
  0
LINE
  5
24E
100
AcDbEntity
  8
0
100
AcDbLine
 62
7
  6
CONTINUOUS
 10
4.7889879638
 20
4.8785368012
 11
4.7889879638
 21
4.8654837991
  0
LINE
  5
24F
100
AcDbEntity
  8
0
100
AcDbLine
 62
7
  6
CONTINUOUS
 10
4.7889879638
 20
4.5573618012
 11
4.7889879638
 21
4.5554337991
  0
LINE
  5
250
100
AcDbEntity
  8
0
100
AcDbLine
 62
7
  6
CONTINUOUS
 10
4.7889879638
 20
4.5340368012
 11
4.7889879638
 21
4.5271118012
  0
LINE
  5
251
100
AcDbEntity
  8
0
100
AcDbLine
 62
7
  6
CONTINUOUS
 10
4.7908879638
 20
4.5271118012
 11
4.7908879638
 21
3.7318618012
  0
LINE
  5
252
100
AcDbEntity
  8
0
100
AcDbLine
 62
7
  6
CONTINUOUS
 10
4.8659444953
 20
4.7323618012
 11
4.8659444953
 21
4.5773618012
  0
LINE
  5
253
100
AcDbEntity
  8
0
100
AcDbLine
 62
7
  6
CONTINUOUS
 10
4.9048535187
 20
4.7323618012
 11
4.9048535187
 21
4.5773618012
  0
LINE
  5
254
100
AcDbEntity
  8
0
100
AcDbLine
 62
7
  6
CONTINUOUS
 10
5.3770275528
 20
4.5508676407
 11
5.3974263684
 21
4.5561559124
  0
LINE
  5
255
100
AcDbEntity
  8
0
100
AcDbLine
 62
7
  6
CONTINUOUS
 10
5.0708879638
 20
2.2286118012
 11
5.0708879638
 21
2.2433618012
  0
LINE
  5
256
100
AcDbEntity
  8
0
100
AcDbLine
 62
7
  6
CONTINUOUS
 10
5.0708879638
 20
2.2728618012
 11
5.0708879638
 21
2.3513618012
  0
LINE
  5
257
100
AcDbEntity
  8
0
100
AcDbLine
 62
7
  6
CONTINUOUS
 10
5.0708879638
 20
2.3808618012
 11
5.0708879638
 21
2.4593618012
  0
LINE
  5
258
100
AcDbEntity
  8
0
100
AcDbLine
 62
7
  6
CONTINUOUS
 10
5.0708879638
 20
2.4888618012
 11
5.0708879638
 21
2.5673618012
  0
LINE
  5
259
100
AcDbEntity
  8
0
100
AcDbLine
 62
7
  6
CONTINUOUS
 10
5.0708879638
 20
2.5968618012
 11
5.0708879638
 21
2.6753618012
  0
LINE
  5
25A
100
AcDbEntity
  8
0
100
AcDbLine
 62
7
  6
CONTINUOUS
 10
5.0708879638
 20
2.7048618012
 11
5.0708879638
 21
2.7833618012
  0
LINE
  5
25B
100
AcDbEntity
  8
0
100
AcDbLine
 62
7
  6
CONTINUOUS
 10
5.0708879638
 20
2.8128618012
 11
5.0708879638
 21
2.9982877762
  0
LINE
  5
25C
100
AcDbEntity
  8
0
100
AcDbLine
 62
7
  6
CONTINUOUS
 10
5.073297158
 20
2.9982877762
 11
5.073297158
 21
3.2090939638
  0
LINE
  5
25D
100
AcDbEntity
  8
0
100
AcDbLine
 62
7
  6
CONTINUOUS
 10
4.7897483747
 20
4.5556309618
 11
4.7693495592
 21
4.5503426901
  0
LINE
  5
25E
100
AcDbEntity
  8
0
100
AcDbLine
 62
7
  6
CONTINUOUS
 10
5.3981379638
 20
4.5271118012
 11
4.7889885055
 21
4.5271118012
  0
LINE
  5
25F
100
AcDbEntity
  8
0
100
AcDbLine
 62
7
  6
CONTINUOUS
 10
5.4608879638
 20
4.5573618012
 11
4.7058879638
 21
4.5573618012
  0
LINE
  5
260
100
AcDbEntity
  8
0
100
AcDbLine
 62
7
  6
CONTINUOUS
 10
5.3008314324
 20
4.5773618012
 11
5.261922409
 21
4.5773618012
  0
LINE
  5
261
100
AcDbEntity
  8
0
100
AcDbLine
 62
7
  6
CONTINUOUS
 10
4.9048535187
 20
4.5773618012
 11
4.8659444953
 21
4.5773618012
  0
LINE
  5
262
100
AcDbEntity
  8
0
100
AcDbLine
 62
7
  6
CONTINUOUS
 10
4.7693495592
 20
4.5389309124
 11
4.7889401042
 21
4.5338522132
  0
LINE
  5
263
100
AcDbEntity
  8
0
100
AcDbLine
 62
7
  6
CONTINUOUS
 10
5.261922409
 20
4.7323618012
 11
5.261922409
 21
4.5773618012
  0
LINE
  5
264
100
AcDbEntity
  8
0
100
AcDbLine
 62
7
  6
CONTINUOUS
 10
4.8053950736
 20
3.6408881623
 11
4.6062292992
 21
3.2137757807
  0
LINE
  5
265
100
AcDbEntity
  8
0
100
AcDbLine
 62
7
  6
CONTINUOUS
 10
4.3156792442
 20
2.5906891772
 11
4.35747734
 21
2.6803254827
  0
LINE
  5
266
100
AcDbEntity
  8
0
100
AcDbLine
 62
7
  6
CONTINUOUS
 10
4.3737892552
 20
2.7153064979
 11
4.415587351
 21
2.8049428034
  0
LINE
  5
267
100
AcDbEntity
  8
0
100
AcDbLine
 62
7
  6
CONTINUOUS
 10
4.4318992662
 20
2.8399238186
 11
4.473697362
 21
2.9295601242
  0
LINE
  5
268
100
AcDbEntity
  8
0
100
AcDbLine
 62
7
  6
CONTINUOUS
 10
4.4900092772
 20
2.9645411393
 11
4.5318073729
 21
3.0541774449
  0
LINE
  5
269
100
AcDbEntity
  8
0
100
AcDbLine
 62
7
  6
CONTINUOUS
 10
4.5481192882
 20
3.08915846
 11
4.5899173839
 21
3.1787947656
  0
LINE
  5
26A
100
AcDbEntity
  8
0
100
AcDbLine
 62
7
  6
CONTINUOUS
 10
5.3825975578
 20
4.8623618012
 11
5.3974263684
 21
4.8662059124
  0
LINE
  5
26B
100
AcDbEntity
  8
0
100
AcDbLine
 62
7
  6
CONTINUOUS
 10
4.6833889533
 20
4.7323618012
 11
5.4833869743
 21
4.7323618012
  0
LINE
  5
26C
100
AcDbEntity
  8
0
100
AcDbLine
 62
7
  6
CONTINUOUS
 10
5.3974263685
 20
4.5331176901
 11
5.3777879638
 21
4.5382087991
  0
LINE
  5
26D
100
AcDbEntity
  8
0
100
AcDbLine
 62
7
  6
CONTINUOUS
 10
5.3008314324
 20
4.7323618012
 11
5.3008314324
 21
4.5773618012
  0
LINE
  5
26E
100
AcDbEntity
  8
0
100
AcDbLine
 62
7
  6
CONTINUOUS
 10
5.3758879638
 20
4.5271118012
 11
5.3758879638
 21
3.7318618012
  0
LINE
  5
26F
100
AcDbEntity
  8
0
100
AcDbLine
 62
7
  6
CONTINUOUS
 10
5.3758879638
 20
2.2286118012
 11
5.3758879638
 21
2.2433618012
  0
LINE
  5
270
100
AcDbEntity
  8
0
100
AcDbLine
 62
7
  6
CONTINUOUS
 10
5.3758879638
 20
2.2728618012
 11
5.3758879638
 21
2.3513618012
  0
LINE
  5
271
100
AcDbEntity
  8
0
100
AcDbLine
 62
7
  6
CONTINUOUS
 10
5.3758879638
 20
2.3808618012
 11
5.3758879638
 21
2.4593618012
  0
LINE
  5
272
100
AcDbEntity
  8
0
100
AcDbLine
 62
7
  6
CONTINUOUS
 10
5.3758879638
 20
2.4888618012
 11
5.3758879638
 21
2.5673618012
  0
LINE
  5
273
100
AcDbEntity
  8
0
100
AcDbLine
 62
7
  6
CONTINUOUS
 10
5.3758879638
 20
2.5968618012
 11
5.3758879638
 21
2.6753618012
  0
LINE
  5
274
100
AcDbEntity
  8
0
100
AcDbLine
 62
7
  6
CONTINUOUS
 10
5.3758879638
 20
2.7048618012
 11
5.3758879638
 21
2.7833618012
  0
LINE
  5
275
100
AcDbEntity
  8
0
100
AcDbLine
 62
7
  6
CONTINUOUS
 10
5.3758879638
 20
2.8128618012
 11
5.3758879638
 21
3.7186118012
  0
LINE
  5
276
100
AcDbEntity
  8
0
100
AcDbLine
 62
7
  6
CONTINUOUS
 10
5.3777879638
 20
4.5380118012
 11
5.3777879638
 21
4.5510648042
  0
LINE
  5
277
100
AcDbEntity
  8
0
100
AcDbLine
 62
7
  6
CONTINUOUS
 10
5.3777879638
 20
4.8825118012
 11
5.3777879638
 21
4.8955648042
  0
LINE
  5
278
100
AcDbEntity
  8
0
100
AcDbLine
 62
7
  6
CONTINUOUS
 10
5.3777879638
 20
4.9169618012
 11
5.3777879638
 21
4.9300148042
  0
LINE
  5
279
100
AcDbEntity
  8
0
100
AcDbLine
 62
7
  6
CONTINUOUS
 10
5.3777879638
 20
4.9514118012
 11
5.3777879638
 21
4.9644648042
  0
LINE
  5
27A
100
AcDbEntity
  8
0
100
AcDbLine
 62
7
  6
CONTINUOUS
 10
5.3777879638
 20
4.9858618012
 11
5.3777879638
 21
4.9989148042
  0
LINE
  5
27B
100
AcDbEntity
  8
0
100
AcDbLine
 62
7
  6
CONTINUOUS
 10
5.3777879638
 20
5.0203118012
 11
5.3777879638
 21
5.0333648042
  0
LINE
  5
27C
100
AcDbEntity
  8
0
100
AcDbLine
 62
7
  6
CONTINUOUS
 10
5.3777879638
 20
5.0547618012
 11
5.3777879638
 21
5.0678148042
  0
LINE
  5
27D
100
AcDbEntity
  8
0
100
AcDbLine
 62
7
  6
CONTINUOUS
 10
5.3777879638
 20
5.0892118012
 11
5.3777879638
 21
5.1022648042
  0
LINE
  5
27E
100
AcDbEntity
  8
0
100
AcDbLine
 62
7
  6
CONTINUOUS
 10
5.3777879638
 20
5.1236618012
 11
5.3777879638
 21
5.1367148042
  0
LINE
  5
27F
100
AcDbEntity
  8
0
100
AcDbLine
 62
7
  6
CONTINUOUS
 10
5.3777879638
 20
5.1581118012
 11
5.3777879638
 21
5.1711648042
  0
LINE
  5
280
100
AcDbEntity
  8
0
100
AcDbLine
 62
7
  6
CONTINUOUS
 10
5.3777879638
 20
5.1925618012
 11
5.3777879638
 21
5.2056148042
  0
LINE
  5
281
100
AcDbEntity
  8
0
100
AcDbLine
 62
7
  6
CONTINUOUS
 10
5.3777879638
 20
5.2270118012
 11
5.3777879638
 21
5.2400648042
  0
LINE
  5
282
100
AcDbEntity
  8
0
100
AcDbLine
 62
7
  6
CONTINUOUS
 10
5.3777879638
 20
5.2614618012
 11
5.3777879638
 21
5.2745148042
  0
LINE
  5
283
100
AcDbEntity
  8
0
100
AcDbLine
 62
7
  6
CONTINUOUS
 10
5.3777879638
 20
5.2959118012
 11
5.3777879638
 21
5.3089648042
  0
LINE
  5
284
100
AcDbEntity
  8
0
100
AcDbLine
 62
7
  6
CONTINUOUS
 10
5.3777879638
 20
5.3303618012
 11
5.3777879638
 21
5.3434148042
  0
LINE
  5
285
100
AcDbEntity
  8
0
100
AcDbLine
 62
7
  6
CONTINUOUS
 10
5.3981379638
 20
5.3250989334
 11
5.3981379638
 21
5.3144246691
  0
LINE
  5
286
100
AcDbEntity
  8
0
100
AcDbLine
 62
7
  6
CONTINUOUS
 10
5.3981379638
 20
5.2906489334
 11
5.3981379638
 21
5.2799746691
  0
LINE
  5
287
100
AcDbEntity
  8
0
100
AcDbLine
 62
7
  6
CONTINUOUS
 10
5.3981379638
 20
5.2561989334
 11
5.3981379638
 21
5.2455246691
  0
LINE
  5
288
100
AcDbEntity
  8
0
100
AcDbLine
 62
7
  6
CONTINUOUS
 10
5.3981379638
 20
5.2217489334
 11
5.3981379638
 21
5.2110746691
  0
LINE
  5
289
100
AcDbEntity
  8
0
100
AcDbLine
 62
7
  6
CONTINUOUS
 10
5.3981379638
 20
5.1872989334
 11
5.3981379638
 21
5.1766246691
  0
LINE
  5
28A
100
AcDbEntity
  8
0
100
AcDbLine
 62
7
  6
CONTINUOUS
 10
5.3981379638
 20
5.1528489334
 11
5.3981379638
 21
5.1421746691
  0
LINE
  5
28B
100
AcDbEntity
  8
0
100
AcDbLine
 62
7
  6
CONTINUOUS
 10
5.3981379638
 20
5.1183989334
 11
5.3981379638
 21
5.1077246691
  0
LINE
  5
28C
100
AcDbEntity
  8
0
100
AcDbLine
 62
7
  6
CONTINUOUS
 10
5.3981379638
 20
5.0839489334
 11
5.3981379638
 21
5.0732746691
  0
LINE
  5
28D
100
AcDbEntity
  8
0
100
AcDbLine
 62
7
  6
CONTINUOUS
 10
5.3981379638
 20
5.0494989334
 11
5.3981379638
 21
5.0388246691
  0
LINE
  5
28E
100
AcDbEntity
  8
0
100
AcDbLine
 62
7
  6
CONTINUOUS
 10
5.3981379638
 20
5.0150489334
 11
5.3981379638
 21
5.0043746691
  0
LINE
  5
28F
100
AcDbEntity
  8
0
100
AcDbLine
 62
7
  6
CONTINUOUS
 10
5.3981379638
 20
4.9805989334
 11
5.3981379638
 21
4.9699246691
  0
LINE
  5
290
100
AcDbEntity
  8
0
100
AcDbLine
 62
7
  6
CONTINUOUS
 10
5.3981379638
 20
4.9461489334
 11
5.3981379638
 21
4.9354746691
  0
LINE
  5
291
100
AcDbEntity
  8
0
100
AcDbLine
 62
7
  6
CONTINUOUS
 10
5.3981379638
 20
4.9116989334
 11
5.3981379638
 21
4.9010246691
  0
LINE
  5
292
100
AcDbEntity
  8
0
100
AcDbLine
 62
7
  6
CONTINUOUS
 10
5.3981379638
 20
4.8772489334
 11
5.3981379638
 21
4.8665746691
  0
LINE
  5
293
100
AcDbEntity
  8
0
100
AcDbLine
 62
7
  6
CONTINUOUS
 10
5.3981379638
 20
4.5327489334
 11
5.3981379638
 21
4.5271118012
  0
LINE
  5
294
100
AcDbEntity
  8
0
100
AcDbLine
 62
7
  6
CONTINUOUS
 10
5.3981379638
 20
4.5565246691
 11
5.3981379638
 21
4.5573618012
  0
LINE
  5
295
100
AcDbEntity
  8
0
100
AcDbLine
 62
7
  6
CONTINUOUS
 10
5.4067709604
 20
5.9968618012
 11
5.4067709604
 21
5.9943618012
  0
LINE
  5
296
100
AcDbEntity
  8
0
100
AcDbLine
 62
7
  6
CONTINUOUS
 10
5.3770275528
 20
4.8953676407
 11
5.3974263684
 21
4.9006559124
  0
LINE
  5
297
100
AcDbEntity
  8
0
100
AcDbLine
 62
7
  6
CONTINUOUS
 10
5.3770275528
 20
4.9298176407
 11
5.3974263684
 21
4.9351059124
  0
LINE
  5
298
100
AcDbEntity
  8
0
100
AcDbLine
 62
7
  6
CONTINUOUS
 10
5.3770275528
 20
4.9642676407
 11
5.3974263684
 21
4.9695559124
  0
LINE
  5
299
100
AcDbEntity
  8
0
100
AcDbLine
 62
7
  6
CONTINUOUS
 10
5.3770275528
 20
4.9987176407
 11
5.3974263684
 21
5.0040059124
  0
LINE
  5
29A
100
AcDbEntity
  8
0
100
AcDbLine
 62
7
  6
CONTINUOUS
 10
4.7897483747
 20
4.8656809618
 11
4.7769458963
 21
4.8623618012
  0
LINE
  5
29B
100
AcDbEntity
  8
0
100
AcDbLine
 62
7
  6
CONTINUOUS
 10
5.3770275528
 20
5.0331676407
 11
5.3974263684
 21
5.0384559124
  0
LINE
  5
29C
100
AcDbEntity
  8
0
100
AcDbLine
 62
7
  6
CONTINUOUS
 10
4.6433879638
 20
4.7723618012
 11
5.5233879638
 21
4.7723618012
  0
LINE
  5
29D
100
AcDbEntity
  8
0
100
AcDbLine
 62
7
  6
CONTINUOUS
 10
4.6333879638
 20
4.7973618012
 11
5.5333879638
 21
4.7973618012
  0
LINE
  5
29E
100
AcDbEntity
  8
0
100
AcDbLine
 62
7
  6
CONTINUOUS
 10
4.6333879638
 20
4.8623618012
 11
5.5333879638
 21
4.8623618012
  0
LINE
  5
29F
100
AcDbEntity
  8
0
100
AcDbLine
 62
7
  6
CONTINUOUS
 10
4.7693495592
 20
4.8834309124
 11
4.7889401042
 21
4.8783522132
  0
LINE
  5
2A0
100
AcDbEntity
  8
0
100
AcDbLine
 62
7
  6
CONTINUOUS
 10
4.7693495592
 20
4.9178809124
 11
4.7889401042
 21
4.9128022132
  0
LINE
  5
2A1
100
AcDbEntity
  8
0
100
AcDbLine
 62
7
  6
CONTINUOUS
 10
4.7693495592
 20
4.9523309124
 11
4.7889401042
 21
4.9472522132
  0
LINE
  5
2A2
100
AcDbEntity
  8
0
100
AcDbLine
 62
7
  6
CONTINUOUS
 10
5.4572299258
 20
5.9943618012
 11
5.4572299258
 21
5.9968618012
  0
LINE
  5
2A3
100
AcDbEntity
  8
0
100
AcDbLine
 62
7
  6
CONTINUOUS
 10
5.4626244501
 20
5.9968618012
 11
5.4626244501
 21
5.9943618012
  0
LINE
  5
2A4
100
AcDbEntity
  8
0
100
AcDbLine
 62
7
  6
CONTINUOUS
 10
5.4717438734
 20
5.9568618012
 11
5.4717438734
 21
6.0378618012
  0
LINE
  5
2A5
100
AcDbEntity
  8
0
100
AcDbLine
 62
7
  6
CONTINUOUS
 10
5.4739247938
 20
6.0275213769
 11
5.4739247938
 21
6.0051171195
  0
LINE
  5
2A6
100
AcDbEntity
  8
0
100
AcDbLine
 62
7
  6
CONTINUOUS
 10
5.4739247938
 20
5.9947766952
 11
5.4739247938
 21
5.9568618012
  0
LINE
  5
2A7
100
AcDbEntity
  8
0
100
AcDbLine
 62
7
  6
CONTINUOUS
 10
5.4767511625
 20
5.9947766952
 11
5.4767511625
 21
6.0051171195
  0
LINE
  5
2A8
100
AcDbEntity
  8
0
100
AcDbLine
 62
7
  6
CONTINUOUS
 10
5.4777789758
 20
6.0275213769
 11
5.4777789758
 21
6.0378618012
  0
LINE
  5
2A9
100
AcDbEntity
  8
0
100
AcDbLine
 62
7
  6
CONTINUOUS
 10
5.4808879638
 20
4.7323618012
 11
5.4808879638
 21
4.5773618012
  0
LINE
  5
2AA
100
AcDbEntity
  8
0
100
AcDbLine
 62
7
  6
CONTINUOUS
 10
5.4818815097
 20
6.0051171195
 11
5.4818815097
 21
5.9947766952
  0
LINE
  5
2AB
100
AcDbEntity
  8
0
100
AcDbLine
 62
7
  6
CONTINUOUS
 10
5.4828961244
 20
6.0378618012
 11
5.4828961244
 21
6.0275213769
  0
LINE
  5
2AC
100
AcDbEntity
  8
0
100
AcDbLine
 62
7
  6
CONTINUOUS
 10
5.4847620324
 20
6.0378618012
 11
5.4847620324
 21
5.9568618012
  0
LINE
  5
2AD
100
AcDbEntity
  8
0
100
AcDbLine
 62
7
  6
CONTINUOUS
 10
5.4855092596
 20
5.9568618012
 11
5.4855092596
 21
5.9672022267
  0
LINE
  5
2AE
100
AcDbEntity
  8
0
100
AcDbLine
 62
7
  6
CONTINUOUS
 10
5.4860200351
 20
6.0378618012
 11
5.4860200351
 21
5.9672022267
  0
LINE
  5
2AF
100
AcDbEntity
  8
0
100
AcDbLine
 62
7
  6
CONTINUOUS
 10
5.4905292618
 20
5.9672022267
 11
5.4905292618
 21
5.9568618012
  0
LINE
  5
2B0
100
AcDbEntity
  8
0
100
AcDbLine
 62
7
  6
CONTINUOUS
 10
5.4921379638
 20
6.5368618012
 11
5.4921379638
 21
5.6189321432
  0
LINE
  5
2B1
100
AcDbEntity
  8
0
100
AcDbLine
 62
7
  6
CONTINUOUS
 10
5.5007359867
 20
5.5568618012
 11
5.5007359867
 21
5.5603618012
  0
LINE
  5
2B2
100
AcDbEntity
  8
0
100
AcDbLine
 62
7
  6
CONTINUOUS
 10
5.5233879638
 20
4.7723618012
 11
5.5233879638
 21
4.7973618012
  0
LINE
  5
2B3
100
AcDbEntity
  8
0
100
AcDbLine
 62
7
  6
CONTINUOUS
 10
5.5333879638
 20
4.7973618012
 11
5.5333879638
 21
4.8623618012
  0
LINE
  5
2B4
100
AcDbEntity
  8
0
100
AcDbLine
 62
7
  6
CONTINUOUS
 10
4.7897483747
 20
4.9001309618
 11
4.7693495592
 21
4.8948426901
  0
LINE
  5
2B5
100
AcDbEntity
  8
0
100
AcDbLine
 62
7
  6
CONTINUOUS
 10
5.3770275528
 20
5.0676176407
 11
5.3974263684
 21
5.0729059124
  0
LINE
  5
2B6
100
AcDbEntity
  8
0
100
AcDbLine
 62
7
  6
CONTINUOUS
 10
4.7897483747
 20
4.9345809618
 11
4.7693495592
 21
4.9292926901
  0
LINE
  5
2B7
100
AcDbEntity
  8
0
100
AcDbLine
 62
7
  6
CONTINUOUS
 10
5.3770275528
 20
5.1020676407
 11
5.3974263684
 21
5.1073559124
  0
LINE
  5
2B8
100
AcDbEntity
  8
0
100
AcDbLine
 62
7
  6
CONTINUOUS
 10
4.7897483747
 20
4.9690309618
 11
4.7693495592
 21
4.9637426901
  0
LINE
  5
2B9
100
AcDbEntity
  8
0
100
AcDbLine
 62
7
  6
CONTINUOUS
 10
5.3770275528
 20
5.1365176407
 11
5.3974263684
 21
5.1418059124
  0
LINE
  5
2BA
100
AcDbEntity
  8
0
100
AcDbLine
 62
7
  6
CONTINUOUS
 10
4.7897483747
 20
5.0034809618
 11
4.7693495592
 21
4.9981926901
  0
LINE
  5
2BB
100
AcDbEntity
  8
0
100
AcDbLine
 62
7
  6
CONTINUOUS
 10
5.3770275528
 20
5.1709676407
 11
5.3974263684
 21
5.1762559124
  0
LINE
  5
2BC
100
AcDbEntity
  8
0
100
AcDbLine
 62
7
  6
CONTINUOUS
 10
4.7897483747
 20
5.0379309618
 11
4.7693495592
 21
5.0326426901
  0
LINE
  5
2BD
100
AcDbEntity
  8
0
100
AcDbLine
 62
7
  6
CONTINUOUS
 10
5.3770275528
 20
5.2054176407
 11
5.3974263684
 21
5.2107059124
  0
LINE
  5
2BE
100
AcDbEntity
  8
0
100
AcDbLine
 62
7
  6
CONTINUOUS
 10
4.7693495592
 20
4.9867809124
 11
4.7889401042
 21
4.9817022132
  0
LINE
  5
2BF
100
AcDbEntity
  8
0
100
AcDbLine
 62
7
  6
CONTINUOUS
 10
4.7693495592
 20
5.0212309124
 11
4.7889401042
 21
5.0161522132
  0
LINE
  5
2C0
100
AcDbEntity
  8
0
100
AcDbLine
 62
7
  6
CONTINUOUS
 10
5.3974263685
 20
4.8776176901
 11
5.3777879638
 21
4.8827087991
  0
LINE
  5
2C1
100
AcDbEntity
  8
0
100
AcDbLine
 62
7
  6
CONTINUOUS
 10
4.7693495592
 20
5.0556809124
 11
4.7889401042
 21
5.0506022132
  0
LINE
  5
2C2
100
AcDbEntity
  8
0
100
AcDbLine
 62
7
  6
CONTINUOUS
 10
5.3974263685
 20
4.9120676901
 11
5.3777879638
 21
4.9171587991
  0
LINE
  5
2C3
100
AcDbEntity
  8
0
100
AcDbLine
 62
7
  6
CONTINUOUS
 10
4.7693495592
 20
5.0901309124
 11
4.7889401042
 21
5.0850522132
  0
LINE
  5
2C4
100
AcDbEntity
  8
0
100
AcDbLine
 62
7
  6
CONTINUOUS
 10
5.3974263685
 20
4.9465176901
 11
5.3777879638
 21
4.9516087991
  0
LINE
  5
2C5
100
AcDbEntity
  8
0
100
AcDbLine
 62
7
  6
CONTINUOUS
 10
4.7693495592
 20
5.1245809124
 11
4.7889401042
 21
5.1195022132
  0
LINE
  5
2C6
100
AcDbEntity
  8
0
100
AcDbLine
 62
7
  6
CONTINUOUS
 10
5.5783879638
 20
5.5568618012
 11
5.5783879638
 21
5.3443618012
  0
LINE
  5
2C7
100
AcDbEntity
  8
0
100
AcDbLine
 62
7
  6
CONTINUOUS
 10
5.073297158
 20
3.2090939638
 11
4.9916691848
 21
3.0340422103
  0
LINE
  5
2C8
100
AcDbEntity
  8
0
100
AcDbLine
 62
7
  6
CONTINUOUS
 10
4.9753572695
 20
2.9990611952
 11
4.9749966183
 21
2.9982877762
  0
LINE
  5
2C9
100
AcDbEntity
  8
0
100
AcDbLine
 62
7
  6
CONTINUOUS
 10
4.7026726693
 20
2.4102311794
 11
4.744470765
 21
2.499867485
  0
LINE
  5
2CA
100
AcDbEntity
  8
0
100
AcDbLine
 62
7
  6
CONTINUOUS
 10
4.7607826803
 20
2.5348485001
 11
4.802580776
 21
2.6244848057
  0
LINE
  5
2CB
100
AcDbEntity
  8
0
100
AcDbLine
 62
7
  6
CONTINUOUS
 10
4.8188926913
 20
2.6594658208
 11
4.860690787
 21
2.7491021264
  0
LINE
  5
2CC
100
AcDbEntity
  8
0
100
AcDbLine
 62
7
  6
CONTINUOUS
 10
4.8770027023
 20
2.7840831416
 11
4.918800798
 21
2.8737194471
  0
LINE
  5
2CD
100
AcDbEntity
  8
0
100
AcDbLine
 62
7
  6
CONTINUOUS
 10
4.9351127133
 20
2.9087004623
 11
4.9768879638
 21
2.9982877762
  0
LINE
  5
2CE
100
AcDbEntity
  8
0
100
AcDbLine
 62
7
  6
CONTINUOUS
 10
4.7897483747
 20
5.0723809618
 11
4.7693495592
 21
5.0670926901
  0
LINE
  5
2CF
100
AcDbEntity
  8
0
100
AcDbLine
 62
7
  6
CONTINUOUS
 10
5.3770275528
 20
5.2398676407
 11
5.3974263684
 21
5.2451559124
  0
LINE
  5
2D0
100
AcDbEntity
  8
0
100
AcDbLine
 62
7
  6
CONTINUOUS
 10
4.7897483747
 20
5.1068309618
 11
4.7693495592
 21
5.1015426901
  0
LINE
  5
2D1
100
AcDbEntity
  8
0
100
AcDbLine
 62
7
  6
CONTINUOUS
 10
5.3770275528
 20
5.2743176407
 11
5.3974263684
 21
5.2796059124
  0
LINE
  5
2D2
100
AcDbEntity
  8
0
100
AcDbLine
 62
7
  6
CONTINUOUS
 10
4.7897483747
 20
5.1412809618
 11
4.7693495592
 21
5.1359926901
  0
LINE
  5
2D3
100
AcDbEntity
  8
0
100
AcDbLine
 62
7
  6
CONTINUOUS
 10
5.3770275528
 20
5.3087676407
 11
5.3974263684
 21
5.3140559124
  0
LINE
  5
2D4
100
AcDbEntity
  8
0
100
AcDbLine
 62
7
  6
CONTINUOUS
 10
4.7897483747
 20
5.1757309618
 11
4.7693495592
 21
5.1704426901
  0
LINE
  5
2D5
100
AcDbEntity
  8
0
100
AcDbLine
 62
7
  6
CONTINUOUS
 10
5.3770275528
 20
5.3432176407
 11
5.3814404339
 21
5.3443618012
  0
LINE
  5
2D6
100
AcDbEntity
  8
0
100
AcDbLine
 62
7
  6
CONTINUOUS
 10
4.7897483747
 20
5.2101809618
 11
4.7693495592
 21
5.2048926901
  0
LINE
  5
2D7
100
AcDbEntity
  8
0
100
AcDbLine
 62
7
  6
CONTINUOUS
 10
5.3974263685
 20
4.9809676901
 11
5.3777879638
 21
4.9860587991
  0
LINE
  5
2D8
100
AcDbEntity
  8
0
100
AcDbLine
 62
7
  6
CONTINUOUS
 10
4.7693495592
 20
5.1590309124
 11
4.7889401042
 21
5.1539522132
  0
LINE
  5
2D9
100
AcDbEntity
  8
0
100
AcDbLine
 62
7
  6
CONTINUOUS
 10
5.3974263685
 20
5.0154176901
 11
5.3777879638
 21
5.0205087991
  0
LINE
  5
2DA
100
AcDbEntity
  8
0
100
AcDbLine
 62
7
  6
CONTINUOUS
 10
4.7693495592
 20
5.1934809124
 11
4.7889401042
 21
5.1884022132
  0
LINE
  5
2DB
100
AcDbEntity
  8
0
100
AcDbLine
 62
7
  6
CONTINUOUS
 10
5.3974263685
 20
5.0498676901
 11
5.3777879638
 21
5.0549587991
  0
LINE
  5
2DC
100
AcDbEntity
  8
0
100
AcDbLine
 62
7
  6
CONTINUOUS
 10
4.7693495592
 20
5.2279309124
 11
4.7889401042
 21
5.2228522132
  0
LINE
  5
2DD
100
AcDbEntity
  8
0
100
AcDbLine
 62
7
  6
CONTINUOUS
 10
5.3974263685
 20
5.0843176901
 11
5.3777879638
 21
5.0894087991
  0
LINE
  5
2DE
100
AcDbEntity
  8
0
100
AcDbLine
 62
7
  6
CONTINUOUS
 10
4.7693495592
 20
5.2623809124
 11
4.7889401042
 21
5.2573022132
  0
LINE
  5
2DF
100
AcDbEntity
  8
0
100
AcDbLine
 62
7
  6
CONTINUOUS
 10
5.3974263685
 20
5.1187676901
 11
5.3777879638
 21
5.1238587991
  0
LINE
  5
2E0
100
AcDbEntity
  8
0
100
AcDbLine
 62
7
  6
CONTINUOUS
 10
4.7693495592
 20
5.2968309124
 11
4.7889401042
 21
5.2917522132
  0
LINE
  5
2E1
100
AcDbEntity
  8
0
100
AcDbLine
 62
7
  6
CONTINUOUS
 10
5.4921379638
 20
5.6189321432
 11
5.5005394473
 21
5.5603618012
  0
LINE
  5
2E2
100
AcDbEntity
  8
0
100
AcDbLine
 62
7
  6
CONTINUOUS
 10
4.7897483747
 20
5.2446309618
 11
4.7693495592
 21
5.2393426901
  0
LINE
  5
2E3
100
AcDbEntity
  8
0
100
AcDbLine
 62
7
  6
CONTINUOUS
 10
4.7897483747
 20
5.2790809618
 11
4.7693495592
 21
5.2737926901
  0
LINE
  5
2E4
100
AcDbEntity
  8
0
100
AcDbLine
 62
7
  6
CONTINUOUS
 10
4.7897483747
 20
5.3135309618
 11
4.7693495592
 21
5.3082426901
  0
LINE
  5
2E5
100
AcDbEntity
  8
0
100
AcDbLine
 62
7
  6
CONTINUOUS
 10
4.7757886389
 20
5.3443618012
 11
4.7693495592
 21
5.3426926901
  0
LINE
  5
2E6
100
AcDbEntity
  8
0
100
AcDbLine
 62
7
  6
CONTINUOUS
 10
4.5883889161
 20
5.3443618012
 11
5.5783870115
 21
5.3443618012
  0
LINE
  5
2E7
100
AcDbEntity
  8
0
100
AcDbLine
 62
7
  6
CONTINUOUS
 10
5.3974263685
 20
5.1532176901
 11
5.3777879638
 21
5.1583087991
  0
LINE
  5
2E8
100
AcDbEntity
  8
0
100
AcDbLine
 62
7
  6
CONTINUOUS
 10
4.7693495592
 20
5.3312809124
 11
4.7889401042
 21
5.3262022132
  0
LINE
  5
2E9
100
AcDbEntity
  8
0
100
AcDbLine
 62
7
  6
CONTINUOUS
 10
5.3974263685
 20
5.1876676901
 11
5.3777879638
 21
5.1927587991
  0
LINE
  5
2EA
100
AcDbEntity
  8
0
100
AcDbLine
 62
7
  6
CONTINUOUS
 10
5.3974263685
 20
5.2221176901
 11
5.3777879638
 21
5.2272087991
  0
LINE
  5
2EB
100
AcDbEntity
  8
0
100
AcDbLine
 62
7
  6
CONTINUOUS
 10
5.3974263685
 20
5.2565676901
 11
5.3777879638
 21
5.2616587991
  0
LINE
  5
2EC
100
AcDbEntity
  8
0
100
AcDbLine
 62
7
  6
CONTINUOUS
 10
5.3974263685
 20
5.2910176901
 11
5.3777879638
 21
5.2961087991
  0
LINE
  5
2ED
100
AcDbEntity
  8
0
100
AcDbLine
 62
7
  6
CONTINUOUS
 10
5.3974263685
 20
5.3254676901
 11
5.3777879638
 21
5.3305587991
  0
LINE
  5
2EE
100
AcDbEntity
  8
0
100
AcDbLine
 62
7
  6
CONTINUOUS
 10
4.5883889161
 20
5.5568618012
 11
5.5783870115
 21
5.5568618012
  0
LINE
  5
2EF
100
AcDbEntity
  8
0
100
AcDbLine
 62
7
  6
CONTINUOUS
 10
4.6660399409
 20
5.5603618012
 11
5.5007359867
 21
5.5603618012
  0
LINE
  5
2F0
100
AcDbEntity
  8
0
100
AcDbLine
 62
7
  6
CONTINUOUS
 10
4.6746379638
 20
5.6189321432
 11
5.4921379638
 21
5.6189321432
  0
LINE
  5
2F1
100
AcDbEntity
  8
0
100
AcDbLine
 62
7
  6
CONTINUOUS
 10
5.2813879638
 20
5.8968618012
 11
4.8893879638
 21
5.8968618012
  0
LINE
  5
2F2
100
AcDbEntity
  8
0
100
AcDbLine
 62
7
  6
CONTINUOUS
 10
5.4905292618
 20
5.9568618012
 11
5.4847620324
 21
5.9568618012
  0
LINE
  5
2F3
100
AcDbEntity
  8
0
100
AcDbLine
 62
7
  6
CONTINUOUS
 10
5.4739247938
 20
5.9568618012
 11
5.4717438734
 21
5.9568618012
  0
LINE
  5
2F4
100
AcDbEntity
  8
0
100
AcDbLine
 62
7
  6
CONTINUOUS
 10
5.4847620324
 20
5.9672022267
 11
5.4905292618
 21
5.9672022267
  0
LINE
  5
2F5
100
AcDbEntity
  8
0
100
AcDbLine
 62
7
  6
CONTINUOUS
 10
5.4626244501
 20
5.9943618012
 11
5.4067709604
 21
5.9943618012
  0
LINE
  5
2F6
100
AcDbEntity
  8
0
100
AcDbLine
 62
7
  6
CONTINUOUS
 10
5.2813879638
 20
5.9943618012
 11
4.8893879638
 21
5.9943618012
  0
LINE
  5
2F7
100
AcDbEntity
  8
0
100
AcDbLine
 62
7
  6
CONTINUOUS
 10
5.4717438734
 20
5.9947766952
 11
5.4818815097
 21
5.9947766952
  0
LINE
  5
2F8
100
AcDbEntity
  8
0
100
AcDbLine
 62
7
  6
CONTINUOUS
 10
5.4626244501
 20
5.9968618012
 11
5.4067709604
 21
5.9968618012
  0
LINE
  5
2F9
100
AcDbEntity
  8
0
100
AcDbLine
 62
7
  6
CONTINUOUS
 10
5.4717438734
 20
6.0051171195
 11
5.4818815097
 21
6.0051171195
  0
LINE
  5
2FA
100
AcDbEntity
  8
0
100
AcDbLine
 62
7
  6
CONTINUOUS
 10
5.4717438734
 20
6.0275213769
 11
5.4828961244
 21
6.0275213769
  0
LINE
  5
2FB
100
AcDbEntity
  8
0
100
AcDbLine
 62
7
  6
CONTINUOUS
 10
5.4860200351
 20
6.0378618012
 11
5.4847620324
 21
6.0378618012
  0
LINE
  5
2FC
100
AcDbEntity
  8
0
100
AcDbLine
 62
7
  6
CONTINUOUS
 10
5.4717438734
 20
6.0378618012
 11
5.4828961244
 21
6.0378618012
  0
LINE
  5
2FD
100
AcDbEntity
  8
0
100
AcDbLine
 62
7
  6
CONTINUOUS
 10
5.2813879638
 20
6.0938618012
 11
4.8893879638
 21
6.0938618012
  0
LINE
  5
2FE
100
AcDbEntity
  8
0
100
AcDbLine
 62
7
  6
CONTINUOUS
 10
5.0063879638
 20
6.1713618012
 11
5.1603879638
 21
6.1713618012
  0
LINE
  5
2FF
100
AcDbEntity
  8
0
100
AcDbLine
 62
7
  6
CONTINUOUS
 10
5.2813879638
 20
6.1913618012
 11
4.8893879638
 21
6.1913618012
  0
LINE
  5
300
100
AcDbEntity
  8
0
100
AcDbLine
 62
7
  6
CONTINUOUS
 10
4.6746379638
 20
6.5368618012
 11
5.4921379638
 21
6.5368618012
  0
LINE
  5
301
100
AcDbEntity
  8
0
100
AcDbLine
 62
7
  6
CONTINUOUS
 10
5.377137015
 20
6.6518618012
 11
4.7896379638
 21
6.6518618012
  0
ARC
  5
302
100
AcDbEntity
  8
0
100
AcDbCircle
 62
7
  6
CONTINUOUS
 10
4.6897585958
 20
2.3949594177
 40
0.02
100
AcDbArc
 50
260.0684881595
 51
49.7815448422
  0
ARC
  5
303
100
AcDbEntity
  8
0
100
AcDbCircle
 62
7
  6
CONTINUOUS
 10
4.3122814025
 20
2.5709799237
 40
0.02
100
AcDbArc
 50
80.2184551578
 51
229.9315118405
  0
ARC
  5
304
100
AcDbEntity
  8
0
100
AcDbCircle
 62
7
  6
CONTINUOUS
 10
4.3703914135
 20
2.6955972444
 40
0.02
100
AcDbArc
 50
80.2184551578
 51
229.7815448422
  0
ARC
  5
305
100
AcDbEntity
  8
0
100
AcDbCircle
 62
7
  6
CONTINUOUS
 10
4.7478686068
 20
2.5195767384
 40
0.02
100
AcDbArc
 50
260.2184551578
 51
49.7815448422
  0
ARC
  5
306
100
AcDbEntity
  8
0
100
AcDbCircle
 62
7
  6
CONTINUOUS
 10
4.4285014245
 20
2.8202145651
 40
0.02
100
AcDbArc
 50
80.2184551578
 51
229.7815448422
  0
ARC
  5
307
100
AcDbEntity
  8
0
100
AcDbCircle
 62
7
  6
CONTINUOUS
 10
4.8059786178
 20
2.6441940591
 40
0.02
100
AcDbArc
 50
260.2184551578
 51
49.7815448422
  0
ARC
  5
308
100
AcDbEntity
  8
0
100
AcDbCircle
 62
7
  6
CONTINUOUS
 10
4.4866114355
 20
2.9448318859
 40
0.02
100
AcDbArc
 50
80.2184551578
 51
229.7815448422
  0
ARC
  5
309
100
AcDbEntity
  8
0
100
AcDbCircle
 62
7
  6
CONTINUOUS
 10
4.8640886288
 20
2.7688113799
 40
0.02
100
AcDbArc
 50
260.2184551578
 51
49.7815448422
  0
ARC
  5
30A
100
AcDbEntity
  8
0
100
AcDbCircle
 62
7
  6
CONTINUOUS
 10
4.5447214465
 20
3.0694492066
 40
0.02
100
AcDbArc
 50
80.2184551578
 51
229.7815448422
  0
ARC
  5
30B
100
AcDbEntity
  8
0
100
AcDbCircle
 62
7
  6
CONTINUOUS
 10
4.6028314574
 20
3.1940665273
 40
0.02
100
AcDbArc
 50
80.2184551578
 51
229.7815448422
  0
ARC
  5
30C
100
AcDbEntity
  8
0
100
AcDbCircle
 62
7
  6
CONTINUOUS
 10
4.7896379638
 20
6.5368618012
 40
0.115
100
AcDbArc
 50
90.0
 51
180.0
  0
ARC
  5
30D
100
AcDbEntity
  8
0
100
AcDbCircle
 62
7
  6
CONTINUOUS
 10
4.8893879638
 20
6.1426118012
 40
0.04875
100
AcDbArc
 50
90.0
 51
270.0
  0
ARC
  5
30E
100
AcDbEntity
  8
0
100
AcDbCircle
 62
7
  6
CONTINUOUS
 10
4.8893879638
 20
5.9456118012
 40
0.04875
100
AcDbArc
 50
90.0
 51
270.0
  0
ARC
  5
30F
100
AcDbEntity
  8
0
100
AcDbCircle
 62
7
  6
CONTINUOUS
 10
4.6833879638
 20
4.7723618012
 40
0.04
100
AcDbArc
 50
180.0
 51
270.0
  0
ARC
  5
310
100
AcDbEntity
  8
0
100
AcDbCircle
 62
7
  6
CONTINUOUS
 10
4.7058879638
 20
4.5773618012
 40
0.02
100
AcDbArc
 50
180.0
 51
270.0
  0
ARC
  5
311
100
AcDbEntity
  8
0
100
AcDbCircle
 62
7
  6
CONTINUOUS
 10
5.0833879638
 20
3.7318618012
 40
0.2925
100
AcDbArc
 50
180.0
 51
198.1207707255
  0
ARC
  5
312
100
AcDbEntity
  8
0
100
AcDbCircle
 62
7
  6
CONTINUOUS
 10
5.0833879638
 20
3.7318618012
 40
0.2925
100
AcDbArc
 50
357.4036616889
 51
360.0
  0
ARC
  5
313
100
AcDbEntity
  8
0
100
AcDbCircle
 62
7
  6
CONTINUOUS
 10
4.9221986398
 20
2.8934287006
 40
0.02
100
AcDbArc
 50
260.2184551578
 51
49.7815448422
  0
ARC
  5
314
100
AcDbEntity
  8
0
100
AcDbCircle
 62
7
  6
CONTINUOUS
 10
5.3725049851
 20
2.2581118012
 40
0.0151329787
100
AcDbArc
 50
282.9176327574
 51
77.0823672426
  0
ARC
  5
315
100
AcDbEntity
  8
0
100
AcDbCircle
 62
7
  6
CONTINUOUS
 10
5.0742709425
 20
2.2581118012
 40
0.0151329787
100
AcDbArc
 50
102.9176327574
 51
257.0823672426
  0
ARC
  5
316
100
AcDbEntity
  8
0
100
AcDbCircle
 62
7
  6
CONTINUOUS
 10
5.3725049851
 20
2.3661118012
 40
0.0151329787
100
AcDbArc
 50
282.9176327574
 51
77.0823672426
  0
ARC
  5
317
100
AcDbEntity
  8
0
100
AcDbCircle
 62
7
  6
CONTINUOUS
 10
5.0742709425
 20
2.3661118012
 40
0.0151329787
100
AcDbArc
 50
102.9176327574
 51
257.0823672426
  0
ARC
  5
318
100
AcDbEntity
  8
0
100
AcDbCircle
 62
7
  6
CONTINUOUS
 10
5.3725049851
 20
2.4741118012
 40
0.0151329787
100
AcDbArc
 50
282.9176327574
 51
77.0823672426
  0
ARC
  5
319
100
AcDbEntity
  8
0
100
AcDbCircle
 62
7
  6
CONTINUOUS
 10
5.0742709425
 20
2.4741118012
 40
0.0151329787
100
AcDbArc
 50
102.9176327574
 51
257.0823672426
  0
ARC
  5
31A
100
AcDbEntity
  8
0
100
AcDbCircle
 62
7
  6
CONTINUOUS
 10
5.3725049851
 20
2.5821118012
 40
0.0151329787
100
AcDbArc
 50
282.9176327574
 51
77.0823672426
  0
ARC
  5
31B
100
AcDbEntity
  8
0
100
AcDbCircle
 62
7
  6
CONTINUOUS
 10
5.0742709425
 20
2.5821118012
 40
0.0151329787
100
AcDbArc
 50
102.9176327574
 51
257.0823672426
  0
ARC
  5
31C
100
AcDbEntity
  8
0
100
AcDbCircle
 62
7
  6
CONTINUOUS
 10
5.3725049851
 20
2.6901118012
 40
0.0151329787
100
AcDbArc
 50
282.9176327574
 51
77.0823672426
  0
ARC
  5
31D
100
AcDbEntity
  8
0
100
AcDbCircle
 62
7
  6
CONTINUOUS
 10
5.0742709425
 20
2.6901118012
 40
0.0151329787
100
AcDbArc
 50
102.9176327574
 51
257.0823672426
  0
ARC
  5
31E
100
AcDbEntity
  8
0
100
AcDbCircle
 62
7
  6
CONTINUOUS
 10
5.3725049851
 20
2.7981118012
 40
0.0151329787
100
AcDbArc
 50
282.9176327574
 51
77.0823672426
  0
ARC
  5
31F
100
AcDbEntity
  8
0
100
AcDbCircle
 62
7
  6
CONTINUOUS
 10
5.0742709425
 20
2.7981118012
 40
0.0151329787
100
AcDbArc
 50
102.9176327574
 51
257.0823672426
  0
ARC
  5
320
100
AcDbEntity
  8
0
100
AcDbCircle
 62
7
  6
CONTINUOUS
 10
5.3771379638
 20
6.5368618012
 40
0.115
100
AcDbArc
 50
0.0
 51
90.0
  0
ARC
  5
321
100
AcDbEntity
  8
0
100
AcDbCircle
 62
7
  6
CONTINUOUS
 10
5.0063879638
 20
6.2498618012
 40
0.0785
100
AcDbArc
 50
228.185895791
 51
270.0
  0
ARC
  5
322
100
AcDbEntity
  8
0
100
AcDbCircle
 62
7
  6
CONTINUOUS
 10
5.1603879638
 20
6.2498618012
 40
0.0785
100
AcDbArc
 50
270.0
 51
311.8141036814
  0
ARC
  5
323
100
AcDbEntity
  8
0
100
AcDbCircle
 62
7
  6
CONTINUOUS
 10
5.2813879638
 20
5.9456118012
 40
0.04875
100
AcDbArc
 50
270.0
 51
90.0
  0
ARC
  5
324
100
AcDbEntity
  8
0
100
AcDbCircle
 62
7
  6
CONTINUOUS
 10
5.2813879638
 20
6.1426118012
 40
0.04875
100
AcDbArc
 50
270.0
 51
90.0
  0
ARC
  5
325
100
AcDbEntity
  8
0
100
AcDbCircle
 62
7
  6
CONTINUOUS
 10
5.4833879638
 20
4.7723618012
 40
0.04
100
AcDbArc
 50
270.0
 51
360.0
  0
ARC
  5
326
100
AcDbEntity
  8
0
100
AcDbCircle
 62
7
  6
CONTINUOUS
 10
5.4608879638
 20
4.5773618012
 40
0.02
100
AcDbArc
 50
270.0
 51
360.0
  0
ARC
  5
327
100
AcDbEntity
  8
0
100
AcDbCircle
 62
7
  6
CONTINUOUS
 10
5.3751489227
 20
5.0748749665
 40
0.0074965315
100
AcDbArc
 50
282.8635582494
 51
284.5129224399
  0
ARC
  5
328
100
AcDbEntity
  8
0
100
AcDbCircle
 62
7
  6
CONTINUOUS
 10
5.3751949799
 20
5.0402445567
 40
0.0073103216
100
AcDbArc
 50
283.1541381522
 51
284.5173455719
  0
ARC
  5
329
100
AcDbEntity
  8
0
100
AcDbCircle
 62
7
  6
CONTINUOUS
 10
5.3752416612
 20
5.0056094
 40
0.0071193656
100
AcDbArc
 50
283.4455647608
 51
284.5269013669
  0
ARC
  5
32A
100
AcDbEntity
  8
0
100
AcDbCircle
 62
7
  6
CONTINUOUS
 10
5.3752906808
 20
4.9709684609
 40
0.0069222618
100
AcDbArc
 50
283.7483728261
 51
284.5314090325
  0
ARC
  5
32B
100
AcDbEntity
  8
0
100
AcDbCircle
 62
7
  6
CONTINUOUS
 10
5.3957703565
 20
4.9759467802
 40
0.0066018752
100
AcDbArc
 50
283.5491184632
 51
284.5250170522
  0
ARC
  5
32C
100
AcDbEntity
  8
0
100
AcDbCircle
 62
7
  6
CONTINUOUS
 10
5.3957703565
 20
5.1481967802
 40
0.0066018752
100
AcDbArc
 50
283.5491184632
 51
284.5250170512
  0
ARC
  5
32D
100
AcDbEntity
  8
0
100
AcDbCircle
 62
7
  6
CONTINUOUS
 10
5.3957703565
 20
5.2170967802
 40
0.0066018752
100
AcDbArc
 50
283.549118463
 51
284.5250170508
  0
ARC
  5
32E
100
AcDbEntity
  8
0
100
AcDbCircle
 62
7
  6
CONTINUOUS
 10
5.3957703565
 20
5.1137467801
 40
0.0066018752
100
AcDbArc
 50
283.5491184622
 51
284.525017052
  0
ARC
  5
32F
100
AcDbEntity
  8
0
100
AcDbCircle
 62
7
  6
CONTINUOUS
 10
5.3957703565
 20
4.9070467801
 40
0.0066018752
100
AcDbArc
 50
283.5491184623
 51
284.5250170523
  0
ARC
  5
330
100
AcDbEntity
  8
0
100
AcDbCircle
 62
7
  6
CONTINUOUS
 10
5.3957703565
 20
5.2515467801
 40
0.0066018752
100
AcDbArc
 50
283.5491184628
 51
284.5250170523
  0
ARC
  5
331
100
AcDbEntity
  8
0
100
AcDbCircle
 62
7
  6
CONTINUOUS
 10
5.3957703565
 20
5.0103967801
 40
0.0066018752
100
AcDbArc
 50
283.5491184608
 51
284.5250170529
  0
ARC
  5
332
100
AcDbEntity
  8
0
100
AcDbCircle
 62
7
  6
CONTINUOUS
 10
5.3957703565
 20
4.8725967801
 40
0.0066018752
100
AcDbArc
 50
283.5491184617
 51
284.5250170532
  0
ARC
  5
333
100
AcDbEntity
  8
0
100
AcDbCircle
 62
7
  6
CONTINUOUS
 10
5.3957703565
 20
5.0792967801
 40
0.0066018752
100
AcDbArc
 50
283.5491184624
 51
284.5250170534
  0
ARC
  5
334
100
AcDbEntity
  8
0
100
AcDbCircle
 62
7
  6
CONTINUOUS
 10
5.3957703565
 20
5.2859967801
 40
0.0066018752
100
AcDbArc
 50
283.5491184611
 51
284.5250170547
  0
ARC
  5
335
100
AcDbEntity
  8
0
100
AcDbCircle
 62
7
  6
CONTINUOUS
 10
5.3957703682
 20
5.1826467342
 40
0.0066018278
100
AcDbArc
 50
283.5491997318
 51
284.5250184723
  0
ARC
  5
336
100
AcDbEntity
  8
0
100
AcDbCircle
 62
7
  6
CONTINUOUS
 10
5.3957703738
 20
5.0448467123
 40
0.0066018051
100
AcDbArc
 50
283.5492381919
 51
284.5250191597
  0
LINE
  5
337
100
AcDbEntity
  8
0
100
AcDbLine
 62
7
  6
CONTINUOUS
 10
4.7686380517
 20
5.3423239333
 11
4.7693495988
 21
5.3426926902
  0
LINE
  5
338
100
AcDbEntity
  8
0
100
AcDbLine
 62
7
  6
CONTINUOUS
 10
4.7686380517
 20
5.3316496691
 11
4.7693496307
 21
5.3312809123
  0
LINE
  5
339
100
AcDbEntity
  8
0
100
AcDbLine
 62
7
  6
CONTINUOUS
 10
5.3974261247
 20
4.5331176899
 11
5.3981379638
 21
4.5327489334
  0
LINE
  5
33A
100
AcDbEntity
  8
0
100
AcDbLine
 62
7
  6
CONTINUOUS
 10
4.769349803
 20
4.5503426899
 11
4.7686379638
 21
4.5499739334
  0
LINE
  5
33B
100
AcDbEntity
  8
0
100
AcDbLine
 62
7
  6
CONTINUOUS
 10
4.7693497709
 20
4.5389309126
 11
4.7686379638
 21
4.5392996691
  0
LINE
  5
33C
100
AcDbEntity
  8
0
100
AcDbLine
 62
7
  6
CONTINUOUS
 10
5.3974261247
 20
4.8776176899
 11
5.3981379638
 21
4.8772489334
  0
LINE
  5
33D
100
AcDbEntity
  8
0
100
AcDbLine
 62
7
  6
CONTINUOUS
 10
4.7693495612
 20
4.8948426901
 11
4.7686379638
 21
4.8944739334
  0
LINE
  5
33E
100
AcDbEntity
  8
0
100
AcDbLine
 62
7
  6
CONTINUOUS
 10
5.3974261247
 20
4.9120676899
 11
5.3981379638
 21
4.9116989334
  0
LINE
  5
33F
100
AcDbEntity
  8
0
100
AcDbLine
 62
7
  6
CONTINUOUS
 10
5.3974261247
 20
4.9465176899
 11
5.3981379638
 21
4.9461489334
  0
LINE
  5
340
100
AcDbEntity
  8
0
100
AcDbLine
 62
7
  6
CONTINUOUS
 10
5.3974261247
 20
4.9809676899
 11
5.3981379638
 21
4.9805989334
  0
LINE
  5
341
100
AcDbEntity
  8
0
100
AcDbLine
 62
7
  6
CONTINUOUS
 10
5.3974261189
 20
5.0154176899
 11
5.3981379638
 21
5.0150489334
  0
LINE
  5
342
100
AcDbEntity
  8
0
100
AcDbLine
 62
7
  6
CONTINUOUS
 10
4.769349803
 20
4.9292926899
 11
4.7686379638
 21
4.9289239334
  0
LINE
  5
343
100
AcDbEntity
  8
0
100
AcDbLine
 62
7
  6
CONTINUOUS
 10
4.769349803
 20
4.9637426899
 11
4.7686379638
 21
4.9633739334
  0
LINE
  5
344
100
AcDbEntity
  8
0
100
AcDbLine
 62
7
  6
CONTINUOUS
 10
4.769349803
 20
4.9981926899
 11
4.7686379638
 21
4.9978239334
  0
LINE
  5
345
100
AcDbEntity
  8
0
100
AcDbLine
 62
7
  6
CONTINUOUS
 10
4.7686379638
 20
4.8837996691
 11
4.769349803
 21
4.8834309126
  0
LINE
  5
346
100
AcDbEntity
  8
0
100
AcDbLine
 62
7
  6
CONTINUOUS
 10
4.7686379638
 20
4.9182496691
 11
4.769349803
 21
4.9178809126
  0
LINE
  5
347
100
AcDbEntity
  8
0
100
AcDbLine
 62
7
  6
CONTINUOUS
 10
4.7686379638
 20
4.9526996691
 11
4.769349803
 21
4.9523309126
  0
LINE
  5
348
100
AcDbEntity
  8
0
100
AcDbLine
 62
7
  6
CONTINUOUS
 10
4.7686379638
 20
4.9871496691
 11
4.769349803
 21
4.9867809126
  0
LINE
  5
349
100
AcDbEntity
  8
0
100
AcDbLine
 62
7
  6
CONTINUOUS
 10
4.7686379638
 20
5.0215996691
 11
4.769349803
 21
5.0212309126
  0
LINE
  5
34A
100
AcDbEntity
  8
0
100
AcDbLine
 62
7
  6
CONTINUOUS
 10
5.3974261247
 20
5.0498676899
 11
5.3981379638
 21
5.0494989334
  0
LINE
  5
34B
100
AcDbEntity
  8
0
100
AcDbLine
 62
7
  6
CONTINUOUS
 10
4.7686379638
 20
5.0560496691
 11
4.769349796
 21
5.0556809126
  0
LINE
  5
34C
100
AcDbEntity
  8
0
100
AcDbLine
 62
7
  6
CONTINUOUS
 10
5.3974261247
 20
5.0843176899
 11
5.3981379638
 21
5.0839489334
  0
LINE
  5
34D
100
AcDbEntity
  8
0
100
AcDbLine
 62
7
  6
CONTINUOUS
 10
4.7686379638
 20
5.0904996691
 11
4.769349803
 21
5.0901309126
  0
LINE
  5
34E
100
AcDbEntity
  8
0
100
AcDbLine
 62
7
  6
CONTINUOUS
 10
4.7686379638
 20
5.1249496691
 11
4.769349803
 21
5.1245809126
  0
LINE
  5
34F
100
AcDbEntity
  8
0
100
AcDbLine
 62
7
  6
CONTINUOUS
 10
5.3974261247
 20
5.1187676899
 11
5.3981379638
 21
5.1183989334
  0
LINE
  5
350
100
AcDbEntity
  8
0
100
AcDbLine
 62
7
  6
CONTINUOUS
 10
4.7686379638
 20
5.1593996691
 11
4.769349803
 21
5.1590309126
  0
LINE
  5
351
100
AcDbEntity
  8
0
100
AcDbLine
 62
7
  6
CONTINUOUS
 10
5.397426372
 20
5.1532176901
 11
5.3981379638
 21
5.1528489334
  0
LINE
  5
352
100
AcDbEntity
  8
0
100
AcDbLine
 62
7
  6
CONTINUOUS
 10
4.7686379638
 20
5.1938496691
 11
4.7693497922
 21
5.1934809126
  0
LINE
  5
353
100
AcDbEntity
  8
0
100
AcDbLine
 62
7
  6
CONTINUOUS
 10
4.769349803
 20
5.0326426899
 11
4.7686379638
 21
5.0322739334
  0
LINE
  5
354
100
AcDbEntity
  8
0
100
AcDbLine
 62
7
  6
CONTINUOUS
 10
4.7686379638
 20
5.2282996691
 11
4.769349803
 21
5.2279309126
  0
LINE
  5
355
100
AcDbEntity
  8
0
100
AcDbLine
 62
7
  6
CONTINUOUS
 10
4.7686379638
 20
5.2627496691
 11
4.769349803
 21
5.2623809126
  0
LINE
  5
356
100
AcDbEntity
  8
0
100
AcDbLine
 62
7
  6
CONTINUOUS
 10
4.769349803
 20
5.0670926899
 11
4.7686379638
 21
5.0667239334
  0
LINE
  5
357
100
AcDbEntity
  8
0
100
AcDbLine
 62
7
  6
CONTINUOUS
 10
4.7686379638
 20
5.2971996691
 11
4.769349803
 21
5.2968309126
  0
LINE
  5
358
100
AcDbEntity
  8
0
100
AcDbLine
 62
7
  6
CONTINUOUS
 10
5.3981379638
 20
5.3250989334
 11
5.3974261448
 21
5.3254676899
  0
LINE
  5
359
100
AcDbEntity
  8
0
100
AcDbLine
 62
7
  6
CONTINUOUS
 10
4.769349803
 20
5.1015426899
 11
4.7686379638
 21
5.1011739334
  0
LINE
  5
35A
100
AcDbEntity
  8
0
100
AcDbLine
 62
7
  6
CONTINUOUS
 10
4.769349803
 20
5.1359926899
 11
4.7686379638
 21
5.1356239334
  0
LINE
  5
35B
100
AcDbEntity
  8
0
100
AcDbLine
 62
7
  6
CONTINUOUS
 10
5.3981379638
 20
4.8665746691
 11
5.3974261246
 21
4.8662059126
  0
LINE
  5
35C
100
AcDbEntity
  8
0
100
AcDbLine
 62
7
  6
CONTINUOUS
 10
5.3981379638
 20
4.9010246691
 11
5.3974261246
 21
4.9006559126
  0
LINE
  5
35D
100
AcDbEntity
  8
0
100
AcDbLine
 62
7
  6
CONTINUOUS
 10
5.3981379638
 20
4.9354746691
 11
5.39742612
 21
4.9351059126
  0
LINE
  5
35E
100
AcDbEntity
  8
0
100
AcDbLine
 62
7
  6
CONTINUOUS
 10
5.3981379638
 20
4.9699246691
 11
5.3974261246
 21
4.9695559126
  0
LINE
  5
35F
100
AcDbEntity
  8
0
100
AcDbLine
 62
7
  6
CONTINUOUS
 10
5.3981379638
 20
5.0043746691
 11
5.3974261246
 21
5.0040059126
  0
LINE
  5
360
100
AcDbEntity
  8
0
100
AcDbLine
 62
7
  6
CONTINUOUS
 10
5.3981379638
 20
5.0388246691
 11
5.3974261246
 21
5.0384559126
  0
LINE
  5
361
100
AcDbEntity
  8
0
100
AcDbLine
 62
7
  6
CONTINUOUS
 10
5.3981379638
 20
5.0732746691
 11
5.3974261246
 21
5.0729059126
  0
LINE
  5
362
100
AcDbEntity
  8
0
100
AcDbLine
 62
7
  6
CONTINUOUS
 10
5.3981379638
 20
5.1077246691
 11
5.3974261246
 21
5.1073559126
  0
LINE
  5
363
100
AcDbEntity
  8
0
100
AcDbLine
 62
7
  6
CONTINUOUS
 10
5.3981379638
 20
5.1421746691
 11
5.3974261246
 21
5.1418059126
  0
LINE
  5
364
100
AcDbEntity
  8
0
100
AcDbLine
 62
7
  6
CONTINUOUS
 10
5.3981379638
 20
5.1766246691
 11
5.3974261246
 21
5.1762559126
  0
LINE
  5
365
100
AcDbEntity
  8
0
100
AcDbLine
 62
7
  6
CONTINUOUS
 10
5.3981379638
 20
5.2110746691
 11
5.3974261246
 21
5.2107059126
  0
LINE
  5
366
100
AcDbEntity
  8
0
100
AcDbLine
 62
7
  6
CONTINUOUS
 10
5.3981379638
 20
5.2455246691
 11
5.3974261246
 21
5.2451559126
  0
LINE
  5
367
100
AcDbEntity
  8
0
100
AcDbLine
 62
7
  6
CONTINUOUS
 10
5.3981379638
 20
5.2799746691
 11
5.3974261246
 21
5.2796059126
  0
LINE
  5
368
100
AcDbEntity
  8
0
100
AcDbLine
 62
7
  6
CONTINUOUS
 10
5.3981379638
 20
5.3144246691
 11
5.3974261606
 21
5.3140559126
  0
LINE
  5
369
100
AcDbEntity
  8
0
100
AcDbLine
 62
7
  6
CONTINUOUS
 10
5.3981379693
 20
4.5565246689
 11
5.3974263462
 21
4.5561559124
  0
LINE
  5
36A
100
AcDbEntity
  8
0
100
AcDbLine
 62
7
  6
CONTINUOUS
 10
5.3974261247
 20
5.1876676899
 11
5.3981379638
 21
5.1872989334
  0
LINE
  5
36B
100
AcDbEntity
  8
0
100
AcDbLine
 62
7
  6
CONTINUOUS
 10
5.3974261247
 20
5.2221176899
 11
5.3981379638
 21
5.2217489334
  0
LINE
  5
36C
100
AcDbEntity
  8
0
100
AcDbLine
 62
7
  6
CONTINUOUS
 10
5.3974261247
 20
5.2565676899
 11
5.3981379638
 21
5.2561989334
  0
LINE
  5
36D
100
AcDbEntity
  8
0
100
AcDbLine
 62
7
  6
CONTINUOUS
 10
4.769349803
 20
5.1704426899
 11
4.7686379638
 21
5.1700739334
  0
LINE
  5
36E
100
AcDbEntity
  8
0
100
AcDbLine
 62
7
  6
CONTINUOUS
 10
4.769349803
 20
5.2048926899
 11
4.7686379638
 21
5.2045239334
  0
LINE
  5
36F
100
AcDbEntity
  8
0
100
AcDbLine
 62
7
  6
CONTINUOUS
 10
4.769349803
 20
5.2393426899
 11
4.7686379638
 21
5.2389739334
  0
LINE
  5
370
100
AcDbEntity
  8
0
100
AcDbLine
 62
7
  6
CONTINUOUS
 10
4.7693497642
 20
5.2737926899
 11
4.7686379638
 21
5.2734239334
  0
LINE
  5
371
100
AcDbEntity
  8
0
100
AcDbLine
 62
7
  6
CONTINUOUS
 10
4.769349803
 20
5.3082426899
 11
4.7686379638
 21
5.3078739334
  0
LINE
  5
372
100
AcDbEntity
  8
0
100
AcDbLine
 62
7
  6
CONTINUOUS
 10
5.3974261247
 20
5.2910176899
 11
5.3981379638
 21
5.2906489334
  0
SPLINE
  5
373
100
AcDbEntity
  8
0
100
AcDbSpline
 62
7
  6
CONTINUOUS
 70
0
 71
3
 72
63
 73
59
 74
0
 42
0.0000001
 43
0.0000001
 44
0.0000000001
 40
0.0
 40
0.0
 40
0.0
 40
0.0
 40
0.0010305488
 40
0.0023428763
 40
0.0039379092
 40
0.0058154627
 40
0.0079749741
 40
0.0104156864
 40
0.0161361879
 40
0.0229645197
 40
0.0308862536
 40
0.0398832882
 40
0.0499354205
 40
0.0610198261
 40
0.0731109087
 40
0.1002008843
 40
0.1309571577
 40
0.1650974078
 40
0.2023081681
 40
0.2422476303
 40
0.284548844
 40
0.3288231691
 40
0.3746637636
 40
0.4216493439
 40
0.4693481802
 40
0.5173217944
 40
0.5651293801
 40
0.6123315063
 40
0.6584944184
 40
0.7031939143
 40
0.7460192019
 40
0.7865768078
 40
0.8244940777
 40
0.8594226492
 40
0.8756647097
 40
0.8910418262
 40
0.9055184197
 40
0.9190613758
 40
0.9316397528
 40
0.9432244591
 40
0.9537894533
 40
0.9633100455
 40
0.9717652419
 40
0.979135424
 40
0.9854046854
 40
0.9905593093
 40
0.9927153186
 40
0.9945893618
 40
0.996180879
 40
0.9974896931
 40
0.9980383526
 40
0.9985168556
 40
0.9989256789
 40
0.9992656229
 40
0.9995381323
 40
0.9996499814
 40
0.9997463072
 40
1.0
 40
1.0
 40
1.0
 40
1.0
 10
5.3973170363
 20
4.9695286388
 30
0.0
 10
5.397106961
 20
4.9694779212
 30
0.0
 10
5.39662481
 20
4.9693818011
 30
0.0
 10
5.3958090313
 20
4.9692530655
 30
0.0
 10
5.3948138899
 20
4.9691236133
 30
0.0
 10
5.3936399476
 20
4.9689935962
 30
0.0
 10
5.3922877594
 20
4.9688632333
 30
0.0
 10
5.390131259
 20
4.9686792267
 30
0.0
 10
5.3869958324
 20
4.9684540365
 30
0.0
 10
5.3827108577
 20
4.9681945551
 30
0.0
 10
5.3777377368
 20
4.9679343404
 30
0.0
 10
5.3720878057
 20
4.9676734767
 30
0.0
 10
5.3657740371
 20
4.9674122254
 30
0.0
 10
5.3588109464
 20
4.9671506596
 30
0.0
 10
5.3482762793
 20
4.966787709
 30
0.0
 10
5.3336168647
 20
4.9663403168
 30
0.0
 10
5.3143338542
 20
4.9658201051
 30
0.0
 10
5.2929278006
 20
4.9652989308
 30
0.0
 10
5.269595491
 20
4.9647769958
 30
0.0
 10
5.2445514044
 20
4.9642545543
 30
0.0
 10
5.218025761
 20
4.9637317401
 30
0.0
 10
5.1902623996
 20
4.9632086612
 30
0.0
 10
5.1615165407
 20
4.9626853949
 30
0.0
 10
5.1320524326
 20
4.9621620032
 30
0.0
 10
5.1021409524
 20
4.961638538
 30
0.0
 10
5.0720570683
 20
4.9611150451
 30
0.0
 10
5.042077362
 20
4.9605915688
 30
0.0
 10
5.0124774256
 20
4.9600681544
 30
0.0
 10
4.9835293718
 20
4.9595448517
 30
0.0
 10
4.9554993122
 20
4.9590217205
 30
0.0
 10
4.9286449191
 20
4.958498831
 30
0.0
 10
4.9032130653
 20
4.9579762912
 30
0.0
 10
4.8794375515
 20
4.9574541975
 30
0.0
 10
4.8607606737
 20
4.9570096064
 30
0.0
 10
4.8468098989
 20
4.956651129
 30
0.0
 10
4.8371469524
 20
4.9563889065
 30
0.0
 10
4.8280502383
 20
4.9561267798
 30
0.0
 10
4.8195406884
 20
4.9558647667
 30
0.0
 10
4.8116378831
 20
4.9556029093
 30
0.0
 10
4.8043599331
 20
4.9553412293
 30
0.0
 10
4.7977236545
 20
4.9550798241
 30
0.0
 10
4.7917441915
 20
4.9548187478
 30
0.0
 10
4.7864353833
 20
4.9545581687
 30
0.0
 10
4.7818092652
 20
4.9542983487
 30
0.0
 10
4.7778765122
 20
4.95403948
 30
0.0
 10
4.7750374974
 20
4.953814143
 30
0.0
 10
4.7731202887
 20
4.9536291323
 30
0.0
 10
4.7719485486
 20
4.953499131
 30
0.0
 10
4.7709556931
 20
4.9533695989
 30
0.0
 10
4.7702410993
 20
4.9532567819
 30
0.0
 10
4.7697600049
 20
4.9531642769
 30
0.0
 10
4.769465933
 20
4.9530991544
 30
0.0
 10
4.7692168311
 20
4.9530343164
 30
0.0
 10
4.7690124242
 20
4.9529695599
 30
0.0
 10
4.7688714711
 20
4.9529132263
 30
0.0
 10
4.7687814911
 20
4.9528661469
 30
0.0
 10
4.7687014463
 20
4.9528158485
 30
0.0
 10
4.7686379638
 20
4.9527528697
 30
0.0
 10
4.7686379638
 20
4.9526996691
 30
0.0
  0
SPLINE
  5
374
100
AcDbEntity
  8
0
100
AcDbSpline
 62
7
  6
CONTINUOUS
 70
0
 71
3
 72
63
 73
59
 74
0
 42
0.0000001
 43
0.0000001
 44
0.0000000001
 40
0.0
 40
0.0
 40
0.0
 40
0.0
 40
0.0010774659
 40
0.0024355598
 40
0.0040750795
 40
0.0059960702
 40
0.0081982057
 40
0.0106806765
 40
0.0164810537
 40
0.023385373
 40
0.0313789136
 40
0.0404433386
 40
0.0505588847
 40
0.0617019356
 40
0.07384763
 40
0.1010330026
 40
0.1318666774
 40
0.1660664642
 40
0.2033192144
 40
0.2432835104
 40
0.2855932038
 40
0.3298605359
 40
0.3756797588
 40
0.4226309939
 40
0.4702837443
 40
0.5182012673
 40
0.5659442372
 40
0.6130750447
 40
0.6591617031
 40
0.7037817454
 40
0.7465262068
 40
0.7870032932
 40
0.8248420443
 40
0.859695876
 40
0.8912455832
 40
0.9056900338
 40
0.919202442
 40
0.9317523554
 40
0.9433108893
 40
0.9538516426
 40
0.9633510057
 40
0.9717869444
 40
0.9791412306
 40
0.9853969907
 40
0.9905415048
 40
0.9926938632
 40
0.9945648662
 40
0.99615424
 40
0.9974622691
 40
0.998011128
 40
0.9984902209
 40
0.9989000472
 40
0.9992414731
 40
0.9995161304
 40
0.9997272831
 40
0.9998112416
 40
0.999882802
 40
1.0
 40
1.0
 40
1.0
 40
1.0
 10
5.3769358139
 20
4.9642445302
 30
0.0
 10
5.3767305509
 20
4.9641942505
 30
0.0
 10
5.3762622327
 20
4.9640985098
 30
0.0
 10
5.3754733135
 20
4.96396977
 30
0.0
 10
5.374517209
 20
4.9638403508
 30
0.0
 10
5.3733943882
 20
4.9637104172
 30
0.0
 10
5.3721053106
 20
4.9635801668
 30
0.0
 10
5.3700569949
 20
4.9633965533
 30
0.0
 10
5.3670866004
 20
4.9631716481
 30
0.0
 10
5.3630351362
 20
4.9629124227
 30
0.0
 10
5.3583423853
 20
4.9626524742
 30
0.0
 10
5.353018993
 20
4.9623918878
 30
0.0
 10
5.3470772233
 20
4.9621309494
 30
0.0
 10
5.3405305923
 20
4.9618696778
 30
0.0
 10
5.330637354
 20
4.9615073015
 30
0.0
 10
5.3168826285
 20
4.9610605096
 30
0.0
 10
5.2988025116
 20
4.9605409015
 30
0.0
 10
5.2787471013
 20
4.9600203436
 30
0.0
 10
5.2569003084
 20
4.959499039
 30
0.0
 10
5.233462453
 20
4.9589772344
 30
0.0
 10
5.208648465
 20
4.9584550629
 30
0.0
 10
5.1826858714
 20
4.95793263
 30
0.0
 10
5.155812725
 20
4.9574100125
 30
0.0
 10
5.1282754524
 20
4.9568872718
 30
0.0
 10
5.1003265535
 20
4.9563644589
 30
0.0
 10
5.0722223395
 20
4.9558416196
 30
0.0
 10
5.0442205154
 20
4.9553187975
 30
0.0
 10
5.016577854
 20
4.9547960378
 30
0.0
 10
4.9895478243
 20
4.9542733905
 30
0.0
 10
4.9633782825
 20
4.9537509139
 30
0.0
 10
4.938309209
 20
4.953228683
 30
0.0
 10
4.9145704948
 20
4.9527067886
 30
0.0
 10
4.8923798113
 20
4.9521853815
 30
0.0
 10
4.8719406252
 20
4.9516645973
 30
0.0
 10
4.8560895399
 20
4.9512193379
 30
0.0
 10
4.844423619
 20
4.950859605
 30
0.0
 10
4.8364830329
 20
4.9505979098
 30
0.0
 10
4.8291088057
 20
4.9503363806
 30
0.0
 10
4.8223178183
 20
4.9500750409
 30
0.0
 10
4.8161256289
 20
4.9498139437
 30
0.0
 10
4.8105464751
 20
4.9495532215
 30
0.0
 10
4.8055930444
 20
4.949292936
 30
0.0
 10
4.8012767326
 20
4.9490334719
 30
0.0
 10
4.797607298
 20
4.9487749079
 30
0.0
 10
4.7949584787
 20
4.948549835
 30
0.0
 10
4.7931697845
 20
4.9483650785
 30
0.0
 10
4.7920765384
 20
4.9482352265
 30
0.0
 10
4.7911502039
 20
4.9481058314
 30
0.0
 10
4.7904835328
 20
4.9479931679
 30
0.0
 10
4.7900347159
 20
4.9479008119
 30
0.0
 10
4.7897602516
 20
4.947835793
 30
0.0
 10
4.7895277359
 20
4.9477709661
 30
0.0
 10
4.7893369577
 20
4.9477064255
 30
0.0
 10
4.789187829
 20
4.9476421282
 30
0.0
 10
4.789090847
 20
4.9475852732
 30
0.0
 10
4.78903636
 20
4.9475378371
 30
0.0
 10
4.789002013
 20
4.9474968447
 30
0.0
 10
4.7889880799
 20
4.9474597881
 30
0.0
 10
4.7889880805
 20
4.9474368012
 30
0.0
  0
SPLINE
  5
375
100
AcDbEntity
  8
0
100
AcDbSpline
 62
7
  6
CONTINUOUS
 70
0
 71
3
 72
63
 73
59
 74
0
 42
0.0000001
 43
0.0000001
 44
0.0000000001
 40
0.0
 40
0.0
 40
0.0
 40
0.0
 40
0.0010305488
 40
0.0023428763
 40
0.0039379092
 40
0.0058154627
 40
0.0079749741
 40
0.0104156864
 40
0.0161361879
 40
0.0229645197
 40
0.0308862536
 40
0.0398832882
 40
0.0499354205
 40
0.0610198261
 40
0.0731109087
 40
0.1002008843
 40
0.1309571577
 40
0.1650974078
 40
0.2023081681
 40
0.2422476303
 40
0.284548844
 40
0.3288231691
 40
0.3746637636
 40
0.4216493439
 40
0.4693481802
 40
0.5173217944
 40
0.5651293801
 40
0.6123315063
 40
0.6584944184
 40
0.7031939143
 40
0.7460192019
 40
0.7865768078
 40
0.8244940777
 40
0.8594226492
 40
0.8756647097
 40
0.8910418262
 40
0.9055184197
 40
0.9190613758
 40
0.9316397528
 40
0.9432244591
 40
0.9537894533
 40
0.9633100455
 40
0.9717652419
 40
0.979135424
 40
0.9854046854
 40
0.9905593093
 40
0.9927153186
 40
0.9945893618
 40
0.996180879
 40
0.9974896931
 40
0.9980383526
 40
0.9985168556
 40
0.9989256789
 40
0.9992656229
 40
0.9995381323
 40
0.9996499814
 40
0.9997463072
 40
1.0
 40
1.0
 40
1.0
 40
1.0
 10
5.3973170363
 20
5.0039786388
 30
0.0
 10
5.397106961
 20
5.0039279212
 30
0.0
 10
5.39662481
 20
5.0038318011
 30
0.0
 10
5.3958090313
 20
5.0037030655
 30
0.0
 10
5.3948138899
 20
5.0035736133
 30
0.0
 10
5.3936399476
 20
5.0034435962
 30
0.0
 10
5.3922877594
 20
5.0033132333
 30
0.0
 10
5.390131259
 20
5.0031292267
 30
0.0
 10
5.3869958324
 20
5.0029040365
 30
0.0
 10
5.3827108577
 20
5.0026445551
 30
0.0
 10
5.3777377368
 20
5.0023843404
 30
0.0
 10
5.3720878057
 20
5.0021234767
 30
0.0
 10
5.3657740371
 20
5.0018622254
 30
0.0
 10
5.3588109464
 20
5.0016006596
 30
0.0
 10
5.3482762793
 20
5.001237709
 30
0.0
 10
5.3336168647
 20
5.0007903168
 30
0.0
 10
5.3143338542
 20
5.0002701051
 30
0.0
 10
5.2929278006
 20
4.9997489308
 30
0.0
 10
5.269595491
 20
4.9992269958
 30
0.0
 10
5.2445514044
 20
4.9987045543
 30
0.0
 10
5.218025761
 20
4.9981817401
 30
0.0
 10
5.1902623996
 20
4.9976586612
 30
0.0
 10
5.1615165407
 20
4.9971353949
 30
0.0
 10
5.1320524326
 20
4.9966120032
 30
0.0
 10
5.1021409524
 20
4.996088538
 30
0.0
 10
5.0720570683
 20
4.9955650451
 30
0.0
 10
5.042077362
 20
4.9950415688
 30
0.0
 10
5.0124774256
 20
4.9945181544
 30
0.0
 10
4.9835293718
 20
4.9939948517
 30
0.0
 10
4.9554993122
 20
4.9934717205
 30
0.0
 10
4.9286449191
 20
4.992948831
 30
0.0
 10
4.9032130653
 20
4.9924262912
 30
0.0
 10
4.8794375515
 20
4.9919041975
 30
0.0
 10
4.8607606737
 20
4.9914596064
 30
0.0
 10
4.8468098989
 20
4.991101129
 30
0.0
 10
4.8371469524
 20
4.9908389065
 30
0.0
 10
4.8280502383
 20
4.9905767798
 30
0.0
 10
4.8195406884
 20
4.9903147667
 30
0.0
 10
4.8116378831
 20
4.9900529093
 30
0.0
 10
4.8043599331
 20
4.9897912293
 30
0.0
 10
4.7977236545
 20
4.9895298241
 30
0.0
 10
4.7917441915
 20
4.9892687478
 30
0.0
 10
4.7864353833
 20
4.9890081687
 30
0.0
 10
4.7818092652
 20
4.9887483487
 30
0.0
 10
4.7778765122
 20
4.98848948
 30
0.0
 10
4.7750374974
 20
4.988264143
 30
0.0
 10
4.7731202887
 20
4.9880791323
 30
0.0
 10
4.7719485486
 20
4.987949131
 30
0.0
 10
4.7709556931
 20
4.9878195989
 30
0.0
 10
4.7702410993
 20
4.9877067819
 30
0.0
 10
4.7697600049
 20
4.9876142769
 30
0.0
 10
4.769465933
 20
4.9875491544
 30
0.0
 10
4.7692168311
 20
4.9874843164
 30
0.0
 10
4.7690124242
 20
4.9874195599
 30
0.0
 10
4.7688714711
 20
4.9873632263
 30
0.0
 10
4.7687814911
 20
4.9873161469
 30
0.0
 10
4.7687014463
 20
4.9872658485
 30
0.0
 10
4.7686379638
 20
4.9872028697
 30
0.0
 10
4.7686379638
 20
4.9871496691
 30
0.0
  0
SPLINE
  5
376
100
AcDbEntity
  8
0
100
AcDbSpline
 62
7
  6
CONTINUOUS
 70
0
 71
3
 72
62
 73
58
 74
0
 42
0.0000001
 43
0.0000001
 44
0.0000000001
 40
0.0
 40
0.0
 40
0.0
 40
0.0
 40
0.0010965866
 40
0.0024737159
 40
0.0041322567
 40
0.0060719814
 40
0.010792313
 40
0.0166274279
 40
0.0235646922
 40
0.0315894004
 40
0.0406835806
 40
0.050826569
 40
0.0619958286
 40
0.0741653438
 40
0.1013932681
 40
0.1322617984
 40
0.1664886916
 40
0.2037608584
 40
0.2437372605
 40
0.2860519985
 40
0.3303177299
 40
0.3761292108
 40
0.4230668885
 40
0.4707010515
 40
0.5185955006
 40
0.5663117122
 40
0.6134128343
 40
0.6594674731
 40
0.7040540408
 40
0.7467642129
 40
0.7872070963
 40
0.8250125045
 40
0.8598344494
 40
0.8913544145
 40
0.9057846547
 40
0.9192841245
 40
0.9318214074
 40
0.9433685236
 40
0.9538986866
 40
0.96338827
 40
0.9718158545
 40
0.979162273
 40
0.9854119139
 40
0.9905508626
 40
0.9927009249
 40
0.994570198
 40
0.9961580697
 40
0.9974646179
 40
0.998012813
 40
0.9984913373
 40
0.9989007222
 40
0.9992418612
 40
0.9995163631
 40
0.999727429
 40
0.9998113511
 40
0.999882873
 40
1.0
 40
1.0
 40
1.0
 40
1.0
 10
5.3768970663
 20
4.9986851672
 30
0.0
 10
5.3766879196
 20
4.9986350527
 30
0.0
 10
5.3762119907
 20
4.9985394415
 30
0.0
 10
5.3754117651
 20
4.9984107125
 30
0.0
 10
5.3744444901
 20
4.9982813106
 30
0.0
 10
5.3728235354
 20
4.9980957714
 30
0.0
 10
5.3703830322
 20
4.9978707766
 30
0.0
 10
5.3669619237
 20
4.9976129232
 30
0.0
 10
5.3628912668
 20
4.9973539493
 30
0.0
 10
5.3581804033
 20
4.9970940617
 30
0.0
 10
5.3528400103
 20
4.9968336377
 30
0.0
 10
5.3468822664
 20
4.9965728049
 30
0.0
 10
5.3403208665
 20
4.9963116925
 30
0.0
 10
5.3304101212
 20
4.9959495418
 30
0.0
 10
5.3166364551
 20
4.9955030334
 30
0.0
 10
5.2985370495
 20
4.9949836876
 30
0.0
 10
5.2784670248
 20
4.9944634035
 30
0.0
 10
5.256610203
 20
4.9939423762
 30
0.0
 10
5.2331667549
 20
4.9934208532
 30
0.0
 10
5.2083513907
 20
4.9928989653
 30
0.0
 10
5.1823913924
 20
4.9923768181
 30
0.0
 10
5.155524552
 20
4.9918544876
 30
0.0
 10
5.1279969624
 20
4.9913320342
 30
0.0
 10
5.100060782
 20
4.9908095093
 30
0.0
 10
5.0719718864
 20
4.9902869583
 30
0.0
 10
5.0439875507
 20
4.989764425
 30
0.0
 10
5.0163641082
 20
4.9892419548
 30
0.0
 10
4.9893545735
 20
4.988719597
 30
0.0
 10
4.9632063716
 20
4.9881974097
 30
0.0
 10
4.9381589919
 20
4.9876754678
 30
0.0
 10
4.9144418559
 20
4.9871538621
 30
0.0
 10
4.8922721748
 20
4.9866327453
 30
0.0
 10
4.871852998
 20
4.9861122471
 30
0.0
 10
4.8560178588
 20
4.9856672428
 30
0.0
 10
4.8443638856
 20
4.9853076919
 30
0.0
 10
4.8364316381
 20
4.9850461577
 30
0.0
 10
4.8290651645
 20
4.9847847614
 30
0.0
 10
4.82228143
 20
4.9845235732
 30
0.0
 10
4.816095894
 20
4.984262625
 30
0.0
 10
4.8105227522
 20
4.9840020319
 30
0.0
 10
4.805574755
 20
4.9837419192
 30
0.0
 10
4.8012631196
 20
4.9834825634
 30
0.0
 10
4.7975977661
 20
4.9832241798
 30
0.0
 10
4.7949518697
 20
4.9829992161
 30
0.0
 10
4.7931651797
 20
4.9828145501
 30
0.0
 10
4.7920730907
 20
4.9826847814
 30
0.0
 10
4.7911477413
 20
4.9825554719
 30
0.0
 10
4.7904818324
 20
4.9824428625
 30
0.0
 10
4.7900335809
 20
4.9823505528
 30
0.0
 10
4.7897594656
 20
4.9822855676
 30
0.0
 10
4.7895272222
 20
4.9822207725
 30
0.0
 10
4.7893366303
 20
4.9821562662
 30
0.0
 10
4.7891876104
 20
4.9820920081
 30
0.0
 10
4.7890906793
 20
4.9820351909
 30
0.0
 10
4.7890362167
 20
4.9819877825
 30
0.0
 10
4.789001891
 20
4.9819468136
 30
0.0
 10
4.7889879804
 20
4.9819097726
 30
0.0
 10
4.7889879931
 20
4.9818868012
 30
0.0
  0
SPLINE
  5
377
100
AcDbEntity
  8
0
100
AcDbSpline
 62
7
  6
CONTINUOUS
 70
0
 71
3
 72
63
 73
59
 74
0
 42
0.0000001
 43
0.0000001
 44
0.0000000001
 40
0.0
 40
0.0
 40
0.0
 40
0.0
 40
0.0010305416
 40
0.0023428619
 40
0.0039378877
 40
0.0058154343
 40
0.0079749388
 40
0.0104156446
 40
0.0161361336
 40
0.0229644536
 40
0.0308861761
 40
0.0398832001
 40
0.0499353226
 40
0.0610197192
 40
0.0731107932
 40
0.1002007531
 40
0.1309570125
 40
0.1650972518
 40
0.2023080047
 40
0.2422474627
 40
0.2845486779
 40
0.3288230064
 40
0.3746636042
 40
0.4216491935
 40
0.4693480336
 40
0.5173216559
 40
0.5651292498
 40
0.6123313846
 40
0.6584943065
 40
0.7031938133
 40
0.7460191116
 40
0.7865767278
 40
0.8244940104
 40
0.8594225918
 40
0.8756646579
 40
0.8910417806
 40
0.9055183797
 40
0.9190613411
 40
0.9316397229
 40
0.9432244345
 40
0.9537894337
 40
0.96331003
 40
0.9717652302
 40
0.9791354155
 40
0.9854046798
 40
0.990559306
 40
0.9927153161
 40
0.9945893599
 40
0.9961808777
 40
0.9974896922
 40
0.9980383519
 40
0.998516855
 40
0.9989256785
 40
0.9992656227
 40
0.9995381321
 40
0.9996499813
 40
0.9997463071
 40
1.0
 40
1.0
 40
1.0
 40
1.0
 10
5.3973170507
 20
5.0384286423
 30
0.0
 10
5.3971069769
 20
5.0383779246
 30
0.0
 10
5.3966248289
 20
5.0382818044
 30
0.0
 10
5.3958090548
 20
5.0381530689
 30
0.0
 10
5.3948139178
 20
5.0380236166
 30
0.0
 10
5.39363998
 20
5.0378935995
 30
0.0
 10
5.392287796
 20
5.0377632366
 30
0.0
 10
5.390131301
 20
5.0375792299
 30
0.0
 10
5.3869958808
 20
5.0373540397
 30
0.0
 10
5.3827109135
 20
5.0370945582
 30
0.0
 10
5.3777377996
 20
5.0368343434
 30
0.0
 10
5.372087875
 20
5.0365734797
 30
0.0
 10
5.3657741125
 20
5.0363122284
 30
0.0
 10
5.3588110274
 20
5.0360506625
 30
0.0
 10
5.348276367
 20
5.0356877118
 30
0.0
 10
5.3336169601
 20
5.0352403195
 30
0.0
 10
5.3143339576
 20
5.0347201078
 30
0.0
 10
5.2929279102
 20
5.0341989333
 30
0.0
 10
5.2695956048
 20
5.0336769983
 30
0.0
 10
5.2445515197
 20
5.0331545566
 30
0.0
 10
5.2180258756
 20
5.0326317423
 30
0.0
 10
5.1902625118
 20
5.0321086633
 30
0.0
 10
5.1615166489
 20
5.0315853968
 30
0.0
 10
5.1320525368
 20
5.031062005
 30
0.0
 10
5.1021410515
 20
5.0305385397
 30
0.0
 10
5.0720571625
 20
5.0300150468
 30
0.0
 10
5.0420774503
 20
5.0294915704
 30
0.0
 10
5.0124775077
 20
5.0289681559
 30
0.0
 10
4.983529447
 20
5.0284448531
 30
0.0
 10
4.9554993802
 20
5.0279217218
 30
0.0
 10
4.9286449798
 20
5.0273988323
 30
0.0
 10
4.9032131182
 20
5.0268762923
 30
0.0
 10
4.8794375971
 20
5.0263541985
 30
0.0
 10
4.8607607129
 20
5.0259096074
 30
0.0
 10
4.8468099331
 20
5.0255511299
 30
0.0
 10
4.8371469828
 20
5.0252889074
 30
0.0
 10
4.8280502649
 20
5.0250267805
 30
0.0
 10
4.8195407115
 20
5.0247647674
 30
0.0
 10
4.8116379028
 20
5.02450291
 30
0.0
 10
4.8043599494
 20
5.0242412299
 30
0.0
 10
4.7977236677
 20
5.0239798247
 30
0.0
 10
4.7917442019
 20
5.0237187482
 30
0.0
 10
4.7864353912
 20
5.0234581691
 30
0.0
 10
4.781809271
 20
5.0231983491
 30
0.0
 10
4.7778765161
 20
5.0229394803
 30
0.0
 10
4.7750374999
 20
5.0227141433
 30
0.0
 10
4.7731202904
 20
5.0225291325
 30
0.0
 10
4.7719485499
 20
5.0223991312
 30
0.0
 10
4.770955694
 20
5.022269599
 30
0.0
 10
4.7702410999
 20
5.022156782
 30
0.0
 10
4.7697600053
 20
5.0220642769
 30
0.0
 10
4.7694659333
 20
5.0219991544
 30
0.0
 10
4.7692168314
 20
5.0219343164
 30
0.0
 10
4.7690124243
 20
5.02186956
 30
0.0
 10
4.7688714712
 20
5.0218132264
 30
0.0
 10
4.7687814912
 20
5.0217661469
 30
0.0
 10
4.7687014464
 20
5.0217158486
 30
0.0
 10
4.7686379638
 20
5.0216528697
 30
0.0
 10
4.7686379638
 20
5.0215996691
 30
0.0
  0
SPLINE
  5
378
100
AcDbEntity
  8
0
100
AcDbSpline
 62
7
  6
CONTINUOUS
 70
0
 71
3
 72
62
 73
58
 74
0
 42
0.0000001
 43
0.0000001
 44
0.0000000001
 40
0.0
 40
0.0
 40
0.0
 40
0.0
 40
0.0011155702
 40
0.0025112614
 40
0.0041879528
 40
0.0061457641
 40
0.01090149
 40
0.0167698863
 40
0.0237394825
 40
0.0317944185
 40
0.0409174141
 40
0.0510874682
 40
0.0622817361
 40
0.0744748853
 40
0.1017440382
 40
0.1326462569
 40
0.1668993948
 40
0.2041905477
 40
0.2441787799
 40
0.2864985507
 40
0.3307627118
 40
0.3765665082
 40
0.4234910152
 40
0.471107031
 40
0.5189791153
 40
0.5666693083
 40
0.6137414361
 40
0.6597649419
 40
0.704318897
 40
0.7469958809
 40
0.7874056214
 40
0.8251785882
 40
0.8599694746
 40
0.8914602599
 40
0.905877047
 40
0.919363477
 40
0.9318890031
 40
0.9434246087
 40
0.9539446946
 40
0.9634247696
 40
0.9718439963
 40
0.9791832122
 40
0.9854263274
 40
0.9905604351
 40
0.9927081905
 40
0.9945754032
 40
0.9961617188
 40
0.9974671962
 40
0.9980149008
 40
0.9984929248
 40
0.9989018301
 40
0.9992425437
 40
0.9995167073
 40
0.9997275515
 40
0.9998114117
 40
0.9998829017
 40
1.0
 40
1.0
 40
1.0
 40
1.0
 10
5.3768586008
 20
5.033126048
 30
0.0
 10
5.3766456062
 20
5.0330760883
 30
0.0
 10
5.3761621891
 20
5.0329806291
 30
0.0
 10
5.3753509594
 20
5.0328518984
 30
0.0
 10
5.3743729116
 20
5.0327225091
 30
0.0
 10
5.3727379073
 20
5.0325371695
 30
0.0
 10
5.3702804771
 20
5.032312318
 30
0.0
 10
5.3668397328
 20
5.0320545081
 30
0.0
 10
5.3627505103
 20
5.0317956719
 30
0.0
 10
5.3580220132
 20
5.0315358784
 30
0.0
 10
5.3526650672
 20
5.0312755889
 30
0.0
 10
5.346691841
 20
5.031014888
 30
0.0
 10
5.3401160195
 20
5.0307538981
 30
0.0
 10
5.3301882963
 20
5.0303920019
 30
0.0
 10
5.3163962131
 20
5.0299457456
 30
0.0
 10
5.2982781716
 20
5.0294266615
 30
0.0
 10
5.2781940091
 20
5.0289066424
 30
0.0
 10
5.2563274586
 20
5.0283858864
 30
0.0
 10
5.2328785502
 20
5.0278646379
 30
0.0
 10
5.2080618505
 20
5.0273430271
 30
0.0
 10
5.1821044218
 20
5.0268211578
 30
0.0
 10
5.1552437828
 20
5.0262991061
 30
0.0
 10
5.1277256905
 20
5.0257769326
 30
0.0
 10
5.0998019144
 20
5.0252546881
 30
0.0
 10
5.0717279534
 20
5.0247324184
 30
0.0
 10
5.0437606729
 20
5.0242101668
 30
0.0
 10
5.0161559811
 20
5.0236879781
 30
0.0
 10
4.9891664492
 20
5.0231659018
 30
0.0
 10
4.9630390149
 20
5.0226439963
 30
0.0
 10
4.9380127232
 20
5.0221223363
 30
0.0
 10
4.9143165522
 20
5.0216010131
 30
0.0
 10
4.8921673146
 20
5.0210801777
 30
0.0
 10
4.8717676864
 20
5.0205599634
 30
0.0
 10
4.8559480642
 20
5.0201151898
 30
0.0
 10
4.8443057926
 20
5.0197558418
 30
0.0
 10
4.8363815804
 20
5.0194944355
 30
0.0
 10
4.829022722
 20
5.0192331996
 30
0.0
 10
4.8222459839
 20
5.0189721332
 30
0.0
 10
4.8160669617
 20
5.0187113438
 30
0.0
 10
4.8104996754
 20
5.0184508828
 30
0.0
 10
4.805556928
 20
5.018190907
 30
0.0
 10
4.8012499129
 20
5.0179317125
 30
0.0
 10
4.7975884508
 20
5.0176734315
 30
0.0
 10
4.7949454111
 20
5.017448629
 30
0.0
 10
4.793160649
 20
5.0172640494
 30
0.0
 10
4.7920697971
 20
5.0171343413
 30
0.0
 10
4.7911454307
 20
5.0170050958
 30
0.0
 10
4.7904801749
 20
5.0168925641
 30
0.0
 10
4.7900323568
 20
5.0168003061
 30
0.0
 10
4.7897585492
 20
5.0167353552
 30
0.0
 10
4.7895265991
 20
5.0166705937
 30
0.0
 10
4.789336268
 20
5.0166061197
 30
0.0
 10
4.7891874566
 20
5.0165418922
 30
0.0
 10
4.7890906614
 20
5.0164851017
 30
0.0
 10
4.7890362624
 20
5.0164377231
 30
0.0
 10
4.7890019569
 20
5.0163967745
 30
0.0
 10
4.7889880267
 20
5.0163597656
 30
0.0
 10
4.7889880132
 20
5.0163368013
 30
0.0
  0
SPLINE
  5
379
100
AcDbEntity
  8
0
100
AcDbSpline
 62
7
  6
CONTINUOUS
 70
0
 71
3
 72
48
 73
44
 74
0
 42
0.0000001
 43
0.0000001
 44
0.0000000001
 40
0.0
 40
0.0
 40
0.0
 40
0.0
 40
0.0672446374
 40
0.1415551305
 40
0.2213782549
 40
0.3050401843
 40
0.3907878421
 40
0.4768244778
 40
0.5613471716
 40
0.6024851142
 40
0.6425849098
 40
0.6814361835
 40
0.7188353703
 40
0.7545861777
 40
0.788501041
 40
0.8204024344
 40
0.8501229556
 40
0.8775066974
 40
0.9024106163
 40
0.9247042255
 40
0.9348350689
 40
0.9442708082
 40
0.9529993505
 40
0.9610088797
 40
0.9682893868
 40
0.9748316996
 40
0.9806270325
 40
0.9856686119
 40
0.9899506286
 40
0.9918051536
 40
0.9934681356
 40
0.994939429
 40
0.9962190211
 40
0.997307126
 40
0.9982043778
 40
0.998581898
 40
0.9989124436
 40
0.9991965981
 40
0.9994352901
 40
0.9996301051
 40
0.9997839979
 40
0.9999030202
 40
1.0
 40
1.0
 40
1.0
 40
1.0
 10
5.2974067481
 20
5.3443618012
 30
0.0
 10
5.2855505935
 20
5.3440801327
 30
0.0
 10
5.2605915008
 20
5.3435282521
 30
0.0
 10
5.2215563054
 20
5.3427447275
 30
0.0
 10
5.1796251855
 20
5.3419598363
 30
0.0
 10
5.1356766522
 20
5.3411740893
 30
0.0
 10
5.0906321203
 20
5.3403879398
 30
0.0
 10
5.0454357598
 20
5.339601721
 30
0.0
 10
5.0081059317
 20
5.3389409996
 30
0.0
 10
4.9788766984
 20
5.3384080533
 30
0.0
 10
4.9577010818
 20
5.3380119974
 30
0.0
 10
4.9371849623
 20
5.337616021
 30
0.0
 10
4.9174359912
 20
5.3372201463
 30
0.0
 10
4.898557802
 20
5.3368244005
 30
0.0
 10
4.8806494426
 20
5.3364288169
 30
0.0
 10
4.8638048742
 20
5.3360334529
 30
0.0
 10
4.8481124882
 20
5.3356383689
 30
0.0
 10
4.8336546102
 20
5.3352436711
 30
0.0
 10
4.820507087
 20
5.334849461
 30
0.0
 10
4.8104020661
 20
5.3345117094
 30
0.0
 10
4.8030244923
 20
5.3342388606
 30
0.0
 10
4.7980381859
 20
5.3340408965
 30
0.0
 10
4.7934263128
 20
5.3338430639
 30
0.0
 10
4.789194916
 20
5.3336453615
 30
0.0
 10
4.7853495382
 20
5.3334478536
 30
0.0
 10
4.7818952162
 20
5.3332506148
 30
0.0
 10
4.7788364468
 20
5.3330537481
 30
0.0
 10
4.7761772193
 20
5.332857356
 30
0.0
 10
4.7742130599
 20
5.3326873148
 30
0.0
 10
4.7728444694
 20
5.3325488735
 30
0.0
 10
4.7719701518
 20
5.3324502062
 30
0.0
 10
4.7711979303
 20
5.3323517161
 30
0.0
 10
4.770527976
 20
5.332253493
 30
0.0
 10
4.7699604792
 20
5.3321555888
 30
0.0
 10
4.7695523934
 20
5.3320703557
 30
0.0
 10
4.7692779694
 20
5.3320005406
 30
0.0
 10
4.769109994
 20
5.3319513199
 30
0.0
 10
4.7689676391
 20
5.3319022218
 30
0.0
 10
4.7688508061
 20
5.3318532497
 30
0.0
 10
4.7687591781
 20
5.3318044089
 30
0.0
 10
4.7686923971
 20
5.3317553468
 30
0.0
 10
4.7686493273
 20
5.3317050108
 30
0.0
 10
4.7686380588
 20
5.3316667728
 30
0.0
 10
4.7686380517
 20
5.3316496691
 30
0.0
  0
SPLINE
  5
37A
100
AcDbEntity
  8
0
100
AcDbSpline
 62
7
  6
CONTINUOUS
 70
0
 71
3
 72
63
 73
59
 74
0
 42
0.0000001
 43
0.0000001
 44
0.0000000001
 40
0.0
 40
0.0
 40
0.0
 40
0.0
 40
0.0001173783
 40
0.0001890885
 40
0.0002732401
 40
0.0004849024
 40
0.0007602143
 40
0.0011024166
 40
0.0015131585
 40
0.0019933735
 40
0.0025436046
 40
0.0038550637
 40
0.0054486325
 40
0.0073244141
 40
0.0094820987
 40
0.0146399095
 40
0.0209116427
 40
0.0282845029
 40
0.036741936
 40
0.046264921
 40
0.0568321706
 40
0.0684190746
 40
0.0809997862
 40
0.0945448907
 40
0.1090238207
 40
0.1406474198
 40
0.1755803735
 40
0.2135019168
 40
0.2540636236
 40
0.2968927056
 40
0.3415955969
 40
0.3877614233
 40
0.4349658692
 40
0.4827751145
 40
0.5307495837
 40
0.5784483954
 40
0.6254329948
 40
0.6712716016
 40
0.7155429099
 40
0.7578399944
 40
0.7977742181
 40
0.8349784947
 40
0.8691111224
 40
0.8998586725
 40
0.9269390578
 40
0.9390253135
 40
0.9501042104
 40
0.960150993
 40
0.969142504
 40
0.9770584718
 40
0.9838814875
 40
0.9895961932
 40
0.9920344564
 40
0.9941916814
 40
0.9960668434
 40
0.9976595954
 40
0.9989702528
 40
1.0
 40
1.0
 40
1.0
 40
1.0
 10
5.3777878874
 20
5.0547618012
 30
0.0
 10
5.3777878743
 20
5.0547387752
 30
0.0
 10
5.3777738667
 20
5.054701661
 30
0.0
 10
5.3777394035
 20
5.0546606234
 30
0.0
 10
5.3776847355
 20
5.0546131218
 30
0.0
 10
5.3775874678
 20
5.0545561935
 30
0.0
 10
5.3774379338
 20
5.0544918094
 30
0.0
 10
5.3772466667
 20
5.0544271776
 30
0.0
 10
5.3770135638
 20
5.0543622563
 30
0.0
 10
5.3767383869
 20
5.0542971467
 30
0.0
 10
5.3762883345
 20
5.0542046631
 30
0.0
 10
5.3756197882
 20
5.0540918508
 30
0.0
 10
5.3746908693
 20
5.0539622842
 30
0.0
 10
5.3735946416
 20
5.0538322535
 30
0.0
 10
5.3718010704
 20
5.0536472209
 30
0.0
 10
5.3691450353
 20
5.0534218645
 30
0.0
 10
5.3654656255
 20
5.0531629367
 30
0.0
 10
5.3611376262
 20
5.0529031094
 30
0.0
 10
5.3561709042
 20
5.0526424824
 30
0.0
 10
5.3505768063
 20
5.0523813831
 30
0.0
 10
5.3443682241
 20
5.0521199446
 30
0.0
 10
5.3375593414
 20
5.0518582321
 30
0.0
 10
5.3301659083
 20
5.0515963517
 30
0.0
 10
5.3222048273
 20
5.0513342953
 30
0.0
 10
5.3105093594
 20
5.0509740731
 30
0.0
 10
5.2946189478
 20
5.0505282105
 30
0.0
 10
5.2741302215
 20
5.0500067132
 30
0.0
 10
5.2518876123
 20
5.049484593
 30
0.0
 10
5.2280956454
 20
5.0489619845
 30
0.0
 10
5.2029730949
 20
5.0484390389
 30
0.0
 10
5.1767509694
 20
5.0479158478
 30
0.0
 10
5.1496703729
 20
5.0473924863
 30
0.0
 10
5.121980298
 20
5.0468690129
 30
0.0
 10
5.0939353628
 20
5.046345478
 30
0.0
 10
5.0657934319
 20
5.0458219264
 30
0.0
 10
5.0378132983
 20
5.0452984025
 30
0.0
 10
5.010252227
 20
5.0447749522
 30
0.0
 10
4.983363646
 20
5.0442516273
 30
0.0
 10
4.9573947847
 20
5.0437284904
 30
0.0
 10
4.9325844177
 20
5.0432056184
 30
0.0
 10
4.9091606968
 20
5.0426831198
 30
0.0
 10
4.8873389994
 20
5.0421611282
 30
0.0
 10
4.8673199741
 20
5.0416398961
 30
0.0
 10
4.8492876544
 20
5.041119632
 30
0.0
 10
4.8355799136
 20
5.0406721739
 30
0.0
 10
4.8257299763
 20
5.0403091918
 30
0.0
 10
4.8192200695
 20
5.0400475851
 30
0.0
 10
4.8133177746
 20
5.0397863101
 30
0.0
 10
4.8080366009
 20
5.0395254245
 30
0.0
 10
4.8033886499
 20
5.0392651628
 30
0.0
 10
4.799384618
 20
5.0390056957
 30
0.0
 10
4.7964553109
 20
5.0387804375
 30
0.0
 10
4.7944411278
 20
5.0385964066
 30
0.0
 10
4.7931784604
 20
5.0384660346
 30
0.0
 10
4.7920826256
 20
5.0383359983
 30
0.0
 10
4.7911540889
 20
5.0382065138
 30
0.0
 10
4.7903932622
 20
5.0380777617
 30
0.0
 10
4.7899439619
 20
5.0379816552
 30
0.0
 10
4.7897484218
 20
5.0379309618
 30
0.0
  0
SPLINE
  5
37B
100
AcDbEntity
  8
0
100
AcDbSpline
 62
7
  6
CONTINUOUS
 70
0
 71
3
 72
63
 73
59
 74
0
 42
0.0000001
 43
0.0000001
 44
0.0000000001
 40
0.0
 40
0.0
 40
0.0
 40
0.0
 40
0.0001173577
 40
0.0001890682
 40
0.0002732342
 40
0.0004849629
 40
0.0007603693
 40
0.0011026616
 40
0.0015134549
 40
0.0019936488
 40
0.0025437811
 40
0.0038550303
 40
0.0054486605
 40
0.0073246408
 40
0.0094823972
 40
0.0146398611
 40
0.0209118993
 40
0.0282845072
 40
0.0367420937
 40
0.0462650901
 40
0.0568321988
 40
0.0684193222
 40
0.0809997447
 40
0.0945451387
 40
0.1090238527
 40
0.1406475405
 40
0.1755806038
 40
0.2135021171
 40
0.2540637429
 40
0.2968927927
 40
0.3415956336
 40
0.387761516
 40
0.4349659933
 40
0.4827752197
 40
0.5307496974
 40
0.5784484576
 40
0.6254331066
 40
0.6712717579
 40
0.715543066
 40
0.7578401419
 40
0.7977742293
 40
0.8349784867
 40
0.8691111445
 40
0.8998587847
 40
0.9269392984
 40
0.9390252628
 40
0.9501044607
 40
0.9601509904
 40
0.9691426722
 40
0.9770586057
 40
0.9838814981
 40
0.9895964341
 40
0.9920345087
 40
0.9941916119
 40
0.9960669313
 40
0.9976598773
 40
0.9989704465
 40
1.0
 40
1.0
 40
1.0
 40
1.0
 10
5.3777879543
 20
5.0892118013
 30
0.0
 10
5.3777879629
 20
5.0891887793
 30
0.0
 10
5.3777739738
 20
5.0891516552
 30
0.0
 10
5.3777395076
 20
5.0891106212
 30
0.0
 10
5.3776848195
 20
5.0890631181
 30
0.0
 10
5.3775875092
 20
5.0890061939
 30
0.0
 10
5.377437921
 20
5.0889418126
 30
0.0
 10
5.3772466045
 20
5.0888771827
 30
0.0
 10
5.3770134771
 20
5.0888122625
 30
0.0
 10
5.3767383144
 20
5.0887471518
 30
0.0
 10
5.3762883294
 20
5.0886546614
 30
0.0
 10
5.3756198341
 20
5.0885418364
 30
0.0
 10
5.3746909034
 20
5.0884122814
 30
0.0
 10
5.3735946093
 20
5.088282259
 30
0.0
 10
5.3718010526
 20
5.0880972326
 30
0.0
 10
5.3691450145
 20
5.087871841
 30
0.0
 10
5.3654656593
 20
5.0876129565
 30
0.0
 10
5.3611376214
 20
5.0873530973
 30
0.0
 10
5.3561709155
 20
5.0870924878
 30
0.0
 10
5.350576813
 20
5.0868313848
 30
0.0
 10
5.3443682134
 20
5.0865699387
 30
0.0
 10
5.3375593713
 20
5.0863082413
 30
0.0
 10
5.3301658955
 20
5.0860463431
 30
0.0
 10
5.3222048561
 20
5.0857843029
 30
0.0
 10
5.3105093566
 20
5.0854240655
 30
0.0
 10
5.2946189478
 20
5.0849782135
 30
0.0
 10
5.2741301882
 20
5.0844567136
 30
0.0
 10
5.2518875788
 20
5.0839345936
 30
0.0
 10
5.2280956396
 20
5.0834119846
 30
0.0
 10
5.2029731207
 20
5.0828890388
 30
0.0
 10
5.1767509999
 20
5.0823658477
 30
0.0
 10
5.1496703955
 20
5.0818424865
 30
0.0
 10
5.1219803067
 20
5.0813190133
 30
0.0
 10
5.0939353667
 20
5.0807954783
 30
0.0
 10
5.0657934475
 20
5.0802719265
 30
0.0
 10
5.037813312
 20
5.0797484025
 30
0.0
 10
5.0102522318
 20
5.0792249522
 30
0.0
 10
4.9833636319
 20
5.0787016277
 30
0.0
 10
4.957394763
 20
5.078178491
 30
0.0
 10
4.932584424
 20
5.077655619
 30
0.0
 10
4.9091607348
 20
5.0771331199
 30
0.0
 10
4.8873390617
 20
5.0766111273
 30
0.0
 10
4.8673200161
 20
5.076089897
 30
0.0
 10
4.8492876474
 20
5.0755696284
 30
0.0
 10
4.83557992
 20
5.075122185
 30
0.0
 10
4.8257299562
 20
5.0747591818
 30
0.0
 10
4.8192200962
 20
5.0744975963
 30
0.0
 10
4.813317759
 20
5.074236302
 30
0.0
 10
4.8080366076
 20
5.0739754276
 30
0.0
 10
4.8033886537
 20
5.0737151678
 30
0.0
 10
4.7993846088
 20
5.0734556816
 30
0.0
 10
4.7964553153
 20
5.0732304532
 30
0.0
 10
4.7944411493
 20
5.0730464061
 30
0.0
 10
4.7931785131
 20
5.0729160248
 30
0.0
 10
4.7920826325
 20
5.0727859938
 30
0.0
 10
4.7911540411
 20
5.072656527
 30
0.0
 10
4.7903932321
 20
5.0725277708
 30
0.0
 10
4.7899439903
 20
5.0724316546
 30
0.0
 10
4.7897484893
 20
5.0723809617
 30
0.0
  0
SPLINE
  5
37C
100
AcDbEntity
  8
0
100
AcDbSpline
 62
7
  6
CONTINUOUS
 70
0
 71
3
 72
63
 73
59
 74
0
 42
0.0000001
 43
0.0000001
 44
0.0000000001
 40
0.0
 40
0.0
 40
0.0
 40
0.0
 40
0.0001173492
 40
0.0001890304
 40
0.0002731518
 40
0.0004847725
 40
0.0007601007
 40
0.0011023933
 40
0.0015132508
 40
0.0019935417
 40
0.0025437712
 40
0.0038550833
 40
0.0054485028
 40
0.0073243562
 40
0.0094822561
 40
0.014639868
 40
0.020911656
 40
0.0282845691
 40
0.0367418212
 40
0.0462650729
 40
0.0568320453
 40
0.0684192019
 40
0.0809997323
 40
0.0945449041
 40
0.1090238711
 40
0.1406475253
 40
0.1755804638
 40
0.2135019209
 40
0.2540635504
 40
0.296892626
 40
0.341595573
 40
0.3877614137
 40
0.4349658877
 40
0.4827750877
 40
0.5307495503
 40
0.5784483827
 40
0.6254329971
 40
0.6712716315
 40
0.7155428724
 40
0.7578399161
 40
0.7977740803
 40
0.8349783972
 40
0.8691111365
 40
0.8998587557
 40
0.9269391242
 40
0.9390251869
 40
0.9501041799
 40
0.9601510033
 40
0.9691423621
 40
0.977058576
 40
0.9838812832
 40
0.9895962727
 40
0.9920345309
 40
0.9941915345
 40
0.9960666549
 40
0.9976595665
 40
0.9989703573
 40
1.0
 40
1.0
 40
1.0
 40
1.0
 10
5.377787848
 20
5.1236618013
 30
0.0
 10
5.3777878533
 20
5.123638781
 30
0.0
 10
5.377773882
 20
5.1236016644
 30
0.0
 10
5.3777394488
 20
5.1235606226
 30
0.0
 10
5.3776848101
 20
5.1235131171
 30
0.0
 10
5.377587555
 20
5.1234561854
 30
0.0
 10
5.3774380063
 20
5.1233918031
 30
0.0
 10
5.3772466906
 20
5.1233271779
 30
0.0
 10
5.3770135294
 20
5.1232622609
 30
0.0
 10
5.376738314
 20
5.1231971525
 30
0.0
 10
5.3762882763
 20
5.1231046688
 30
0.0
 10
5.3756197905
 20
5.122991849
 30
0.0
 10
5.3746909169
 20
5.1228622751
 30
0.0
 10
5.3735946611
 20
5.1227322499
 30
0.0
 10
5.3718010701
 20
5.1225472403
 30
0.0
 10
5.3691450239
 20
5.1223218507
 30
0.0
 10
5.3654656302
 20
5.1220629403
 30
0.0
 10
5.361137645
 20
5.1218031142
 30
0.0
 10
5.3561708962
 20
5.1215424732
 30
0.0
 10
5.3505768345
 20
5.1212813944
 30
0.0
 10
5.3443682053
 20
5.1210199343
 30
0.0
 10
5.3375593616
 20
5.1207582405
 30
0.0
 10
5.3301659012
 20
5.1204963474
 30
0.0
 10
5.3222048345
 20
5.1202342968
 30
0.0
 10
5.3105093346
 20
5.1198740726
 30
0.0
 10
5.2946189067
 20
5.1194282117
 30
0.0
 10
5.274130188
 20
5.1189067138
 30
0.0
 10
5.2518876122
 20
5.118384593
 30
0.0
 10
5.2280956769
 20
5.1178619841
 30
0.0
 10
5.2029731301
 20
5.1173390387
 30
0.0
 10
5.1767509902
 20
5.116815848
 30
0.0
 10
5.1496703724
 20
5.1162924866
 30
0.0
 10
5.1219802961
 20
5.1157690132
 30
0.0
 10
5.0939353634
 20
5.115245478
 30
0.0
 10
5.0657934366
 20
5.1147219263
 30
0.0
 10
5.0378132953
 20
5.1141984025
 30
0.0
 10
5.0102522095
 20
5.1136749524
 30
0.0
 10
4.9833636314
 20
5.1131516277
 30
0.0
 10
4.957394784
 20
5.1126284905
 30
0.0
 10
4.9325844481
 20
5.1121056183
 30
0.0
 10
4.9091607373
 20
5.1115831193
 30
0.0
 10
4.8873390202
 20
5.1110611273
 30
0.0
 10
4.86731995
 20
5.1105398967
 30
0.0
 10
4.8492875968
 20
5.1100196314
 30
0.0
 10
4.8355798824
 20
5.1095721789
 30
0.0
 10
4.8257299671
 20
5.1092091878
 30
0.0
 10
4.8192200706
 20
5.1089475849
 30
0.0
 10
4.813317778
 20
5.1086863157
 30
0.0
 10
4.8080365784
 20
5.1084254131
 30
0.0
 10
4.8033886675
 20
5.1081651792
 30
0.0
 10
4.7993845941
 20
5.1079056781
 30
0.0
 10
4.7964552911
 20
5.1076804413
 30
0.0
 10
4.794441096
 20
5.1074964149
 30
0.0
 10
4.7931784827
 20
5.1073660289
 30
0.0
 10
4.7920826688
 20
5.1072359896
 30
0.0
 10
4.7911540813
 20
5.1071065123
 30
0.0
 10
4.7903932149
 20
5.1069777739
 30
0.0
 10
4.7899439088
 20
5.106881663
 30
0.0
 10
4.789748392
 20
5.1068309617
 30
0.0
  0
SPLINE
  5
37D
100
AcDbEntity
  8
0
100
AcDbSpline
 62
7
  6
CONTINUOUS
 70
0
 71
3
 72
63
 73
59
 74
0
 42
0.0000001
 43
0.0000001
 44
0.0000000001
 40
0.0
 40
0.0
 40
0.0
 40
0.0
 40
0.0009741777
 40
0.0022304304
 40
0.0037699167
 40
0.0055928936
 40
0.0076991165
 40
0.0100876374
 40
0.0157064777
 40
0.0224383673
 40
0.0302682005
 40
0.0391786082
 40
0.0491493549
 40
0.0601575208
 40
0.072178189
 40
0.0991435647
 40
0.1297975939
 40
0.1638580897
 40
0.2010113075
 40
0.2409148904
 40
0.2832010551
 40
0.3274799984
 40
0.3733434962
 40
0.4203686963
 40
0.4681220293
 40
0.5161632106
 40
0.5640493016
 40
0.6113387964
 40
0.6575956939
 40
0.7023935217
 40
0.7453192715
 40
0.7859772151
 40
0.8239925792
 40
0.8590150314
 40
0.875301942
 40
0.8907219332
 40
0.9052396315
 40
0.9188213387
 40
0.9314362233
 40
0.9430547904
 40
0.9536509439
 40
0.9631998829
 40
0.9716803426
 40
0.9790727664
 40
0.9853609243
 40
0.9905312168
 40
0.9926937641
 40
0.9945734771
 40
0.9961698111
 40
0.9974825962
 40
0.9980329098
 40
0.9985128437
 40
0.9989228757
 40
0.9992638069
 40
0.9995370834
 40
0.9996492344
 40
0.9997458083
 40
1.0
 40
1.0
 40
1.0
 40
1.0
 10
5.3974263462
 20
4.5561559124
 30
0.0
 10
5.3972285542
 20
4.5561046528
 30
0.0
 10
5.3967704001
 20
4.5560081324
 30
0.0
 10
5.3959901597
 20
4.5558794225
 30
0.0
 10
5.3950299917
 20
4.5557499042
 30
0.0
 10
5.3938903395
 20
4.5556197559
 30
0.0
 10
5.3925716475
 20
4.555489248
 30
0.0
 10
5.3904584058
 20
4.555304756
 30
0.0
 10
5.3873750729
 20
4.5550791292
 30
0.0
 10
5.3831502821
 20
4.554819377
 30
0.0
 10
5.378234038
 20
4.5545588026
 30
0.0
 10
5.3726376827
 20
4.554297574
 30
0.0
 10
5.3663740716
 20
4.5540359384
 30
0.0
 10
5.3594576112
 20
4.553773967
 30
0.0
 10
5.3489780076
 20
4.5534103084
 30
0.0
 10
5.3343783661
 20
4.5529621227
 30
0.0
 10
5.3151562519
 20
4.5524411389
 30
0.0
 10
5.2937966401
 20
4.5519191689
 30
0.0
 10
5.2704965014
 20
4.5513964231
 30
0.0
 10
5.2454707028
 20
4.5508731612
 30
0.0
 10
5.2189500408
 20
4.5503495198
 30
0.0
 10
5.1911791071
 20
4.549825609
 30
0.0
 10
5.1624140315
 20
4.5493015073
 30
0.0
 10
5.1329201147
 20
4.5487772775
 30
0.0
 10
5.1029693765
 20
4.5482529722
 30
0.0
 10
5.0728380462
 20
4.5477286379
 30
0.0
 10
5.0428040168
 20
4.5472043191
 30
0.0
 10
5.0131442833
 20
4.5466800615
 30
0.0
 10
4.9841323899
 20
4.5461559152
 30
0.0
 10
4.956035908
 20
4.54563194
 30
0.0
 10
4.9291139702
 20
4.5451082068
 30
0.0
 10
4.9036148756
 20
4.5445848228
 30
0.0
 10
4.8797737975
 20
4.5440618864
 30
0.0
 10
4.8610439053
 20
4.5436165824
 30
0.0
 10
4.8470525433
 20
4.5432575377
 30
0.0
 10
4.8373608466
 20
4.5429948848
 30
0.0
 10
4.8282367625
 20
4.5427323385
 30
0.0
 10
4.8197012833
 20
4.5424698959
 30
0.0
 10
4.8117741763
 20
4.5422076175
 30
0.0
 10
4.8044736288
 20
4.541945512
 30
0.0
 10
4.7978165791
 20
4.5416836819
 30
0.0
 10
4.7918182654
 20
4.5414221855
 30
0.0
 10
4.7864925973
 20
4.5411611789
 30
0.0
 10
4.7818517226
 20
4.5409009451
 30
0.0
 10
4.7779063502
 20
4.5406416497
 30
0.0
 10
4.7750582045
 20
4.540415951
 30
0.0
 10
4.7731348045
 20
4.5402306395
 30
0.0
 10
4.7719592828
 20
4.5401004275
 30
0.0
 10
4.7709632159
 20
4.5399706853
 30
0.0
 10
4.7702463021
 20
4.5398576889
 30
0.0
 10
4.7697636402
 20
4.5397650343
 30
0.0
 10
4.7694686139
 20
4.5396998067
 30
0.0
 10
4.7692187059
 20
4.5396348643
 30
0.0
 10
4.7690136388
 20
4.5395700033
 30
0.0
 10
4.7688722307
 20
4.5395135791
 30
0.0
 10
4.7687819553
 20
4.5394664208
 30
0.0
 10
4.7687016853
 20
4.5394160599
 30
0.0
 10
4.7686379638
 20
4.5393529838
 30
0.0
 10
4.7686379638
 20
4.5392996691
 30
0.0
  0
SPLINE
  5
37E
100
AcDbEntity
  8
0
100
AcDbSpline
 62
7
  6
CONTINUOUS
 70
0
 71
3
 72
63
 73
59
 74
0
 42
0.0000001
 43
0.0000001
 44
0.0000000001
 40
0.0
 40
0.0
 40
0.0
 40
0.0
 40
0.001029764
 40
0.0023404593
 40
0.0039332284
 40
0.005808347
 40
0.0079655461
 40
0.0104038322
 40
0.0161185689
 40
0.0229415374
 40
0.0308575702
 40
0.0398490225
 40
0.0498958487
 40
0.0609747161
 40
0.0730609767
 40
0.1001413572
 40
0.1308889013
 40
0.1650215347
 40
0.202225864
 40
0.2421600489
 40
0.2844571624
 40
0.3287284368
 40
0.3745670331
 40
0.4215516696
 40
0.469250426
 40
0.5172249637
 40
0.5650341435
 40
0.6122386187
 40
0.6584044441
 40
0.7031073222
 40
0.7459364475
 40
0.7864981189
 40
0.8244196574
 40
0.8593525894
 40
0.8909761776
 40
0.9054551544
 40
0.9190002342
 40
0.9315809469
 40
0.9431678648
 40
0.9537350607
 40
0.9632581038
 40
0.9717154869
 40
0.9790884065
 40
0.9853600968
 40
0.9905179006
 40
0.9926756215
 40
0.9945513847
 40
0.9961449201
 40
0.9974563715
 40
0.9980066209
 40
0.9984868682
 40
0.9988976268
 40
0.9992398295
 40
0.9995151309
 40
0.9997267779
 40
0.9998109222
 40
0.9998826265
 40
1.0
 40
1.0
 40
1.0
 40
1.0
 10
5.3770275231
 20
4.5508676406
 30
0.0
 10
5.37683198
 20
4.5508169459
 30
0.0
 10
5.3763826684
 20
4.5507208403
 30
0.0
 10
5.3756218273
 20
4.5505920895
 30
0.0
 10
5.3746932881
 20
4.5504626062
 30
0.0
 10
5.373597464
 20
4.5503325661
 30
0.0
 10
5.3723348058
 20
4.5502021939
 30
0.0
 10
5.3703206169
 20
4.5500181654
 30
0.0
 10
5.3673913083
 20
4.5497929087
 30
0.0
 10
5.363387267
 20
4.5495334365
 30
0.0
 10
5.3587393236
 20
4.5492731807
 30
0.0
 10
5.3534581403
 20
4.5490122893
 30
0.0
 10
5.3475558538
 20
4.5487510186
 30
0.0
 10
5.3410459432
 20
4.5484894096
 30
0.0
 10
5.3311960114
 20
4.5481264288
 30
0.0
 10
5.3174882715
 20
4.5476789697
 30
0.0
 10
5.2994559524
 20
4.547158706
 30
0.0
 10
5.2794369163
 20
4.5466374739
 30
0.0
 10
5.2576152146
 20
4.5461154826
 30
0.0
 10
5.2341914847
 20
4.5455929838
 30
0.0
 10
5.2093811258
 20
4.5450701119
 30
0.0
 10
5.1834122668
 20
4.5445469748
 30
0.0
 10
5.1565236867
 20
4.54402365
 30
0.0
 10
5.1289626204
 20
4.5435001997
 30
0.0
 10
5.1009824763
 20
4.5429766757
 30
0.0
 10
5.072840555
 20
4.5424531244
 30
0.0
 10
5.0447956128
 20
4.5419295892
 30
0.0
 10
5.0171055446
 20
4.5414061158
 30
0.0
 10
4.9900249444
 20
4.5408827544
 30
0.0
 10
4.9638028126
 20
4.5403595632
 30
0.0
 10
4.9386802626
 20
4.5398366178
 30
0.0
 10
4.9148882946
 20
4.5393140093
 30
0.0
 10
4.892645697
 20
4.5387918889
 30
0.0
 10
4.8721569776
 20
4.5382703918
 30
0.0
 10
4.8562665629
 20
4.5378245281
 30
0.0
 10
4.8445710925
 20
4.5374643078
 30
0.0
 10
4.8366100068
 20
4.53720225
 30
0.0
 10
4.8292165754
 20
4.5369403694
 30
0.0
 10
4.8224077
 20
4.5366786591
 30
0.0
 10
4.8161991143
 20
4.536417217
 30
0.0
 10
4.810605025
 20
4.5361561227
 30
0.0
 10
4.80563829
 20
4.5358954896
 30
0.0
 10
4.8013102968
 20
4.5356356677
 30
0.0
 10
4.7976308851
 20
4.5353767378
 30
0.0
 10
4.794974853
 20
4.5351513786
 30
0.0
 10
4.793181279
 20
4.534966351
 30
0.0
 10
4.7920850545
 20
4.5348363189
 30
0.0
 10
4.7911561476
 20
4.5347067505
 30
0.0
 10
4.7904876061
 20
4.5345939369
 30
0.0
 10
4.7900375451
 20
4.5345014538
 30
0.0
 10
4.789762354
 20
4.5344363465
 30
0.0
 10
4.7895292409
 20
4.5343714256
 30
0.0
 10
4.7893379723
 20
4.5343067938
 30
0.0
 10
4.7891884437
 20
4.5342424097
 30
0.0
 10
4.7890911836
 20
4.5341854809
 30
0.0
 10
4.7890365233
 20
4.5341379789
 30
0.0
 10
4.7890020664
 20
4.5340969403
 30
0.0
 10
4.788988065
 20
4.5340598263
 30
0.0
 10
4.7889880542
 20
4.5340368013
 30
0.0
  0
SPLINE
  5
37F
100
AcDbEntity
  8
0
100
AcDbSpline
 62
7
  6
CONTINUOUS
 70
0
 71
3
 72
63
 73
59
 74
0
 42
0.0000001
 43
0.0000001
 44
0.0000000001
 40
0.0
 40
0.0
 40
0.0
 40
0.0
 40
0.0001173722
 40
0.000189081
 40
0.0002732352
 40
0.0004849145
 40
0.0007602539
 40
0.0011024851
 40
0.0015132474
 40
0.0019934642
 40
0.0025436892
 40
0.0038551512
 40
0.0054487234
 40
0.0073244857
 40
0.0094821047
 40
0.0146398198
 40
0.02091155
 40
0.0282843327
 40
0.0367417857
 40
0.0462646858
 40
0.0568319086
 40
0.0684187716
 40
0.0809994507
 40
0.0945445771
 40
0.1090234315
 40
0.1406469654
 40
0.1755799369
 40
0.2135014425
 40
0.2540631429
 40
0.2968922126
 40
0.3415950851
 40
0.3877609322
 40
0.4349653942
 40
0.4827746519
 40
0.5307491744
 40
0.578447976
 40
0.625432638
 40
0.6712712785
 40
0.7155426191
 40
0.7578397876
 40
0.7977739955
 40
0.834978337
 40
0.8691109666
 40
0.8998585671
 40
0.9269390093
 40
0.939025245
 40
0.9501041882
 40
0.9601509497
 40
0.9691425306
 40
0.9770584598
 40
0.9838815079
 40
0.9895962069
 40
0.9920344489
 40
0.9941916848
 40
0.9960668923
 40
0.9976596414
 40
0.9989702709
 40
1.0
 40
1.0
 40
1.0
 40
1.0
 10
5.3777879965
 20
5.158111801
 30
0.0
 10
5.3777879932
 20
5.1580887763
 30
0.0
 10
5.3777739934
 20
5.1580516575
 30
0.0
 10
5.3777395309
 20
5.1580106205
 30
0.0
 10
5.3776848582
 20
5.1579631187
 30
0.0
 10
5.377587578
 20
5.1579061931
 30
0.0
 10
5.3774380269
 20
5.1578418127
 30
0.0
 10
5.3772467425
 20
5.1577771848
 30
0.0
 10
5.3770136283
 20
5.1577122672
 30
0.0
 10
5.3767384477
 20
5.1576471593
 30
0.0
 10
5.3762883952
 20
5.1575546772
 30
0.0
 10
5.3756198483
 20
5.1574418672
 30
0.0
 10
5.3746909319
 20
5.1573123004
 30
0.0
 10
5.3735947203
 20
5.1571822685
 30
0.0
 10
5.3718011851
 20
5.1569972295
 30
0.0
 10
5.3691451819
 20
5.1567718721
 30
0.0
 10
5.3654658057
 20
5.1565129503
 30
0.0
 10
5.3611378178
 20
5.1562531185
 30
0.0
 10
5.3561711228
 20
5.1559924956
 30
0.0
 10
5.3505770422
 20
5.1557313918
 30
0.0
 10
5.3443684889
 20
5.1554699556
 30
0.0
 10
5.3375596247
 20
5.1552082427
 30
0.0
 10
5.3301662005
 20
5.1549463613
 30
0.0
 10
5.3222051351
 20
5.1546843061
 30
0.0
 10
5.3105096887
 20
5.1543240813
 30
0.0
 10
5.2946192985
 20
5.15387822
 30
0.0
 10
5.2741305855
 20
5.153356722
 30
0.0
 10
5.2518879778
 20
5.1528346015
 30
0.0
 10
5.228096018
 20
5.1523119927
 30
0.0
 10
5.2029734708
 20
5.1517890465
 30
0.0
 10
5.1767513429
 20
5.1512658551
 30
0.0
 10
5.1496707384
 20
5.1507424932
 30
0.0
 10
5.1219806493
 20
5.1502190195
 30
0.0
 10
5.0939356933
 20
5.1496954842
 30
0.0
 10
5.0657937468
 20
5.1491719323
 30
0.0
 10
5.0378135879
 20
5.1486484079
 30
0.0
 10
5.010252495
 20
5.1481249572
 30
0.0
 10
4.9833638844
 20
5.1476016321
 30
0.0
 10
4.9573949893
 20
5.1470784946
 30
0.0
 10
4.9325845985
 20
5.1465556225
 30
0.0
 10
4.9091608476
 20
5.1460331235
 30
0.0
 10
4.8873391366
 20
5.1455111312
 30
0.0
 10
4.867320085
 20
5.144989899
 30
0.0
 10
4.8492877409
 20
5.1444696338
 30
0.0
 10
4.8355799806
 20
5.1440221772
 30
0.0
 10
4.8257300254
 20
5.1436591926
 30
0.0
 10
4.8192201164
 20
5.1433975885
 30
0.0
 10
4.813317802
 20
5.1431363093
 30
0.0
 10
4.8080366253
 20
5.142875428
 30
0.0
 10
4.8033886612
 20
5.142615162
 30
0.0
 10
4.799384631
 20
5.1423556975
 30
0.0
 10
4.7964553225
 20
5.1421304394
 30
0.0
 10
4.7944411425
 20
5.1419464064
 30
0.0
 10
4.7931784682
 20
5.1418160332
 30
0.0
 10
4.7920826222
 20
5.1416860005
 30
0.0
 10
4.7911540825
 20
5.1415565153
 30
0.0
 10
4.7903932656
 20
5.1414277618
 30
0.0
 10
4.7899439746
 20
5.1413316545
 30
0.0
 10
4.789748438
 20
5.1412809618
 30
0.0
  0
SPLINE
  5
380
100
AcDbEntity
  8
0
100
AcDbSpline
 62
7
  6
CONTINUOUS
 70
0
 71
3
 72
25
 73
21
 74
0
 42
0.0000001
 43
0.0000001
 44
0.0000000001
 40
0.0
 40
0.0
 40
0.0
 40
0.0
 40
0.0624805428
 40
0.1249946975
 40
0.187480018
 40
0.2499756719
 40
0.2812488296
 40
0.3125214672
 40
0.3750140907
 40
0.4375071068
 40
0.4999999958
 40
0.5624928804
 40
0.6249859003
 40
0.6874785198
 40
0.7187511519
 40
0.7500243215
 40
0.8125200153
 40
0.8750050782
 40
0.9375192237
 40
1.0
 40
1.0
 40
1.0
 40
1.0
 10
4.9916691848
 20
3.0340422103
 30
0.0
 10
4.992502596
 20
3.0333403663
 30
0.0
 10
4.9940591229
 20
3.0317985169
 30
0.0
 10
4.9959893532
 20
3.0291427216
 30
0.0
 10
4.9974646318
 20
3.0262088093
 30
0.0
 10
4.9982816949
 20
3.0235955795
 30
0.0
 10
4.9986727472
 20
3.0214482402
 30
0.0
 10
4.9988873615
 20
3.0192762304
 30
0.0
 10
4.9988197455
 20
3.0165388084
 30
0.0
 10
4.9982022279
 20
3.0133135766
 30
0.0
 10
4.9970641143
 20
3.0102328207
 30
0.0
 10
4.9954356839
 20
3.0073807032
 30
0.0
 10
4.9933619454
 20
3.0048345185
 30
0.0
 10
4.9913084217
 20
3.0030231404
 30
0.0
 10
4.9895066145
 20
3.001791403
 30
0.0
 10
4.9876102925
 20
3.0007106834
 30
0.0
 10
4.985083247
 20
2.9996568423
 30
0.0
 10
4.9818874546
 20
2.9989010811
 30
0.0
 10
4.9786122692
 20
2.9986726197
 30
0.0
 10
4.9764306237
 20
2.998873901
 30
0.0
 10
4.9753572695
 20
2.9990611952
 30
0.0
  0
SPLINE
  5
381
100
AcDbEntity
  8
0
100
AcDbSpline
 62
7
  6
CONTINUOUS
 70
0
 71
3
 72
51
 73
47
 74
0
 42
0.0000001
 43
0.0000001
 44
0.0000000001
 40
0.0
 40
0.0
 40
0.0
 40
0.0
 40
0.0001010003
 40
0.0002319079
 40
0.0004079587
 40
0.0006354676
 40
0.0009172906
 40
0.0012548905
 40
0.0016490943
 40
0.0021004051
 40
0.0031754745
 40
0.0044816066
 40
0.0060190707
 40
0.0077876387
 40
0.0097868792
 40
0.0120162429
 40
0.0171622685
 40
0.0232170046
 40
0.0301703162
 40
0.0380103312
 40
0.0467227231
 40
0.0562925732
 40
0.0667024453
 40
0.0779337139
 40
0.0899666054
 40
0.1163484808
 40
0.1456588388
 40
0.1776872156
 40
0.2122033622
 40
0.2489590277
 40
0.2876899297
 40
0.3281176411
 40
0.3699514441
 40
0.4128903091
 40
0.4566254352
 40
0.5008422923
 40
0.5894476878
 40
0.6761617105
 40
0.7584940534
 40
0.8340802337
 40
0.8686561171
 40
0.9007502731
 40
0.9301319995
 40
0.9565903238
 40
0.9799354305
 40
1.0
 40
1.0
 40
1.0
 40
1.0
 10
5.3981379638
 20
4.8772489334
 30
0.0
 10
5.3981379638
 20
4.877228677
 30
0.0
 10
5.3981213691
 20
4.8771822712
 30
0.0
 10
5.3980619162
 20
4.8771242734
 30
0.0
 10
5.3979707442
 20
4.8770672043
 30
0.0
 10
5.3978453115
 20
4.8770102919
 30
0.0
 10
5.3976852784
 20
4.8769530438
 30
0.0
 10
5.3974901821
 20
4.8768956087
 30
0.0
 10
5.3972599528
 20
4.8768379923
 30
0.0
 10
5.3968835048
 20
4.8767561791
 30
0.0
 10
5.3963240904
 20
4.8766563549
 30
0.0
 10
5.3955465117
 20
4.876541734
 30
0.0
 10
5.3946286241
 20
4.8764267319
 30
0.0
 10
5.3935708469
 20
4.8763114098
 30
0.0
 10
5.3923736045
 20
4.8761958776
 30
0.0
 10
5.3905004276
 20
4.8760337808
 30
0.0
 10
5.3878141868
 20
4.8758347017
 30
0.0
 10
5.3841804758
 20
4.8756047346
 30
0.0
 10
5.3800055596
 20
4.8753742128
 30
0.0
 10
5.3752969466
 20
4.875143249
 30
0.0
 10
5.3700630185
 20
4.8749119657
 30
0.0
 10
5.3643132412
 20
4.8746804724
 30
0.0
 10
5.3580579171
 20
4.8744488027
 30
0.0
 10
5.3513083043
 20
4.8742169895
 30
0.0
 10
5.341356518
 20
4.8738979085
 30
0.0
 10
5.3277794393
 20
4.8735029324
 30
0.0
 10
5.3101924352
 20
4.873041459
 30
0.0
 10
5.2909735437
 20
4.8725794259
 30
0.0
 10
5.2702610531
 20
4.872116945
 30
0.0
 10
5.2482040142
 20
4.8716541471
 30
0.0
 10
5.2249611245
 20
4.87119111
 30
0.0
 10
5.2006995864
 20
4.870727896
 30
0.0
 10
5.1755939637
 20
4.8702645514
 30
0.0
 10
5.1498249059
 20
4.8698011116
 30
0.0
 10
5.1235778339
 20
4.8693376078
 30
0.0
 10
5.0881732979
 20
4.868719155
 30
0.0
 10
5.0441502563
 20
4.8679543698
 30
0.0
 10
4.9924843441
 20
4.8670378019
 30
0.0
 10
4.943429939
 20
4.8661225519
 30
0.0
 10
4.9048315899
 20
4.8653408187
 30
0.0
 10
4.8763080855
 20
4.8647051445
 30
0.0
 10
4.8570496974
 20
4.8642430688
 30
0.0
 10
4.839419839
 20
4.8637816083
 30
0.0
 10
4.8235452976
 20
4.8633210217
 30
0.0
 10
4.8095402319
 20
4.8628616298
 30
0.0
 10
4.800840289
 20
4.862531146
 30
0.0
 10
4.7968197503
 20
4.8623618053
 30
0.0
  0
SPLINE
  5
382
100
AcDbEntity
  8
0
100
AcDbSpline
 62
7
  6
CONTINUOUS
 70
0
 71
3
 72
55
 73
51
 74
0
 42
0.0000001
 43
0.0000001
 44
0.0000000001
 40
0.0
 40
0.0
 40
0.0
 40
0.0
 40
0.0001061984
 40
0.0001715451
 40
0.000248531
 40
0.0004428988
 40
0.0006963623
 40
0.0010117927
 40
0.0013906332
 40
0.001833689
 40
0.0023414439
 40
0.0035521139
 40
0.0050238927
 40
0.0067567628
 40
0.0087502949
 40
0.0135166605
 40
0.0193152431
 40
0.0261342288
 40
0.0339604884
 40
0.0427774145
 40
0.0525670275
 40
0.0633089032
 40
0.0749803118
 40
0.0875572738
 40
0.1010128682
 40
0.1304463453
 40
0.163033442
 40
0.1985002845
 40
0.2365487352
 40
0.2768588626
 40
0.3190916921
 40
0.3628920531
 40
0.4078914065
 40
0.4537112937
 40
0.4999662734
 40
0.5462672472
 40
0.6374522536
 40
0.7242045282
 40
0.7649996938
 40
0.8036116202
 40
0.8397156082
 40
0.8730080013
 40
0.9032090214
 40
0.930064949
 40
0.9533506229
 40
0.9728707019
 40
0.9811666577
 40
0.9884635711
 40
0.994745928
 40
1.0
 40
1.0
 40
1.0
 40
1.0
 10
5.3981379638
 20
4.9116989334
 30
0.0
 10
5.3981379638
 20
4.9116768693
 30
0.0
 10
5.3981241412
 20
4.9116412467
 30
0.0
 10
5.3980904782
 20
4.9116021304
 30
0.0
 10
5.398036904
 20
4.9115566536
 30
0.0
 10
5.3979416866
 20
4.9115022412
 30
0.0
 10
5.397795399
 20
4.911440679
 30
0.0
 10
5.3976082688
 20
4.9113788684
 30
0.0
 10
5.3973802172
 20
4.9113167651
 30
0.0
 10
5.3971110229
 20
4.9112544754
 30
0.0
 10
5.3966707089
 20
4.9111659767
 30
0.0
 10
5.3960165769
 20
4.9110580386
 30
0.0
 10
5.3951075868
 20
4.9109341052
 30
0.0
 10
5.3940347247
 20
4.9108097291
 30
0.0
 10
5.3922791003
 20
4.9106327246
 30
0.0
 10
5.3896786645
 20
4.9104171183
 30
0.0
 10
5.3860753738
 20
4.910169464
 30
0.0
 10
5.3818351321
 20
4.9099208785
 30
0.0
 10
5.3769669187
 20
4.9096715767
 30
0.0
 10
5.3714808304
 20
4.9094218041
 30
0.0
 10
5.3653884423
 20
4.9091717028
 30
0.0
 10
5.3587025574
 20
4.9089213602
 30
0.0
 10
5.3514372017
 20
4.9086708243
 30
0.0
 10
5.3436077322
 20
4.9084201535
 30
0.0
 10
5.3320891161
 20
4.9080753629
 30
0.0
 10
5.3164137694
 20
4.9076486143
 30
0.0
 10
5.2961656596
 20
4.9071496733
 30
0.0
 10
5.2741271981
 20
4.9066501347
 30
0.0
 10
5.2504838101
 20
4.9061501203
 30
0.0
 10
5.2254344151
 20
4.9056497757
 30
0.0
 10
5.1991897671
 20
4.9051491859
 30
0.0
 10
5.1719707068
 20
4.9046484208
 30
0.0
 10
5.1440062701
 20
4.9041475328
 30
0.0
 10
5.1155317769
 20
4.9036465654
 30
0.0
 10
5.0867868151
 20
4.9031455614
 30
0.0
 10
5.0486180973
 20
4.9024809473
 30
0.0
 10
5.0020369849
 20
4.9016610055
 30
0.0
 10
4.9566002883
 20
4.9008220471
 30
0.0
 10
4.9220852993
 20
4.9001408247
 30
0.0
 10
4.8980916196
 20
4.8996407112
 30
0.0
 10
4.8756570846
 20
4.8991410405
 30
0.0
 10
4.8549704708
 20
4.8986419699
 30
0.0
 10
4.8362058467
 20
4.8981437163
 30
0.0
 10
4.8195210062
 20
4.8976468157
 30
0.0
 10
4.8050563406
 20
4.8971515622
 30
0.0
 10
4.79444788
 20
4.8967217518
 30
0.0
 10
4.7871611886
 20
4.8963696302
 30
0.0
 10
4.7826231132
 20
4.8961206304
 30
0.0
 10
4.7787180787
 20
4.8958724493
 30
0.0
 10
4.7763279355
 20
4.8956919229
 30
0.0
 10
4.7752403036
 20
4.8955989334
 30
0.0
  0
LINE
  5
383
100
AcDbEntity
  8
0
100
AcDbLine
 62
7
  6
CONTINUOUS
 10
4.7752403036
 20
4.8955989334
 11
4.7693495612
 21
4.8948426901
  0
SPLINE
  5
384
100
AcDbEntity
  8
0
100
AcDbSpline
 62
7
  6
CONTINUOUS
 70
0
 71
3
 72
19
 73
15
 74
0
 42
0.0000001
 43
0.0000001
 44
0.0000000001
 40
0.0
 40
0.0
 40
0.0
 40
0.0
 40
0.0257927194
 40
0.0358395049
 40
0.0475630635
 40
0.0762581866
 40
0.1121765775
 40
0.1554557062
 40
0.2061684896
 40
0.2643552256
 40
0.4032294039
 40
0.5721682417
 40
0.771128639
 40
1.0
 40
1.0
 40
1.0
 40
1.0
 10
4.7686379638
 20
4.9182496691
 30
0.0
 10
4.7686379638
 20
4.918307876
 30
0.0
 10
4.7687122275
 20
4.9183748837
 30
0.0
 10
4.7688021954
 20
4.9184278322
 30
0.0
 10
4.7689053525
 20
4.9184782796
 30
0.0
 10
4.7690665393
 20
4.9185384833
 30
0.0
 10
4.7693002899
 20
4.9186077156
 30
0.0
 10
4.7695851719
 20
4.9186770253
 30
0.0
 10
4.7699215348
 20
4.9187466538
 30
0.0
 10
4.77047191
 20
4.9188455809
 30
0.0
 10
4.7712891882
 20
4.9189662287
 30
0.0
 10
4.7724244724
 20
4.919104767
 30
0.0
 10
4.7737640806
 20
4.919243789
 30
0.0
 10
4.7747256827
 20
4.9193306704
 30
0.0
 10
4.7752403036
 20
4.9193746691
 30
0.0
  0
SPLINE
  5
385
100
AcDbEntity
  8
0
100
AcDbSpline
 62
7
  6
CONTINUOUS
 70
0
 71
3
 72
63
 73
59
 74
0
 42
0.0000001
 43
0.0000001
 44
0.0000000001
 40
0.0
 40
0.0
 40
0.0
 40
0.0
 40
0.000254191
 40
0.000350766
 40
0.0004629182
 40
0.0007361972
 40
0.00107713
 40
0.0014871617
 40
0.0019670922
 40
0.0025173986
 40
0.0038301623
 40
0.0054264966
 40
0.0073062185
 40
0.0094687628
 40
0.0146389989
 40
0.0209271831
 40
0.0283195225
 40
0.0367999915
 40
0.046348859
 40
0.056944994
 40
0.0685635475
 40
0.0811783316
 40
0.094760052
 40
0.1092776064
 40
0.1246976461
 40
0.1409844072
 40
0.1760067511
 40
0.2140220416
 40
0.2546798833
 40
0.2976054893
 40
0.3424031843
 40
0.3886599354
 40
0.4359493039
 40
0.4838353195
 40
0.5318764102
 40
0.5796297186
 40
0.6266548423
 40
0.6725182885
 40
0.716797192
 40
0.7590833542
 40
0.7989870152
 40
0.8361403681
 40
0.870201037
 40
0.9008552802
 40
0.927820813
 40
0.9398413357
 40
0.9508497892
 40
0.9608205503
 40
0.9697310662
 40
0.9775611232
 40
0.98429294
 40
0.989912184
 40
0.9923005826
 40
0.9944067563
 40
0.9962299756
 40
0.9977697303
 40
0.9990259738
 40
1.0
 40
1.0
 40
1.0
 40
1.0
 10
5.3981379638
 20
4.9461489334
 30
0.0
 10
5.3981379638
 20
4.9460956188
 30
0.0
 10
5.3980742396
 20
4.9460325443
 30
0.0
 10
5.397993969
 20
4.9459821844
 30
0.0
 10
5.397903692
 20
4.9459350266
 30
0.0
 10
5.3977622827
 20
4.9458786029
 30
0.0
 10
5.3975572148
 20
4.9458137422
 30
0.0
 10
5.3973073073
 20
4.9457487998
 30
0.0
 10
5.3970122835
 20
4.945683572
 30
0.0
 10
5.3965296287
 20
4.9455909168
 30
0.0
 10
5.3958127216
 20
4.9454779175
 30
0.0
 10
5.3948166575
 20
4.9453481758
 30
0.0
 10
5.393641135
 20
4.9452179641
 30
0.0
 10
5.3917177461
 20
4.9450326539
 30
0.0
 10
5.3888696086
 20
4.9448069529
 30
0.0
 10
5.3849242611
 20
4.9445476647
 30
0.0
 10
5.3802833987
 20
4.9442874247
 30
0.0
 10
5.3749577629
 20
4.9440264234
 30
0.0
 10
5.3689594684
 20
4.9437649245
 30
0.0
 10
5.3623024427
 20
4.9435030962
 30
0.0
 10
5.3550019255
 20
4.9432409923
 30
0.0
 10
5.3470748425
 20
4.9429787114
 30
0.0
 10
5.3385394146
 20
4.9427162737
 30
0.0
 10
5.329415351
 20
4.942453723
 30
0.0
 10
5.3197237089
 20
4.9421910756
 30
0.0
 10
5.3057323958
 20
4.9418320267
 30
0.0
 10
5.2870025796
 20
4.9413867268
 30
0.0
 10
5.2631615693
 20
4.9408637908
 30
0.0
 10
5.2376625505
 20
4.9403404083
 30
0.0
 10
5.2107407013
 20
4.939816676
 30
0.0
 10
5.182644318
 20
4.9392927019
 30
0.0
 10
5.1536325197
 20
4.9387685566
 30
0.0
 10
5.1239728696
 20
4.9382443001
 30
0.0
 10
5.0939389119
 20
4.9377199824
 30
0.0
 10
5.063807632
 20
4.9371956492
 30
0.0
 10
5.0338569443
 20
4.9366713452
 30
0.0
 10
5.0043630697
 20
4.9361471165
 30
0.0
 10
4.9755980393
 20
4.9356230157
 30
0.0
 10
4.9478271349
 20
4.9350991059
 30
0.0
 10
4.9213064746
 20
4.9345754655
 30
0.0
 10
4.8962806405
 20
4.9340522047
 30
0.0
 10
4.8729804288
 20
4.9335294598
 30
0.0
 10
4.8516207148
 20
4.9330074919
 30
0.0
 10
4.8323984931
 20
4.9324865065
 30
0.0
 10
4.817798809
 20
4.9320383316
 30
0.0
 10
4.8073191467
 20
4.9316746592
 30
0.0
 10
4.8004026555
 20
4.9314126994
 30
0.0
 10
4.7941389606
 20
4.9311510596
 30
0.0
 10
4.7885425347
 20
4.9308898289
 30
0.0
 10
4.7836262369
 20
4.9306292693
 30
0.0
 10
4.7794013333
 20
4.9303694832
 30
0.0
 10
4.7763179549
 20
4.9301438932
 30
0.0
 10
4.7742046656
 20
4.9299593937
 30
0.0
 10
4.7728859595
 20
4.9298288826
 30
0.0
 10
4.7717462092
 20
4.9296987445
 30
0.0
 10
4.7707859337
 20
4.9295692381
 30
0.0
 10
4.7700056728
 20
4.9294405109
 30
0.0
 10
4.7695475603
 20
4.9293439563
 30
0.0
 10
4.769349803
 20
4.9292926899
 30
0.0
  0
SPLINE
  5
386
100
AcDbEntity
  8
0
100
AcDbSpline
 62
7
  6
CONTINUOUS
 70
0
 71
3
 72
63
 73
59
 74
0
 42
0.0000001
 43
0.0000001
 44
0.0000000001
 40
0.0
 40
0.0
 40
0.0
 40
0.0
 40
0.000254191
 40
0.000350766
 40
0.0004629182
 40
0.0007361972
 40
0.00107713
 40
0.0014871617
 40
0.0019670922
 40
0.0025173986
 40
0.0038301623
 40
0.0054264966
 40
0.0073062185
 40
0.0094687628
 40
0.0146389989
 40
0.0209271831
 40
0.0283195225
 40
0.0367999915
 40
0.046348859
 40
0.056944994
 40
0.0685635475
 40
0.0811783316
 40
0.094760052
 40
0.1092776064
 40
0.1246976461
 40
0.1409844072
 40
0.1760067511
 40
0.2140220416
 40
0.2546798833
 40
0.2976054893
 40
0.3424031843
 40
0.3886599354
 40
0.4359493039
 40
0.4838353195
 40
0.5318764102
 40
0.5796297186
 40
0.6266548423
 40
0.6725182885
 40
0.716797192
 40
0.7590833542
 40
0.7989870152
 40
0.8361403681
 40
0.870201037
 40
0.9008552802
 40
0.927820813
 40
0.9398413357
 40
0.9508497892
 40
0.9608205503
 40
0.9697310662
 40
0.9775611232
 40
0.98429294
 40
0.989912184
 40
0.9923005826
 40
0.9944067563
 40
0.9962299756
 40
0.9977697303
 40
0.9990259738
 40
1.0
 40
1.0
 40
1.0
 40
1.0
 10
5.3981379638
 20
4.9805989334
 30
0.0
 10
5.3981379638
 20
4.9805456188
 30
0.0
 10
5.3980742396
 20
4.9804825443
 30
0.0
 10
5.397993969
 20
4.9804321844
 30
0.0
 10
5.397903692
 20
4.9803850266
 30
0.0
 10
5.3977622827
 20
4.9803286029
 30
0.0
 10
5.3975572148
 20
4.9802637422
 30
0.0
 10
5.3973073073
 20
4.9801987998
 30
0.0
 10
5.3970122835
 20
4.980133572
 30
0.0
 10
5.3965296287
 20
4.9800409168
 30
0.0
 10
5.3958127216
 20
4.9799279175
 30
0.0
 10
5.3948166575
 20
4.9797981758
 30
0.0
 10
5.393641135
 20
4.9796679641
 30
0.0
 10
5.3917177461
 20
4.9794826539
 30
0.0
 10
5.3888696086
 20
4.9792569529
 30
0.0
 10
5.3849242611
 20
4.9789976647
 30
0.0
 10
5.3802833987
 20
4.9787374247
 30
0.0
 10
5.3749577629
 20
4.9784764234
 30
0.0
 10
5.3689594684
 20
4.9782149245
 30
0.0
 10
5.3623024427
 20
4.9779530962
 30
0.0
 10
5.3550019255
 20
4.9776909923
 30
0.0
 10
5.3470748425
 20
4.9774287114
 30
0.0
 10
5.3385394146
 20
4.9771662737
 30
0.0
 10
5.329415351
 20
4.976903723
 30
0.0
 10
5.3197237089
 20
4.9766410756
 30
0.0
 10
5.3057323958
 20
4.9762820267
 30
0.0
 10
5.2870025796
 20
4.9758367268
 30
0.0
 10
5.2631615693
 20
4.9753137908
 30
0.0
 10
5.2376625505
 20
4.9747904083
 30
0.0
 10
5.2107407013
 20
4.974266676
 30
0.0
 10
5.182644318
 20
4.9737427019
 30
0.0
 10
5.1536325197
 20
4.9732185566
 30
0.0
 10
5.1239728696
 20
4.9726943001
 30
0.0
 10
5.0939389119
 20
4.9721699824
 30
0.0
 10
5.063807632
 20
4.9716456492
 30
0.0
 10
5.0338569443
 20
4.9711213452
 30
0.0
 10
5.0043630697
 20
4.9705971165
 30
0.0
 10
4.9755980393
 20
4.9700730157
 30
0.0
 10
4.9478271349
 20
4.9695491059
 30
0.0
 10
4.9213064746
 20
4.9690254655
 30
0.0
 10
4.8962806405
 20
4.9685022047
 30
0.0
 10
4.8729804288
 20
4.9679794598
 30
0.0
 10
4.8516207148
 20
4.9674574919
 30
0.0
 10
4.8323984931
 20
4.9669365065
 30
0.0
 10
4.817798809
 20
4.9664883316
 30
0.0
 10
4.8073191467
 20
4.9661246592
 30
0.0
 10
4.8004026555
 20
4.9658626994
 30
0.0
 10
4.7941389606
 20
4.9656010596
 30
0.0
 10
4.7885425347
 20
4.9653398289
 30
0.0
 10
4.7836262369
 20
4.9650792693
 30
0.0
 10
4.7794013333
 20
4.9648194832
 30
0.0
 10
4.7763179549
 20
4.9645938932
 30
0.0
 10
4.7742046656
 20
4.9644093937
 30
0.0
 10
4.7728859595
 20
4.9642788826
 30
0.0
 10
4.7717462092
 20
4.9641487445
 30
0.0
 10
4.7707859337
 20
4.9640192381
 30
0.0
 10
4.7700056728
 20
4.9638905109
 30
0.0
 10
4.7695475603
 20
4.9637939563
 30
0.0
 10
4.769349803
 20
4.9637426899
 30
0.0
  0
SPLINE
  5
387
100
AcDbEntity
  8
0
100
AcDbSpline
 62
7
  6
CONTINUOUS
 70
0
 71
3
 72
63
 73
59
 74
0
 42
0.0000001
 43
0.0000001
 44
0.0000000001
 40
0.0
 40
0.0
 40
0.0
 40
0.0
 40
0.000254191
 40
0.000350766
 40
0.0004629182
 40
0.0007361972
 40
0.00107713
 40
0.0014871617
 40
0.0019670922
 40
0.0025173986
 40
0.0038301623
 40
0.0054264966
 40
0.0073062185
 40
0.0094687628
 40
0.0146389989
 40
0.0209271831
 40
0.0283195225
 40
0.0367999915
 40
0.046348859
 40
0.056944994
 40
0.0685635475
 40
0.0811783316
 40
0.094760052
 40
0.1092776064
 40
0.1246976461
 40
0.1409844072
 40
0.1760067511
 40
0.2140220416
 40
0.2546798833
 40
0.2976054893
 40
0.3424031843
 40
0.3886599354
 40
0.4359493039
 40
0.4838353195
 40
0.5318764102
 40
0.5796297186
 40
0.6266548423
 40
0.6725182885
 40
0.716797192
 40
0.7590833542
 40
0.7989870152
 40
0.8361403681
 40
0.870201037
 40
0.9008552802
 40
0.927820813
 40
0.9398413357
 40
0.9508497892
 40
0.9608205503
 40
0.9697310662
 40
0.9775611232
 40
0.98429294
 40
0.989912184
 40
0.9923005826
 40
0.9944067563
 40
0.9962299756
 40
0.9977697303
 40
0.9990259738
 40
1.0
 40
1.0
 40
1.0
 40
1.0
 10
5.3981379638
 20
5.0150489334
 30
0.0
 10
5.3981379638
 20
5.0149956188
 30
0.0
 10
5.3980742396
 20
5.0149325443
 30
0.0
 10
5.397993969
 20
5.0148821844
 30
0.0
 10
5.397903692
 20
5.0148350266
 30
0.0
 10
5.3977622827
 20
5.0147786029
 30
0.0
 10
5.3975572148
 20
5.0147137422
 30
0.0
 10
5.3973073073
 20
5.0146487998
 30
0.0
 10
5.3970122835
 20
5.014583572
 30
0.0
 10
5.3965296287
 20
5.0144909168
 30
0.0
 10
5.3958127216
 20
5.0143779175
 30
0.0
 10
5.3948166575
 20
5.0142481758
 30
0.0
 10
5.393641135
 20
5.0141179641
 30
0.0
 10
5.3917177461
 20
5.0139326539
 30
0.0
 10
5.3888696086
 20
5.0137069529
 30
0.0
 10
5.3849242611
 20
5.0134476647
 30
0.0
 10
5.3802833987
 20
5.0131874247
 30
0.0
 10
5.3749577629
 20
5.0129264234
 30
0.0
 10
5.3689594684
 20
5.0126649245
 30
0.0
 10
5.3623024427
 20
5.0124030962
 30
0.0
 10
5.3550019255
 20
5.0121409923
 30
0.0
 10
5.3470748425
 20
5.0118787114
 30
0.0
 10
5.3385394146
 20
5.0116162737
 30
0.0
 10
5.329415351
 20
5.011353723
 30
0.0
 10
5.3197237089
 20
5.0110910756
 30
0.0
 10
5.3057323958
 20
5.0107320267
 30
0.0
 10
5.2870025796
 20
5.0102867268
 30
0.0
 10
5.2631615693
 20
5.0097637908
 30
0.0
 10
5.2376625505
 20
5.0092404083
 30
0.0
 10
5.2107407013
 20
5.008716676
 30
0.0
 10
5.182644318
 20
5.0081927019
 30
0.0
 10
5.1536325197
 20
5.0076685566
 30
0.0
 10
5.1239728696
 20
5.0071443
 30
0.0
 10
5.0939389119
 20
5.0066199824
 30
0.0
 10
5.063807632
 20
5.0060956492
 30
0.0
 10
5.0338569443
 20
5.0055713452
 30
0.0
 10
5.0043630697
 20
5.0050471165
 30
0.0
 10
4.9755980393
 20
5.0045230157
 30
0.0
 10
4.9478271349
 20
5.0039991059
 30
0.0
 10
4.9213064746
 20
5.0034754655
 30
0.0
 10
4.8962806405
 20
5.0029522047
 30
0.0
 10
4.8729804288
 20
5.0024294598
 30
0.0
 10
4.8516207148
 20
5.0019074919
 30
0.0
 10
4.8323984931
 20
5.0013865065
 30
0.0
 10
4.817798809
 20
5.0009383316
 30
0.0
 10
4.8073191467
 20
5.0005746592
 30
0.0
 10
4.8004026555
 20
5.0003126994
 30
0.0
 10
4.7941389606
 20
5.0000510596
 30
0.0
 10
4.7885425347
 20
4.9997898289
 30
0.0
 10
4.7836262369
 20
4.9995292693
 30
0.0
 10
4.7794013333
 20
4.9992694832
 30
0.0
 10
4.7763179549
 20
4.9990438932
 30
0.0
 10
4.7742046656
 20
4.9988593937
 30
0.0
 10
4.7728859595
 20
4.9987288826
 30
0.0
 10
4.7717462092
 20
4.9985987445
 30
0.0
 10
4.7707859337
 20
4.9984692381
 30
0.0
 10
4.7700056728
 20
4.9983405109
 30
0.0
 10
4.7695475603
 20
4.9982439563
 30
0.0
 10
4.769349803
 20
4.9981926899
 30
0.0
  0
SPLINE
  5
388
100
AcDbEntity
  8
0
100
AcDbSpline
 62
7
  6
CONTINUOUS
 70
0
 71
3
 72
63
 73
59
 74
0
 42
0.0000001
 43
0.0000001
 44
0.0000000001
 40
0.0
 40
0.0
 40
0.0
 40
0.0
 40
0.000254191
 40
0.000350766
 40
0.0004629182
 40
0.0007361972
 40
0.00107713
 40
0.0014871617
 40
0.0019670922
 40
0.0025173986
 40
0.0038301623
 40
0.0054264966
 40
0.0073062185
 40
0.0094687628
 40
0.0146389989
 40
0.0209271831
 40
0.0283195225
 40
0.0367999915
 40
0.046348859
 40
0.056944994
 40
0.0685635475
 40
0.0811783316
 40
0.094760052
 40
0.1092776064
 40
0.1246976461
 40
0.1409844072
 40
0.1760067511
 40
0.2140220416
 40
0.2546798833
 40
0.2976054893
 40
0.3424031843
 40
0.3886599354
 40
0.4359493039
 40
0.4838353195
 40
0.5318764102
 40
0.5796297186
 40
0.6266548423
 40
0.6725182885
 40
0.716797192
 40
0.7590833542
 40
0.7989870152
 40
0.8361403681
 40
0.870201037
 40
0.9008552802
 40
0.927820813
 40
0.9398413357
 40
0.9508497892
 40
0.9608205503
 40
0.9697310662
 40
0.9775611232
 40
0.98429294
 40
0.989912184
 40
0.9923005826
 40
0.9944067563
 40
0.9962299756
 40
0.9977697303
 40
0.9990259738
 40
1.0
 40
1.0
 40
1.0
 40
1.0
 10
5.3981379638
 20
5.0494989334
 30
0.0
 10
5.3981379638
 20
5.0494456188
 30
0.0
 10
5.3980742396
 20
5.0493825443
 30
0.0
 10
5.397993969
 20
5.0493321844
 30
0.0
 10
5.397903692
 20
5.0492850266
 30
0.0
 10
5.3977622827
 20
5.0492286029
 30
0.0
 10
5.3975572148
 20
5.0491637422
 30
0.0
 10
5.3973073073
 20
5.0490987998
 30
0.0
 10
5.3970122835
 20
5.049033572
 30
0.0
 10
5.3965296287
 20
5.0489409168
 30
0.0
 10
5.3958127216
 20
5.0488279175
 30
0.0
 10
5.3948166575
 20
5.0486981758
 30
0.0
 10
5.393641135
 20
5.0485679641
 30
0.0
 10
5.3917177461
 20
5.0483826539
 30
0.0
 10
5.3888696086
 20
5.0481569529
 30
0.0
 10
5.3849242611
 20
5.0478976647
 30
0.0
 10
5.3802833987
 20
5.0476374247
 30
0.0
 10
5.3749577629
 20
5.0473764234
 30
0.0
 10
5.3689594684
 20
5.0471149245
 30
0.0
 10
5.3623024427
 20
5.0468530962
 30
0.0
 10
5.3550019255
 20
5.0465909923
 30
0.0
 10
5.3470748425
 20
5.0463287114
 30
0.0
 10
5.3385394146
 20
5.0460662737
 30
0.0
 10
5.329415351
 20
5.045803723
 30
0.0
 10
5.3197237089
 20
5.0455410756
 30
0.0
 10
5.3057323958
 20
5.0451820267
 30
0.0
 10
5.2870025796
 20
5.0447367268
 30
0.0
 10
5.2631615693
 20
5.0442137908
 30
0.0
 10
5.2376625505
 20
5.0436904083
 30
0.0
 10
5.2107407013
 20
5.043166676
 30
0.0
 10
5.182644318
 20
5.0426427019
 30
0.0
 10
5.1536325197
 20
5.0421185566
 30
0.0
 10
5.1239728696
 20
5.0415943
 30
0.0
 10
5.0939389119
 20
5.0410699824
 30
0.0
 10
5.063807632
 20
5.0405456492
 30
0.0
 10
5.0338569443
 20
5.0400213452
 30
0.0
 10
5.0043630697
 20
5.0394971165
 30
0.0
 10
4.9755980393
 20
5.0389730157
 30
0.0
 10
4.9478271349
 20
5.0384491059
 30
0.0
 10
4.9213064746
 20
5.0379254655
 30
0.0
 10
4.8962806405
 20
5.0374022047
 30
0.0
 10
4.8729804288
 20
5.0368794598
 30
0.0
 10
4.8516207148
 20
5.0363574919
 30
0.0
 10
4.8323984931
 20
5.0358365065
 30
0.0
 10
4.817798809
 20
5.0353883316
 30
0.0
 10
4.8073191467
 20
5.0350246592
 30
0.0
 10
4.8004026555
 20
5.0347626994
 30
0.0
 10
4.7941389606
 20
5.0345010596
 30
0.0
 10
4.7885425347
 20
5.0342398289
 30
0.0
 10
4.7836262369
 20
5.0339792693
 30
0.0
 10
4.7794013333
 20
5.0337194832
 30
0.0
 10
4.7763179549
 20
5.0334938932
 30
0.0
 10
4.7742046656
 20
5.0333093937
 30
0.0
 10
4.7728859595
 20
5.0331788826
 30
0.0
 10
4.7717462092
 20
5.0330487445
 30
0.0
 10
4.7707859337
 20
5.0329192381
 30
0.0
 10
4.7700056728
 20
5.0327905109
 30
0.0
 10
4.7695475603
 20
5.0326939563
 30
0.0
 10
4.769349803
 20
5.0326426899
 30
0.0
  0
SPLINE
  5
389
100
AcDbEntity
  8
0
100
AcDbSpline
 62
7
  6
CONTINUOUS
 70
0
 71
3
 72
63
 73
59
 74
0
 42
0.0000001
 43
0.0000001
 44
0.0000000001
 40
0.0
 40
0.0
 40
0.0
 40
0.0
 40
0.0001173728
 40
0.000189092
 40
0.000273263
 40
0.0004849876
 40
0.0007603742
 40
0.0011026384
 40
0.0015134036
 40
0.0019935781
 40
0.0025437082
 40
0.0038550309
 40
0.0054486921
 40
0.0073246263
 40
0.0094823283
 40
0.0146398838
 40
0.0209118708
 40
0.028284481
 40
0.0367420938
 40
0.0462650102
 40
0.0568322233
 40
0.0684192728
 40
0.0809997733
 40
0.0945450955
 40
0.1090238068
 40
0.1406475051
 40
0.1755805314
 40
0.2135021001
 40
0.2540637403
 40
0.2968927799
 40
0.3415956605
 40
0.3877614695
 40
0.4349659968
 40
0.4827751973
 40
0.5307496944
 40
0.5784484639
 40
0.6254330847
 40
0.6712717422
 40
0.7155430602
 40
0.7578401515
 40
0.7977742759
 40
0.8349785062
 40
0.8691111427
 40
0.8998587677
 40
0.9269392387
 40
0.9390253007
 40
0.9501044565
 40
0.9601510015
 40
0.9691427007
 40
0.9770585634
 40
0.9838815605
 40
0.9895963977
 40
0.9920345043
 40
0.9941916607
 40
0.9960669877
 40
0.9976598482
 40
0.9989703964
 40
1.0
 40
1.0
 40
1.0
 40
1.0
 10
5.3777879635
 20
4.8825118012
 30
0.0
 10
5.3777879617
 20
4.8824887764
 30
0.0
 10
5.3777739537
 20
4.8824516559
 30
0.0
 10
5.3777394798
 20
4.8824106221
 30
0.0
 10
5.3776847882
 20
4.8823631202
 30
0.0
 10
5.3775874834
 20
4.8823061952
 30
0.0
 10
5.3774379065
 20
4.8822418128
 30
0.0
 10
5.3772466061
 20
4.8821771821
 30
0.0
 10
5.3770134941
 20
4.8821122615
 30
0.0
 10
5.3767383414
 20
4.8820471506
 30
0.0
 10
5.3762883466
 20
4.8819546578
 30
0.0
 10
5.3756198296
 20
4.8818418403
 30
0.0
 10
5.3746908877
 20
4.8817122841
 30
0.0
 10
5.3735946076
 20
4.881582259
 30
0.0
 10
5.3718010533
 20
4.8813972271
 30
0.0
 10
5.369145017
 20
4.8811718472
 30
0.0
 10
5.3654656541
 20
4.8809129537
 30
0.0
 10
5.3611376206
 20
4.8806530971
 30
0.0
 10
5.3561709249
 20
4.8803924899
 30
0.0
 10
5.3505768129
 20
4.8801313815
 30
0.0
 10
5.3443682228
 20
4.8798699423
 30
0.0
 10
5.3375593598
 20
4.8796082383
 30
0.0
 10
5.3301658974
 20
4.8793463453
 30
0.0
 10
5.3222048576
 20
4.8790843019
 30
0.0
 10
5.310509371
 20
4.8787240665
 30
0.0
 10
5.2946189684
 20
4.8782782131
 30
0.0
 10
5.2741302037
 20
4.8777567135
 30
0.0
 10
5.2518875885
 20
4.8772345939
 30
0.0
 10
5.2280956382
 20
4.8767119846
 30
0.0
 10
5.2029731115
 20
4.876189039
 30
0.0
 10
5.176751
 20
4.8756658478
 30
0.0
 10
5.1496703932
 20
4.8751424864
 30
0.0
 10
5.1219803148
 20
4.8746190133
 30
0.0
 10
5.0939353671
 20
4.8740954783
 30
0.0
 10
5.0657934481
 20
4.8735719266
 30
0.0
 10
5.0378133133
 20
4.8730484025
 30
0.0
 10
5.0102522363
 20
4.8725249522
 30
0.0
 10
4.9833636396
 20
4.8720016276
 30
0.0
 10
4.9573947652
 20
4.8714784908
 30
0.0
 10
4.9325844148
 20
4.8709556191
 30
0.0
 10
4.9091607212
 20
4.8704331199
 30
0.0
 10
4.8873390509
 20
4.8699111276
 30
0.0
 10
4.8673200184
 20
4.8693898966
 30
0.0
 10
4.8492876658
 20
4.8688696293
 30
0.0
 10
4.8355799311
 20
4.8684221825
 30
0.0
 10
4.8257299649
 20
4.8680591837
 30
0.0
 10
4.8192200912
 20
4.8677975949
 30
0.0
 10
4.8133177561
 20
4.8675363014
 30
0.0
 10
4.8080366121
 20
4.867275431
 30
0.0
 10
4.8033886487
 20
4.8670151626
 30
0.0
 10
4.7993846159
 20
4.8667556881
 30
0.0
 10
4.7964553159
 20
4.8665304489
 30
0.0
 10
4.7944411523
 20
4.8663464053
 30
0.0
 10
4.7931784976
 20
4.8662160258
 30
0.0
 10
4.7920826214
 20
4.8660859991
 30
0.0
 10
4.7911540506
 20
4.865956525
 30
0.0
 10
4.7903932533
 20
4.8658277666
 30
0.0
 10
4.7899440051
 20
4.8657316537
 30
0.0
 10
4.7897484938
 20
4.8656809618
 30
0.0
  0
SPLINE
  5
38A
100
AcDbEntity
  8
0
100
AcDbSpline
 62
7
  6
CONTINUOUS
 70
0
 71
3
 72
63
 73
59
 74
0
 42
0.0000001
 43
0.0000001
 44
0.0000000001
 40
0.0
 40
0.0
 40
0.0
 40
0.0
 40
0.000254191
 40
0.000350766
 40
0.0004629182
 40
0.0007361972
 40
0.00107713
 40
0.0014871617
 40
0.0019670922
 40
0.0025173986
 40
0.0038301623
 40
0.0054264966
 40
0.0073062185
 40
0.0094687628
 40
0.0146389989
 40
0.0209271831
 40
0.0283195225
 40
0.0367999915
 40
0.046348859
 40
0.056944994
 40
0.0685635475
 40
0.0811783316
 40
0.094760052
 40
0.1092776064
 40
0.1246976461
 40
0.1409844072
 40
0.1760067511
 40
0.2140220416
 40
0.2546798833
 40
0.2976054893
 40
0.3424031843
 40
0.3886599354
 40
0.4359493039
 40
0.4838353195
 40
0.5318764102
 40
0.5796297186
 40
0.6266548423
 40
0.6725182885
 40
0.716797192
 40
0.7590833542
 40
0.7989870152
 40
0.8361403681
 40
0.870201037
 40
0.9008552802
 40
0.927820813
 40
0.9398413357
 40
0.9508497892
 40
0.9608205503
 40
0.9697310662
 40
0.9775611232
 40
0.98429294
 40
0.989912184
 40
0.9923005826
 40
0.9944067563
 40
0.9962299756
 40
0.9977697303
 40
0.9990259738
 40
1.0
 40
1.0
 40
1.0
 40
1.0
 10
5.3981379638
 20
5.0839489334
 30
0.0
 10
5.3981379638
 20
5.0838956188
 30
0.0
 10
5.3980742396
 20
5.0838325443
 30
0.0
 10
5.397993969
 20
5.0837821844
 30
0.0
 10
5.397903692
 20
5.0837350266
 30
0.0
 10
5.3977622827
 20
5.0836786029
 30
0.0
 10
5.3975572148
 20
5.0836137422
 30
0.0
 10
5.3973073073
 20
5.0835487998
 30
0.0
 10
5.3970122835
 20
5.083483572
 30
0.0
 10
5.3965296287
 20
5.0833909168
 30
0.0
 10
5.3958127216
 20
5.0832779175
 30
0.0
 10
5.3948166575
 20
5.0831481758
 30
0.0
 10
5.393641135
 20
5.0830179641
 30
0.0
 10
5.3917177461
 20
5.0828326539
 30
0.0
 10
5.3888696086
 20
5.0826069529
 30
0.0
 10
5.3849242611
 20
5.0823476647
 30
0.0
 10
5.3802833987
 20
5.0820874247
 30
0.0
 10
5.3749577629
 20
5.0818264234
 30
0.0
 10
5.3689594684
 20
5.0815649245
 30
0.0
 10
5.3623024427
 20
5.0813030962
 30
0.0
 10
5.3550019255
 20
5.0810409923
 30
0.0
 10
5.3470748425
 20
5.0807787114
 30
0.0
 10
5.3385394146
 20
5.0805162737
 30
0.0
 10
5.329415351
 20
5.080253723
 30
0.0
 10
5.3197237089
 20
5.0799910756
 30
0.0
 10
5.3057323958
 20
5.0796320267
 30
0.0
 10
5.2870025796
 20
5.0791867268
 30
0.0
 10
5.2631615693
 20
5.0786637908
 30
0.0
 10
5.2376625505
 20
5.0781404083
 30
0.0
 10
5.2107407013
 20
5.077616676
 30
0.0
 10
5.182644318
 20
5.0770927019
 30
0.0
 10
5.1536325197
 20
5.0765685566
 30
0.0
 10
5.1239728696
 20
5.0760443
 30
0.0
 10
5.0939389119
 20
5.0755199824
 30
0.0
 10
5.063807632
 20
5.0749956492
 30
0.0
 10
5.0338569443
 20
5.0744713452
 30
0.0
 10
5.0043630697
 20
5.0739471165
 30
0.0
 10
4.9755980393
 20
5.0734230157
 30
0.0
 10
4.9478271349
 20
5.0728991059
 30
0.0
 10
4.9213064746
 20
5.0723754655
 30
0.0
 10
4.8962806405
 20
5.0718522047
 30
0.0
 10
4.8729804288
 20
5.0713294598
 30
0.0
 10
4.8516207148
 20
5.0708074919
 30
0.0
 10
4.8323984931
 20
5.0702865065
 30
0.0
 10
4.817798809
 20
5.0698383316
 30
0.0
 10
4.8073191467
 20
5.0694746592
 30
0.0
 10
4.8004026555
 20
5.0692126994
 30
0.0
 10
4.7941389606
 20
5.0689510596
 30
0.0
 10
4.7885425347
 20
5.0686898289
 30
0.0
 10
4.7836262369
 20
5.0684292693
 30
0.0
 10
4.7794013333
 20
5.0681694832
 30
0.0
 10
4.7763179549
 20
5.0679438932
 30
0.0
 10
4.7742046656
 20
5.0677593937
 30
0.0
 10
4.7728859595
 20
5.0676288826
 30
0.0
 10
4.7717462092
 20
5.0674987445
 30
0.0
 10
4.7707859337
 20
5.0673692381
 30
0.0
 10
4.7700056728
 20
5.0672405109
 30
0.0
 10
4.7695475603
 20
5.0671439563
 30
0.0
 10
4.769349803
 20
5.0670926899
 30
0.0
  0
SPLINE
  5
38B
100
AcDbEntity
  8
0
100
AcDbSpline
 62
7
  6
CONTINUOUS
 70
0
 71
3
 72
63
 73
59
 74
0
 42
0.0000001
 43
0.0000001
 44
0.0000000001
 40
0.0
 40
0.0
 40
0.0
 40
0.0
 40
0.000254191
 40
0.000350766
 40
0.0004629182
 40
0.0007361972
 40
0.00107713
 40
0.0014871617
 40
0.0019670922
 40
0.0025173986
 40
0.0038301623
 40
0.0054264966
 40
0.0073062185
 40
0.0094687628
 40
0.0146389989
 40
0.0209271831
 40
0.0283195225
 40
0.0367999915
 40
0.046348859
 40
0.056944994
 40
0.0685635475
 40
0.0811783316
 40
0.094760052
 40
0.1092776064
 40
0.1246976461
 40
0.1409844072
 40
0.1760067511
 40
0.2140220416
 40
0.2546798833
 40
0.2976054893
 40
0.3424031843
 40
0.3886599354
 40
0.4359493039
 40
0.4838353195
 40
0.5318764102
 40
0.5796297186
 40
0.6266548423
 40
0.6725182885
 40
0.716797192
 40
0.7590833542
 40
0.7989870152
 40
0.8361403681
 40
0.870201037
 40
0.9008552802
 40
0.927820813
 40
0.9398413357
 40
0.9508497892
 40
0.9608205503
 40
0.9697310662
 40
0.9775611232
 40
0.98429294
 40
0.989912184
 40
0.9923005826
 40
0.9944067563
 40
0.9962299756
 40
0.9977697303
 40
0.9990259738
 40
1.0
 40
1.0
 40
1.0
 40
1.0
 10
5.3981379638
 20
5.1183989334
 30
0.0
 10
5.3981379638
 20
5.1183456188
 30
0.0
 10
5.3980742396
 20
5.1182825443
 30
0.0
 10
5.397993969
 20
5.1182321844
 30
0.0
 10
5.397903692
 20
5.1181850266
 30
0.0
 10
5.3977622827
 20
5.1181286029
 30
0.0
 10
5.3975572148
 20
5.1180637422
 30
0.0
 10
5.3973073073
 20
5.1179987998
 30
0.0
 10
5.3970122835
 20
5.117933572
 30
0.0
 10
5.3965296287
 20
5.1178409168
 30
0.0
 10
5.3958127216
 20
5.1177279175
 30
0.0
 10
5.3948166575
 20
5.1175981758
 30
0.0
 10
5.393641135
 20
5.1174679641
 30
0.0
 10
5.3917177461
 20
5.1172826539
 30
0.0
 10
5.3888696086
 20
5.1170569529
 30
0.0
 10
5.3849242611
 20
5.1167976647
 30
0.0
 10
5.3802833987
 20
5.1165374247
 30
0.0
 10
5.3749577629
 20
5.1162764234
 30
0.0
 10
5.3689594684
 20
5.1160149245
 30
0.0
 10
5.3623024427
 20
5.1157530962
 30
0.0
 10
5.3550019255
 20
5.1154909923
 30
0.0
 10
5.3470748425
 20
5.1152287114
 30
0.0
 10
5.3385394146
 20
5.1149662737
 30
0.0
 10
5.329415351
 20
5.114703723
 30
0.0
 10
5.3197237089
 20
5.1144410756
 30
0.0
 10
5.3057323958
 20
5.1140820267
 30
0.0
 10
5.2870025796
 20
5.1136367268
 30
0.0
 10
5.2631615693
 20
5.1131137908
 30
0.0
 10
5.2376625505
 20
5.1125904083
 30
0.0
 10
5.2107407013
 20
5.112066676
 30
0.0
 10
5.182644318
 20
5.1115427019
 30
0.0
 10
5.1536325197
 20
5.1110185566
 30
0.0
 10
5.1239728696
 20
5.1104943
 30
0.0
 10
5.0939389119
 20
5.1099699824
 30
0.0
 10
5.063807632
 20
5.1094456492
 30
0.0
 10
5.0338569443
 20
5.1089213452
 30
0.0
 10
5.0043630697
 20
5.1083971165
 30
0.0
 10
4.9755980393
 20
5.1078730157
 30
0.0
 10
4.9478271349
 20
5.1073491059
 30
0.0
 10
4.9213064746
 20
5.1068254655
 30
0.0
 10
4.8962806405
 20
5.1063022047
 30
0.0
 10
4.8729804288
 20
5.1057794598
 30
0.0
 10
4.8516207148
 20
5.1052574919
 30
0.0
 10
4.8323984931
 20
5.1047365065
 30
0.0
 10
4.817798809
 20
5.1042883316
 30
0.0
 10
4.8073191467
 20
5.1039246592
 30
0.0
 10
4.8004026555
 20
5.1036626994
 30
0.0
 10
4.7941389606
 20
5.1034010596
 30
0.0
 10
4.7885425347
 20
5.1031398289
 30
0.0
 10
4.7836262369
 20
5.1028792693
 30
0.0
 10
4.7794013333
 20
5.1026194832
 30
0.0
 10
4.7763179549
 20
5.1023938932
 30
0.0
 10
4.7742046656
 20
5.1022093937
 30
0.0
 10
4.7728859595
 20
5.1020788826
 30
0.0
 10
4.7717462092
 20
5.1019487445
 30
0.0
 10
4.7707859337
 20
5.1018192381
 30
0.0
 10
4.7700056728
 20
5.1016905109
 30
0.0
 10
4.7695475603
 20
5.1015939563
 30
0.0
 10
4.769349803
 20
5.1015426899
 30
0.0
  0
SPLINE
  5
38C
100
AcDbEntity
  8
0
100
AcDbSpline
 62
7
  6
CONTINUOUS
 70
0
 71
3
 72
63
 73
59
 74
0
 42
0.0000001
 43
0.0000001
 44
0.0000000001
 40
0.0
 40
0.0
 40
0.0
 40
0.0
 40
0.000254191
 40
0.000350766
 40
0.0004629182
 40
0.0007361972
 40
0.00107713
 40
0.0014871617
 40
0.0019670922
 40
0.0025173986
 40
0.0038301623
 40
0.0054264966
 40
0.0073062185
 40
0.0094687628
 40
0.0146389989
 40
0.0209271831
 40
0.0283195225
 40
0.0367999915
 40
0.046348859
 40
0.056944994
 40
0.0685635475
 40
0.0811783316
 40
0.094760052
 40
0.1092776064
 40
0.1246976461
 40
0.1409844072
 40
0.1760067511
 40
0.2140220416
 40
0.2546798833
 40
0.2976054893
 40
0.3424031843
 40
0.3886599354
 40
0.4359493039
 40
0.4838353195
 40
0.5318764102
 40
0.5796297186
 40
0.6266548423
 40
0.6725182885
 40
0.716797192
 40
0.7590833542
 40
0.7989870152
 40
0.8361403681
 40
0.870201037
 40
0.9008552802
 40
0.927820813
 40
0.9398413357
 40
0.9508497892
 40
0.9608205503
 40
0.9697310662
 40
0.9775611232
 40
0.98429294
 40
0.989912184
 40
0.9923005826
 40
0.9944067563
 40
0.9962299756
 40
0.9977697303
 40
0.9990259738
 40
1.0
 40
1.0
 40
1.0
 40
1.0
 10
5.3981379638
 20
5.1528489334
 30
0.0
 10
5.3981379638
 20
5.1527956188
 30
0.0
 10
5.3980742396
 20
5.1527325443
 30
0.0
 10
5.397993969
 20
5.1526821844
 30
0.0
 10
5.397903692
 20
5.1526350266
 30
0.0
 10
5.3977622827
 20
5.1525786029
 30
0.0
 10
5.3975572148
 20
5.1525137422
 30
0.0
 10
5.3973073073
 20
5.1524487998
 30
0.0
 10
5.3970122835
 20
5.152383572
 30
0.0
 10
5.3965296287
 20
5.1522909168
 30
0.0
 10
5.3958127216
 20
5.1521779175
 30
0.0
 10
5.3948166575
 20
5.1520481758
 30
0.0
 10
5.393641135
 20
5.1519179641
 30
0.0
 10
5.3917177461
 20
5.1517326539
 30
0.0
 10
5.3888696086
 20
5.1515069529
 30
0.0
 10
5.3849242611
 20
5.1512476647
 30
0.0
 10
5.3802833987
 20
5.1509874247
 30
0.0
 10
5.3749577629
 20
5.1507264234
 30
0.0
 10
5.3689594684
 20
5.1504649245
 30
0.0
 10
5.3623024427
 20
5.1502030962
 30
0.0
 10
5.3550019255
 20
5.1499409923
 30
0.0
 10
5.3470748425
 20
5.1496787114
 30
0.0
 10
5.3385394146
 20
5.1494162737
 30
0.0
 10
5.329415351
 20
5.149153723
 30
0.0
 10
5.3197237089
 20
5.1488910756
 30
0.0
 10
5.3057323958
 20
5.1485320267
 30
0.0
 10
5.2870025796
 20
5.1480867268
 30
0.0
 10
5.2631615693
 20
5.1475637908
 30
0.0
 10
5.2376625505
 20
5.1470404083
 30
0.0
 10
5.2107407013
 20
5.146516676
 30
0.0
 10
5.182644318
 20
5.1459927019
 30
0.0
 10
5.1536325197
 20
5.1454685566
 30
0.0
 10
5.1239728696
 20
5.1449443001
 30
0.0
 10
5.0939389119
 20
5.1444199824
 30
0.0
 10
5.063807632
 20
5.1438956492
 30
0.0
 10
5.0338569443
 20
5.1433713452
 30
0.0
 10
5.0043630697
 20
5.1428471165
 30
0.0
 10
4.9755980393
 20
5.1423230157
 30
0.0
 10
4.9478271349
 20
5.1417991059
 30
0.0
 10
4.9213064746
 20
5.1412754655
 30
0.0
 10
4.8962806405
 20
5.1407522047
 30
0.0
 10
4.8729804288
 20
5.1402294598
 30
0.0
 10
4.8516207148
 20
5.1397074919
 30
0.0
 10
4.8323984931
 20
5.1391865065
 30
0.0
 10
4.817798809
 20
5.1387383316
 30
0.0
 10
4.8073191467
 20
5.1383746592
 30
0.0
 10
4.8004026555
 20
5.1381126994
 30
0.0
 10
4.7941389606
 20
5.1378510596
 30
0.0
 10
4.7885425347
 20
5.1375898289
 30
0.0
 10
4.7836262369
 20
5.1373292693
 30
0.0
 10
4.7794013333
 20
5.1370694832
 30
0.0
 10
4.7763179549
 20
5.1368438932
 30
0.0
 10
4.7742046656
 20
5.1366593937
 30
0.0
 10
4.7728859595
 20
5.1365288826
 30
0.0
 10
4.7717462092
 20
5.1363987445
 30
0.0
 10
4.7707859337
 20
5.1362692381
 30
0.0
 10
4.7700056728
 20
5.1361405109
 30
0.0
 10
4.7695475603
 20
5.1360439563
 30
0.0
 10
4.769349803
 20
5.1359926899
 30
0.0
  0
SPLINE
  5
38D
100
AcDbEntity
  8
0
100
AcDbSpline
 62
7
  6
CONTINUOUS
 70
0
 71
3
 72
63
 73
59
 74
0
 42
0.0000001
 43
0.0000001
 44
0.0000000001
 40
0.0
 40
0.0
 40
0.0
 40
0.0
 40
0.000254191
 40
0.000350766
 40
0.0004629182
 40
0.0007361972
 40
0.00107713
 40
0.0014871617
 40
0.0019670922
 40
0.0025173986
 40
0.0038301623
 40
0.0054264966
 40
0.0073062185
 40
0.0094687628
 40
0.0146389989
 40
0.0209271831
 40
0.0283195225
 40
0.0367999915
 40
0.046348859
 40
0.056944994
 40
0.0685635475
 40
0.0811783316
 40
0.094760052
 40
0.1092776064
 40
0.1246976461
 40
0.1409844072
 40
0.1760067511
 40
0.2140220416
 40
0.2546798833
 40
0.2976054893
 40
0.3424031843
 40
0.3886599354
 40
0.4359493039
 40
0.4838353195
 40
0.5318764102
 40
0.5796297186
 40
0.6266548423
 40
0.6725182885
 40
0.716797192
 40
0.7590833542
 40
0.7989870152
 40
0.8361403681
 40
0.870201037
 40
0.9008552802
 40
0.927820813
 40
0.9398413357
 40
0.9508497892
 40
0.9608205503
 40
0.9697310662
 40
0.9775611232
 40
0.98429294
 40
0.989912184
 40
0.9923005826
 40
0.9944067563
 40
0.9962299756
 40
0.9977697303
 40
0.9990259738
 40
1.0
 40
1.0
 40
1.0
 40
1.0
 10
5.3981379638
 20
5.1872989334
 30
0.0
 10
5.3981379638
 20
5.1872456188
 30
0.0
 10
5.3980742396
 20
5.1871825443
 30
0.0
 10
5.397993969
 20
5.1871321844
 30
0.0
 10
5.397903692
 20
5.1870850266
 30
0.0
 10
5.3977622827
 20
5.1870286029
 30
0.0
 10
5.3975572148
 20
5.1869637422
 30
0.0
 10
5.3973073073
 20
5.1868987998
 30
0.0
 10
5.3970122835
 20
5.186833572
 30
0.0
 10
5.3965296287
 20
5.1867409168
 30
0.0
 10
5.3958127216
 20
5.1866279175
 30
0.0
 10
5.3948166575
 20
5.1864981758
 30
0.0
 10
5.393641135
 20
5.1863679641
 30
0.0
 10
5.3917177461
 20
5.1861826539
 30
0.0
 10
5.3888696086
 20
5.1859569529
 30
0.0
 10
5.3849242611
 20
5.1856976647
 30
0.0
 10
5.3802833987
 20
5.1854374247
 30
0.0
 10
5.3749577629
 20
5.1851764234
 30
0.0
 10
5.3689594684
 20
5.1849149245
 30
0.0
 10
5.3623024427
 20
5.1846530962
 30
0.0
 10
5.3550019255
 20
5.1843909923
 30
0.0
 10
5.3470748425
 20
5.1841287114
 30
0.0
 10
5.3385394146
 20
5.1838662737
 30
0.0
 10
5.329415351
 20
5.183603723
 30
0.0
 10
5.3197237089
 20
5.1833410756
 30
0.0
 10
5.3057323958
 20
5.1829820267
 30
0.0
 10
5.2870025796
 20
5.1825367268
 30
0.0
 10
5.2631615693
 20
5.1820137908
 30
0.0
 10
5.2376625505
 20
5.1814904083
 30
0.0
 10
5.2107407013
 20
5.180966676
 30
0.0
 10
5.182644318
 20
5.1804427019
 30
0.0
 10
5.1536325197
 20
5.1799185566
 30
0.0
 10
5.1239728696
 20
5.1793943001
 30
0.0
 10
5.0939389119
 20
5.1788699824
 30
0.0
 10
5.063807632
 20
5.1783456492
 30
0.0
 10
5.0338569443
 20
5.1778213452
 30
0.0
 10
5.0043630697
 20
5.1772971165
 30
0.0
 10
4.9755980393
 20
5.1767730157
 30
0.0
 10
4.9478271349
 20
5.1762491059
 30
0.0
 10
4.9213064746
 20
5.1757254655
 30
0.0
 10
4.8962806405
 20
5.1752022047
 30
0.0
 10
4.8729804288
 20
5.1746794598
 30
0.0
 10
4.8516207148
 20
5.1741574919
 30
0.0
 10
4.8323984931
 20
5.1736365065
 30
0.0
 10
4.817798809
 20
5.1731883316
 30
0.0
 10
4.8073191467
 20
5.1728246592
 30
0.0
 10
4.8004026555
 20
5.1725626994
 30
0.0
 10
4.7941389606
 20
5.1723010596
 30
0.0
 10
4.7885425347
 20
5.1720398289
 30
0.0
 10
4.7836262369
 20
5.1717792693
 30
0.0
 10
4.7794013333
 20
5.1715194832
 30
0.0
 10
4.7763179549
 20
5.1712938932
 30
0.0
 10
4.7742046656
 20
5.1711093937
 30
0.0
 10
4.7728859595
 20
5.1709788826
 30
0.0
 10
4.7717462092
 20
5.1708487445
 30
0.0
 10
4.7707859337
 20
5.1707192381
 30
0.0
 10
4.7700056728
 20
5.1705905109
 30
0.0
 10
4.7695475603
 20
5.1704939563
 30
0.0
 10
4.769349803
 20
5.1704426899
 30
0.0
  0
SPLINE
  5
38E
100
AcDbEntity
  8
0
100
AcDbSpline
 62
7
  6
CONTINUOUS
 70
0
 71
3
 72
63
 73
59
 74
0
 42
0.0000001
 43
0.0000001
 44
0.0000000001
 40
0.0
 40
0.0
 40
0.0
 40
0.0
 40
0.000254191
 40
0.000350766
 40
0.0004629182
 40
0.0007361972
 40
0.00107713
 40
0.0014871617
 40
0.0019670922
 40
0.0025173986
 40
0.0038301623
 40
0.0054264966
 40
0.0073062185
 40
0.0094687628
 40
0.0146389989
 40
0.0209271831
 40
0.0283195225
 40
0.0367999915
 40
0.046348859
 40
0.056944994
 40
0.0685635475
 40
0.0811783316
 40
0.094760052
 40
0.1092776064
 40
0.1246976461
 40
0.1409844072
 40
0.1760067511
 40
0.2140220416
 40
0.2546798833
 40
0.2976054893
 40
0.3424031843
 40
0.3886599354
 40
0.4359493039
 40
0.4838353195
 40
0.5318764102
 40
0.5796297186
 40
0.6266548423
 40
0.6725182885
 40
0.716797192
 40
0.7590833542
 40
0.7989870152
 40
0.8361403681
 40
0.870201037
 40
0.9008552802
 40
0.927820813
 40
0.9398413357
 40
0.9508497892
 40
0.9608205503
 40
0.9697310662
 40
0.9775611232
 40
0.98429294
 40
0.989912184
 40
0.9923005826
 40
0.9944067563
 40
0.9962299756
 40
0.9977697303
 40
0.9990259738
 40
1.0
 40
1.0
 40
1.0
 40
1.0
 10
5.3981379638
 20
5.2217489334
 30
0.0
 10
5.3981379638
 20
5.2216956188
 30
0.0
 10
5.3980742396
 20
5.2216325443
 30
0.0
 10
5.397993969
 20
5.2215821844
 30
0.0
 10
5.397903692
 20
5.2215350266
 30
0.0
 10
5.3977622827
 20
5.2214786029
 30
0.0
 10
5.3975572148
 20
5.2214137422
 30
0.0
 10
5.3973073073
 20
5.2213487998
 30
0.0
 10
5.3970122835
 20
5.221283572
 30
0.0
 10
5.3965296287
 20
5.2211909168
 30
0.0
 10
5.3958127216
 20
5.2210779175
 30
0.0
 10
5.3948166575
 20
5.2209481758
 30
0.0
 10
5.393641135
 20
5.2208179641
 30
0.0
 10
5.3917177461
 20
5.2206326539
 30
0.0
 10
5.3888696086
 20
5.2204069529
 30
0.0
 10
5.3849242611
 20
5.2201476647
 30
0.0
 10
5.3802833987
 20
5.2198874247
 30
0.0
 10
5.3749577629
 20
5.2196264234
 30
0.0
 10
5.3689594684
 20
5.2193649245
 30
0.0
 10
5.3623024427
 20
5.2191030962
 30
0.0
 10
5.3550019255
 20
5.2188409923
 30
0.0
 10
5.3470748425
 20
5.2185787114
 30
0.0
 10
5.3385394146
 20
5.2183162737
 30
0.0
 10
5.329415351
 20
5.218053723
 30
0.0
 10
5.3197237089
 20
5.2177910756
 30
0.0
 10
5.3057323958
 20
5.2174320267
 30
0.0
 10
5.2870025796
 20
5.2169867268
 30
0.0
 10
5.2631615693
 20
5.2164637908
 30
0.0
 10
5.2376625505
 20
5.2159404083
 30
0.0
 10
5.2107407013
 20
5.215416676
 30
0.0
 10
5.182644318
 20
5.2148927019
 30
0.0
 10
5.1536325197
 20
5.2143685566
 30
0.0
 10
5.1239728696
 20
5.2138443
 30
0.0
 10
5.0939389119
 20
5.2133199824
 30
0.0
 10
5.063807632
 20
5.2127956492
 30
0.0
 10
5.0338569443
 20
5.2122713452
 30
0.0
 10
5.0043630697
 20
5.2117471165
 30
0.0
 10
4.9755980393
 20
5.2112230157
 30
0.0
 10
4.9478271349
 20
5.2106991059
 30
0.0
 10
4.9213064746
 20
5.2101754655
 30
0.0
 10
4.8962806405
 20
5.2096522047
 30
0.0
 10
4.8729804288
 20
5.2091294598
 30
0.0
 10
4.8516207148
 20
5.2086074919
 30
0.0
 10
4.8323984931
 20
5.2080865065
 30
0.0
 10
4.817798809
 20
5.2076383316
 30
0.0
 10
4.8073191467
 20
5.2072746592
 30
0.0
 10
4.8004026555
 20
5.2070126994
 30
0.0
 10
4.7941389606
 20
5.2067510596
 30
0.0
 10
4.7885425347
 20
5.2064898289
 30
0.0
 10
4.7836262369
 20
5.2062292693
 30
0.0
 10
4.7794013333
 20
5.2059694832
 30
0.0
 10
4.7763179549
 20
5.2057438932
 30
0.0
 10
4.7742046656
 20
5.2055593937
 30
0.0
 10
4.7728859595
 20
5.2054288826
 30
0.0
 10
4.7717462092
 20
5.2052987445
 30
0.0
 10
4.7707859337
 20
5.2051692381
 30
0.0
 10
4.7700056728
 20
5.2050405109
 30
0.0
 10
4.7695475603
 20
5.2049439563
 30
0.0
 10
4.769349803
 20
5.2048926899
 30
0.0
  0
SPLINE
  5
38F
100
AcDbEntity
  8
0
100
AcDbSpline
 62
7
  6
CONTINUOUS
 70
0
 71
3
 72
23
 73
19
 74
0
 42
0.0000001
 43
0.0000001
 44
0.0000000001
 40
0.0
 40
0.0
 40
0.0
 40
0.0
 40
0.0496976446
 40
0.1004643389
 40
0.1527974848
 40
0.2071173601
 40
0.2637226708
 40
0.3227952917
 40
0.3843946707
 40
0.4484584397
 40
0.5148023244
 40
0.5831177602
 40
0.6529676483
 40
0.7237798296
 40
0.7948380225
 40
0.8652743993
 40
0.9340579285
 40
1.0
 40
1.0
 40
1.0
 40
1.0
 10
5.3752609549
 20
3.7186118012
 30
0.0
 10
5.3747305698
 20
3.7130077318
 30
0.0
 10
5.3729792264
 20
3.7017329457
 30
0.0
 10
5.3683796602
 20
3.6850135305
 30
0.0
 10
5.3618280302
 20
3.6683960922
 30
0.0
 10
5.3533817756
 20
3.651916032
 30
0.0
 10
5.343109324
 20
3.6356034517
 30
0.0
 10
5.331095813
 20
3.6194912074
 30
0.0
 10
5.3174430482
 20
3.603614904
 30
0.0
 10
5.3022726976
 20
3.5880149925
 30
0.0
 10
5.2857295443
 20
3.5727376669
 30
0.0
 10
5.267985033
 20
3.5578360346
 30
0.0
 10
5.249241258
 20
3.5433711832
 30
0.0
 10
5.2297352008
 20
3.5294134194
 30
0.0
 10
5.2097429765
 20
3.5160434511
 30
0.0
 10
5.1895841113
 20
3.5033538844
 30
0.0
 10
5.1696244002
 20
3.4914497962
 30
0.0
 10
5.1563577261
 20
3.4839068519
 30
0.0
 10
5.1498311118
 20
3.480275
 30
0.0
  0
SPLINE
  5
390
100
AcDbEntity
  8
0
100
AcDbSpline
 62
7
  6
CONTINUOUS
 70
0
 71
3
 72
63
 73
59
 74
0
 42
0.0000001
 43
0.0000001
 44
0.0000000001
 40
0.0
 40
0.0
 40
0.0
 40
0.0
 40
0.000254191
 40
0.000350766
 40
0.0004629182
 40
0.0007361972
 40
0.00107713
 40
0.0014871617
 40
0.0019670922
 40
0.0025173986
 40
0.0038301623
 40
0.0054264966
 40
0.0073062185
 40
0.0094687628
 40
0.0146389989
 40
0.0209271831
 40
0.0283195225
 40
0.0367999915
 40
0.046348859
 40
0.056944994
 40
0.0685635475
 40
0.0811783316
 40
0.094760052
 40
0.1092776064
 40
0.1246976461
 40
0.1409844072
 40
0.1760067511
 40
0.2140220416
 40
0.2546798833
 40
0.2976054893
 40
0.3424031843
 40
0.3886599354
 40
0.4359493039
 40
0.4838353195
 40
0.5318764102
 40
0.5796297186
 40
0.6266548423
 40
0.6725182885
 40
0.716797192
 40
0.7590833542
 40
0.7989870152
 40
0.8361403681
 40
0.870201037
 40
0.9008552802
 40
0.927820813
 40
0.9398413357
 40
0.9508497892
 40
0.9608205503
 40
0.9697310662
 40
0.9775611232
 40
0.98429294
 40
0.989912184
 40
0.9923005826
 40
0.9944067563
 40
0.9962299756
 40
0.9977697303
 40
0.9990259738
 40
1.0
 40
1.0
 40
1.0
 40
1.0
 10
5.3981379638
 20
5.2561989334
 30
0.0
 10
5.3981379638
 20
5.2561456188
 30
0.0
 10
5.3980742396
 20
5.2560825443
 30
0.0
 10
5.397993969
 20
5.2560321844
 30
0.0
 10
5.397903692
 20
5.2559850266
 30
0.0
 10
5.3977622827
 20
5.2559286029
 30
0.0
 10
5.3975572148
 20
5.2558637422
 30
0.0
 10
5.3973073073
 20
5.2557987998
 30
0.0
 10
5.3970122835
 20
5.255733572
 30
0.0
 10
5.3965296287
 20
5.2556409168
 30
0.0
 10
5.3958127216
 20
5.2555279175
 30
0.0
 10
5.3948166575
 20
5.2553981758
 30
0.0
 10
5.393641135
 20
5.2552679641
 30
0.0
 10
5.3917177461
 20
5.2550826539
 30
0.0
 10
5.3888696086
 20
5.2548569529
 30
0.0
 10
5.3849242611
 20
5.2545976647
 30
0.0
 10
5.3802833987
 20
5.2543374247
 30
0.0
 10
5.3749577629
 20
5.2540764234
 30
0.0
 10
5.3689594684
 20
5.2538149245
 30
0.0
 10
5.3623024427
 20
5.2535530962
 30
0.0
 10
5.3550019255
 20
5.2532909923
 30
0.0
 10
5.3470748425
 20
5.2530287114
 30
0.0
 10
5.3385394146
 20
5.2527662737
 30
0.0
 10
5.329415351
 20
5.252503723
 30
0.0
 10
5.3197237089
 20
5.2522410756
 30
0.0
 10
5.3057323958
 20
5.2518820267
 30
0.0
 10
5.2870025796
 20
5.2514367268
 30
0.0
 10
5.2631615693
 20
5.2509137908
 30
0.0
 10
5.2376625505
 20
5.2503904083
 30
0.0
 10
5.2107407013
 20
5.249866676
 30
0.0
 10
5.182644318
 20
5.2493427019
 30
0.0
 10
5.1536325197
 20
5.2488185566
 30
0.0
 10
5.1239728696
 20
5.2482943
 30
0.0
 10
5.0939389119
 20
5.2477699824
 30
0.0
 10
5.063807632
 20
5.2472456492
 30
0.0
 10
5.0338569443
 20
5.2467213452
 30
0.0
 10
5.0043630697
 20
5.2461971165
 30
0.0
 10
4.9755980393
 20
5.2456730157
 30
0.0
 10
4.9478271349
 20
5.2451491059
 30
0.0
 10
4.9213064746
 20
5.2446254655
 30
0.0
 10
4.8962806405
 20
5.2441022047
 30
0.0
 10
4.8729804288
 20
5.2435794598
 30
0.0
 10
4.8516207148
 20
5.2430574919
 30
0.0
 10
4.8323984931
 20
5.2425365065
 30
0.0
 10
4.817798809
 20
5.2420883316
 30
0.0
 10
4.8073191467
 20
5.2417246592
 30
0.0
 10
4.8004026555
 20
5.2414626994
 30
0.0
 10
4.7941389606
 20
5.2412010596
 30
0.0
 10
4.7885425347
 20
5.2409398289
 30
0.0
 10
4.7836262369
 20
5.2406792693
 30
0.0
 10
4.7794013333
 20
5.2404194832
 30
0.0
 10
4.7763179549
 20
5.2401938932
 30
0.0
 10
4.7742046656
 20
5.2400093937
 30
0.0
 10
4.7728859595
 20
5.2398788826
 30
0.0
 10
4.7717462092
 20
5.2397487445
 30
0.0
 10
4.7707859337
 20
5.2396192381
 30
0.0
 10
4.7700056728
 20
5.2394905109
 30
0.0
 10
4.7695475603
 20
5.2393939563
 30
0.0
 10
4.769349803
 20
5.2393426899
 30
0.0
  0
SPLINE
  5
391
100
AcDbEntity
  8
0
100
AcDbSpline
 62
7
  6
CONTINUOUS
 70
0
 71
3
 72
30
 73
26
 74
0
 42
0.0000001
 43
0.0000001
 44
0.0000000001
 40
0.0
 40
0.0
 40
0.0
 40
0.0
 40
0.1821232369
 40
0.2722980118
 40
0.3606691967
 40
0.4463467157
 40
0.5284684645
 40
0.6062079717
 40
0.6787829998
 40
0.7454633736
 40
0.80557851
 40
0.8585240981
 40
0.8821394445
 40
0.9037686037
 40
0.9233583826
 40
0.940858856
 40
0.956227618
 40
0.9694258682
 40
0.9804228554
 40
0.9850874309
 40
0.9891926355
 40
0.9927369639
 40
0.9957193501
 40
0.9981395886
 40
1.0
 40
1.0
 40
1.0
 40
1.0
 10
5.1156221573
 20
5.2825989334
 30
0.0
 10
5.0945938783
 20
5.2822306884
 30
0.0
 10
5.0631537574
 20
5.2816857814
 30
0.0
 10
5.0215102946
 20
5.2809533004
 30
0.0
 10
4.9910028059
 20
5.2804058516
 30
0.0
 10
4.9614254267
 20
5.2798585868
 30
0.0
 10
4.9330760007
 20
5.2793115935
 30
0.0
 10
4.9062399306
 20
5.2787649893
 30
0.0
 10
4.8811874037
 20
5.2782189215
 30
0.0
 10
4.8581706287
 20
5.2776736655
 30
0.0
 10
4.8374213248
 20
5.2771294478
 30
0.0
 10
4.8216449269
 20
5.2766613639
 30
0.0
 10
4.8103123332
 20
5.2762815028
 30
0.0
 10
4.802830292
 20
5.2760078011
 30
0.0
 10
4.7960548934
 20
5.2757344726
 30
0.0
 10
4.790003076
 20
5.275461553
 30
0.0
 10
4.7846901434
 20
5.275189375
 30
0.0
 10
4.7801293247
 20
5.2749180173
 30
0.0
 10
4.7768048148
 20
5.2746822992
 30
0.0
 10
4.7745302857
 20
5.2744894263
 30
0.0
 10
4.7731147637
 20
5.2743531021
 30
0.0
 10
4.7718944947
 20
5.2742171889
 30
0.0
 10
4.7708700514
 20
5.2740819877
 30
0.0
 10
4.770042073
 20
5.2739476594
 30
0.0
 10
4.7695577289
 20
5.2738466033
 30
0.0
 10
4.7693497642
 20
5.2737926899
 30
0.0
  0
SPLINE
  5
392
100
AcDbEntity
  8
0
100
AcDbSpline
 62
7
  6
CONTINUOUS
 70
0
 71
3
 72
39
 73
35
 74
0
 42
0.0000001
 43
0.0000001
 44
0.0000000001
 40
0.0
 40
0.0
 40
0.0
 40
0.0
 40
0.0002340713
 40
0.0003780974
 40
0.0005477747
 40
0.0009761593
 40
0.0015347912
 40
0.0022300025
 40
0.0030649776
 40
0.0040414951
 40
0.0051606246
 40
0.0078290617
 40
0.0110729169
 40
0.0148921736
 40
0.0192859621
 40
0.0297914139
 40
0.0425715924
 40
0.0576010323
 40
0.0748504559
 40
0.0942832217
 40
0.1158602193
 40
0.1395354911
 40
0.1652601273
 40
0.192980062
 40
0.2226369228
 40
0.2875094194
 40
0.3593328275
 40
0.4375034158
 40
0.5213641238
 40
0.6102093251
 40
0.703293012
 40
0.7998291508
 40
0.8990129862
 40
1.0
 40
1.0
 40
1.0
 40
1.0
 10
5.3981379638
 20
5.2906489334
 30
0.0
 10
5.3981379638
 20
5.2906268688
 30
0.0
 10
5.3981241426
 20
5.2905912456
 30
0.0
 10
5.3980904811
 20
5.2905521277
 30
0.0
 10
5.3980369097
 20
5.2905066499
 30
0.0
 10
5.3979416958
 20
5.2904522362
 30
0.0
 10
5.3977954121
 20
5.2903906732
 30
0.0
 10
5.397608285
 20
5.2903288623
 30
0.0
 10
5.3973802348
 20
5.2902667589
 30
0.0
 10
5.3971110394
 20
5.2902044698
 30
0.0
 10
5.3966707171
 20
5.2901159719
 30
0.0
 10
5.3960165774
 20
5.2900080397
 30
0.0
 10
5.3951075885
 20
5.2898841068
 30
0.0
 10
5.3940347381
 20
5.2897597309
 30
0.0
 10
5.3922791086
 20
5.289582724
 30
0.0
 10
5.3896786755
 20
5.2893671239
 30
0.0
 10
5.3860753761
 20
5.2891194588
 30
0.0
 10
5.3818351407
 20
5.2888708797
 30
0.0
 10
5.3769669317
 20
5.288621578
 30
0.0
 10
5.3714808329
 20
5.288371801
 30
0.0
 10
5.3653884621
 20
5.2881217074
 30
0.0
 10
5.3587025513
 20
5.2878713549
 30
0.0
 10
5.3514372169
 20
5.2876208288
 30
0.0
 10
5.3436077284
 20
5.2873701506
 30
0.0
 10
5.3320891434
 20
5.2870253658
 30
0.0
 10
5.3164138054
 20
5.2865986126
 30
0.0
 10
5.2961657088
 20
5.2860996733
 30
0.0
 10
5.2741272207
 20
5.2856001343
 30
0.0
 10
5.2504838166
 20
5.285100121
 30
0.0
 10
5.2254343528
 20
5.284599775
 30
0.0
 10
5.199189828
 20
5.2840991882
 30
0.0
 10
5.1719705732
 20
5.2835984178
 30
0.0
 10
5.1440061975
 20
5.283097531
 30
0.0
 10
5.1251401627
 20
5.2827656117
 30
0.0
 10
5.1156221573
 20
5.2825989334
 30
0.0
  0
SPLINE
  5
393
100
AcDbEntity
  8
0
100
AcDbSpline
 62
7
  6
CONTINUOUS
 70
0
 71
3
 72
63
 73
59
 74
0
 42
0.0000001
 43
0.0000001
 44
0.0000000001
 40
0.0
 40
0.0
 40
0.0
 40
0.0
 40
0.000254191
 40
0.000350766
 40
0.0004629182
 40
0.0007361972
 40
0.00107713
 40
0.0014871617
 40
0.0019670922
 40
0.0025173986
 40
0.0038301623
 40
0.0054264966
 40
0.0073062185
 40
0.0094687628
 40
0.0146389989
 40
0.0209271831
 40
0.0283195225
 40
0.0367999915
 40
0.046348859
 40
0.056944994
 40
0.0685635475
 40
0.0811783316
 40
0.094760052
 40
0.1092776064
 40
0.1246976461
 40
0.1409844072
 40
0.1760067511
 40
0.2140220416
 40
0.2546798833
 40
0.2976054893
 40
0.3424031843
 40
0.3886599354
 40
0.4359493039
 40
0.4838353195
 40
0.5318764102
 40
0.5796297186
 40
0.6266548423
 40
0.6725182885
 40
0.716797192
 40
0.7590833542
 40
0.7989870152
 40
0.8361403681
 40
0.870201037
 40
0.9008552802
 40
0.927820813
 40
0.9398413357
 40
0.9508497892
 40
0.9608205503
 40
0.9697310662
 40
0.9775611232
 40
0.98429294
 40
0.989912184
 40
0.9923005826
 40
0.9944067563
 40
0.9962299756
 40
0.9977697303
 40
0.9990259738
 40
1.0
 40
1.0
 40
1.0
 40
1.0
 10
5.3981379638
 20
5.3250989334
 30
0.0
 10
5.3981379638
 20
5.3250456188
 30
0.0
 10
5.3980742396
 20
5.3249825443
 30
0.0
 10
5.397993969
 20
5.3249321844
 30
0.0
 10
5.397903692
 20
5.3248850266
 30
0.0
 10
5.3977622827
 20
5.3248286029
 30
0.0
 10
5.3975572148
 20
5.3247637422
 30
0.0
 10
5.3973073073
 20
5.3246987998
 30
0.0
 10
5.3970122835
 20
5.324633572
 30
0.0
 10
5.3965296287
 20
5.3245409168
 30
0.0
 10
5.3958127216
 20
5.3244279175
 30
0.0
 10
5.3948166575
 20
5.3242981758
 30
0.0
 10
5.393641135
 20
5.3241679641
 30
0.0
 10
5.3917177461
 20
5.3239826539
 30
0.0
 10
5.3888696086
 20
5.3237569529
 30
0.0
 10
5.3849242611
 20
5.3234976647
 30
0.0
 10
5.3802833987
 20
5.3232374247
 30
0.0
 10
5.3749577629
 20
5.3229764234
 30
0.0
 10
5.3689594684
 20
5.3227149245
 30
0.0
 10
5.3623024427
 20
5.3224530962
 30
0.0
 10
5.3550019255
 20
5.3221909923
 30
0.0
 10
5.3470748425
 20
5.3219287114
 30
0.0
 10
5.3385394146
 20
5.3216662737
 30
0.0
 10
5.329415351
 20
5.321403723
 30
0.0
 10
5.3197237089
 20
5.3211410756
 30
0.0
 10
5.3057323958
 20
5.3207820267
 30
0.0
 10
5.2870025796
 20
5.3203367268
 30
0.0
 10
5.2631615693
 20
5.3198137908
 30
0.0
 10
5.2376625505
 20
5.3192904083
 30
0.0
 10
5.2107407013
 20
5.318766676
 30
0.0
 10
5.182644318
 20
5.3182427019
 30
0.0
 10
5.1536325197
 20
5.3177185566
 30
0.0
 10
5.1239728696
 20
5.3171943
 30
0.0
 10
5.0939389119
 20
5.3166699824
 30
0.0
 10
5.063807632
 20
5.3161456492
 30
0.0
 10
5.0338569443
 20
5.3156213452
 30
0.0
 10
5.0043630697
 20
5.3150971165
 30
0.0
 10
4.9755980393
 20
5.3145730157
 30
0.0
 10
4.9478271349
 20
5.3140491059
 30
0.0
 10
4.9213064746
 20
5.3135254655
 30
0.0
 10
4.8962806405
 20
5.3130022047
 30
0.0
 10
4.8729804288
 20
5.3124794598
 30
0.0
 10
4.8516207148
 20
5.3119574919
 30
0.0
 10
4.8323984931
 20
5.3114365065
 30
0.0
 10
4.817798809
 20
5.3109883316
 30
0.0
 10
4.8073191467
 20
5.3106246592
 30
0.0
 10
4.8004026555
 20
5.3103626994
 30
0.0
 10
4.7941389606
 20
5.3101010596
 30
0.0
 10
4.7885425347
 20
5.3098398289
 30
0.0
 10
4.7836262369
 20
5.3095792693
 30
0.0
 10
4.7794013333
 20
5.3093194832
 30
0.0
 10
4.7763179549
 20
5.3090938932
 30
0.0
 10
4.7742046656
 20
5.3089093937
 30
0.0
 10
4.7728859595
 20
5.3087788826
 30
0.0
 10
4.7717462092
 20
5.3086487445
 30
0.0
 10
4.7707859337
 20
5.3085192381
 30
0.0
 10
4.7700056728
 20
5.3083905109
 30
0.0
 10
4.7695475603
 20
5.3082939563
 30
0.0
 10
4.769349803
 20
5.3082426899
 30
0.0
  0
SPLINE
  5
394
100
AcDbEntity
  8
0
100
AcDbSpline
 62
7
  6
CONTINUOUS
 70
0
 71
3
 72
22
 73
18
 74
0
 42
0.0000001
 43
0.0000001
 44
0.0000000001
 40
0.0
 40
0.0
 40
0.0
 40
0.0
 40
0.0066200759
 40
0.0149023231
 40
0.0248529476
 40
0.0364717091
 40
0.0647018804
 40
0.0995602463
 40
0.1409873131
 40
0.1889088342
 40
0.2432402919
 40
0.3038770242
 40
0.3707094072
 40
0.4436101999
 40
0.6070580045
 40
0.7929889254
 40
1.0
 40
1.0
 40
1.0
 40
1.0
 10
5.3973170363
 20
4.8661786388
 30
0.0
 10
5.3971288636
 20
4.866133209
 30
0.0
 10
5.3967015864
 20
4.8660463761
 30
0.0
 10
5.3959842753
 20
4.8659292966
 30
0.0
 10
5.3951192546
 20
4.8658116392
 30
0.0
 10
5.3936727872
 20
4.8656430715
 30
0.0
 10
5.3914976207
 20
4.8654385608
 30
0.0
 10
5.3884503948
 20
4.8652041388
 30
0.0
 10
5.3848259978
 20
4.8649687277
 30
0.0
 10
5.3806312319
 20
4.8647324725
 30
0.0
 10
5.3758739962
 20
4.8644957647
 30
0.0
 10
5.3705631978
 20
4.8642586756
 30
0.0
 10
5.3647089331
 20
4.8640213356
 30
0.0
 10
5.3558496609
 20
4.8636919228
 30
0.0
 10
5.3435083237
 20
4.863285716
 30
0.0
 10
5.3272456367
 20
4.8628135307
 30
0.0
 10
5.315759437
 20
4.8625134866
 30
0.0
 10
5.3097080816
 20
4.862361805
 30
0.0
  0
SPLINE
  5
395
100
AcDbEntity
  8
0
100
AcDbSpline
 62
7
  6
CONTINUOUS
 70
0
 71
3
 72
41
 73
37
 74
0
 42
0.0000001
 43
0.0000001
 44
0.0000000001
 40
0.0
 40
0.0
 40
0.0
 40
0.0
 40
0.0946454945
 40
0.1892712022
 40
0.2828434208
 40
0.3743397479
 40
0.4627607718
 40
0.5471404341
 40
0.6265571656
 40
0.7001435249
 40
0.7344962918
 40
0.7670960523
 40
0.7978529816
 40
0.8266839836
 40
0.8535095016
 40
0.8782573599
 40
0.9008592305
 40
0.9212546668
 40
0.9393873689
 40
0.9552095305
 40
0.9686779285
 40
0.9745187103
 40
0.9797586763
 40
0.9843943619
 40
0.9884236141
 40
0.991844911
 40
0.9933273057
 40
0.9946574868
 40
0.9958356124
 40
0.9968621735
 40
0.9977380245
 40
0.9984646191
 40
0.9990446197
 40
0.9992812996
 40
0.9994838563
 40
1.0
 40
1.0
 40
1.0
 40
1.0
 10
5.1156221573
 20
5.3063746691
 30
0.0
 10
5.1046681452
 20
5.3061828436
 30
0.0
 10
5.0827623751
 20
5.3058012917
 30
0.0
 10
5.0500267953
 20
5.3052309865
 30
0.0
 10
5.0176558017
 20
5.304660752
 30
0.0
 10
4.986003142
 20
5.3040906626
 30
0.0
 10
4.9554147397
 20
5.3035208039
 30
0.0
 10
4.926224856
 20
5.3029512988
 30
0.0
 10
4.8987524944
 20
5.3023822598
 30
0.0
 10
4.8770704991
 20
5.3018982492
 30
0.0
 10
4.860807096
 20
5.3015079405
 30
0.0
 10
4.8495003456
 20
5.3012220462
 30
0.0
 10
4.8388329802
 20
5.3009362467
 30
0.0
 10
4.8288342628
 20
5.3006505864
 30
0.0
 10
4.8195314241
 20
5.3003650715
 30
0.0
 10
4.8109499962
 20
5.3000797829
 30
0.0
 10
4.8031133188
 20
5.2997947537
 30
0.0
 10
4.7960429189
 20
5.2995101182
 30
0.0
 10
4.7897579807
 20
5.2992260238
 30
0.0
 10
4.7842757771
 20
5.2989426545
 30
0.0
 10
4.7802164616
 20
5.2986973492
 30
0.0
 10
4.7773817773
 20
5.2984976354
 30
0.0
 10
4.775568079
 20
5.2983552442
 30
0.0
 10
4.7739647647
 20
5.2982131344
 30
0.0
 10
4.7725728817
 20
5.2980713558
 30
0.0
 10
4.7715460692
 20
5.2979485793
 30
0.0
 10
4.7708313959
 20
5.2978486563
 30
0.0
 10
4.7703749515
 20
5.2977774199
 30
0.0
 10
4.7699719721
 20
5.2977063077
 30
0.0
 10
4.7696224482
 20
5.2976353224
 30
0.0
 10
4.7693264295
 20
5.2975646593
 30
0.0
 10
4.7690835233
 20
5.2974940853
 30
0.0
 10
4.768916013
 20
5.2974327279
 30
0.0
 10
4.7688087161
 20
5.297381282
 30
0.0
 10
4.7687156777
 20
5.2973275561
 30
0.0
 10
4.7686379638
 20
5.2972594153
 30
0.0
 10
4.7686379638
 20
5.2971996691
 30
0.0
  0
SPLINE
  5
396
100
AcDbEntity
  8
0
100
AcDbSpline
 62
7
  6
CONTINUOUS
 70
0
 71
3
 72
37
 73
33
 74
0
 42
0.0000001
 43
0.0000001
 44
0.0000000001
 40
0.0
 40
0.0
 40
0.0
 40
0.0
 40
0.0002963403
 40
0.000647559
 40
0.0010884297
 40
0.001636892
 40
0.0023022057
 40
0.0030894905
 40
0.0050406336
 40
0.0075044596
 40
0.0104871184
 40
0.013991799
 40
0.0180198014
 40
0.02257129
 40
0.0276459614
 40
0.0393621919
 40
0.0531617687
 40
0.06903252
 40
0.0869586023
 40
0.1069235521
 40
0.1289078385
 40
0.1528881286
 40
0.2067398765
 40
0.2682586685
 40
0.337193821
 40
0.413260069
 40
0.4961454569
 40
0.5855099855
 40
0.6809801797
 40
0.7821657111
 40
0.8886653088
 40
1.0
 40
1.0
 40
1.0
 40
1.0
 10
5.3981379638
 20
4.5327489334
 30
0.0
 10
5.3981379638
 20
4.5327338732
 30
0.0
 10
5.3981295071
 20
4.5327007722
 30
0.0
 10
5.3980958623
 20
4.5326558321
 30
0.0
 10
5.3980431629
 20
4.5326120894
 30
0.0
 10
5.3979709346
 20
4.5325686239
 30
0.0
 10
5.3978788965
 20
4.5325251074
 30
0.0
 10
5.3977175605
 20
4.5324624275
 30
0.0
 10
5.3974639016
 20
4.5323867045
 30
0.0
 10
5.3970979292
 20
4.5323002778
 30
0.0
 10
5.3966512836
 20
4.5322134596
 30
0.0
 10
5.3961239973
 20
4.5321263005
 30
0.0
 10
5.3955160787
 20
4.532038948
 30
0.0
 10
5.3948276817
 20
4.5319514349
 30
0.0
 10
5.3937499944
 20
4.5318286527
 30
0.0
 10
5.3922026071
 20
4.5316778087
 30
0.0
 10
5.3901064951
 20
4.5315036291
 30
0.0
 10
5.3876938853
 20
4.5313290278
 30
0.0
 10
5.3849672594
 20
4.5311540683
 30
0.0
 10
5.3819293835
 20
4.5309788934
 30
0.0
 10
5.3785833785
 20
4.5308035446
 30
0.0
 10
5.3735164789
 20
4.530560046
 30
0.0
 10
5.3664408991
 20
4.5302595612
 30
0.0
 10
5.3570808365
 20
4.5299104925
 30
0.0
 10
5.3465911415
 20
4.5295608418
 30
0.0
 10
5.3350150581
 20
4.5292106959
 30
0.0
 10
5.3224003168
 20
4.5288602178
 30
0.0
 10
5.3087991102
 20
4.5285094916
 30
0.0
 10
5.2942675951
 20
4.5281585642
 30
0.0
 10
5.2788650295
 20
4.5278074756
 30
0.0
 10
5.2626560237
 20
4.5274562829
 30
0.0
 10
5.2515879105
 20
4.5272268762
 30
0.0
 10
5.2459309751
 20
4.5271118012
 30
0.0
  0
SPLINE
  5
397
100
AcDbEntity
  8
0
100
AcDbSpline
 62
7
  6
CONTINUOUS
 70
0
 71
3
 72
39
 73
35
 74
0
 42
0.0000001
 43
0.0000001
 44
0.0000000001
 40
0.0
 40
0.0
 40
0.0
 40
0.0
 40
0.0946363783
 40
0.1892554026
 40
0.2828187957
 40
0.3743076388
 40
0.4627211429
 40
0.5470939832
 40
0.626504513
 40
0.7000855403
 40
0.7344364359
 40
0.7670337145
 40
0.7977893848
 40
0.8266184875
 40
0.853443336
 40
0.8781900899
 40
0.9007920407
 40
0.9211873491
 40
0.9393210184
 40
0.9551443605
 40
0.9686150587
 40
0.9796988483
 40
0.9843365848
 40
0.9883685254
 40
0.9917931104
 40
0.9946095439
 40
0.995790065
 40
0.9968194504
 40
0.9976986742
 40
0.9984293842
 40
0.9990145749
 40
0.9992544403
 40
0.9994607175
 40
1.0
 40
1.0
 40
1.0
 40
1.0
 10
5.113538072
 20
5.3011118012
 30
0.0
 10
5.1032923897
 20
5.3009199777
 30
0.0
 10
5.0828028655
 20
5.3005384248
 30
0.0
 10
5.0521838076
 20
5.2999681199
 30
0.0
 10
5.0219056312
 20
5.299397883
 30
0.0
 10
4.992299523
 20
5.2988277948
 30
0.0
 10
4.9636887771
 20
5.2982579354
 30
0.0
 10
4.9363861646
 20
5.2976884296
 30
0.0
 10
4.9106900102
 20
5.2971193921
 30
0.0
 10
4.890409832
 20
5.2966353744
 30
0.0
 10
4.87519796
 20
5.2962450781
 30
0.0
 10
4.8646221888
 20
5.2959591706
 30
0.0
 10
4.854644559
 20
5.2956733853
 30
0.0
 10
4.8452922516
 20
5.2953877097
 30
0.0
 10
4.8365909239
 20
5.2951022095
 30
0.0
 10
4.8285642718
 20
5.294816906
 30
0.0
 10
4.8212342935
 20
5.2945318874
 30
0.0
 10
4.8146209724
 20
5.2942472496
 30
0.0
 10
4.8087423897
 20
5.2939631233
 30
0.0
 10
4.8036145469
 20
5.293679866
 30
0.0
 10
4.7992513859
 20
5.2933976078
 30
0.0
 10
4.7960997464
 20
5.2931519569
 30
0.0
 10
4.7939702727
 20
5.2929502468
 30
0.0
 10
4.7926683036
 20
5.292808496
 30
0.0
 10
4.7915648572
 20
5.2926672649
 30
0.0
 10
4.7907705103
 20
5.2925442794
 30
0.0
 10
4.7902356247
 20
5.2924434315
 30
0.0
 10
4.7899086748
 20
5.2923724388
 30
0.0
 10
4.7896317233
 20
5.2923017603
 30
0.0
 10
4.7894044562
 20
5.2922311665
 30
0.0
 10
4.7892477287
 20
5.2921697595
 30
0.0
 10
4.7891476009
 20
5.2921183952
 30
0.0
 10
4.7890590305
 20
5.2920638017
 30
0.0
 10
4.7889879616
 20
5.2919951962
 30
0.0
 10
4.7889879639
 20
5.2919368012
 30
0.0
  0
SPLINE
  5
398
100
AcDbEntity
  8
0
100
AcDbSpline
 62
7
  6
CONTINUOUS
 70
0
 71
3
 72
30
 73
26
 74
0
 42
0.0000001
 43
0.0000001
 44
0.0000000001
 40
0.0
 40
0.0
 40
0.0
 40
0.0
 40
0.1816472938
 40
0.2715942386
 40
0.3597566466
 40
0.4452498593
 40
0.5272193658
 40
0.6048447275
 40
0.6773495853
 40
0.7440085604
 40
0.8041553181
 40
0.8571886649
 40
0.880869387
 40
0.9025795649
 40
0.9222647818
 40
0.9398762321
 40
0.9553709197
 40
0.9687103023
 40
0.979863661
 40
0.9846119016
 40
0.9888046939
 40
0.9924404432
 40
0.9955179903
 40
0.9980370622
 40
1.0
 40
1.0
 40
1.0
 40
1.0
 10
5.113538072
 20
5.2878618012
 30
0.0
 10
5.0939257894
 20
5.2874946126
 30
0.0
 10
5.0646019169
 20
5.2869512366
 30
0.0
 10
5.0257593982
 20
5.2862208679
 30
0.0
 10
4.99729873
 20
5.2856749796
 30
0.0
 10
4.9696996878
 20
5.2851292697
 30
0.0
 10
4.9432387442
 20
5.284583828
 30
0.0
 10
4.9181806897
 20
5.2840387682
 30
0.0
 10
4.8947763907
 20
5.2834942351
 30
0.0
 10
4.8732600967
 20
5.2829504979
 30
0.0
 10
4.8538472013
 20
5.2824077743
 30
0.0
 10
4.8390751942
 20
5.2819410969
 30
0.0
 10
4.828453294
 20
5.2815624379
 30
0.0
 10
4.8214311446
 20
5.2812895108
 30
0.0
 10
4.8150649283
 20
5.2810169204
 30
0.0
 10
4.8093705715
 20
5.2807447409
 30
0.0
 10
4.8043623173
 20
5.2804732622
 30
0.0
 10
4.800052595
 20
5.2802025708
 30
0.0
 10
4.7969035382
 20
5.2799675726
 30
0.0
 10
4.7947420736
 20
5.2797754328
 30
0.0
 10
4.7933907167
 20
5.279639429
 30
0.0
 10
4.7922207777
 20
5.2795038079
 30
0.0
 10
4.7912328465
 20
5.2793688246
 30
0.0
 10
4.7904275267
 20
5.2792346403
 30
0.0
 10
4.7899536639
 20
5.2791341697
 30
0.0
 10
4.7897484768
 20
5.2790809617
 30
0.0
  0
SPLINE
  5
399
100
AcDbEntity
  8
0
100
AcDbSpline
 62
7
  6
CONTINUOUS
 70
0
 71
3
 72
63
 73
59
 74
0
 42
0.0000001
 43
0.0000001
 44
0.0000000001
 40
0.0
 40
0.0
 40
0.0
 40
0.0
 40
0.0010305488
 40
0.0023428763
 40
0.0039379092
 40
0.0058154627
 40
0.0079749741
 40
0.0104156864
 40
0.0161361879
 40
0.0229645197
 40
0.0308862536
 40
0.0398832882
 40
0.0499354205
 40
0.0610198261
 40
0.0731109087
 40
0.1002008843
 40
0.1309571577
 40
0.1650974078
 40
0.2023081681
 40
0.2422476303
 40
0.284548844
 40
0.3288231691
 40
0.3746637636
 40
0.4216493439
 40
0.4693481802
 40
0.5173217944
 40
0.5651293801
 40
0.6123315063
 40
0.6584944184
 40
0.7031939143
 40
0.7460192019
 40
0.7865768078
 40
0.8244940777
 40
0.8594226492
 40
0.8756647097
 40
0.8910418262
 40
0.9055184197
 40
0.9190613758
 40
0.9316397528
 40
0.9432244591
 40
0.9537894533
 40
0.9633100455
 40
0.9717652419
 40
0.979135424
 40
0.9854046854
 40
0.9905593093
 40
0.9927153186
 40
0.9945893618
 40
0.996180879
 40
0.9974896931
 40
0.9980383526
 40
0.9985168556
 40
0.9989256789
 40
0.9992656229
 40
0.9995381323
 40
0.9996499814
 40
0.9997463072
 40
1.0
 40
1.0
 40
1.0
 40
1.0
 10
5.3973170363
 20
5.0728786388
 30
0.0
 10
5.397106961
 20
5.0728279212
 30
0.0
 10
5.39662481
 20
5.0727318011
 30
0.0
 10
5.3958090313
 20
5.0726030655
 30
0.0
 10
5.3948138899
 20
5.0724736133
 30
0.0
 10
5.3936399476
 20
5.0723435962
 30
0.0
 10
5.3922877594
 20
5.0722132333
 30
0.0
 10
5.390131259
 20
5.0720292267
 30
0.0
 10
5.3869958324
 20
5.0718040365
 30
0.0
 10
5.3827108577
 20
5.0715445551
 30
0.0
 10
5.3777377368
 20
5.0712843404
 30
0.0
 10
5.3720878057
 20
5.0710234767
 30
0.0
 10
5.3657740371
 20
5.0707622254
 30
0.0
 10
5.3588109464
 20
5.0705006596
 30
0.0
 10
5.3482762793
 20
5.070137709
 30
0.0
 10
5.3336168647
 20
5.0696903168
 30
0.0
 10
5.3143338542
 20
5.0691701051
 30
0.0
 10
5.2929278006
 20
5.0686489308
 30
0.0
 10
5.269595491
 20
5.0681269958
 30
0.0
 10
5.2445514044
 20
5.0676045543
 30
0.0
 10
5.218025761
 20
5.0670817401
 30
0.0
 10
5.1902623996
 20
5.0665586612
 30
0.0
 10
5.1615165407
 20
5.0660353949
 30
0.0
 10
5.1320524326
 20
5.0655120032
 30
0.0
 10
5.1021409524
 20
5.064988538
 30
0.0
 10
5.0720570683
 20
5.0644650451
 30
0.0
 10
5.042077362
 20
5.0639415688
 30
0.0
 10
5.0124774256
 20
5.0634181544
 30
0.0
 10
4.9835293718
 20
5.0628948517
 30
0.0
 10
4.9554993122
 20
5.0623717205
 30
0.0
 10
4.9286449191
 20
5.061848831
 30
0.0
 10
4.9032130653
 20
5.0613262912
 30
0.0
 10
4.8794375515
 20
5.0608041975
 30
0.0
 10
4.8607606737
 20
5.0603596064
 30
0.0
 10
4.8468098989
 20
5.060001129
 30
0.0
 10
4.8371469524
 20
5.0597389065
 30
0.0
 10
4.8280502383
 20
5.0594767798
 30
0.0
 10
4.8195406884
 20
5.0592147667
 30
0.0
 10
4.8116378831
 20
5.0589529093
 30
0.0
 10
4.8043599331
 20
5.0586912293
 30
0.0
 10
4.7977236545
 20
5.0584298241
 30
0.0
 10
4.7917441915
 20
5.0581687478
 30
0.0
 10
4.7864353833
 20
5.0579081687
 30
0.0
 10
4.7818092652
 20
5.0576483487
 30
0.0
 10
4.7778765122
 20
5.05738948
 30
0.0
 10
4.7750374974
 20
5.057164143
 30
0.0
 10
4.7731202887
 20
5.0569791323
 30
0.0
 10
4.7719485486
 20
5.056849131
 30
0.0
 10
4.7709556931
 20
5.0567195989
 30
0.0
 10
4.7702410993
 20
5.0566067819
 30
0.0
 10
4.7697600049
 20
5.0565142769
 30
0.0
 10
4.769465933
 20
5.0564491544
 30
0.0
 10
4.7692168311
 20
5.0563843164
 30
0.0
 10
4.7690124242
 20
5.0563195599
 30
0.0
 10
4.7688714711
 20
5.0562632263
 30
0.0
 10
4.7687814911
 20
5.0562161469
 30
0.0
 10
4.7687014463
 20
5.0561658485
 30
0.0
 10
4.7686379638
 20
5.0561028697
 30
0.0
 10
4.7686379638
 20
5.0560496691
 30
0.0
  0
SPLINE
  5
39A
100
AcDbEntity
  8
0
100
AcDbSpline
 62
7
  6
CONTINUOUS
 70
0
 71
3
 72
62
 73
58
 74
0
 42
0.0000001
 43
0.0000001
 44
0.0000000001
 40
0.0
 40
0.0
 40
0.0
 40
0.0
 40
0.0011351644
 40
0.002550389
 40
0.0042462241
 40
0.0062225838
 40
0.0110147108
 40
0.016918164
 40
0.0239207463
 40
0.0320075346
 40
0.0411600121
 40
0.0513582742
 40
0.0625785898
 40
0.0747959825
 40
0.102107807
 40
0.1330450796
 40
0.1673256176
 40
0.2046364906
 40
0.2446369851
 40
0.2869617418
 40
0.3312241979
 40
0.3770200379
 40
0.4239308556
 40
0.4715281512
 40
0.5193769208
 40
0.5670401014
 40
0.6140821853
 40
0.6600734141
 40
0.7045936869
 40
0.7472361757
 40
0.7876114285
 40
0.8253506019
 40
0.8601091841
 40
0.8915699243
 40
0.9059727756
 40
0.9194458392
 40
0.9319587508
 40
0.9434829544
 40
0.9539920674
 40
0.9634627501
 40
0.9718730197
 40
0.9792047849
 40
0.985441369
 40
0.9905700001
 40
0.9927157451
 40
0.9945810184
 40
0.9961654904
 40
0.9974694821
 40
0.9980166583
 40
0.998494299
 40
0.998902908
 40
0.9992433524
 40
0.9995172414
 40
0.9997278337
 40
0.9998115892
 40
0.9998829953
 40
1.0
 40
1.0
 40
1.0
 40
1.0
 10
5.3768178762
 20
5.0675665755
 30
0.0
 10
5.3766009193
 20
5.0675167613
 30
0.0
 10
5.3761097054
 20
5.0674214506
 30
0.0
 10
5.3752869653
 20
5.0672927407
 30
0.0
 10
5.3742976694
 20
5.0671633873
 30
0.0
 10
5.3726481435
 20
5.0669782176
 30
0.0
 10
5.37017316
 20
5.066753507
 30
0.0
 10
5.3667121167
 20
5.0664957988
 30
0.0
 10
5.3626035543
 20
5.0662370416
 30
0.0
 10
5.3578568626
 20
5.0659774014
 30
0.0
 10
5.3524827141
 20
5.0657172141
 30
0.0
 10
5.3464934702
 20
5.065456668
 30
0.0
 10
5.3399027064
 20
5.0651958062
 30
0.0
 10
5.3299574386
 20
5.0648341628
 30
0.0
 10
5.3161463222
 20
5.0643881755
 30
0.0
 10
5.2980089384
 20
5.0638693623
 30
0.0
 10
5.2779100776
 20
5.06334962
 30
0.0
 10
5.2560334271
 20
5.0628291464
 30
0.0
 10
5.2325789284
 20
5.0623081827
 30
0.0
 10
5.2077609384
 20
5.0617868584
 30
0.0
 10
5.1818062663
 20
5.0612652779
 30
0.0
 10
5.1549521109
 20
5.0607435161
 30
0.0
 10
5.1274438864
 20
5.0602216335
 30
0.0
 10
5.099533019
 20
5.0596996809
 30
0.0
 10
5.0714745906
 20
5.059177703
 30
0.0
 10
5.0435250559
 20
5.0586557434
 30
0.0
 10
5.015939842
 20
5.0581338471
 30
0.0
 10
4.9889710526
 20
5.0576120635
 30
0.0
 10
4.9628651725
 20
5.0570904512
 30
0.0
 10
4.9378607905
 20
5.0565690843
 30
0.0
 10
4.9141864567
 20
5.0560480537
 30
0.0
 10
4.892058517
 20
5.0555275101
 30
0.0
 10
4.8716791913
 20
5.0550075882
 30
0.0
 10
4.8558756524
 20
5.0545630598
 30
0.0
 10
4.8442454536
 20
5.0542039158
 30
0.0
 10
4.836329632
 20
5.0539426574
 30
0.0
 10
4.8289786276
 20
5.0536815605
 30
0.0
 10
4.8222092318
 20
5.0534206577
 30
0.0
 10
4.8160368793
 20
5.0531599918
 30
0.0
 10
4.8104757377
 20
5.0528997042
 30
0.0
 10
4.8055384023
 20
5.052639852
 30
0.0
 10
4.8012361913
 20
5.0523808161
 30
0.0
 10
4.7975788049
 20
5.0521226865
 30
0.0
 10
4.7949387052
 20
5.051897982
 30
0.0
 10
4.7931559162
 20
5.0517135332
 30
0.0
 10
4.7920662779
 20
5.0515839
 30
0.0
 10
4.7911430125
 20
5.0514547189
 30
0.0
 10
4.7904785636
 20
5.0513422416
 30
0.0
 10
4.7900312474
 20
5.0512500393
 30
0.0
 10
4.7897576945
 20
5.0511851279
 30
0.0
 10
4.789525944
 20
5.0511204073
 30
0.0
 10
4.7893357875
 20
5.0510559749
 30
0.0
 10
4.7891871428
 20
5.0509917834
 30
0.0
 10
4.7890904827
 20
5.0509350198
 30
0.0
 10
4.7890361843
 20
5.0508876654
 30
0.0
 10
4.7890019507
 20
5.0508467315
 30
0.0
 10
4.7889880778
 20
5.0508097455
 30
0.0
 10
4.7889880816
 20
5.0507868012
 30
0.0
  0
SPLINE
  5
39B
100
AcDbEntity
  8
0
100
AcDbSpline
 62
7
  6
CONTINUOUS
 70
0
 71
3
 72
63
 73
59
 74
0
 42
0.0000001
 43
0.0000001
 44
0.0000000001
 40
0.0
 40
0.0
 40
0.0
 40
0.0
 40
0.0010305488
 40
0.0023428763
 40
0.0039379092
 40
0.0058154627
 40
0.0079749741
 40
0.0104156864
 40
0.0161361879
 40
0.0229645197
 40
0.0308862536
 40
0.0398832882
 40
0.0499354205
 40
0.0610198261
 40
0.0731109087
 40
0.1002008843
 40
0.1309571577
 40
0.1650974078
 40
0.2023081681
 40
0.2422476303
 40
0.284548844
 40
0.3288231691
 40
0.3746637636
 40
0.4216493439
 40
0.4693481802
 40
0.5173217944
 40
0.5651293801
 40
0.6123315063
 40
0.6584944184
 40
0.7031939143
 40
0.7460192019
 40
0.7865768078
 40
0.8244940777
 40
0.8594226492
 40
0.8756647097
 40
0.8910418262
 40
0.9055184197
 40
0.9190613758
 40
0.9316397528
 40
0.9432244591
 40
0.9537894533
 40
0.9633100455
 40
0.9717652419
 40
0.979135424
 40
0.9854046854
 40
0.9905593093
 40
0.9927153186
 40
0.9945893618
 40
0.996180879
 40
0.9974896931
 40
0.9980383526
 40
0.9985168556
 40
0.9989256789
 40
0.9992656229
 40
0.9995381323
 40
0.9996499814
 40
0.9997463072
 40
1.0
 40
1.0
 40
1.0
 40
1.0
 10
5.3973170363
 20
5.1073286388
 30
0.0
 10
5.397106961
 20
5.1072779212
 30
0.0
 10
5.39662481
 20
5.1071818011
 30
0.0
 10
5.3958090313
 20
5.1070530655
 30
0.0
 10
5.3948138899
 20
5.1069236133
 30
0.0
 10
5.3936399476
 20
5.1067935962
 30
0.0
 10
5.3922877594
 20
5.1066632333
 30
0.0
 10
5.390131259
 20
5.1064792267
 30
0.0
 10
5.3869958324
 20
5.1062540365
 30
0.0
 10
5.3827108577
 20
5.1059945551
 30
0.0
 10
5.3777377368
 20
5.1057343404
 30
0.0
 10
5.3720878057
 20
5.1054734767
 30
0.0
 10
5.3657740371
 20
5.1052122254
 30
0.0
 10
5.3588109464
 20
5.1049506596
 30
0.0
 10
5.3482762793
 20
5.104587709
 30
0.0
 10
5.3336168647
 20
5.1041403168
 30
0.0
 10
5.3143338542
 20
5.1036201051
 30
0.0
 10
5.2929278006
 20
5.1030989308
 30
0.0
 10
5.269595491
 20
5.1025769958
 30
0.0
 10
5.2445514044
 20
5.1020545543
 30
0.0
 10
5.218025761
 20
5.1015317401
 30
0.0
 10
5.1902623996
 20
5.1010086612
 30
0.0
 10
5.1615165407
 20
5.1004853949
 30
0.0
 10
5.1320524326
 20
5.0999620032
 30
0.0
 10
5.1021409524
 20
5.099438538
 30
0.0
 10
5.0720570683
 20
5.0989150451
 30
0.0
 10
5.042077362
 20
5.0983915688
 30
0.0
 10
5.0124774256
 20
5.0978681544
 30
0.0
 10
4.9835293718
 20
5.0973448517
 30
0.0
 10
4.9554993122
 20
5.0968217205
 30
0.0
 10
4.9286449191
 20
5.096298831
 30
0.0
 10
4.9032130653
 20
5.0957762912
 30
0.0
 10
4.8794375515
 20
5.0952541975
 30
0.0
 10
4.8607606737
 20
5.0948096064
 30
0.0
 10
4.8468098989
 20
5.094451129
 30
0.0
 10
4.8371469524
 20
5.0941889065
 30
0.0
 10
4.8280502383
 20
5.0939267798
 30
0.0
 10
4.8195406884
 20
5.0936647667
 30
0.0
 10
4.8116378831
 20
5.0934029093
 30
0.0
 10
4.8043599331
 20
5.0931412293
 30
0.0
 10
4.7977236545
 20
5.0928798241
 30
0.0
 10
4.7917441915
 20
5.0926187478
 30
0.0
 10
4.7864353833
 20
5.0923581687
 30
0.0
 10
4.7818092652
 20
5.0920983487
 30
0.0
 10
4.7778765122
 20
5.09183948
 30
0.0
 10
4.7750374974
 20
5.091614143
 30
0.0
 10
4.7731202887
 20
5.0914291323
 30
0.0
 10
4.7719485486
 20
5.091299131
 30
0.0
 10
4.7709556931
 20
5.0911695989
 30
0.0
 10
4.7702410993
 20
5.0910567819
 30
0.0
 10
4.7697600049
 20
5.0909642769
 30
0.0
 10
4.769465933
 20
5.0908991544
 30
0.0
 10
4.7692168311
 20
5.0908343164
 30
0.0
 10
4.7690124242
 20
5.0907695599
 30
0.0
 10
4.7688714711
 20
5.0907132263
 30
0.0
 10
4.7687814911
 20
5.0906661469
 30
0.0
 10
4.7687014463
 20
5.0906158485
 30
0.0
 10
4.7686379638
 20
5.0905528697
 30
0.0
 10
4.7686379638
 20
5.0904996691
 30
0.0
  0
LINE
  5
39C
100
AcDbEntity
  8
0
100
AcDbLine
 62
7
  6
CONTINUOUS
 10
5.3770274391
 20
5.1020676407
 11
5.3767782993
 21
5.1020076002
  0
SPLINE
  5
39D
100
AcDbEntity
  8
0
100
AcDbSpline
 62
7
  6
CONTINUOUS
 70
0
 71
3
 72
62
 73
58
 74
0
 42
0.0000001
 43
0.0000001
 44
0.0000000001
 40
0.0
 40
0.0
 40
0.0
 40
0.0
 40
0.0011534709
 40
0.0025869035
 40
0.0043009338
 40
0.0062952089
 40
0.0111215281
 40
0.0170581493
 40
0.0240921893
 40
0.0322087338
 40
0.0413896471
 40
0.0516140822
 40
0.0628593976
 40
0.0750995005
 40
0.1024519547
 40
0.1334224343
 40
0.1677287871
 40
0.2050581716
 40
0.2450701242
 40
0.2873996929
 40
0.3316605732
 40
0.3774489584
 40
0.4243468558
 40
0.4719263052
 40
0.5197530859
 40
0.5673906931
 40
0.614404408
 40
0.6603651262
 40
0.7048533608
 40
0.7474631905
 40
0.7878057952
 40
0.8255131672
 40
0.8602413792
 40
0.8916736998
 40
0.906062996
 40
0.9195237288
 40
0.932024636
 40
0.9435378705
 40
0.9540369466
 40
0.9634982408
 40
0.9719006144
 40
0.9792248637
 40
0.9854555842
 40
0.990578951
 40
0.992722456
 40
0.9945860459
 40
0.9961691434
 40
0.9974717617
 40
0.9980183031
 40
0.9984953871
 40
0.9989035501
 40
0.9992436897
 40
0.9995174185
 40
0.999727939
 40
0.9998116711
 40
0.9998830529
 40
1.0
 40
1.0
 40
1.0
 40
1.0
 10
5.3767782993
 20
5.1020076002
 30
0.0
 10
5.3765576439
 20
5.1019579308
 30
0.0
 10
5.3760591643
 20
5.1018627417
 30
0.0
 10
5.3752256247
 20
5.1017340435
 30
0.0
 10
5.3742256556
 20
5.1016047321
 30
0.0
 10
5.3725623526
 20
5.1014197649
 30
0.0
 10
5.3700707506
 20
5.101195136
 30
0.0
 10
5.3665905088
 20
5.100937543
 30
0.0
 10
5.3624636832
 20
5.1006788781
 30
0.0
 10
5.3576997085
 20
5.1004193469
 30
0.0
 10
5.3523093626
 20
5.1001593004
 30
0.0
 10
5.3463049028
 20
5.0998988599
 30
0.0
 10
5.3397000891
 20
5.0996381503
 30
0.0
 10
5.3297381659
 20
5.0992767229
 30
0.0
 10
5.3159090519
 20
5.0988310073
 30
0.0
 10
5.2977533629
 20
5.0983124458
 30
0.0
 10
5.2776406721
 20
5.0977929664
 30
0.0
 10
5.2557545809
 20
5.0972727586
 30
0.0
 10
5.23229487
 20
5.0967520649
 30
0.0
 10
5.2074757018
 20
5.0962310127
 30
0.0
 10
5.1815236392
 20
5.0957097061
 30
0.0
 10
5.1546756331
 20
5.0951882194
 30
0.0
 10
5.1271767938
 20
5.0946666124
 30
0.0
 10
5.0992781899
 20
5.0941449357
 30
0.0
 10
5.0712345165
 20
5.0936232343
 30
0.0
 10
5.043301793
 20
5.0931015517
 30
0.0
 10
5.0157350365
 20
5.0925799328
 30
0.0
 10
4.98878593
 20
5.092058427
 30
0.0
 10
4.9627005148
 20
5.0915370918
 30
0.0
 10
4.9377169413
 20
5.091016002
 30
0.0
 10
4.9140632781
 20
5.0904952484
 30
0.0
 10
4.8919554539
 20
5.0899749829
 30
0.0
 10
4.8715952943
 20
5.0894553357
 30
0.0
 10
4.8558070288
 20
5.0890110516
 30
0.0
 10
4.8441882796
 20
5.0886520822
 30
0.0
 10
4.8362804322
 20
5.0883909767
 30
0.0
 10
4.8289368567
 20
5.0881300102
 30
0.0
 10
4.8221743999
 20
5.0878692482
 30
0.0
 10
4.816008432
 20
5.0876087309
 30
0.0
 10
4.8104530318
 20
5.0873485613
 30
0.0
 10
4.8055208979
 20
5.0870888784
 30
0.0
 10
4.8012231573
 20
5.0868299459
 30
0.0
 10
4.797569677
 20
5.0865719853
 30
0.0
 10
4.7949323813
 20
5.086347393
 30
0.0
 10
4.7931515189
 20
5.0861630273
 30
0.0
 10
4.7920629942
 20
5.0860334692
 30
0.0
 10
4.7911406588
 20
5.0859043745
 30
0.0
 10
4.7904769202
 20
5.0857919504
 30
0.0
 10
4.7900301406
 20
5.0856997914
 30
0.0
 10
4.78975693
 20
5.0856349123
 30
0.0
 10
4.7895254543
 20
5.0855702227
 30
0.0
 10
4.7893354912
 20
5.0855058204
 30
0.0
 10
4.7891869585
 20
5.0854416651
 30
0.0
 10
4.7890903452
 20
5.0853849384
 30
0.0
 10
4.7890360603
 20
5.0853376121
 30
0.0
 10
4.7890018339
 20
5.085296704
 30
0.0
 10
4.7889879689
 20
5.0852597326
 30
0.0
 10
4.7889879792
 20
5.0852368012
 30
0.0
  0
SPLINE
  5
39E
100
AcDbEntity
  8
0
100
AcDbSpline
 62
7
  6
CONTINUOUS
 70
0
 71
3
 72
14
 73
10
 74
0
 42
0.0000001
 43
0.0000001
 44
0.0000000001
 40
0.0
 40
0.0
 40
0.0
 40
0.0
 40
0.1337966718
 40
0.2668479003
 40
0.3989050493
 40
0.5295636589
 40
0.6581058796
 40
0.783093791
 40
1.0
 40
1.0
 40
1.0
 40
1.0
 10
5.1498311118
 20
3.480275
 30
0.0
 10
5.1460712629
 20
3.4682826474
 30
0.0
 10
5.1387099662
 20
3.4443215153
 30
0.0
 10
5.128044618
 20
3.4084006162
 30
0.0
 10
5.1177424204
 20
3.3726806589
 30
0.0
 10
5.1077888628
 20
3.3373018917
 30
0.0
 10
5.0982064377
 20
3.3025091506
 30
0.0
 10
5.0866705464
 20
3.2598518122
 30
0.0
 10
5.0784551865
 20
3.2288049235
 30
0.0
 10
5.073297158
 20
3.2090939638
 30
0.0
  0
SPLINE
  5
39F
100
AcDbEntity
  8
0
100
AcDbSpline
 62
7
  6
CONTINUOUS
 70
0
 71
3
 72
63
 73
59
 74
0
 42
0.0000001
 43
0.0000001
 44
0.0000000001
 40
0.0
 40
0.0
 40
0.0
 40
0.0
 40
0.0010305488
 40
0.0023428763
 40
0.0039379092
 40
0.0058154627
 40
0.0079749741
 40
0.0104156864
 40
0.0161361879
 40
0.0229645197
 40
0.0308862536
 40
0.0398832882
 40
0.0499354205
 40
0.0610198261
 40
0.0731109087
 40
0.1002008843
 40
0.1309571577
 40
0.1650974078
 40
0.2023081681
 40
0.2422476303
 40
0.284548844
 40
0.3288231691
 40
0.3746637636
 40
0.4216493439
 40
0.4693481802
 40
0.5173217944
 40
0.5651293801
 40
0.6123315063
 40
0.6584944184
 40
0.7031939143
 40
0.7460192019
 40
0.7865768078
 40
0.8244940777
 40
0.8594226492
 40
0.8756647097
 40
0.8910418262
 40
0.9055184197
 40
0.9190613758
 40
0.9316397528
 40
0.9432244591
 40
0.9537894533
 40
0.9633100455
 40
0.9717652419
 40
0.979135424
 40
0.9854046854
 40
0.9905593093
 40
0.9927153186
 40
0.9945893618
 40
0.996180879
 40
0.9974896931
 40
0.9980383526
 40
0.9985168556
 40
0.9989256789
 40
0.9992656229
 40
0.9995381323
 40
0.9996499814
 40
0.9997463072
 40
1.0
 40
1.0
 40
1.0
 40
1.0
 10
5.3973170363
 20
4.9006286388
 30
0.0
 10
5.397106961
 20
4.9005779212
 30
0.0
 10
5.39662481
 20
4.9004818011
 30
0.0
 10
5.3958090313
 20
4.9003530655
 30
0.0
 10
5.3948138899
 20
4.9002236133
 30
0.0
 10
5.3936399476
 20
4.9000935962
 30
0.0
 10
5.3922877594
 20
4.8999632333
 30
0.0
 10
5.390131259
 20
4.8997792267
 30
0.0
 10
5.3869958324
 20
4.8995540365
 30
0.0
 10
5.3827108577
 20
4.8992945551
 30
0.0
 10
5.3777377368
 20
4.8990343404
 30
0.0
 10
5.3720878057
 20
4.8987734767
 30
0.0
 10
5.3657740371
 20
4.8985122254
 30
0.0
 10
5.3588109464
 20
4.8982506596
 30
0.0
 10
5.3482762793
 20
4.897887709
 30
0.0
 10
5.3336168647
 20
4.8974403168
 30
0.0
 10
5.3143338542
 20
4.8969201051
 30
0.0
 10
5.2929278006
 20
4.8963989308
 30
0.0
 10
5.269595491
 20
4.8958769958
 30
0.0
 10
5.2445514044
 20
4.8953545543
 30
0.0
 10
5.218025761
 20
4.8948317401
 30
0.0
 10
5.1902623996
 20
4.8943086612
 30
0.0
 10
5.1615165407
 20
4.8937853949
 30
0.0
 10
5.1320524326
 20
4.8932620032
 30
0.0
 10
5.1021409524
 20
4.892738538
 30
0.0
 10
5.0720570683
 20
4.8922150451
 30
0.0
 10
5.042077362
 20
4.8916915688
 30
0.0
 10
5.0124774256
 20
4.8911681544
 30
0.0
 10
4.9835293718
 20
4.8906448517
 30
0.0
 10
4.9554993122
 20
4.8901217205
 30
0.0
 10
4.9286449191
 20
4.889598831
 30
0.0
 10
4.9032130653
 20
4.8890762912
 30
0.0
 10
4.8794375515
 20
4.8885541975
 30
0.0
 10
4.8607606737
 20
4.8881096064
 30
0.0
 10
4.8468098989
 20
4.887751129
 30
0.0
 10
4.8371469524
 20
4.8874889065
 30
0.0
 10
4.8280502383
 20
4.8872267798
 30
0.0
 10
4.8195406884
 20
4.8869647667
 30
0.0
 10
4.8116378831
 20
4.8867029093
 30
0.0
 10
4.8043599331
 20
4.8864412293
 30
0.0
 10
4.7977236545
 20
4.8861798241
 30
0.0
 10
4.7917441915
 20
4.8859187478
 30
0.0
 10
4.7864353833
 20
4.8856581687
 30
0.0
 10
4.7818092652
 20
4.8853983487
 30
0.0
 10
4.7778765122
 20
4.88513948
 30
0.0
 10
4.7750374974
 20
4.884914143
 30
0.0
 10
4.7731202887
 20
4.8847291323
 30
0.0
 10
4.7719485486
 20
4.884599131
 30
0.0
 10
4.7709556931
 20
4.8844695989
 30
0.0
 10
4.7702410993
 20
4.8843567819
 30
0.0
 10
4.7697600049
 20
4.8842642769
 30
0.0
 10
4.769465933
 20
4.8841991544
 30
0.0
 10
4.7692168311
 20
4.8841343164
 30
0.0
 10
4.7690124242
 20
4.8840695599
 30
0.0
 10
4.7688714711
 20
4.8840132263
 30
0.0
 10
4.7687814911
 20
4.8839661469
 30
0.0
 10
4.7687014463
 20
4.8839158485
 30
0.0
 10
4.7686379638
 20
4.8838528697
 30
0.0
 10
4.7686379638
 20
4.8837996691
 30
0.0
  0
SPLINE
  5
3A0
100
AcDbEntity
  8
0
100
AcDbSpline
 62
7
  6
CONTINUOUS
 70
0
 71
3
 72
63
 73
59
 74
0
 42
0.0000001
 43
0.0000001
 44
0.0000000001
 40
0.0
 40
0.0
 40
0.0
 40
0.0
 40
0.0010295223
 40
0.0023401753
 40
0.0039331658
 40
0.0058084302
 40
0.0079654638
 40
0.01040354
 40
0.0161185871
 40
0.0229413677
 40
0.030857422
 40
0.0398489944
 40
0.0498955763
 40
0.0609747775
 40
0.0730606975
 40
0.100141166
 40
0.1308888588
 40
0.1650215345
 40
0.2022258106
 40
0.2421599244
 40
0.2844569365
 40
0.3287282578
 40
0.3745668754
 40
0.4215515549
 40
0.4692503229
 40
0.5172247901
 40
0.5650340118
 40
0.6122384827
 40
0.6584043728
 40
0.7031072506
 40
0.7459362827
 40
0.786497897
 40
0.8244193841
 40
0.8593523974
 40
0.8909761223
 40
0.9054548796
 40
0.919000253
 40
0.9315806422
 40
0.9431678698
 40
0.9537348664
 40
0.9632579638
 40
0.9717154308
 40
0.9790881195
 40
0.9853601605
 40
0.9905175873
 40
0.992675412
 40
0.9945514092
 40
0.9961449408
 40
0.9974561584
 40
0.9980063144
 40
0.998486544
 40
0.9988973741
 40
0.9992396938
 40
0.9995151082
 40
0.9997268181
 40
0.9998109648
 40
0.9998826555
 40
1.0
 40
1.0
 40
1.0
 40
1.0
 10
5.3770274578
 20
4.8953676407
 30
0.0
 10
5.3768319637
 20
4.8953169457
 30
0.0
 10
5.376382712
 20
4.8952208249
 30
0.0
 10
5.375621882
 20
4.8950920793
 30
0.0
 10
5.3746932762
 20
4.8949626123
 30
0.0
 10
5.3735974118
 20
4.8948325777
 30
0.0
 10
5.3723348
 20
4.8947021941
 30
0.0
 10
5.3703206254
 20
4.8945181477
 30
0.0
 10
5.367391331
 20
4.8942929278
 30
0.0
 10
5.3633872634
 20
4.8940334277
 30
0.0
 10
5.3587393283
 20
4.8937731809
 30
0.0
 10
5.3534581648
 20
4.8935122967
 30
0.0
 10
5.3475558378
 20
4.8932510083
 30
0.0
 10
5.3410459755
 20
4.8929894211
 30
0.0
 10
5.3311960284
 20
4.8926264166
 30
0.0
 10
5.317488308
 20
4.8921789739
 30
0.0
 10
5.2994559339
 20
4.8916587058
 30
0.0
 10
5.2794368704
 20
4.8911374753
 30
0.0
 10
5.2576151844
 20
4.8906154831
 30
0.0
 10
5.2341914983
 20
4.8900929838
 30
0.0
 10
5.2093811635
 20
4.8895701117
 30
0.0
 10
5.1834123106
 20
4.8890469748
 30
0.0
 10
5.1565237081
 20
4.8885236502
 30
0.0
 10
5.1289626263
 20
4.8880002002
 30
0.0
 10
5.1009824847
 20
4.8874766761
 30
0.0
 10
5.0728405663
 20
4.8869531244
 30
0.0
 10
5.0447956299
 20
4.8864295892
 30
0.0
 10
5.0171055411
 20
4.885906116
 30
0.0
 10
4.9900249286
 20
4.8853827549
 30
0.0
 10
4.9638028019
 20
4.8848595639
 30
0.0
 10
4.9386802809
 20
4.8843366182
 30
0.0
 10
4.914888352
 20
4.883814009
 30
0.0
 10
4.8926457593
 20
4.8832918891
 30
0.0
 10
4.8721570069
 20
4.882770389
 30
0.0
 10
4.8562665918
 20
4.882324536
 30
0.0
 10
4.8445710803
 20
4.8819643004
 30
0.0
 10
4.8366100428
 20
4.8817022606
 30
0.0
 10
4.8292165571
 20
4.8814403589
 30
0.0
 10
4.8224077226
 20
4.8811786679
 30
0.0
 10
4.816199105
 20
4.8809172129
 30
0.0
 10
4.8106050275
 20
4.8806561203
 30
0.0
 10
4.8056383097
 20
4.8803955012
 30
0.0
 10
4.8013102785
 20
4.8801356476
 30
0.0
 10
4.7976309139
 20
4.8798767639
 30
0.0
 10
4.7949748698
 20
4.8796513648
 30
0.0
 10
4.793181303
 20
4.8794663446
 30
0.0
 10
4.7920850108
 20
4.8793363273
 30
0.0
 10
4.7911561035
 20
4.8792067642
 30
0.0
 10
4.7904876298
 20
4.8790939376
 30
0.0
 10
4.7900376388
 20
4.87900145
 30
0.0
 10
4.7897624566
 20
4.8789363397
 30
0.0
 10
4.7895293087
 20
4.8788714202
 30
0.0
 10
4.7893379767
 20
4.8788067914
 30
0.0
 10
4.7891883844
 20
4.878742412
 30
0.0
 10
4.7890910794
 20
4.8786854884
 30
0.0
 10
4.7890364084
 20
4.8786379824
 30
0.0
 10
4.7890019632
 20
4.8785969429
 30
0.0
 10
4.7889879936
 20
4.8785598205
 30
0.0
 10
4.788988007
 20
4.8785368012
 30
0.0
  0
SPLINE
  5
3A1
100
AcDbEntity
  8
0
100
AcDbSpline
 62
7
  6
CONTINUOUS
 70
0
 71
3
 72
63
 73
59
 74
0
 42
0.0000001
 43
0.0000001
 44
0.0000000001
 40
0.0
 40
0.0
 40
0.0
 40
0.0
 40
0.0010305488
 40
0.0023428763
 40
0.0039379092
 40
0.0058154627
 40
0.0079749741
 40
0.0104156864
 40
0.0161361879
 40
0.0229645197
 40
0.0308862536
 40
0.0398832882
 40
0.0499354205
 40
0.0610198261
 40
0.0731109087
 40
0.1002008843
 40
0.1309571577
 40
0.1650974078
 40
0.2023081681
 40
0.2422476303
 40
0.284548844
 40
0.3288231691
 40
0.3746637636
 40
0.4216493439
 40
0.4693481802
 40
0.5173217944
 40
0.5651293801
 40
0.6123315063
 40
0.6584944184
 40
0.7031939143
 40
0.7460192019
 40
0.7865768078
 40
0.8244940777
 40
0.8594226492
 40
0.8756647097
 40
0.8910418262
 40
0.9055184197
 40
0.9190613758
 40
0.9316397528
 40
0.9432244591
 40
0.9537894533
 40
0.9633100455
 40
0.9717652419
 40
0.979135424
 40
0.9854046854
 40
0.9905593093
 40
0.9927153186
 40
0.9945893618
 40
0.996180879
 40
0.9974896931
 40
0.9980383526
 40
0.9985168556
 40
0.9989256789
 40
0.9992656229
 40
0.9995381323
 40
0.9996499814
 40
0.9997463072
 40
1.0
 40
1.0
 40
1.0
 40
1.0
 10
5.3973170363
 20
5.1417786388
 30
0.0
 10
5.397106961
 20
5.1417279212
 30
0.0
 10
5.39662481
 20
5.1416318011
 30
0.0
 10
5.3958090313
 20
5.1415030655
 30
0.0
 10
5.3948138899
 20
5.1413736133
 30
0.0
 10
5.3936399476
 20
5.1412435962
 30
0.0
 10
5.3922877594
 20
5.1411132333
 30
0.0
 10
5.390131259
 20
5.1409292267
 30
0.0
 10
5.3869958324
 20
5.1407040365
 30
0.0
 10
5.3827108577
 20
5.1404445551
 30
0.0
 10
5.3777377368
 20
5.1401843404
 30
0.0
 10
5.3720878057
 20
5.1399234767
 30
0.0
 10
5.3657740371
 20
5.1396622254
 30
0.0
 10
5.3588109464
 20
5.1394006596
 30
0.0
 10
5.3482762793
 20
5.139037709
 30
0.0
 10
5.3336168647
 20
5.1385903168
 30
0.0
 10
5.3143338542
 20
5.1380701051
 30
0.0
 10
5.2929278006
 20
5.1375489308
 30
0.0
 10
5.269595491
 20
5.1370269958
 30
0.0
 10
5.2445514044
 20
5.1365045543
 30
0.0
 10
5.218025761
 20
5.1359817401
 30
0.0
 10
5.1902623996
 20
5.1354586612
 30
0.0
 10
5.1615165407
 20
5.1349353949
 30
0.0
 10
5.1320524326
 20
5.1344120032
 30
0.0
 10
5.1021409524
 20
5.133888538
 30
0.0
 10
5.0720570683
 20
5.1333650451
 30
0.0
 10
5.042077362
 20
5.1328415688
 30
0.0
 10
5.0124774256
 20
5.1323181544
 30
0.0
 10
4.9835293718
 20
5.1317948517
 30
0.0
 10
4.9554993122
 20
5.1312717205
 30
0.0
 10
4.9286449191
 20
5.130748831
 30
0.0
 10
4.9032130653
 20
5.1302262912
 30
0.0
 10
4.8794375515
 20
5.1297041975
 30
0.0
 10
4.8607606737
 20
5.1292596064
 30
0.0
 10
4.8468098989
 20
5.128901129
 30
0.0
 10
4.8371469524
 20
5.1286389065
 30
0.0
 10
4.8280502383
 20
5.1283767798
 30
0.0
 10
4.8195406884
 20
5.1281147667
 30
0.0
 10
4.8116378831
 20
5.1278529093
 30
0.0
 10
4.8043599331
 20
5.1275912293
 30
0.0
 10
4.7977236545
 20
5.1273298241
 30
0.0
 10
4.7917441915
 20
5.1270687478
 30
0.0
 10
4.7864353833
 20
5.1268081687
 30
0.0
 10
4.7818092652
 20
5.1265483487
 30
0.0
 10
4.7778765122
 20
5.12628948
 30
0.0
 10
4.7750374974
 20
5.126064143
 30
0.0
 10
4.7731202887
 20
5.1258791323
 30
0.0
 10
4.7719485486
 20
5.125749131
 30
0.0
 10
4.7709556931
 20
5.1256195989
 30
0.0
 10
4.7702410993
 20
5.1255067819
 30
0.0
 10
4.7697600049
 20
5.1254142769
 30
0.0
 10
4.769465933
 20
5.1253491544
 30
0.0
 10
4.7692168311
 20
5.1252843164
 30
0.0
 10
4.7690124242
 20
5.1252195599
 30
0.0
 10
4.7688714711
 20
5.1251632263
 30
0.0
 10
4.7687814911
 20
5.1251161469
 30
0.0
 10
4.7687014463
 20
5.1250658485
 30
0.0
 10
4.7686379638
 20
5.1250028697
 30
0.0
 10
4.7686379638
 20
5.1249496691
 30
0.0
  0
LINE
  5
3A2
100
AcDbEntity
  8
0
100
AcDbLine
 62
7
  6
CONTINUOUS
 10
5.3770274985
 20
5.1365176406
 11
5.3767360328
 21
5.136448184
  0
SPLINE
  5
3A3
100
AcDbEntity
  8
0
100
AcDbSpline
 62
7
  6
CONTINUOUS
 70
0
 71
3
 72
62
 73
58
 74
0
 42
0.0000001
 43
0.0000001
 44
0.0000000001
 40
0.0
 40
0.0
 40
0.0
 40
0.0
 40
0.0011730443
 40
0.0026256006
 40
0.004358324
 40
0.0063712126
 40
0.0112339497
 40
0.0172048327
 40
0.0242721248
 40
0.032419758
 40
0.041630272
 40
0.0518825396
 40
0.0631535783
 40
0.0754179805
 40
0.1028127416
 40
0.1338178525
 40
0.1681511376
 40
0.2054999653
 40
0.2455240964
 40
0.2878587113
 40
0.3321179796
 40
0.3778984017
 40
0.4247827054
 40
0.4723435315
 40
0.520147238
 40
0.5677581317
 40
0.6147420224
 40
0.6606707146
 40
0.7051254982
 40
0.7477011782
 40
0.7880097572
 40
0.8256837891
 40
0.8603800326
 40
0.8917824248
 40
0.9061579369
 40
0.9196052202
 40
0.9320940524
 40
0.9435955163
 40
0.9540841948
 40
0.9635357859
 40
0.9719294763
 40
0.9792463978
 40
0.985470397
 40
0.9905888061
 40
0.9927299844
 40
0.9945914471
 40
0.996172879
 40
0.9974743785
 40
0.9980204448
 40
0.9984970459
 40
0.9989047357
 40
0.9992444459
 40
0.9995178219
 40
0.9997280972
 40
0.9998117537
 40
0.9998830906
 40
1.0
 40
1.0
 40
1.0
 40
1.0
 10
5.3767360328
 20
5.136448184
 30
0.0
 10
5.3765114302
 20
5.1363986606
 30
0.0
 10
5.3760052512
 20
5.1363036238
 30
0.0
 10
5.3751603915
 20
5.1361749312
 30
0.0
 10
5.374149343
 20
5.1360456382
 30
0.0
 10
5.3724715999
 20
5.1358608719
 30
0.0
 10
5.3699625981
 20
5.1356363932
 30
0.0
 10
5.3664621781
 20
5.1353788499
 30
0.0
 10
5.3623162797
 20
5.135120327
 30
0.0
 10
5.3575342062
 20
5.1348608957
 30
0.0
 10
5.3521268758
 20
5.1346009876
 30
0.0
 10
5.3461065341
 20
5.1343406847
 30
0.0
 10
5.3394869264
 20
5.1340801015
 30
0.0
 10
5.3295076144
 20
5.1337189358
 30
0.0
 10
5.3156596533
 20
5.1332734806
 30
0.0
 10
5.2974849222
 20
5.1327551903
 30
0.0
 10
5.27735782
 20
5.1322359843
 30
0.0
 10
5.2554618527
 20
5.1317160572
 30
0.0
 10
5.2319966747
 20
5.1311956472
 30
0.0
 10
5.2071762692
 20
5.130674881
 30
0.0
 10
5.181227003
 20
5.1301538615
 30
0.0
 10
5.1543855149
 20
5.1296326627
 30
0.0
 10
5.1268965776
 20
5.1291113447
 30
0.0
 10
5.0990108684
 20
5.1285899578
 30
0.0
 10
5.0709826733
 20
5.1280685467
 30
0.0
 10
5.0430676165
 20
5.1275471551
 30
0.0
 10
5.0155202552
 20
5.1270258267
 30
0.0
 10
4.9885918196
 20
5.1265046115
 30
0.0
 10
4.96252786
 20
5.1259835674
 30
0.0
 10
4.9375660531
 20
5.1254627687
 30
0.0
 10
4.913934037
 20
5.1249423067
 30
0.0
 10
4.8918473184
 20
5.1244223319
 30
0.0
 10
4.8715073324
 20
5.1239029777
 30
0.0
 10
4.8557350695
 20
5.1234589305
 30
0.0
 10
4.8441283842
 20
5.123100173
 30
0.0
 10
4.8362288275
 20
5.1228391985
 30
0.0
 10
4.8288931053
 20
5.1225783971
 30
0.0
 10
4.8221378618
 20
5.1223177632
 30
0.0
 10
4.8159785971
 20
5.1220574048
 30
0.0
 10
4.8104292504
 20
5.1217973788
 30
0.0
 10
4.8055025229
 20
5.12153783
 30
0.0
 10
4.8012095549
 20
5.1212790701
 30
0.0
 10
4.7975600742
 20
5.1210212123
 30
0.0
 10
4.7949257162
 20
5.1207967837
 30
0.0
 10
4.7931468319
 20
5.1206125119
 30
0.0
 10
4.7920595892
 20
5.1204830178
 30
0.0
 10
4.791138287
 20
5.1203539856
 30
0.0
 10
4.7904752341
 20
5.1202416389
 30
0.0
 10
4.7900288928
 20
5.120149537
 30
0.0
 10
4.7897559831
 20
5.1200846942
 30
0.0
 10
4.7895247979
 20
5.1200200395
 30
0.0
 10
4.7893350989
 20
5.1199556709
 30
0.0
 10
4.789186784
 20
5.1198915477
 30
0.0
 10
4.7890903185
 20
5.1198348482
 30
0.0
 10
4.7890361106
 20
5.1197875516
 30
0.0
 10
4.7890019183
 20
5.119746661
 30
0.0
 10
4.7889880458
 20
5.1197097236
 30
0.0
 10
4.7889880323
 20
5.1196868013
 30
0.0
  0
SPLINE
  5
3A4
100
AcDbEntity
  8
0
100
AcDbSpline
 62
7
  6
CONTINUOUS
 70
0
 71
3
 72
63
 73
59
 74
0
 42
0.0000001
 43
0.0000001
 44
0.0000000001
 40
0.0
 40
0.0
 40
0.0
 40
0.0
 40
0.0010305439
 40
0.0023428665
 40
0.0039378946
 40
0.0058154434
 40
0.0079749501
 40
0.0104156581
 40
0.0161361513
 40
0.0229644753
 40
0.0308862016
 40
0.0398832294
 40
0.0499353554
 40
0.0610197556
 40
0.0731108327
 40
0.1002007982
 40
0.1309570638
 40
0.1650973053
 40
0.2023080595
 40
0.2422475171
 40
0.2845487262
 40
0.32882305
 40
0.3746636464
 40
0.4216492279
 40
0.469348067
 40
0.5173216871
 40
0.5651292758
 40
0.612331412
 40
0.658494333
 40
0.703193838
 40
0.7460191384
 40
0.7865767516
 40
0.824494031
 40
0.8594226088
 40
0.875664673
 40
0.8910417939
 40
0.9055183912
 40
0.919061351
 40
0.9316397314
 40
0.9432244415
 40
0.9537894395
 40
0.9633100346
 40
0.9717652337
 40
0.9791354181
 40
0.9854046816
 40
0.9905593072
 40
0.992715317
 40
0.9945893606
 40
0.9961808781
 40
0.9974896925
 40
0.9980383522
 40
0.9985168552
 40
0.9989256787
 40
0.9992656228
 40
0.9995381322
 40
0.9996499814
 40
0.9997463072
 40
1.0
 40
1.0
 40
1.0
 40
1.0
 10
5.3973170461
 20
5.1762286412
 30
0.0
 10
5.3971069718
 20
5.1761779235
 30
0.0
 10
5.3966248228
 20
5.1760818034
 30
0.0
 10
5.3958090473
 20
5.1759530678
 30
0.0
 10
5.3948139089
 20
5.1758236155
 30
0.0
 10
5.3936399696
 20
5.1756935984
 30
0.0
 10
5.3922877842
 20
5.1755632356
 30
0.0
 10
5.3901312874
 20
5.1753792289
 30
0.0
 10
5.3869958651
 20
5.1751540387
 30
0.0
 10
5.3827108953
 20
5.1748945572
 30
0.0
 10
5.377737779
 20
5.1746343424
 30
0.0
 10
5.3720878521
 20
5.1743734787
 30
0.0
 10
5.3657740874
 20
5.1741122274
 30
0.0
 10
5.3588110002
 20
5.1738506615
 30
0.0
 10
5.3482763373
 20
5.1734877109
 30
0.0
 10
5.3336169274
 20
5.1730403186
 30
0.0
 10
5.3143339221
 20
5.1725201069
 30
0.0
 10
5.2929278728
 20
5.1719989325
 30
0.0
 10
5.269595567
 20
5.1714769974
 30
0.0
 10
5.2445514831
 20
5.1709545559
 30
0.0
 10
5.2180258415
 20
5.1704317417
 30
0.0
 10
5.1902624805
 20
5.1699086627
 30
0.0
 10
5.1615166208
 20
5.1693853963
 30
0.0
 10
5.132052511
 20
5.1688620046
 30
0.0
 10
5.1021410283
 20
5.1683385393
 30
0.0
 10
5.0720571412
 20
5.1678150464
 30
0.0
 10
5.0420774305
 20
5.16729157
 30
0.0
 10
5.0124774891
 20
5.1667681556
 30
0.0
 10
4.983529429
 20
5.1662448527
 30
0.0
 10
4.9554993624
 20
5.1657217214
 30
0.0
 10
4.9286449628
 20
5.1651988319
 30
0.0
 10
4.9032131023
 20
5.164676292
 30
0.0
 10
4.8794375833
 20
5.1641541982
 30
0.0
 10
4.8607607011
 20
5.1637096071
 30
0.0
 10
4.846809923
 20
5.1633511297
 30
0.0
 10
4.8371469739
 20
5.1630889071
 30
0.0
 10
4.8280502571
 20
5.1628267803
 30
0.0
 10
4.8195407048
 20
5.1625647672
 30
0.0
 10
4.8116378971
 20
5.1623029098
 30
0.0
 10
4.8043599447
 20
5.1620412297
 30
0.0
 10
4.7977236638
 20
5.1617798245
 30
0.0
 10
4.7917441988
 20
5.1615187481
 30
0.0
 10
4.7864353889
 20
5.161258169
 30
0.0
 10
4.7818092692
 20
5.160998349
 30
0.0
 10
4.7778765149
 20
5.1607394802
 30
0.0
 10
4.7750374991
 20
5.1605141432
 30
0.0
 10
4.7731202898
 20
5.1603291324
 30
0.0
 10
4.7719485495
 20
5.1601991311
 30
0.0
 10
4.7709556937
 20
5.160069599
 30
0.0
 10
4.7702410997
 20
5.159956782
 30
0.0
 10
4.7697600052
 20
5.1598642769
 30
0.0
 10
4.7694659332
 20
5.1597991544
 30
0.0
 10
4.7692168313
 20
5.1597343164
 30
0.0
 10
4.7690124243
 20
5.15966956
 30
0.0
 10
4.7688714711
 20
5.1596132264
 30
0.0
 10
4.7687814912
 20
5.1595661469
 30
0.0
 10
4.7687014464
 20
5.1595158486
 30
0.0
 10
4.7686379638
 20
5.1594528697
 30
0.0
 10
4.7686379638
 20
5.1593996691
 30
0.0
  0
LINE
  5
3A5
100
AcDbEntity
  8
0
100
AcDbLine
 62
7
  6
CONTINUOUS
 10
5.3770275675
 20
5.1709676407
 11
5.3766948033
 21
5.1708891597
  0
SPLINE
  5
3A6
100
AcDbEntity
  8
0
100
AcDbSpline
 62
7
  6
CONTINUOUS
 70
0
 71
3
 72
62
 73
58
 74
0
 42
0.0000001
 43
0.0000001
 44
0.0000000001
 40
0.0
 40
0.0
 40
0.0
 40
0.0
 40
0.0011917355
 40
0.0026628804
 40
0.0044137858
 40
0.0064442606
 40
0.0113415203
 40
0.01734569
 40
0.0244442858
 40
0.032622176
 40
0.0418606508
 40
0.0521396639
 40
0.0634353968
 40
0.0757227799
 40
0.1031580213
 40
0.1341963188
 40
0.1685555901
 40
0.2059230851
 40
0.2459587594
 40
0.2882981069
 40
0.3325556648
 40
0.3783285278
 40
0.4251998336
 40
0.4727428177
 40
0.5205244593
 40
0.5681096385
 40
0.6150650662
 40
0.6609631485
 40
0.7053859404
 40
0.7479289631
 40
0.78820476
 40
0.8258467855
 40
0.8605124217
 40
0.8918863319
 40
0.9062486075
 40
0.919683297
 40
0.9321600979
 40
0.943650796
 40
0.9541290448
 40
0.9635717412
 40
0.9719569871
 40
0.979266774
 40
0.9854846562
 40
0.9905977863
 40
0.9927370683
 40
0.9945967582
 40
0.9961764556
 40
0.9974765101
 40
0.9980220437
 40
0.9984982651
 40
0.9989056827
 40
0.9992451678
 40
0.9995183152
 40
0.9997283668
 40
0.9998119262
 40
0.999883183
 40
1.0
 40
1.0
 40
1.0
 40
1.0
 10
5.3766948033
 20
5.1708891597
 30
0.0
 10
5.3764664384
 20
5.1708397657
 30
0.0
 10
5.375952848
 20
5.1707448687
 30
0.0
 10
5.3750970509
 20
5.170616201
 30
0.0
 10
5.3740753321
 20
5.1704869441
 30
0.0
 10
5.3723838318
 20
5.1703023317
 30
0.0
 10
5.3698581962
 20
5.1700779882
 30
0.0
 10
5.3663385381
 20
5.1698205478
 30
0.0
 10
5.3621743035
 20
5.1695621019
 30
0.0
 10
5.3573749895
 20
5.1693028181
 30
0.0
 10
5.3519513669
 20
5.1690430067
 30
0.0
 10
5.3459158702
 20
5.1687828518
 30
0.0
 10
5.3392821314
 20
5.1685223917
 30
0.0
 10
5.3292862328
 20
5.1681614657
 30
0.0
 10
5.3154203
 20
5.1677162668
 30
0.0
 10
5.2972273206
 20
5.1671982349
 30
0.0
 10
5.2770863901
 20
5.1666792933
 30
0.0
 10
5.2551809668
 20
5.1661596351
 30
0.0
 10
5.2317106139
 20
5.1656394964
 30
0.0
 10
5.2068891271
 20
5.1651190035
 30
0.0
 10
5.1809426066
 20
5.164598259
 30
0.0
 10
5.1541074052
 20
5.1640773365
 30
0.0
 10
5.1266279642
 20
5.1635562958
 30
0.0
 10
5.0987546243
 20
5.1630351868
 30
0.0
 10
5.0707413022
 20
5.1625140539
 30
0.0
 10
5.042843193
 20
5.1619929404
 30
0.0
 10
5.0153144286
 20
5.1614718907
 30
0.0
 10
4.9884057763
 20
5.1609509545
 30
0.0
 10
4.9623623606
 20
5.1604301896
 30
0.0
 10
4.9374214447
 20
5.1599096704
 30
0.0
 10
4.9138102273
 20
5.159389487
 30
0.0
 10
4.8917437948
 20
5.1588697902
 30
0.0
 10
4.8714231269
 20
5.1583507142
 30
0.0
 10
4.8556661748
 20
5.1579069027
 30
0.0
 10
4.8440709699
 20
5.1575483361
 30
0.0
 10
4.8361794025
 20
5.1572875063
 30
0.0
 10
4.8288511454
 20
5.1570268333
 30
0.0
 10
4.8221029
 20
5.1567663588
 30
0.0
 10
4.8159499775
 20
5.1565061166
 30
0.0
 10
4.8104064721
 20
5.1562462541
 30
0.0
 10
4.8054848973
 20
5.1559868277
 30
0.0
 10
4.8011964911
 20
5.1557282108
 30
0.0
 10
4.7975509042
 20
5.155470508
 30
0.0
 10
4.7949193449
 20
5.1552461657
 30
0.0
 10
4.7931423406
 20
5.1550620172
 30
0.0
 10
4.7920562346
 20
5.154932599
 30
0.0
 10
4.7911359714
 20
5.154803628
 30
0.0
 10
4.790473697
 20
5.1546913331
 30
0.0
 10
4.7900278507
 20
5.1545992813
 30
0.0
 10
4.7897551918
 20
5.1545344752
 30
0.0
 10
4.7895241924
 20
5.154469859
 30
0.0
 10
4.7893346449
 20
5.1544055312
 30
0.0
 10
4.7891864712
 20
5.1543414451
 30
0.0
 10
4.7890901228
 20
5.1542847713
 30
0.0
 10
4.7890360068
 20
5.1542374969
 30
0.0
 10
4.7890018829
 20
5.1541966208
 30
0.0
 10
4.7889880681
 20
5.1541597037
 30
0.0
 10
4.7889880749
 20
5.1541368012
 30
0.0
  0
SPLINE
  5
3A7
100
AcDbEntity
  8
0
100
AcDbSpline
 62
7
  6
CONTINUOUS
 70
0
 71
3
 72
20
 73
16
 74
0
 42
0.0000001
 43
0.0000001
 44
0.0000000001
 40
0.0
 40
0.0
 40
0.0
 40
0.0
 40
0.2280399651
 40
0.4263428567
 40
0.5948217436
 40
0.733428161
 40
0.7915384474
 40
0.8422114898
 40
0.885499221
 40
0.9214886744
 40
0.9503351848
 40
0.9723486727
 40
0.981007232
 40
0.9883032461
 40
1.0
 40
1.0
 40
1.0
 40
1.0
 10
4.7951634327
 20
4.9141118012
 30
0.0
 10
4.7946821917
 20
4.9140678124
 30
0.0
 10
4.793782876
 20
4.9139809365
 30
0.0
 10
4.7925299963
 20
4.9138419124
 30
0.0
 10
4.7914679466
 20
4.9137033453
 30
0.0
 10
4.7907033237
 20
4.913582697
 30
0.0
 10
4.7901884431
 20
4.9134837607
 30
0.0
 10
4.7898737341
 20
4.9134141357
 30
0.0
 10
4.7896071751
 20
4.9133447235
 30
0.0
 10
4.789388506
 20
4.9132756627
 30
0.0
 10
4.7892176388
 20
4.9132068857
 30
0.0
 10
4.7891063214
 20
4.9131461257
 30
0.0
 10
4.7890435666
 20
4.9130951736
 30
0.0
 10
4.7890043767
 20
4.9130517064
 30
0.0
 10
4.7889879513
 20
4.9130115882
 30
0.0
 10
4.7889879498
 20
4.9129868012
 30
0.0
  0
LINE
  5
3A8
100
AcDbEntity
  8
0
100
AcDbLine
 62
7
  6
CONTINUOUS
 10
4.7951634327
 20
4.9008618012
 11
4.78974834
 21
4.9001309616
  0
SPLINE
  5
3A9
100
AcDbEntity
  8
0
100
AcDbSpline
 62
7
  6
CONTINUOUS
 70
0
 71
3
 72
63
 73
59
 74
0
 42
0.0000001
 43
0.0000001
 44
0.0000000001
 40
0.0
 40
0.0
 40
0.0
 40
0.0
 40
0.0001173503
 40
0.0001890525
 40
0.0002732121
 40
0.0004849357
 40
0.000760347
 40
0.0011026511
 40
0.0015134589
 40
0.001993666
 40
0.0025438055
 40
0.0038550342
 40
0.0054486313
 40
0.0073246264
 40
0.0094824126
 40
0.0146398493
 40
0.0209118961
 40
0.028284524
 40
0.0367420686
 40
0.0462651088
 40
0.0568321718
 40
0.0684193406
 40
0.0809997339
 40
0.0945451255
 40
0.1090238512
 40
0.1406475705
 40
0.1755805931
 40
0.2135021142
 40
0.2540637286
 40
0.2968927534
 40
0.3415956478
 40
0.3877614826
 40
0.4349660123
 40
0.4827752036
 40
0.5307496871
 40
0.5784484706
 40
0.6254330973
 40
0.6712717823
 40
0.7155430632
 40
0.7578401307
 40
0.7977742259
 40
0.8349784792
 40
0.8691111574
 40
0.8998588134
 40
0.9269393102
 40
0.9390252556
 40
0.9501044701
 40
0.9601510054
 40
0.9691426404
 40
0.9770586195
 40
0.9838814723
 40
0.9895964655
 40
0.9920345333
 40
0.9941916044
 40
0.9960669019
 40
0.9976598711
 40
0.9989704647
 40
1.0
 40
1.0
 40
1.0
 40
1.0
 10
5.3777879412
 20
5.1925618013
 30
0.0
 10
5.377787953
 20
5.1925387808
 30
0.0
 10
5.3777739748
 20
5.1925016565
 30
0.0
 10
5.3777395168
 20
5.1924606204
 30
0.0
 10
5.3776848343
 20
5.1924131166
 30
0.0
 10
5.3775875251
 20
5.1923561926
 30
0.0
 10
5.3774379341
 20
5.1922918122
 30
0.0
 10
5.377246611
 20
5.1922271827
 30
0.0
 10
5.3770134754
 20
5.1921622628
 30
0.0
 10
5.3767383056
 20
5.1920971524
 30
0.0
 10
5.3762883205
 20
5.1920046633
 30
0.0
 10
5.3756198347
 20
5.1918918368
 30
0.0
 10
5.374690912
 20
5.1917622795
 30
0.0
 10
5.3735946153
 20
5.1916322591
 30
0.0
 10
5.3718010549
 20
5.1914472352
 30
0.0
 10
5.369145015
 20
5.1912218392
 30
0.0
 10
5.3654656593
 20
5.1909629566
 30
0.0
 10
5.361137624
 20
5.1907030986
 30
0.0
 10
5.3561709139
 20
5.190442486
 30
0.0
 10
5.3505768198
 20
5.1901813869
 30
0.0
 10
5.3443682118
 20
5.189919937
 30
0.0
 10
5.3375593753
 20
5.1896582426
 30
0.0
 10
5.3301658968
 20
5.1893963425
 30
0.0
 10
5.3222048613
 20
5.1891343031
 30
0.0
 10
5.3105093538
 20
5.1887740658
 30
0.0
 10
5.2946189444
 20
5.1883282138
 30
0.0
 10
5.274130185
 20
5.1878067136
 30
0.0
 10
5.2518875842
 20
5.1872845938
 30
0.0
 10
5.2280956505
 20
5.1867619846
 30
0.0
 10
5.2029731281
 20
5.1862390388
 30
0.0
 10
5.1767510109
 20
5.1857158478
 30
0.0
 10
5.149670395
 20
5.1851924865
 30
0.0
 10
5.121980312
 20
5.1846690135
 30
0.0
 10
5.0939353674
 20
5.1841454783
 30
0.0
 10
5.0657934491
 20
5.1836219265
 30
0.0
 10
5.0378133123
 20
5.1830984025
 30
0.0
 10
5.0102522251
 20
5.1825749522
 30
0.0
 10
4.9833636282
 20
5.1820516278
 30
0.0
 10
4.9573947595
 20
5.1815284909
 30
0.0
 10
4.9325844259
 20
5.1810056188
 30
0.0
 10
4.9091607375
 20
5.1804831197
 30
0.0
 10
4.8873390596
 20
5.1799611271
 30
0.0
 10
4.8673200076
 20
5.1794398969
 30
0.0
 10
4.849287635
 20
5.1789196283
 30
0.0
 10
4.8355799116
 20
5.1784721857
 30
0.0
 10
4.8257299516
 20
5.1781091811
 30
0.0
 10
4.8192200908
 20
5.1778475957
 30
0.0
 10
4.8133177584
 20
5.1775863033
 30
0.0
 10
4.8080366063
 20
5.1773254255
 30
0.0
 10
4.80338866
 20
5.1770651706
 30
0.0
 10
4.7993846031
 20
5.1768056781
 30
0.0
 10
4.7964553071
 20
5.1765804542
 30
0.0
 10
4.7944411375
 20
5.1763964068
 30
0.0
 10
4.7931785134
 20
5.1762660248
 30
0.0
 10
4.7920826391
 20
5.1761359922
 30
0.0
 10
4.7911540424
 20
5.1760065266
 30
0.0
 10
4.7903932271
 20
5.1758777736
 30
0.0
 10
4.7899439843
 20
5.1757816554
 30
0.0
 10
4.7897484872
 20
5.1757309617
 30
0.0
  0
SPLINE
  5
3AA
100
AcDbEntity
  8
0
100
AcDbSpline
 62
7
  6
CONTINUOUS
 70
0
 71
3
 72
55
 73
51
 74
0
 42
0.0000001
 43
0.0000001
 44
0.0000000001
 40
0.0
 40
0.0
 40
0.0
 40
0.0
 40
0.0001128487
 40
0.0002596562
 40
0.000457645
 40
0.0007139239
 40
0.0010316698
 40
0.001412476
 40
0.0018572268
 40
0.0023664457
 40
0.003579402
 40
0.0050528135
 40
0.0067871488
 40
0.0087821368
 40
0.0110369688
 40
0.013550692
 40
0.01935056
 40
0.0261710095
 40
0.0339977836
 40
0.042815523
 40
0.0526054247
 40
0.0633473935
 40
0.0750190604
 40
0.0875956041
 40
0.1010512259
 40
0.1304836712
 40
0.1630693816
 40
0.1985345941
 40
0.2365811903
 40
0.2768891737
 40
0.3191195584
 40
0.3629172345
 40
0.4079138683
 40
0.4537309421
 40
0.4999830933
 40
0.5462811969
 40
0.6374606323
 40
0.7242078439
 40
0.7650006973
 40
0.8036105559
 40
0.8397128114
 40
0.8730038737
 40
0.9032039589
 40
0.9300593548
 40
0.9533450587
 40
0.9728658316
 40
0.9811625672
 40
0.9884605144
 40
0.9947442128
 40
1.0
 40
1.0
 40
1.0
 40
1.0
 10
5.3777878716
 20
4.9169618013
 30
0.0
 10
5.3777878816
 20
4.9169398696
 30
0.0
 10
5.3777696878
 20
4.916889537
 30
0.0
 10
5.3777046942
 20
4.9168268689
 30
0.0
 10
5.3776050404
 20
4.9167651641
 30
0.0
 10
5.377467862
 20
4.9167036392
 30
0.0
 10
5.3772928028
 20
4.9166417413
 30
0.0
 10
5.3770793659
 20
4.9165796416
 30
0.0
 10
5.3768274977
 20
4.916517345
 30
0.0
 10
5.3764157067
 20
4.9164288874
 30
0.0
 10
5.375803924
 20
4.9163209579
 30
0.0
 10
5.3749536999
 20
4.9161969972
 30
0.0
 10
5.3739501827
 20
4.9160726303
 30
0.0
 10
5.3727938573
 20
4.9159479192
 30
0.0
 10
5.3714853142
 20
4.9158229746
 30
0.0
 10
5.3694388505
 20
4.9156476929
 30
0.0
 10
5.3665053994
 20
4.9154324068
 30
0.0
 10
5.3625393305
 20
4.9151837442
 30
0.0
 10
5.3579857875
 20
4.914934445
 30
0.0
 10
5.3528544144
 20
4.9146846806
 30
0.0
 10
5.3471559013
 20
4.9144345726
 30
0.0
 10
5.3409022668
 20
4.9141842249
 30
0.0
 10
5.3341066697
 20
4.9139337019
 30
0.0
 10
5.3267833601
 20
4.9136830139
 30
0.0
 10
5.3160095386
 20
4.913338242
 30
0.0
 10
5.3013476858
 20
4.9129114814
 30
0.0
 10
5.2824087309
 20
4.9124125425
 30
0.0
 10
5.2617951341
 20
4.9119130029
 30
0.0
 10
5.2396803489
 20
4.9114129894
 30
0.0
 10
5.2162504714
 20
4.9109126446
 30
0.0
 10
5.1917026579
 20
4.9104120545
 30
0.0
 10
5.1662434455
 20
4.9099112886
 30
0.0
 10
5.1400870461
 20
4.9094104006
 30
0.0
 10
5.1134535451
 20
4.9089094334
 30
0.0
 10
5.0865670653
 20
4.9084084294
 30
0.0
 10
5.0508661068
 20
4.9077438147
 30
0.0
 10
5.0072966206
 20
4.9069238716
 30
0.0
 10
4.9647976084
 20
4.9060849142
 30
0.0
 10
4.9325142038
 20
4.9054036918
 30
0.0
 10
4.9100718316
 20
4.9049035776
 30
0.0
 10
4.8890877762
 20
4.9044039063
 30
0.0
 10
4.8697386074
 20
4.9039048354
 30
0.0
 10
4.8521871586
 20
4.9034065815
 30
0.0
 10
4.8365810259
 20
4.9029096787
 30
0.0
 10
4.8230515245
 20
4.9024144214
 30
0.0
 10
4.8131289717
 20
4.9019846098
 30
0.0
 10
4.8063134719
 20
4.9016324936
 30
0.0
 10
4.8020687414
 20
4.9013834855
 30
0.0
 10
4.7984161307
 20
4.9011352992
 30
0.0
 10
4.7961806337
 20
4.9009547806
 30
0.0
 10
4.7951634327
 20
4.9008618012
 30
0.0
  0
SPLINE
  5
3AB
100
AcDbEntity
  8
0
100
AcDbSpline
 62
7
  6
CONTINUOUS
 70
0
 71
3
 72
43
 73
39
 74
0
 42
0.0000001
 43
0.0000001
 44
0.0000000001
 40
0.0
 40
0.0
 40
0.0
 40
0.0
 40
0.0001050661
 40
0.0002263949
 40
0.0003749753
 40
0.0005569162
 40
0.001032387
 40
0.0016666138
 40
0.0024647015
 40
0.0034291083
 40
0.0045610751
 40
0.0058611124
 40
0.0073294085
 40
0.0089659735
 40
0.0127433862
 40
0.0171917943
 40
0.0223077976
 40
0.0280866129
 40
0.0345232306
 40
0.0493465043
 40
0.0667210862
 40
0.0865818586
 40
0.1088521512
 40
0.1334469367
 40
0.1602715102
 40
0.1892224921
 40
0.2201888481
 40
0.2530506427
 40
0.2876818847
 40
0.3239484485
 40
0.4008238083
 40
0.4824920069
 40
0.5676945479
 40
0.6551182868
 40
0.7434155872
 40
0.8312264245
 40
0.9171948616
 40
1.0
 40
1.0
 40
1.0
 40
1.0
 10
5.3777879131
 20
4.5380118012
 30
0.0
 10
5.3777879043
 20
4.5379973016
 30
0.0
 10
5.3777807534
 20
4.5379658628
 30
0.0
 10
5.3777515578
 20
4.5379222649
 30
0.0
 10
5.377705433
 20
4.5378797657
 30
0.0
 10
5.3776125742
 20
4.5378179952
 30
0.0
 10
5.3774491835
 20
4.5377445937
 30
0.0
 10
5.3771992197
 20
4.5376616186
 30
0.0
 10
5.3768789492
 20
4.5375781218
 30
0.0
 10
5.3764883686
 20
4.5374941339
 30
0.0
 10
5.3760272188
 20
4.5374098771
 30
0.0
 10
5.3754955942
 20
4.5373254132
 30
0.0
 10
5.3748935883
 20
4.5372408009
 30
0.0
 10
5.3739512247
 20
4.5371220971
 30
0.0
 10
5.3725979069
 20
4.5369762465
 30
0.0
 10
5.3707643461
 20
4.5368078329
 30
0.0
 10
5.3686536097
 20
4.5366390265
 30
0.0
 10
5.3662677569
 20
4.5364698613
 30
0.0
 10
5.3625438085
 20
4.5362327183
 30
0.0
 10
5.3572199356
 20
4.5359415068
 30
0.0
 10
5.3500434519
 20
4.5356048992
 30
0.0
 10
5.3418382959
 20
4.5352674915
 30
0.0
 10
5.3326360083
 20
4.5349293921
 30
0.0
 10
5.3224721168
 20
4.5345908639
 30
0.0
 10
5.3113858058
 20
4.5342520023
 30
0.0
 10
5.2994198182
 20
4.5339128911
 30
0.0
 10
5.2866203606
 20
4.5335735988
 30
0.0
 10
5.2730367469
 20
4.5332341502
 30
0.0
 10
5.2587214671
 20
4.5328945891
 30
0.0
 10
5.2383333172
 20
4.5324327019
 30
0.0
 10
5.2114547075
 20
4.5318601685
 30
0.0
 10
5.177823394
 20
4.53118499
 30
0.0
 10
5.1427360854
 20
4.5305093568
 30
0.0
 10
5.1067337723
 20
4.5298334396
 30
0.0
 10
5.0703714419
 20
4.5291574206
 30
0.0
 10
5.0342099832
 20
4.5284814617
 30
0.0
 10
4.9988065984
 20
4.5278057211
 30
0.0
 10
4.9755196289
 20
4.5273445459
 30
0.0
 10
4.9640945085
 20
4.5271118012
 30
0.0
  0
SPLINE
  5
3AC
100
AcDbEntity
  8
0
100
AcDbSpline
 62
7
  6
CONTINUOUS
 70
0
 71
3
 72
63
 73
59
 74
0
 42
0.0000001
 43
0.0000001
 44
0.0000000001
 40
0.0
 40
0.0
 40
0.0
 40
0.0
 40
0.0001173745
 40
0.0001890798
 40
0.0002732254
 40
0.000484875
 40
0.0007601778
 40
0.0011023797
 40
0.0015131344
 40
0.0019933757
 40
0.0025436221
 40
0.0038550746
 40
0.0054486151
 40
0.0073243808
 40
0.0094820952
 40
0.0146399049
 40
0.0209116021
 40
0.0282845083
 40
0.0367418957
 40
0.0462649305
 40
0.0568321421
 40
0.0684190573
 40
0.0809997653
 40
0.0945448437
 40
0.1090238177
 40
0.140647414
 40
0.1755803389
 40
0.2135018919
 40
0.2540635597
 40
0.2968926838
 40
0.3415955648
 40
0.3877613848
 40
0.4349658623
 40
0.482775047
 40
0.5307495738
 40
0.5784483432
 40
0.6254329642
 40
0.6712715689
 40
0.7155428453
 40
0.7578399478
 40
0.7977741532
 40
0.8349784586
 40
0.8691111042
 40
0.8998586437
 40
0.9269390255
 40
0.9390252927
 40
0.950104163
 40
0.960150978
 40
0.9691424387
 40
0.9770584631
 40
0.9838814437
 40
0.989596173
 40
0.9920344546
 40
0.9941916583
 40
0.9960667828
 40
0.9976595482
 40
0.9989702374
 40
1.0
 40
1.0
 40
1.0
 40
1.0
 10
5.3777878752
 20
4.9514118012
 30
0.0
 10
5.3777878639
 20
4.951388776
 30
0.0
 10
5.3777738613
 20
4.9513516619
 30
0.0
 10
5.3777394032
 20
4.9513106235
 30
0.0
 10
5.3776847416
 20
4.9512631216
 30
0.0
 10
5.3775874803
 20
4.9512061929
 30
0.0
 10
5.377437951
 20
4.9511418088
 30
0.0
 10
5.3772466832
 20
4.951077177
 30
0.0
 10
5.3770135723
 20
4.9510122559
 30
0.0
 10
5.3767383839
 20
4.9509471483
 30
0.0
 10
5.3762883245
 20
4.9508546652
 30
0.0
 10
5.3756197823
 20
4.9507418518
 30
0.0
 10
5.3746908736
 20
4.9506122838
 30
0.0
 10
5.3735946489
 20
4.9504822519
 30
0.0
 10
5.3718010747
 20
4.9502972233
 30
0.0
 10
5.3691450412
 20
4.9500718649
 30
0.0
 10
5.3654656297
 20
4.9498129351
 30
0.0
 10
5.361137637
 20
4.9495531123
 30
0.0
 10
5.3561709054
 20
4.9492924803
 30
0.0
 10
5.3505768138
 20
4.9490313852
 30
0.0
 10
5.3443682272
 20
4.9487699437
 30
0.0
 10
5.3375593502
 20
4.9485082329
 30
0.0
 10
5.3301659206
 20
4.9482463524
 30
0.0
 10
5.3222048367
 20
4.9479842949
 30
0.0
 10
5.3105093656
 20
4.9476240743
 30
0.0
 10
5.2946189513
 20
4.9471782107
 30
0.0
 10
5.274130229
 20
4.9466567135
 30
0.0
 10
5.2518876308
 20
4.9461345932
 30
0.0
 10
5.228095661
 20
4.9456119846
 30
0.0
 10
5.2029731115
 20
4.9450890392
 30
0.0
 10
5.1767509805
 20
4.944565848
 30
0.0
 10
5.1496703806
 20
4.9440424866
 30
0.0
 10
5.1219803122
 20
4.9435190132
 30
0.0
 10
5.0939353708
 20
4.9429954781
 30
0.0
 10
5.0657934483
 20
4.9424719267
 30
0.0
 10
5.037813307
 20
4.9419484027
 30
0.0
 10
5.0102522397
 20
4.9414249525
 30
0.0
 10
4.9833636607
 20
4.9409016277
 30
0.0
 10
4.957394802
 20
4.9403784906
 30
0.0
 10
4.932584441
 20
4.9398556187
 30
0.0
 10
4.9091607141
 20
4.93933312
 30
0.0
 10
4.8873390108
 20
4.9388111286
 30
0.0
 10
4.867319978
 20
4.9382898965
 30
0.0
 10
4.8492876572
 20
4.9377696328
 30
0.0
 10
4.8355799167
 20
4.9373221736
 30
0.0
 10
4.8257299829
 20
4.9369591927
 30
0.0
 10
4.8192200726
 20
4.9366975841
 30
0.0
 10
4.8133177862
 20
4.9364363128
 30
0.0
 10
4.8080366051
 20
4.9361754223
 30
0.0
 10
4.8033886593
 20
4.9359151653
 30
0.0
 10
4.7993846188
 20
4.9356556942
 30
0.0
 10
4.7964553102
 20
4.9354304371
 30
0.0
 10
4.7944411228
 20
4.9352464083
 30
0.0
 10
4.7931784633
 20
4.9351160362
 30
0.0
 10
4.7920826379
 20
4.9349859967
 30
0.0
 10
4.7911540995
 20
4.9348565131
 30
0.0
 10
4.7903932606
 20
4.9347277621
 30
0.0
 10
4.7899439506
 20
4.9346316563
 30
0.0
 10
4.7897484077
 20
4.9345809618
 30
0.0
  0
SPLINE
  5
3AD
100
AcDbEntity
  8
0
100
AcDbSpline
 62
7
  6
CONTINUOUS
 70
0
 71
3
 72
63
 73
59
 74
0
 42
0.0000001
 43
0.0000001
 44
0.0000000001
 40
0.0
 40
0.0
 40
0.0
 40
0.0
 40
0.0001173533
 40
0.0001890375
 40
0.0002731611
 40
0.0004847795
 40
0.0007600918
 40
0.0011023634
 40
0.0015132148
 40
0.0019935112
 40
0.0025437537
 40
0.003855097
 40
0.0054485254
 40
0.0073243361
 40
0.0094822186
 40
0.0146398722
 40
0.0209116176
 40
0.0282845752
 40
0.0367418258
 40
0.0462650511
 40
0.0568320453
 40
0.0684191644
 40
0.080999756
 40
0.0945448886
 40
0.1090238664
 40
0.1406475059
 40
0.1755804515
 40
0.2135018909
 40
0.2540635525
 40
0.2968926337
 40
0.341595569
 40
0.3877614191
 40
0.4349658706
 40
0.4827750736
 40
0.5307495539
 40
0.5784483468
 40
0.625433002
 40
0.6712715827
 40
0.7155428519
 40
0.7578399
 40
0.7977740543
 40
0.834978416
 40
0.869111108
 40
0.899858734
 40
0.9269390776
 40
0.9390251814
 40
0.9501041401
 40
0.9601510065
 40
0.9691423477
 40
0.9770585415
 40
0.9838812787
 40
0.9895962256
 40
0.9920345148
 40
0.9941915446
 40
0.9960666464
 40
0.9976595291
 40
0.9989703154
 40
1.0
 40
1.0
 40
1.0
 40
1.0
 10
5.3777878468
 20
5.2270118013
 30
0.0
 10
5.377787849
 20
5.2269887802
 30
0.0
 10
5.3777738728
 20
5.2269516644
 30
0.0
 10
5.3777394365
 20
5.226910623
 30
0.0
 10
5.3776847964
 20
5.2268631183
 30
0.0
 10
5.3775875451
 20
5.2268061871
 30
0.0
 10
5.3774380053
 20
5.2267418033
 30
0.0
 10
5.377246699
 20
5.2266771764
 30
0.0
 10
5.3770135419
 20
5.2266122604
 30
0.0
 10
5.376738324
 20
5.2265471522
 30
0.0
 10
5.3762882762
 20
5.2264546688
 30
0.0
 10
5.3756197797
 20
5.22634185
 30
0.0
 10
5.3746909065
 20
5.2262122768
 30
0.0
 10
5.3735946613
 20
5.226082248
 30
0.0
 10
5.3718010738
 20
5.2258972385
 30
0.0
 10
5.3691450308
 20
5.2256718539
 30
0.0
 10
5.3654656289
 20
5.2254129378
 30
0.0
 10
5.3611376434
 20
5.2251531156
 30
0.0
 10
5.3561708914
 20
5.2248924728
 30
0.0
 10
5.3505768308
 20
5.2246313934
 30
0.0
 10
5.3443682098
 20
5.2243699358
 30
0.0
 10
5.3375593573
 20
5.2241082391
 30
0.0
 10
5.3301658998
 20
5.2238463487
 30
0.0
 10
5.3222048267
 20
5.2235842955
 30
0.0
 10
5.310509335
 20
5.2232240734
 30
0.0
 10
5.2946189064
 20
5.2227782113
 30
0.0
 10
5.2741301925
 20
5.2222567137
 30
0.0
 10
5.2518876124
 20
5.2217345928
 30
0.0
 10
5.2280956731
 20
5.2212119841
 30
0.0
 10
5.202973121
 20
5.2206890387
 30
0.0
 10
5.1767509803
 20
5.2201658479
 30
0.0
 10
5.1496703671
 20
5.2196424865
 30
0.0
 10
5.1219802926
 20
5.2191190131
 30
0.0
 10
5.0939353601
 20
5.2185954779
 30
0.0
 10
5.0657934368
 20
5.2180719263
 30
0.0
 10
5.0378132916
 20
5.2175484025
 30
0.0
 10
5.0102522159
 20
5.2170249524
 30
0.0
 10
4.9833636347
 20
5.2165016276
 30
0.0
 10
4.9573947911
 20
5.2159784905
 30
0.0
 10
4.9325844507
 20
5.2154556184
 30
0.0
 10
4.9091607319
 20
5.2149331192
 30
0.0
 10
4.8873390171
 20
5.2144111277
 30
0.0
 10
4.867319946
 20
5.2138898967
 30
0.0
 10
4.8492876055
 20
5.2133696319
 30
0.0
 10
4.8355798866
 20
5.2129221774
 30
0.0
 10
4.8257299746
 20
5.2125591895
 30
0.0
 10
4.8192200684
 20
5.2122975835
 30
0.0
 10
4.8133177774
 20
5.2120363165
 30
0.0
 10
4.8080365768
 20
5.2117754134
 30
0.0
 10
4.8033886675
 20
5.2115151775
 30
0.0
 10
4.7993846001
 20
5.211255681
 30
0.0
 10
4.7964552939
 20
5.2110304388
 30
0.0
 10
4.7944410957
 20
5.2108464147
 30
0.0
 10
4.7931784747
 20
5.2107160305
 30
0.0
 10
4.7920826651
 20
5.21058599
 30
0.0
 10
4.791154088
 20
5.2104565119
 30
0.0
 10
4.7903932206
 20
5.2103277701
 30
0.0
 10
4.7899439062
 20
5.2102316632
 30
0.0
 10
4.7897483809
 20
5.2101809617
 30
0.0
  0
SPLINE
  5
3AE
100
AcDbEntity
  8
0
100
AcDbSpline
 62
7
  6
CONTINUOUS
 70
0
 71
3
 72
63
 73
59
 74
0
 42
0.0000001
 43
0.0000001
 44
0.0000000001
 40
0.0
 40
0.0
 40
0.0
 40
0.0
 40
0.0001173815
 40
0.0001890987
 40
0.0002732606
 40
0.0004849484
 40
0.0007602847
 40
0.0011025009
 40
0.0015132367
 40
0.001993417
 40
0.0025436034
 40
0.003855055
 40
0.0054486786
 40
0.0073245083
 40
0.0094821645
 40
0.0146399067
 40
0.0209117184
 40
0.0282844777
 40
0.0367420108
 40
0.0462649208
 40
0.0568322013
 40
0.068419112
 40
0.0809997791
 40
0.0945449619
 40
0.1090238049
 40
0.1406474091
 40
0.1755803999
 40
0.2135019808
 40
0.2540636498
 40
0.2968927382
 40
0.3415956075
 40
0.3877614166
 40
0.4349659166
 40
0.4827751077
 40
0.5307496392
 40
0.5784483929
 40
0.6254330179
 40
0.6712716449
 40
0.7155429396
 40
0.7578400786
 40
0.7977742403
 40
0.8349785098
 40
0.8691111197
 40
0.8998586844
 40
0.9269391125
 40
0.9390253214
 40
0.950104296
 40
0.9601509865
 40
0.9691425993
 40
0.9770584928
 40
0.9838815615
 40
0.9895962579
 40
0.9920344653
 40
0.9941916917
 40
0.9960669363
 40
0.9976596878
 40
0.9989702914
 40
1.0
 40
1.0
 40
1.0
 40
1.0
 10
5.3777879231
 20
5.2614618012
 30
0.0
 10
5.3777879097
 20
5.2614387746
 30
0.0
 10
5.3777738962
 20
5.2614016592
 30
0.0
 10
5.3777394253
 20
5.2613606233
 30
0.0
 10
5.3776847457
 20
5.2613131221
 30
0.0
 10
5.377587464
 20
5.2612561951
 30
0.0
 10
5.3774379163
 20
5.2611918115
 30
0.0
 10
5.3772466425
 20
5.2611271799
 30
0.0
 10
5.3770135451
 20
5.2610622589
 30
0.0
 10
5.3767383859
 20
5.2609971475
 30
0.0
 10
5.3762883519
 20
5.260904659
 30
0.0
 10
5.3756198044
 20
5.2607918496
 30
0.0
 10
5.3746908664
 20
5.2606622851
 30
0.0
 10
5.3735946238
 20
5.2605322565
 30
0.0
 10
5.3718010627
 20
5.2603472199
 30
0.0
 10
5.3691450315
 20
5.2601218604
 30
0.0
 10
5.3654656389
 20
5.2598629427
 30
0.0
 10
5.3611376251
 20
5.2596031045
 30
0.0
 10
5.3561709176
 20
5.259342487
 30
0.0
 10
5.3505768092
 20
5.2590813805
 30
0.0
 10
5.3443682343
 20
5.2588199457
 30
0.0
 10
5.337559353
 20
5.2585582333
 30
0.0
 10
5.3301659122
 20
5.2582963504
 30
0.0
 10
5.3222048417
 20
5.2580342978
 30
0.0
 10
5.3105093748
 20
5.2576740709
 30
0.0
 10
5.2946189722
 20
5.2572282114
 30
0.0
 10
5.2741302307
 20
5.2567067135
 30
0.0
 10
5.2518876146
 20
5.2561845936
 30
0.0
 10
5.228095647
 20
5.2556619848
 30
0.0
 10
5.2029731075
 20
5.2551390392
 30
0.0
 10
5.1767509889
 20
5.254615848
 30
0.0
 10
5.14967039
 20
5.2540924865
 30
0.0
 10
5.1219803191
 20
5.2535690133
 30
0.0
 10
5.0939353721
 20
5.2530454782
 30
0.0
 10
5.0657934516
 20
5.2525219268
 30
0.0
 10
5.0378133126
 20
5.2519984027
 30
0.0
 10
5.0102522442
 20
5.2514749524
 30
0.0
 10
4.9833636575
 20
5.2509516276
 30
0.0
 10
4.9573947846
 20
5.2504284906
 30
0.0
 10
4.9325844223
 20
5.2499056189
 30
0.0
 10
4.9091607046
 20
5.2493831202
 30
0.0
 10
4.8873390247
 20
5.2488611282
 30
0.0
 10
4.8673200018
 20
5.2483398964
 30
0.0
 10
4.8492876747
 20
5.2478196313
 30
0.0
 10
4.835579932
 20
5.2473721766
 30
0.0
 10
4.8257299806
 20
5.2470091895
 30
0.0
 10
4.8192200856
 20
5.246747589
 30
0.0
 10
4.813317774
 20
5.2464863062
 30
0.0
 10
4.8080366127
 20
5.2462254292
 30
0.0
 10
4.8033886464
 20
5.2459651598
 30
0.0
 10
4.7993846203
 20
5.2457056966
 30
0.0
 10
4.7964553154
 20
5.2454804406
 30
0.0
 10
4.7944411452
 20
5.2452964058
 30
0.0
 10
4.7931784726
 20
5.2451660313
 30
0.0
 10
4.7920826205
 20
5.2450360021
 30
0.0
 10
4.7911540782
 20
5.244906517
 30
0.0
 10
4.7903932704
 20
5.2447777622
 30
0.0
 10
4.7899439891
 20
5.2446816539
 30
0.0
 10
4.7897484565
 20
5.2446309618
 30
0.0
  0
LINE
  5
3AF
100
AcDbEntity
  8
0
100
AcDbLine
 62
7
  6
CONTINUOUS
 10
5.3770275674
 20
5.3432176407
 11
5.3767146319
 21
5.3431434685
  0
SPLINE
  5
3B0
100
AcDbEntity
  8
0
100
AcDbSpline
 62
7
  6
CONTINUOUS
 70
0
 71
3
 72
62
 73
58
 74
0
 42
0.0000001
 43
0.0000001
 44
0.0000000001
 40
0.0
 40
0.0
 40
0.0
 40
0.0
 40
0.0011828545
 40
0.0026452188
 40
0.0043874766
 40
0.0064094554
 40
0.0112902157
 40
0.0172785762
 40
0.0243621147
 40
0.0325257002
 40
0.0417506876
 40
0.0520170384
 40
0.0633009368
 40
0.0755773481
 40
0.1029932284
 40
0.134015696
 40
0.1683625837
 40
0.2057212382
 40
0.2457513844
 40
0.2880884674
 40
0.3323468221
 40
0.3781232618
 40
0.4250008136
 40
0.4725522814
 40
0.5203444924
 40
0.567941907
 40
0.6149109221
 40
0.6608236231
 40
0.7052616879
 40
0.7478203276
 40
0.7881117529
 40
0.8257690153
 40
0.8604492274
 40
0.8918367297
 40
0.9062053946
 40
0.9196460393
 40
0.9321285927
 40
0.9436244639
 40
0.9541076138
 40
0.9635546501
 40
0.9719438282
 40
0.9792571244
 40
0.9854778569
 40
0.9905935098
 40
0.992733767
 40
0.9945942543
 40
0.9961747247
 40
0.99747546
 40
0.9980212749
 40
0.9984977253
 40
0.9989053105
 40
0.9992448987
 40
0.9995181297
 40
0.9997282623
 40
0.9998118574
 40
0.9998831445
 40
1.0
 40
1.0
 40
1.0
 40
1.0
 10
5.3767146319
 20
5.3431434685
 30
0.0
 10
5.3764880544
 20
5.3430940113
 30
0.0
 10
5.3759779738
 20
5.3429990504
 30
0.0
 10
5.3751273636
 20
5.3428703748
 30
0.0
 10
5.374110733
 20
5.3427411016
 30
0.0
 10
5.3724258181
 20
5.3425564019
 30
0.0
 10
5.3699081289
 20
5.3423320002
 30
0.0
 10
5.3663976632
 20
5.3420745168
 30
0.0
 10
5.3622421603
 20
5.3418160226
 30
0.0
 10
5.3574510967
 20
5.3415566819
 30
0.0
 10
5.3520352301
 20
5.3412968116
 30
0.0
 10
5.3460069817
 20
5.3410365951
 30
0.0
 10
5.3393799757
 20
5.3407760714
 30
0.0
 10
5.329392009
 20
5.3404150335
 30
0.0
 10
5.315534657
 20
5.3399697104
 30
0.0
 10
5.2973503849
 20
5.3394515557
 30
0.0
 10
5.2772160303
 20
5.3389324879
 30
0.0
 10
5.2553151012
 20
5.3384127019
 30
0.0
 10
5.2318472038
 20
5.3378924332
 30
0.0
 10
5.2070262359
 20
5.3373718099
 30
0.0
 10
5.1810784099
 20
5.3368509339
 30
0.0
 10
5.1542402034
 20
5.3363298794
 30
0.0
 10
5.1267562278
 20
5.3358087064
 30
0.0
 10
5.0988769684
 20
5.3352874647
 30
0.0
 10
5.0708565475
 20
5.3347661991
 30
0.0
 10
5.0429503426
 20
5.3342449526
 30
0.0
 10
5.0154127012
 20
5.3337237699
 30
0.0
 10
4.9884945976
 20
5.3332027005
 30
0.0
 10
4.9624413625
 20
5.3326818022
 30
0.0
 10
4.937490467
 20
5.3321611498
 30
0.0
 10
4.9138693229
 20
5.3316408335
 30
0.0
 10
4.8917932209
 20
5.3311210036
 30
0.0
 10
4.8714633427
 20
5.3306017952
 30
0.0
 10
4.8556990723
 20
5.330157869
 30
0.0
 10
4.8440983826
 20
5.3297992149
 30
0.0
 10
4.8362029952
 20
5.3295383135
 30
0.0
 10
4.8288711757
 20
5.329277579
 30
0.0
 10
4.8221195949
 20
5.3290170316
 30
0.0
 10
4.815963634
 20
5.3287567279
 30
0.0
 10
4.8104173548
 20
5.3284967962
 30
0.0
 10
4.8054933004
 20
5.328237301
 30
0.0
 10
4.8012027279
 20
5.327978625
 30
0.0
 10
4.7975552745
 20
5.3277208438
 30
0.0
 10
4.7949223787
 20
5.3274964551
 30
0.0
 10
4.7931444707
 20
5.3273122583
 30
0.0
 10
4.792057829
 20
5.3271827996
 30
0.0
 10
4.7911370923
 20
5.3270537974
 30
0.0
 10
4.7904744538
 20
5.326941476
 30
0.0
 10
4.7900283578
 20
5.3268494013
 30
0.0
 10
4.7897555561
 20
5.3267845793
 30
0.0
 10
4.7895244504
 20
5.3267199485
 30
0.0
 10
4.789334829
 20
5.3266556003
 30
0.0
 10
4.7891866004
 20
5.3265914948
 30
0.0
 10
4.7890902102
 20
5.3265348079
 30
0.0
 10
4.7890360622
 20
5.3264875227
 30
0.0
 10
4.7890019142
 20
5.3264466383
 30
0.0
 10
4.7889880795
 20
5.3264097121
 30
0.0
 10
4.7889880789
 20
5.3263868012
 30
0.0
  0
SPLINE
  5
3B1
100
AcDbEntity
  8
0
100
AcDbSpline
 62
7
  6
CONTINUOUS
 70
0
 71
3
 72
29
 73
25
 74
0
 42
0.0000001
 43
0.0000001
 44
0.0000000001
 40
0.0
 40
0.0
 40
0.0
 40
0.0
 40
0.0020651758
 40
0.0046490002
 40
0.0077540405
 40
0.0113810705
 40
0.0201971278
 40
0.0310858007
 40
0.0440307228
 40
0.0590076349
 40
0.0759898634
 40
0.0949460159
 40
0.1158396476
 40
0.1386327378
 40
0.1897382982
 40
0.2478759075
 40
0.312604521
 40
0.383431809
 40
0.4598194573
 40
0.5411866589
 40
0.6269146915
 40
0.7163524965
 40
0.8088143443
 40
1.0
 40
1.0
 40
1.0
 40
1.0
 10
5.3770274387
 20
5.3087676406
 30
0.0
 10
5.3768517511
 20
5.3087220895
 30
0.0
 10
5.3764522886
 20
5.3086350118
 30
0.0
 10
5.3757809413
 20
5.3085175986
 30
0.0
 10
5.374970673
 20
5.3083995929
 30
0.0
 10
5.3736146736
 20
5.3082305228
 30
0.0
 10
5.3715742145
 20
5.3080254177
 30
0.0
 10
5.3687143989
 20
5.307790285
 30
0.0
 10
5.3653116632
 20
5.3075542189
 30
0.0
 10
5.3613723798
 20
5.3073172818
 30
0.0
 10
5.3569039935
 20
5.307079876
 30
0.0
 10
5.3519149902
 20
5.3068421175
 30
0.0
 10
5.3464147942
 20
5.3066040707
 30
0.0
 10
5.3380905716
 20
5.3062737097
 30
0.0
 10
5.3264937436
 20
5.3058663115
 30
0.0
 10
5.3112116481
 20
5.3053927688
 30
0.0
 10
5.294195603
 20
5.304918365
 30
0.0
 10
5.2755751215
 20
5.3044432758
 30
0.0
 10
5.2554919416
 20
5.3039677246
 30
0.0
 10
5.2340988852
 20
5.3034918269
 30
0.0
 10
5.2115586618
 20
5.3030156771
 30
0.0
 10
5.1880431889
 20
5.3025393402
 30
0.0
 10
5.1552611088
 20
5.301896894
 30
0.0
 10
5.1303373618
 20
5.3014263239
 30
0.0
 10
5.113538072
 20
5.3011118012
 30
0.0
  0
SPLINE
  5
3B2
100
AcDbEntity
  8
0
100
AcDbSpline
 62
7
  6
CONTINUOUS
 70
0
 71
3
 72
29
 73
25
 74
0
 42
0.0000001
 43
0.0000001
 44
0.0000000001
 40
0.0
 40
0.0
 40
0.0
 40
0.0
 40
0.0019557114
 40
0.0044342249
 40
0.0074380572
 40
0.0109674157
 40
0.0195995872
 40
0.0303211716
 40
0.0431136917
 40
0.0579543801
 40
0.0748163072
 40
0.0936669469
 40
0.1144718395
 40
0.1371904207
 40
0.1881937614
 40
0.246287807
 40
0.3110285748
 40
0.381920855
 40
0.4584222272
 40
0.5399471883
 40
0.6258709872
 40
0.7155369053
 40
0.8082542706
 40
1.0
 40
1.0
 40
1.0
 40
1.0
 10
5.3974261606
 20
5.3140559126
 30
0.0
 10
5.3972482313
 20
5.3140097857
 30
0.0
 10
5.3968404835
 20
5.3139221249
 30
0.0
 10
5.3961512906
 20
5.3138045195
 30
0.0
 10
5.3953125017
 20
5.3136862673
 30
0.0
 10
5.3938972596
 20
5.3135163572
 30
0.0
 10
5.3917561636
 20
5.3133105846
 30
0.0
 10
5.3887439787
 20
5.3130748791
 30
0.0
 10
5.385146841
 20
5.3128381238
 30
0.0
 10
5.3809716084
 20
5.3126004777
 30
0.0
 10
5.3762262129
 20
5.3123623451
 30
0.0
 10
5.3709196584
 20
5.3121238162
 30
0.0
 10
5.3650621672
 20
5.3118850276
 30
0.0
 10
5.3561840726
 20
5.3115534323
 30
0.0
 10
5.343801805
 20
5.3111446516
 30
0.0
 10
5.3274701972
 20
5.3106696033
 30
0.0
 10
5.3092686105
 20
5.3101936771
 30
0.0
 10
5.2893364639
 20
5.3097170496
 30
0.0
 10
5.2678264212
 20
5.3092399511
 30
0.0
 10
5.2449032988
 20
5.3087625006
 30
0.0
 10
5.2207426354
 20
5.3082847914
 30
0.0
 10
5.1955298418
 20
5.3078068902
 30
0.0
 10
5.1603725655
 20
5.3071622955
 30
0.0
 10
5.1336409594
 20
5.3066902124
 30
0.0
 10
5.1156221573
 20
5.3063746691
 30
0.0
  0
SPLINE
  5
3B3
100
AcDbEntity
  8
0
100
AcDbSpline
 62
7
  6
CONTINUOUS
 70
0
 71
3
 72
63
 73
59
 74
0
 42
0.0000001
 43
0.0000001
 44
0.0000000001
 40
0.0
 40
0.0
 40
0.0
 40
0.0
 40
0.0001173761
 40
0.0001890962
 40
0.0002732666
 40
0.0004849859
 40
0.0007603631
 40
0.0011026169
 40
0.0015133738
 40
0.0019935454
 40
0.0025436811
 40
0.0038550378
 40
0.0054486976
 40
0.007324608
 40
0.0094822929
 40
0.0146398971
 40
0.0209118386
 40
0.0282844807
 40
0.0367420853
 40
0.0462649824
 40
0.056832231
 40
0.0684192197
 40
0.0809997857
 40
0.0945450624
 40
0.1090238158
 40
0.1406474552
 40
0.1755804853
 40
0.2135020462
 40
0.2540637071
 40
0.2968927679
 40
0.3415956297
 40
0.3877614478
 40
0.4349659353
 40
0.482775145
 40
0.5307496495
 40
0.5784484093
 40
0.6254330289
 40
0.6712716524
 40
0.7155429544
 40
0.7578400774
 40
0.797774236
 40
0.8349784987
 40
0.8691111082
 40
0.8998586748
 40
0.9269390969
 40
0.9390253086
 40
0.9501042703
 40
0.9601509787
 40
0.9691425697
 40
0.9770584809
 40
0.9838815364
 40
0.9895962322
 40
0.9920344578
 40
0.9941916854
 40
0.9960669002
 40
0.99765965
 40
0.9989702746
 40
1.0
 40
1.0
 40
1.0
 40
1.0
 10
5.3777879606
 20
5.3303618012
 30
0.0
 10
5.3777879553
 20
5.3303387757
 30
0.0
 10
5.3777739444
 20
5.3303016565
 30
0.0
 10
5.3777394697
 20
5.3302606224
 30
0.0
 10
5.3776847792
 20
5.3302131207
 30
0.0
 10
5.3775874783
 20
5.3301561953
 30
0.0
 10
5.3774379068
 20
5.3300918126
 30
0.0
 10
5.3772466123
 20
5.3300271817
 30
0.0
 10
5.3770135047
 20
5.329962261
 30
0.0
 10
5.3767383531
 20
5.32989715
 30
0.0
 10
5.3762883509
 20
5.3298046569
 30
0.0
 10
5.3756198258
 20
5.3296918425
 30
0.0
 10
5.3746908824
 20
5.3295622845
 30
0.0
 10
5.3735946106
 20
5.3294322586
 30
0.0
 10
5.3718010548
 20
5.3292472247
 30
0.0
 10
5.3691450205
 20
5.3290218507
 30
0.0
 10
5.365465651
 20
5.3287629509
 30
0.0
 10
5.3611376212
 20
5.3285030985
 30
0.0
 10
5.3561709243
 20
5.3282424897
 30
0.0
 10
5.3505768103
 20
5.3279813803
 30
0.0
 10
5.3443682284
 20
5.327719944
 30
0.0
 10
5.3375593571
 20
5.3274582362
 30
0.0
 10
5.330165902
 20
5.3271963472
 30
0.0
 10
5.3222048496
 20
5.3269343004
 30
0.0
 10
5.3105093742
 20
5.326574068
 30
0.0
 10
5.294618973
 20
5.3261282122
 30
0.0
 10
5.2741302191
 20
5.3256067135
 30
0.0
 10
5.2518875989
 20
5.3250845937
 30
0.0
 10
5.2280956402
 20
5.3245619847
 30
0.0
 10
5.202973107
 20
5.324039039
 30
0.0
 10
5.1767509913
 20
5.3235158479
 30
0.0
 10
5.1496703921
 20
5.3229924864
 30
0.0
 10
5.1219803158
 20
5.3224690132
 30
0.0
 10
5.0939353706
 20
5.3219454782
 30
0.0
 10
5.065793448
 20
5.3214219267
 30
0.0
 10
5.0378133119
 20
5.3208984026
 30
0.0
 10
5.0102522416
 20
5.3203749523
 30
0.0
 10
4.9833636528
 20
5.3198516276
 30
0.0
 10
4.9573947801
 20
5.3193284906
 30
0.0
 10
4.932584418
 20
5.3188056189
 30
0.0
 10
4.9091607034
 20
5.3182831201
 30
0.0
 10
4.8873390237
 20
5.3177611281
 30
0.0
 10
4.86732
 20
5.3172398964
 30
0.0
 10
4.8492876723
 20
5.3167196314
 30
0.0
 10
4.8355799286
 20
5.3162721763
 30
0.0
 10
4.8257299795
 20
5.3159091899
 30
0.0
 10
4.8192200825
 20
5.3156475884
 30
0.0
 10
4.8133177736
 20
5.3153863071
 30
0.0
 10
4.8080366093
 20
5.3151254281
 30
0.0
 10
4.8033886458
 20
5.3148651605
 30
0.0
 10
4.7993846187
 20
5.3146056966
 30
0.0
 10
4.7964553128
 20
5.3143804396
 30
0.0
 10
4.7944411386
 20
5.3141964061
 30
0.0
 10
4.7931784678
 20
5.3140660326
 30
0.0
 10
4.7920826219
 20
5.3139360009
 30
0.0
 10
4.7911540816
 20
5.3138065157
 30
0.0
 10
4.7903932664
 20
5.3136777619
 30
0.0
 10
4.7899439773
 20
5.3135816544
 30
0.0
 10
4.7897484414
 20
5.3135309618
 30
0.0
  0
SPLINE
  5
3B4
100
AcDbEntity
  8
0
100
AcDbSpline
 62
7
  6
CONTINUOUS
 70
0
 71
3
 72
39
 73
35
 74
0
 42
0.0000001
 43
0.0000001
 44
0.0000000001
 40
0.0
 40
0.0
 40
0.0
 40
0.0
 40
0.0002487103
 40
0.0005722929
 40
0.0010087298
 40
0.0015736242
 40
0.0022739354
 40
0.0031131869
 40
0.0040933427
 40
0.0052155727
 40
0.0078887749
 40
0.0111361618
 40
0.0149587167
 40
0.0193555356
 40
0.0243249454
 40
0.0298649848
 40
0.0426478555
 40
0.0576795843
 40
0.0749294671
 40
0.094363351
 40
0.1159396238
 40
0.1396146421
 40
0.1653381766
 40
0.1930564007
 40
0.2227118328
 40
0.2875795651
 40
0.3593967949
 40
0.4375601677
 40
0.5214129455
 40
0.6102494743
 40
0.703324119
 40
0.7998493205
 40
0.8990249991
 40
1.0
 40
1.0
 40
1.0
 40
1.0
 10
5.3777878994
 20
5.2959118013
 30
0.0
 10
5.3777879119
 20
5.2958898698
 30
0.0
 10
5.3777697177
 20
5.2958395333
 30
0.0
 10
5.3777047095
 20
5.2957768658
 30
0.0
 10
5.3776050344
 20
5.2957151667
 30
0.0
 10
5.3774678406
 20
5.2956536421
 30
0.0
 10
5.3772927765
 20
5.2955917426
 30
0.0
 10
5.3770793457
 20
5.2955296422
 30
0.0
 10
5.3768274904
 20
5.2954673449
 30
0.0
 10
5.3764157183
 20
5.2953788861
 30
0.0
 10
5.3758039442
 20
5.2952709543
 30
0.0
 10
5.3749537072
 20
5.2951469958
 30
0.0
 10
5.3739501719
 20
5.2950226345
 30
0.0
 10
5.372793846
 20
5.29489792
 30
0.0
 10
5.371485324
 20
5.294772974
 30
0.0
 10
5.369438856
 20
5.2945976888
 30
0.0
 10
5.3665054056
 20
5.2943824133
 30
0.0
 10
5.3625393257
 20
5.2941337402
 30
0.0
 10
5.3579857903
 20
5.2938844461
 30
0.0
 10
5.3528544231
 20
5.2936346823
 30
0.0
 10
5.3471558991
 20
5.2933845691
 30
0.0
 10
5.340902276
 20
5.2931342287
 30
0.0
 10
5.3341066614
 20
5.2928836988
 30
0.0
 10
5.3267833639
 20
5.2926330158
 30
0.0
 10
5.3160095243
 20
5.2922882404
 30
0.0
 10
5.3013476691
 20
5.2918614824
 30
0.0
 10
5.2824087186
 20
5.2913625429
 30
0.0
 10
5.2617951357
 20
5.2908630025
 30
0.0
 10
5.2396803817
 20
5.2903629896
 30
0.0
 10
5.2162504318
 20
5.2898626431
 30
0.0
 10
5.1917027806
 20
5.2893620579
 30
0.0
 10
5.1662432366
 20
5.2888612841
 30
0.0
 10
5.1400869045
 20
5.2883603981
 30
0.0
 10
5.1224405717
 20
5.2880284772
 30
0.0
 10
5.113538072
 20
5.2878618012
 30
0.0
  0
SPLINE
  5
3B5
100
AcDbEntity
  8
0
100
AcDbSpline
 62
7
  6
CONTINUOUS
 70
0
 71
3
 72
63
 73
59
 74
0
 42
0.0000001
 43
0.0000001
 44
0.0000000001
 40
0.0
 40
0.0
 40
0.0
 40
0.0
 40
0.0010305488
 40
0.0023428763
 40
0.0039379092
 40
0.0058154627
 40
0.0079749741
 40
0.0104156864
 40
0.0161361879
 40
0.0229645197
 40
0.0308862536
 40
0.0398832882
 40
0.0499354205
 40
0.0610198261
 40
0.0731109087
 40
0.1002008843
 40
0.1309571577
 40
0.1650974078
 40
0.2023081681
 40
0.2422476303
 40
0.284548844
 40
0.3288231691
 40
0.3746637636
 40
0.4216493439
 40
0.4693481802
 40
0.5173217944
 40
0.5651293801
 40
0.6123315063
 40
0.6584944184
 40
0.7031939143
 40
0.7460192019
 40
0.7865768078
 40
0.8244940777
 40
0.8594226492
 40
0.8756647097
 40
0.8910418262
 40
0.9055184197
 40
0.9190613758
 40
0.9316397528
 40
0.9432244591
 40
0.9537894533
 40
0.9633100455
 40
0.9717652419
 40
0.979135424
 40
0.9854046854
 40
0.9905593093
 40
0.9927153186
 40
0.9945893618
 40
0.996180879
 40
0.9974896931
 40
0.9980383526
 40
0.9985168556
 40
0.9989256789
 40
0.9992656229
 40
0.9995381323
 40
0.9996499814
 40
0.9997463072
 40
1.0
 40
1.0
 40
1.0
 40
1.0
 10
5.3973170363
 20
5.2106786388
 30
0.0
 10
5.397106961
 20
5.2106279212
 30
0.0
 10
5.39662481
 20
5.2105318011
 30
0.0
 10
5.3958090313
 20
5.2104030655
 30
0.0
 10
5.3948138899
 20
5.2102736133
 30
0.0
 10
5.3936399476
 20
5.2101435962
 30
0.0
 10
5.3922877594
 20
5.2100132333
 30
0.0
 10
5.390131259
 20
5.2098292267
 30
0.0
 10
5.3869958324
 20
5.2096040365
 30
0.0
 10
5.3827108577
 20
5.2093445551
 30
0.0
 10
5.3777377368
 20
5.2090843404
 30
0.0
 10
5.3720878057
 20
5.2088234767
 30
0.0
 10
5.3657740371
 20
5.2085622254
 30
0.0
 10
5.3588109464
 20
5.2083006596
 30
0.0
 10
5.3482762793
 20
5.207937709
 30
0.0
 10
5.3336168647
 20
5.2074903168
 30
0.0
 10
5.3143338542
 20
5.2069701051
 30
0.0
 10
5.2929278006
 20
5.2064489308
 30
0.0
 10
5.269595491
 20
5.2059269958
 30
0.0
 10
5.2445514044
 20
5.2054045543
 30
0.0
 10
5.218025761
 20
5.2048817401
 30
0.0
 10
5.1902623996
 20
5.2043586612
 30
0.0
 10
5.1615165407
 20
5.2038353949
 30
0.0
 10
5.1320524326
 20
5.2033120032
 30
0.0
 10
5.1021409524
 20
5.202788538
 30
0.0
 10
5.0720570683
 20
5.2022650451
 30
0.0
 10
5.042077362
 20
5.2017415688
 30
0.0
 10
5.0124774256
 20
5.2012181544
 30
0.0
 10
4.9835293718
 20
5.2006948517
 30
0.0
 10
4.9554993122
 20
5.2001717205
 30
0.0
 10
4.9286449191
 20
5.199648831
 30
0.0
 10
4.9032130653
 20
5.1991262912
 30
0.0
 10
4.8794375515
 20
5.1986041975
 30
0.0
 10
4.8607606737
 20
5.1981596064
 30
0.0
 10
4.8468098989
 20
5.197801129
 30
0.0
 10
4.8371469524
 20
5.1975389065
 30
0.0
 10
4.8280502383
 20
5.1972767798
 30
0.0
 10
4.8195406884
 20
5.1970147667
 30
0.0
 10
4.8116378831
 20
5.1967529093
 30
0.0
 10
4.8043599331
 20
5.1964912293
 30
0.0
 10
4.7977236545
 20
5.1962298241
 30
0.0
 10
4.7917441915
 20
5.1959687478
 30
0.0
 10
4.7864353833
 20
5.1957081687
 30
0.0
 10
4.7818092652
 20
5.1954483487
 30
0.0
 10
4.7778765122
 20
5.19518948
 30
0.0
 10
4.7750374974
 20
5.194964143
 30
0.0
 10
4.7731202887
 20
5.1947791323
 30
0.0
 10
4.7719485486
 20
5.194649131
 30
0.0
 10
4.7709556931
 20
5.1945195989
 30
0.0
 10
4.7702410993
 20
5.1944067819
 30
0.0
 10
4.7697600049
 20
5.1943142769
 30
0.0
 10
4.769465933
 20
5.1942491544
 30
0.0
 10
4.7692168311
 20
5.1941843164
 30
0.0
 10
4.7690124242
 20
5.1941195599
 30
0.0
 10
4.7688714711
 20
5.1940632263
 30
0.0
 10
4.7687814911
 20
5.1940161469
 30
0.0
 10
4.7687014463
 20
5.1939658485
 30
0.0
 10
4.7686379638
 20
5.1939028697
 30
0.0
 10
4.7686379638
 20
5.1938496691
 30
0.0
  0
SPLINE
  5
3B6
100
AcDbEntity
  8
0
100
AcDbSpline
 62
7
  6
CONTINUOUS
 70
0
 71
3
 72
17
 73
13
 74
0
 42
0.0000001
 43
0.0000001
 44
0.0000000001
 40
0.0
 40
0.0
 40
0.0
 40
0.0
 40
0.0225803392
 40
0.0504912612
 40
0.0837567618
 40
0.122386035
 40
0.2157338409
 40
0.3304690889
 40
0.4664644582
 40
0.6235654911
 40
0.8015130796
 40
1.0
 40
1.0
 40
1.0
 40
1.0
 10
4.7693495988
 20
5.3426926902
 30
0.0
 10
4.7695015957
 20
5.3427320812
 30
0.0
 10
4.7698446548
 20
5.342807776
 30
0.0
 10
4.7704180478
 20
5.3429103362
 30
0.0
 10
4.7711044605
 20
5.3430133609
 30
0.0
 10
4.7722440977
 20
5.3431606039
 30
0.0
 10
4.7739505327
 20
5.3433395016
 30
0.0
 10
4.7763344206
 20
5.343544699
 30
0.0
 10
4.7791629573
 20
5.3437507305
 30
0.0
 10
4.782431989
 20
5.3439574284
 30
0.0
 10
4.7861363075
 20
5.3441645267
 30
0.0
 10
4.7887506677
 20
5.3442956748
 30
0.0
 10
4.7901293129
 20
5.3443618012
 30
0.0
  0
LINE
  5
3B7
100
AcDbEntity
  8
0
100
AcDbLine
 62
7
  6
CONTINUOUS
 10
5.3770274369
 20
5.2054176407
 11
5.3766513435
 21
5.2053298697
  0
SPLINE
  5
3B8
100
AcDbEntity
  8
0
100
AcDbSpline
 62
7
  6
CONTINUOUS
 70
0
 71
3
 72
62
 73
58
 74
0
 42
0.0000001
 43
0.0000001
 44
0.0000000001
 40
0.0
 40
0.0
 40
0.0
 40
0.0
 40
0.0012106249
 40
0.0027005657
 40
0.0044702572
 40
0.0065192346
 40
0.0114518121
 40
0.0174901828
 40
0.0246212073
 40
0.0328297515
 40
0.0420975297
 40
0.0524035405
 40
0.0637250399
 40
0.076035826
 40
0.1035128693
 40
0.1345853974
 40
0.1689711664
 40
0.2063577145
 40
0.2464051642
 40
0.2887493777
 40
0.3330053415
 40
0.3787704166
 40
0.4256284013
 40
0.473152978
 40
0.5209119007
 40
0.5684707799
 40
0.6153969221
 40
0.6612635685
 40
0.7056533751
 40
0.7481627068
 40
0.7884049527
 40
0.8260141963
 40
0.8606485614
 40
0.8919932143
 40
0.9063415161
 40
0.9197634462
 40
0.9322279707
 40
0.9437073265
 40
0.9541753058
 40
0.9636082739
 40
0.9719853956
 40
0.9792874819
 40
0.9854992773
 40
0.9906070715
 40
0.992744012
 40
0.9946019037
 40
0.9961802096
 40
0.9974789046
 40
0.9980237945
 40
0.9984994401
 40
0.9989063818
 40
0.9992455218
 40
0.9995184762
 40
0.9997284487
 40
0.9998119893
 40
0.9998832301
 40
1.0
 40
1.0
 40
1.0
 40
1.0
 10
5.3766513435
 20
5.2053298697
 30
0.0
 10
5.3764191807
 20
5.2052806102
 30
0.0
 10
5.3758981086
 20
5.2051858343
 30
0.0
 10
5.3750311824
 20
5.2050571849
 30
0.0
 10
5.3739984574
 20
5.2049279765
 30
0.0
 10
5.3722927477
 20
5.2047435721
 30
0.0
 10
5.3697499789
 20
5.2045193201
 30
0.0
 10
5.3662105408
 20
5.204261997
 30
0.0
 10
5.3620275092
 20
5.204003649
 30
0.0
 10
5.3572104147
 20
5.203744479
 30
0.0
 10
5.3517701296
 20
5.2034848143
 30
0.0
 10
5.345718981
 20
5.2032247698
 30
0.0
 10
5.3390707942
 20
5.202964466
 30
0.0
 10
5.3290577972
 20
5.202603764
 30
0.0
 10
5.3151733997
 20
5.2021588458
 30
0.0
 10
5.2969616788
 20
5.2016410753
 30
0.0
 10
5.2768066165
 20
5.2011224056
 30
0.0
 10
5.254891599
 20
5.2006030234
 30
0.0
 10
5.2314160124
 20
5.200083164
 30
0.0
 10
5.2065934428
 20
5.1995629529
 30
0.0
 10
5.1806497606
 20
5.1990424921
 30
0.0
 10
5.1538210306
 20
5.1985218543
 30
0.0
 10
5.1263514065
 20
5.1980010989
 30
0.0
 10
5.0984908407
 20
5.1974802754
 30
0.0
 10
5.0704928482
 20
5.1969594287
 30
0.0
 10
5.0426121927
 20
5.196438602
 30
0.0
 10
5.0151025633
 20
5.1959178395
 30
0.0
 10
4.9882143102
 20
5.1953971907
 30
0.0
 10
4.9621920923
 20
5.1948767126
 30
0.0
 10
4.9372727059
 20
5.1943564801
 30
0.0
 10
4.9136828779
 20
5.1938365836
 30
0.0
 10
4.891637244
 20
5.1933171747
 30
0.0
 10
4.8713364015
 20
5.1927983832
 30
0.0
 10
4.8555952433
 20
5.1923548235
 30
0.0
 10
4.8440118901
 20
5.1919964399
 30
0.0
 10
4.8361285653
 20
5.1917357652
 30
0.0
 10
4.8288079929
 20
5.1914752313
 30
0.0
 10
4.8220669004
 20
5.1912148973
 30
0.0
 10
4.8159205856
 20
5.1909548138
 30
0.0
 10
4.8103830129
 20
5.1906950709
 30
0.0
 10
4.8054668175
 20
5.1904358196
 30
0.0
 10
4.8011830328
 20
5.1901773138
 30
0.0
 10
4.797541469
 20
5.1899197768
 30
0.0
 10
4.7949128069
 20
5.1896955596
 30
0.0
 10
4.7931377968
 20
5.189511496
 30
0.0
 10
4.7920528575
 20
5.1893821503
 30
0.0
 10
4.791133553
 20
5.1892532701
 30
0.0
 10
4.7904719945
 20
5.1891410338
 30
0.0
 10
4.7900266904
 20
5.1890490262
 30
0.0
 10
4.7897543868
 20
5.1889842537
 30
0.0
 10
4.7895236815
 20
5.1889196702
 30
0.0
 10
4.78933435
 20
5.1888553724
 30
0.0
 10
4.7891863072
 20
5.1887913205
 30
0.0
 10
4.7890900146
 20
5.1887346847
 30
0.0
 10
4.7890359093
 20
5.1886874408
 30
0.0
 10
4.7890017849
 20
5.1886465924
 30
0.0
 10
4.7889879621
 20
5.1886096928
 30
0.0
 10
4.7889879682
 20
5.1885868012
 30
0.0
  0
SPLINE
  5
3B9
100
AcDbEntity
  8
0
100
AcDbSpline
 62
7
  6
CONTINUOUS
 70
0
 71
3
 72
17
 73
13
 74
0
 42
0.0000001
 43
0.0000001
 44
0.0000000001
 40
0.0
 40
0.0
 40
0.0
 40
0.0
 40
0.1976699979
 40
0.3750008818
 40
0.5317377661
 40
0.6676504565
 40
0.7825340491
 40
0.8762583939
 40
0.915157897
 40
0.9487396855
 40
0.9770111462
 40
1.0
 40
1.0
 40
1.0
 40
1.0
 10
4.8108235122
 20
4.5573617968
 30
0.0
 10
4.809430902
 20
4.5572931732
 30
0.0
 10
4.8067892565
 20
4.5571571015
 30
0.0
 10
4.8030446789
 20
4.5569423197
 30
0.0
 10
4.7997364927
 20
4.5567279519
 30
0.0
 10
4.7968697669
 20
4.5565142996
 30
0.0
 10
4.7944489033
 20
4.5563014286
 30
0.0
 10
4.7927127361
 20
4.5561159132
 30
0.0
 10
4.791550289
 20
4.555963358
 30
0.0
 10
4.7908476166
 20
4.5558564802
 30
0.0
 10
4.7902586356
 20
4.5557500493
 30
0.0
 10
4.7899054532
 20
4.5556716629
 30
0.0
 10
4.7897484884
 20
4.5556309617
 30
0.0
  0
SPLINE
  5
3BA
100
AcDbEntity
  8
0
100
AcDbSpline
 62
7
  6
CONTINUOUS
 70
0
 71
3
 72
63
 73
59
 74
0
 42
0.0000001
 43
0.0000001
 44
0.0000000001
 40
0.0
 40
0.0
 40
0.0
 40
0.0
 40
0.0001173663
 40
0.0001890828
 40
0.000273253
 40
0.0004849829
 40
0.0007603818
 40
0.0011026613
 40
0.0015134407
 40
0.0019936237
 40
0.0025437524
 40
0.0038550325
 40
0.0054486811
 40
0.007324638
 40
0.0094823645
 40
0.0146398741
 40
0.0209119024
 40
0.0282845073
 40
0.0367421079
 40
0.0462650533
 40
0.0568322214
 40
0.068419321
 40
0.0809997826
 40
0.0945451363
 40
0.1090238341
 40
0.140647547
 40
0.1755805894
 40
0.2135021246
 40
0.2540637694
 40
0.2968928014
 40
0.3415956591
 40
0.3877615203
 40
0.4349659933
 40
0.4827752407
 40
0.5307497016
 40
0.578448475
 40
0.6254331237
 40
0.6712717461
 40
0.7155431049
 40
0.757840148
 40
0.7977742769
 40
0.834978511
 40
0.8691111477
 40
0.8998587957
 40
0.9269392712
 40
0.939025285
 40
0.9501044738
 40
0.960151004
 40
0.9691426964
 40
0.9770585849
 40
0.9838815311
 40
0.9895964186
 40
0.9920345066
 40
0.9941916372
 40
0.9960669648
 40
0.9976598706
 40
0.9989704237
 40
1.0
 40
1.0
 40
1.0
 40
1.0
 10
5.3777879624
 20
4.9858618013
 30
0.0
 10
5.3777879661
 20
4.9858387776
 30
0.0
 10
5.377773965
 20
4.9858016552
 30
0.0
 10
5.3777394935
 20
4.9857606217
 30
0.0
 10
5.3776848018
 20
4.9857131192
 30
0.0
 10
5.3775874928
 20
4.9856561946
 30
0.0
 10
5.3774379088
 20
4.9855918126
 30
0.0
 10
5.3772465996
 20
4.9855271822
 30
0.0
 10
5.3770134799
 20
4.9854622617
 30
0.0
 10
5.3767383229
 20
4.9853971508
 30
0.0
 10
5.376288335
 20
4.9853046591
 30
0.0
 10
5.37561983
 20
4.9851918373
 30
0.0
 10
5.3746908942
 20
4.9850622826
 30
0.0
 10
5.3735946071
 20
4.9849322588
 30
0.0
 10
5.3718010523
 20
4.9847472297
 30
0.0
 10
5.3691450126
 20
4.9845218437
 30
0.0
 10
5.3654656512
 20
4.9842629553
 30
0.0
 10
5.3611376132
 20
4.9840030963
 30
0.0
 10
5.3561709151
 20
4.9837424887
 30
0.0
 10
5.3505768084
 20
4.9834813827
 30
0.0
 10
5.3443682117
 20
4.9832199404
 30
0.0
 10
5.3375593551
 20
4.9829582395
 30
0.0
 10
5.3301658843
 20
4.9826963437
 30
0.0
 10
5.3222048485
 20
4.9824343022
 30
0.0
 10
5.3105093553
 20
4.9820740656
 30
0.0
 10
5.2946189491
 20
4.9816282131
 30
0.0
 10
5.2741301846
 20
4.9811067132
 30
0.0
 10
5.2518875716
 20
4.9805845935
 30
0.0
 10
5.2280956282
 20
4.9800619844
 30
0.0
 10
5.2029731061
 20
4.9795390387
 30
0.0
 10
5.17675099
 20
4.9790158475
 30
0.0
 10
5.1496703877
 20
4.9784924863
 30
0.0
 10
5.1219803002
 20
4.9779690131
 30
0.0
 10
5.0939353606
 20
4.9774454781
 30
0.0
 10
5.0657934383
 20
4.9769219264
 30
0.0
 10
5.037813304
 20
4.9763984023
 30
0.0
 10
5.0102522273
 20
4.9758749521
 30
0.0
 10
4.9833636235
 20
4.9753516274
 30
0.0
 10
4.9573947571
 20
4.9748284908
 30
0.0
 10
4.9325844069
 20
4.9743056188
 30
0.0
 10
4.9091607209
 20
4.9737831197
 30
0.0
 10
4.8873390486
 20
4.9732611273
 30
0.0
 10
4.8673200104
 20
4.9727398965
 30
0.0
 10
4.8492876521
 20
4.9722196287
 30
0.0
 10
4.8355799213
 20
4.9717721837
 30
0.0
 10
4.8257299571
 20
4.9714091824
 30
0.0
 10
4.8192200892
 20
4.9711475956
 30
0.0
 10
4.8133177517
 20
4.9708863012
 30
0.0
 10
4.8080366069
 20
4.9706254294
 30
0.0
 10
4.8033886495
 20
4.9703651649
 30
0.0
 10
4.7993846121
 20
4.9701056848
 30
0.0
 10
4.7964553153
 20
4.9698804511
 30
0.0
 10
4.7944411508
 20
4.9696964054
 30
0.0
 10
4.7931785048
 20
4.969566025
 30
0.0
 10
4.7920826249
 20
4.9694359962
 30
0.0
 10
4.7911540434
 20
4.9693065263
 30
0.0
 10
4.7903932414
 20
4.9691777684
 30
0.0
 10
4.789943998
 20
4.969081654
 30
0.0
 10
4.7897484922
 20
4.9690309618
 30
0.0
  0
SPLINE
  5
3BB
100
AcDbEntity
  8
0
100
AcDbSpline
 62
7
  6
CONTINUOUS
 70
0
 71
3
 72
63
 73
59
 74
0
 42
0.0000001
 43
0.0000001
 44
0.0000000001
 40
0.0
 40
0.0
 40
0.0
 40
0.0
 40
0.0010305488
 40
0.0023428763
 40
0.0039379092
 40
0.0058154627
 40
0.0079749741
 40
0.0104156864
 40
0.0161361879
 40
0.0229645197
 40
0.0308862536
 40
0.0398832882
 40
0.0499354205
 40
0.0610198261
 40
0.0731109087
 40
0.1002008843
 40
0.1309571577
 40
0.1650974078
 40
0.2023081681
 40
0.2422476303
 40
0.284548844
 40
0.3288231691
 40
0.3746637636
 40
0.4216493439
 40
0.4693481802
 40
0.5173217944
 40
0.5651293801
 40
0.6123315063
 40
0.6584944184
 40
0.7031939143
 40
0.7460192019
 40
0.7865768078
 40
0.8244940777
 40
0.8594226492
 40
0.8756647097
 40
0.8910418262
 40
0.9055184197
 40
0.9190613758
 40
0.9316397528
 40
0.9432244591
 40
0.9537894533
 40
0.9633100455
 40
0.9717652419
 40
0.979135424
 40
0.9854046854
 40
0.9905593093
 40
0.9927153186
 40
0.9945893618
 40
0.996180879
 40
0.9974896931
 40
0.9980383526
 40
0.9985168556
 40
0.9989256789
 40
0.9992656229
 40
0.9995381323
 40
0.9996499814
 40
0.9997463072
 40
1.0
 40
1.0
 40
1.0
 40
1.0
 10
5.3973170363
 20
5.2451286388
 30
0.0
 10
5.397106961
 20
5.2450779212
 30
0.0
 10
5.39662481
 20
5.2449818011
 30
0.0
 10
5.3958090313
 20
5.2448530655
 30
0.0
 10
5.3948138899
 20
5.2447236133
 30
0.0
 10
5.3936399476
 20
5.2445935962
 30
0.0
 10
5.3922877594
 20
5.2444632333
 30
0.0
 10
5.390131259
 20
5.2442792267
 30
0.0
 10
5.3869958324
 20
5.2440540365
 30
0.0
 10
5.3827108577
 20
5.2437945551
 30
0.0
 10
5.3777377368
 20
5.2435343404
 30
0.0
 10
5.3720878057
 20
5.2432734767
 30
0.0
 10
5.3657740371
 20
5.2430122254
 30
0.0
 10
5.3588109464
 20
5.2427506596
 30
0.0
 10
5.3482762793
 20
5.242387709
 30
0.0
 10
5.3336168647
 20
5.2419403168
 30
0.0
 10
5.3143338542
 20
5.2414201051
 30
0.0
 10
5.2929278006
 20
5.2408989308
 30
0.0
 10
5.269595491
 20
5.2403769958
 30
0.0
 10
5.2445514044
 20
5.2398545543
 30
0.0
 10
5.218025761
 20
5.2393317401
 30
0.0
 10
5.1902623996
 20
5.2388086612
 30
0.0
 10
5.1615165407
 20
5.2382853949
 30
0.0
 10
5.1320524326
 20
5.2377620032
 30
0.0
 10
5.1021409524
 20
5.237238538
 30
0.0
 10
5.0720570683
 20
5.2367150451
 30
0.0
 10
5.042077362
 20
5.2361915688
 30
0.0
 10
5.0124774256
 20
5.2356681544
 30
0.0
 10
4.9835293718
 20
5.2351448517
 30
0.0
 10
4.9554993122
 20
5.2346217205
 30
0.0
 10
4.9286449191
 20
5.234098831
 30
0.0
 10
4.9032130653
 20
5.2335762912
 30
0.0
 10
4.8794375515
 20
5.2330541975
 30
0.0
 10
4.8607606737
 20
5.2326096064
 30
0.0
 10
4.8468098989
 20
5.232251129
 30
0.0
 10
4.8371469524
 20
5.2319889065
 30
0.0
 10
4.8280502383
 20
5.2317267798
 30
0.0
 10
4.8195406884
 20
5.2314647667
 30
0.0
 10
4.8116378831
 20
5.2312029093
 30
0.0
 10
4.8043599331
 20
5.2309412293
 30
0.0
 10
4.7977236545
 20
5.2306798241
 30
0.0
 10
4.7917441915
 20
5.2304187478
 30
0.0
 10
4.7864353833
 20
5.2301581687
 30
0.0
 10
4.7818092652
 20
5.2298983487
 30
0.0
 10
4.7778765122
 20
5.22963948
 30
0.0
 10
4.7750374974
 20
5.229414143
 30
0.0
 10
4.7731202887
 20
5.2292291323
 30
0.0
 10
4.7719485486
 20
5.229099131
 30
0.0
 10
4.7709556931
 20
5.2289695989
 30
0.0
 10
4.7702410993
 20
5.2288567819
 30
0.0
 10
4.7697600049
 20
5.2287642769
 30
0.0
 10
4.769465933
 20
5.2286991544
 30
0.0
 10
4.7692168311
 20
5.2286343164
 30
0.0
 10
4.7690124242
 20
5.2285695599
 30
0.0
 10
4.7688714711
 20
5.2285132263
 30
0.0
 10
4.7687814911
 20
5.2284661469
 30
0.0
 10
4.7687014463
 20
5.2284158485
 30
0.0
 10
4.7686379638
 20
5.2283528697
 30
0.0
 10
4.7686379638
 20
5.2282996691
 30
0.0
  0
SPLINE
  5
3BC
100
AcDbEntity
  8
0
100
AcDbSpline
 62
7
  6
CONTINUOUS
 70
0
 71
3
 72
63
 73
59
 74
0
 42
0.0000001
 43
0.0000001
 44
0.0000000001
 40
0.0
 40
0.0
 40
0.0
 40
0.0
 40
0.0001173458
 40
0.0001890255
 40
0.0002731471
 40
0.0004847769
 40
0.0007601292
 40
0.0011024393
 40
0.0015133003
 40
0.0019935846
 40
0.0025438011
 40
0.0038550859
 40
0.0054485045
 40
0.0073243996
 40
0.0094822998
 40
0.0146398594
 40
0.020911699
 40
0.028284573
 40
0.0367418494
 40
0.0462650984
 40
0.0568320442
 40
0.068419234
 40
0.0809997182
 40
0.0945449409
 40
0.1090238823
 40
0.1406475355
 40
0.1755804922
 40
0.2135019616
 40
0.2540635477
 40
0.2968926576
 40
0.341595552
 40
0.3877614363
 40
0.4349659001
 40
0.4827750842
 40
0.5307495789
 40
0.5784483578
 40
0.6254330199
 40
0.6712716339
 40
0.7155428796
 40
0.7578399255
 40
0.7977740638
 40
0.8349783813
 40
0.8691111242
 40
0.8998587574
 40
0.9269391612
 40
0.939025177
 40
0.9501042059
 40
0.9601509823
 40
0.9691423788
 40
0.9770586019
 40
0.9838812912
 40
0.9895963109
 40
0.9920345272
 40
0.9941915171
 40
0.9960666634
 40
0.997659605
 40
0.9989703952
 40
1.0
 40
1.0
 40
1.0
 40
1.0
 10
5.3777878587
 20
5.0203118013
 30
0.0
 10
5.3777878668
 20
5.0202887817
 30
0.0
 10
5.377773899
 20
5.0202516641
 30
0.0
 10
5.3777394671
 20
5.0202106224
 30
0.0
 10
5.3776848269
 20
5.0201631161
 30
0.0
 10
5.3775875641
 20
5.0201061841
 30
0.0
 10
5.3774380032
 20
5.020041805
 30
0.0
 10
5.3772466785
 20
5.0199771795
 30
0.0
 10
5.3770135145
 20
5.0199122619
 30
0.0
 10
5.3767383025
 20
5.019847153
 30
0.0
 10
5.3762882743
 20
5.0197546687
 30
0.0
 10
5.3756197969
 20
5.0196418476
 30
0.0
 10
5.3746909206
 20
5.0195122734
 30
0.0
 10
5.3735946563
 20
5.0193822518
 30
0.0
 10
5.3718010675
 20
5.0191972408
 30
0.0
 10
5.3691450216
 20
5.0189718475
 30
0.0
 10
5.3654656353
 20
5.0187129435
 30
0.0
 10
5.3611376432
 20
5.0184531124
 30
0.0
 10
5.3561708976
 20
5.0181924741
 30
0.0
 10
5.3505768369
 20
5.0179313947
 30
0.0
 10
5.344368207
 20
5.0176699334
 30
0.0
 10
5.3375593711
 20
5.017408242
 30
0.0
 10
5.3301659033
 20
5.0171463462
 30
0.0
 10
5.3222048406
 20
5.0168842981
 30
0.0
 10
5.310509336
 20
5.0165240716
 30
0.0
 10
5.2946189096
 20
5.0160782121
 30
0.0
 10
5.2741301851
 20
5.015556714
 30
0.0
 10
5.2518876119
 20
5.0150345932
 30
0.0
 10
5.2280956759
 20
5.0145119842
 30
0.0
 10
5.2029731412
 20
5.0139890388
 30
0.0
 10
5.1767509963
 20
5.013465848
 30
0.0
 10
5.1496703822
 20
5.0129424868
 30
0.0
 10
5.1219803024
 20
5.0124190133
 30
0.0
 10
5.0939353686
 20
5.0118954781
 30
0.0
 10
5.065793449
 20
5.0113719265
 30
0.0
 10
5.0378133025
 20
5.0108484026
 30
0.0
 10
5.0102522218
 20
5.0103249526
 30
0.0
 10
4.9833636374
 20
5.0098016279
 30
0.0
 10
4.9573947926
 20
5.0092784908
 30
0.0
 10
4.9325844604
 20
5.0087556186
 30
0.0
 10
4.909160754
 20
5.0082331196
 30
0.0
 10
4.8873390412
 20
5.0077111275
 30
0.0
 10
4.8673199674
 20
5.007189897
 30
0.0
 10
4.8492876039
 20
5.0066696312
 30
0.0
 10
4.8355798889
 20
5.0062221809
 30
0.0
 10
4.8257299689
 20
5.0058591865
 30
0.0
 10
4.8192200837
 20
5.0055975871
 30
0.0
 10
4.8133177859
 20
5.0053363147
 30
0.0
 10
4.8080365864
 20
5.0050754137
 30
0.0
 10
4.8033886697
 20
5.0048151802
 30
0.0
 10
4.7993845923
 20
5.004555676
 30
0.0
 10
4.7964552946
 20
5.004330445
 30
0.0
 10
4.7944411048
 20
5.0041464147
 30
0.0
 10
4.7931784976
 20
5.0040160279
 30
0.0
 10
4.7920826752
 20
5.0038859896
 30
0.0
 10
4.7911540766
 20
5.0037565132
 30
0.0
 10
4.7903932114
 20
5.0036277773
 30
0.0
 10
4.789943914
 20
5.0035316621
 30
0.0
 10
4.7897484045
 20
5.0034809617
 30
0.0
  0
LINE
  5
3BD
100
AcDbEntity
  8
0
100
AcDbLine
 62
7
  6
CONTINUOUS
 10
5.3770275127
 20
5.2398676406
 11
5.3766073778
 21
5.2397706309
  0
SPLINE
  5
3BE
100
AcDbEntity
  8
0
100
AcDbSpline
 62
7
  6
CONTINUOUS
 70
0
 71
3
 72
62
 73
58
 74
0
 42
0.0000001
 43
0.0000001
 44
0.0000000001
 40
0.0
 40
0.0
 40
0.0
 40
0.0
 40
0.0012298088
 40
0.0027384684
 40
0.0045264414
 40
0.0065936185
 40
0.0115618052
 40
0.0176336646
 40
0.0247972066
 40
0.0330361442
 40
0.042332828
 40
0.0526660237
 40
0.0640126323
 40
0.0763471741
 40
0.1038655266
 40
0.1349718175
 40
0.1693838997
 40
0.2067893779
 40
0.2468486877
 40
0.2891978247
 40
0.3334521028
 40
0.3792094248
 40
0.4260540555
 40
0.473560418
 40
0.5212968255
 40
0.5688295131
 40
0.6157265892
 40
0.6615618978
 40
0.705919057
 40
0.7483950752
 40
0.7886040467
 40
0.8261807804
 40
0.8607838764
 40
0.8920993184
 40
0.9064342388
 40
0.9198430141
 40
0.9322957331
 40
0.9437636172
 40
0.9542213943
 40
0.963644981
 40
0.9720135552
 40
0.9793085456
 40
0.9855137405
 40
0.990616689
 40
0.9927514086
 40
0.9946072206
 40
0.9961838487
 40
0.99748143
 40
0.9980258812
 40
0.9985010902
 40
0.998907591
 40
0.9992463181
 40
0.9995189214
 40
0.9997286368
 40
0.9998120923
 40
0.9998832777
 40
1.0
 40
1.0
 40
1.0
 40
1.0
 10
5.3766073778
 20
5.2397706309
 30
0.0
 10
5.3763713633
 20
5.2397215032
 30
0.0
 10
5.3758427671
 20
5.2396268725
 30
0.0
 10
5.3749647762
 20
5.2394982342
 30
0.0
 10
5.3739212275
 20
5.2393690476
 30
0.0
 10
5.3722014171
 20
5.2391848359
 30
0.0
 10
5.3696416585
 20
5.2389607346
 30
0.0
 10
5.3660825182
 20
5.2387034633
 30
0.0
 10
5.3618808678
 20
5.2384452559
 30
0.0
 10
5.3570461139
 20
5.2381861851
 30
0.0
 10
5.3515892675
 20
5.237926656
 30
0.0
 10
5.3455226453
 20
5.237666748
 30
0.0
 10
5.3388600441
 20
5.2374065679
 30
0.0
 10
5.3288301173
 20
5.2370461226
 30
0.0
 10
5.3149273928
 20
5.2366014591
 30
0.0
 10
5.2966971768
 20
5.2360839552
 30
0.0
 10
5.2765281584
 20
5.2355655542
 30
0.0
 10
5.2546036152
 20
5.2350464474
 30
0.0
 10
5.2311228169
 20
5.2345268666
 30
0.0
 10
5.2062991812
 20
5.2340069362
 30
0.0
 10
5.1803583642
 20
5.233486757
 30
0.0
 10
5.1535361509
 20
5.2329664018
 30
0.0
 10
5.1260763331
 20
5.2324459299
 30
0.0
 10
5.0982284978
 20
5.2319253908
 30
0.0
 10
5.0702457632
 20
5.2314048292
 30
0.0
 10
5.0423824842
 20
5.2308842877
 30
0.0
 10
5.0148919328
 20
5.2303638105
 30
0.0
 10
4.9880239758
 20
5.2298434468
 30
0.0
 10
4.9620228206
 20
5.2293232543
 30
0.0
 10
4.9371247923
 20
5.2288033076
 30
0.0
 10
4.9135561941
 20
5.2282836971
 30
0.0
 10
4.8915312712
 20
5.2277645735
 30
0.0
 10
4.8712502098
 20
5.2272460696
 30
0.0
 10
4.8555247347
 20
5.2268027408
 30
0.0
 10
4.8439531951
 20
5.226444567
 30
0.0
 10
4.8360779899
 20
5.2261840199
 30
0.0
 10
4.8287651186
 20
5.2259236476
 30
0.0
 10
4.8220311054
 20
5.2256634422
 30
0.0
 10
4.8158913484
 20
5.2254035092
 30
0.0
 10
4.8103597137
 20
5.2251439138
 30
0.0
 10
4.8054488014
 20
5.2248847868
 30
0.0
 10
4.8011697031
 20
5.2246264565
 30
0.0
 10
4.7975320562
 20
5.2243690187
 30
0.0
 10
4.7949062722
 20
5.2241449579
 30
0.0
 10
4.7931331917
 20
5.2239609914
 30
0.0
 10
4.7920495092
 20
5.2238317089
 30
0.0
 10
4.7911312325
 20
5.2237028873
 30
0.0
 10
4.7904703564
 20
5.2235907238
 30
0.0
 10
4.7900254738
 20
5.2234987748
 30
0.0
 10
4.7897534484
 20
5.22343404
 30
0.0
 10
4.7895230148
 20
5.223369491
 30
0.0
 10
4.7893339375
 20
5.2233052267
 30
0.0
 10
4.7891861117
 20
5.223241207
 30
0.0
 10
4.7890899714
 20
5.2231845975
 30
0.0
 10
4.789035953
 20
5.223137382
 30
0.0
 10
4.7890018736
 20
5.2230965487
 30
0.0
 10
4.7889880595
 20
5.2230596818
 30
0.0
 10
4.7889880473
 20
5.2230368013
 30
0.0
  0
LINE
  5
3BF
100
AcDbEntity
  8
0
100
AcDbLine
 62
7
  6
CONTINUOUS
 10
5.0136697778
 20
4.5573617978
 11
4.9460906699
 21
4.5561115492
  0
LINE
  5
3C0
100
AcDbEntity
  8
0
100
AcDbLine
 62
7
  6
CONTINUOUS
 10
4.9460906699
 20
4.5561115492
 11
4.9446779664
 21
4.556084168
  0
SPLINE
  5
3C1
100
AcDbEntity
  8
0
100
AcDbSpline
 62
7
  6
CONTINUOUS
 70
0
 71
3
 72
26
 73
22
 74
0
 42
0.0000001
 43
0.0000001
 44
0.0000000001
 40
0.0
 40
0.0
 40
0.0
 40
0.0
 40
0.2034439386
 40
0.3898865035
 40
0.4757232013
 40
0.5561402675
 40
0.6307943251
 40
0.6993648147
 40
0.7615607216
 40
0.8171154472
 40
0.865792961
 40
0.9073877566
 40
0.9254725154
 40
0.9417237386
 40
0.956125466
 40
0.9686623422
 40
0.9793231499
 40
0.9881008624
 40
0.9949912621
 40
0.9977297972
 40
1.0
 40
1.0
 40
1.0
 40
1.0
 10
4.9446779664
 20
4.556084168
 30
0.0
 10
4.9327809837
 20
4.5558532971
 30
0.0
 10
4.9099814815
 20
4.5553973635
 30
0.0
 10
4.8821634955
 20
4.5547917847
 30
0.0
 10
4.8615404742
 20
4.5543016258
 30
0.0
 10
4.8474545502
 20
4.5539443958
 30
0.0
 10
4.8343788481
 20
4.5535874439
 30
0.0
 10
4.8223693004
 20
4.5532308224
 30
0.0
 10
4.8114773751
 20
4.5528746709
 30
0.0
 10
4.8017496259
 20
4.5525192146
 30
0.0
 10
4.7932276903
 20
4.5521646201
 30
0.0
 10
4.7868973366
 20
4.5518579175
 30
0.0
 10
4.782463228
 20
4.5516082007
 30
0.0
 10
4.7796181648
 20
4.5514299801
 30
0.0
 10
4.777098269
 20
4.5512521298
 30
0.0
 10
4.7749062459
 20
4.5510747115
 30
0.0
 10
4.7730442869
 20
4.550898122
 30
0.0
 10
4.7715143187
 20
4.5507224402
 30
0.0
 10
4.7704483889
 20
4.5505686709
 30
0.0
 10
4.7697642043
 20
4.5504406786
 30
0.0
 10
4.769478336
 20
4.5503760107
 30
0.0
 10
4.769349803
 20
4.5503426899
 30
0.0
  0
SPLINE
  5
3C2
100
AcDbEntity
  8
0
100
AcDbSpline
 62
7
  6
CONTINUOUS
 70
0
 71
3
 72
63
 73
59
 74
0
 42
0.0000001
 43
0.0000001
 44
0.0000000001
 40
0.0
 40
0.0
 40
0.0
 40
0.0
 40
0.0010305488
 40
0.0023428763
 40
0.0039379092
 40
0.0058154627
 40
0.0079749741
 40
0.0104156864
 40
0.0161361879
 40
0.0229645197
 40
0.0308862536
 40
0.0398832882
 40
0.0499354205
 40
0.0610198261
 40
0.0731109087
 40
0.1002008843
 40
0.1309571577
 40
0.1650974078
 40
0.2023081681
 40
0.2422476303
 40
0.284548844
 40
0.3288231691
 40
0.3746637636
 40
0.4216493439
 40
0.4693481802
 40
0.5173217944
 40
0.5651293801
 40
0.6123315063
 40
0.6584944184
 40
0.7031939143
 40
0.7460192019
 40
0.7865768078
 40
0.8244940777
 40
0.8594226492
 40
0.8756647097
 40
0.8910418262
 40
0.9055184197
 40
0.9190613758
 40
0.9316397528
 40
0.9432244591
 40
0.9537894533
 40
0.9633100455
 40
0.9717652419
 40
0.979135424
 40
0.9854046854
 40
0.9905593093
 40
0.9927153186
 40
0.9945893618
 40
0.996180879
 40
0.9974896931
 40
0.9980383526
 40
0.9985168556
 40
0.9989256789
 40
0.9992656229
 40
0.9995381323
 40
0.9996499814
 40
0.9997463072
 40
1.0
 40
1.0
 40
1.0
 40
1.0
 10
5.3973170363
 20
5.2795786388
 30
0.0
 10
5.397106961
 20
5.2795279212
 30
0.0
 10
5.39662481
 20
5.2794318011
 30
0.0
 10
5.3958090313
 20
5.2793030655
 30
0.0
 10
5.3948138899
 20
5.2791736133
 30
0.0
 10
5.3936399476
 20
5.2790435962
 30
0.0
 10
5.3922877594
 20
5.2789132333
 30
0.0
 10
5.390131259
 20
5.2787292267
 30
0.0
 10
5.3869958324
 20
5.2785040365
 30
0.0
 10
5.3827108577
 20
5.2782445551
 30
0.0
 10
5.3777377368
 20
5.2779843404
 30
0.0
 10
5.3720878057
 20
5.2777234767
 30
0.0
 10
5.3657740371
 20
5.2774622254
 30
0.0
 10
5.3588109464
 20
5.2772006596
 30
0.0
 10
5.3482762793
 20
5.276837709
 30
0.0
 10
5.3336168647
 20
5.2763903168
 30
0.0
 10
5.3143338542
 20
5.2758701051
 30
0.0
 10
5.2929278006
 20
5.2753489308
 30
0.0
 10
5.269595491
 20
5.2748269958
 30
0.0
 10
5.2445514044
 20
5.2743045543
 30
0.0
 10
5.218025761
 20
5.2737817401
 30
0.0
 10
5.1902623996
 20
5.2732586612
 30
0.0
 10
5.1615165407
 20
5.2727353949
 30
0.0
 10
5.1320524326
 20
5.2722120032
 30
0.0
 10
5.1021409524
 20
5.271688538
 30
0.0
 10
5.0720570683
 20
5.2711650451
 30
0.0
 10
5.042077362
 20
5.2706415688
 30
0.0
 10
5.0124774256
 20
5.2701181544
 30
0.0
 10
4.9835293718
 20
5.2695948517
 30
0.0
 10
4.9554993122
 20
5.2690717205
 30
0.0
 10
4.9286449191
 20
5.268548831
 30
0.0
 10
4.9032130653
 20
5.2680262912
 30
0.0
 10
4.8794375515
 20
5.2675041975
 30
0.0
 10
4.8607606737
 20
5.2670596064
 30
0.0
 10
4.8468098989
 20
5.266701129
 30
0.0
 10
4.8371469524
 20
5.2664389065
 30
0.0
 10
4.8280502383
 20
5.2661767798
 30
0.0
 10
4.8195406884
 20
5.2659147667
 30
0.0
 10
4.8116378831
 20
5.2656529093
 30
0.0
 10
4.8043599331
 20
5.2653912293
 30
0.0
 10
4.7977236545
 20
5.2651298241
 30
0.0
 10
4.7917441915
 20
5.2648687478
 30
0.0
 10
4.7864353833
 20
5.2646081687
 30
0.0
 10
4.7818092652
 20
5.2643483487
 30
0.0
 10
4.7778765122
 20
5.26408948
 30
0.0
 10
4.7750374974
 20
5.263864143
 30
0.0
 10
4.7731202887
 20
5.2636791323
 30
0.0
 10
4.7719485486
 20
5.263549131
 30
0.0
 10
4.7709556931
 20
5.2634195989
 30
0.0
 10
4.7702410993
 20
5.2633067819
 30
0.0
 10
4.7697600049
 20
5.2632142769
 30
0.0
 10
4.769465933
 20
5.2631491544
 30
0.0
 10
4.7692168311
 20
5.2630843164
 30
0.0
 10
4.7690124242
 20
5.2630195599
 30
0.0
 10
4.7688714711
 20
5.2629632263
 30
0.0
 10
4.7687814911
 20
5.2629161469
 30
0.0
 10
4.7687014463
 20
5.2628658485
 30
0.0
 10
4.7686379638
 20
5.2628028697
 30
0.0
 10
4.7686379638
 20
5.2627496691
 30
0.0
  0
LINE
  5
3C3
100
AcDbEntity
  8
0
100
AcDbLine
 62
7
  6
CONTINUOUS
 10
5.3770275147
 20
5.2743176407
 11
5.3765630448
 21
5.2742114675
  0
SPLINE
  5
3C4
100
AcDbEntity
  8
0
100
AcDbSpline
 62
7
  6
CONTINUOUS
 70
0
 71
3
 72
62
 73
58
 74
0
 42
0.0000001
 43
0.0000001
 44
0.0000000001
 40
0.0
 40
0.0
 40
0.0
 40
0.0
 40
0.0012487183
 40
0.0027761981
 40
0.0045825968
 40
0.006667606
 40
0.0116707611
 40
0.0177762949
 40
0.0249714762
 40
0.0332409982
 40
0.0425659767
 40
0.0529262243
 40
0.0642978068
 40
0.0766555345
 40
0.1042147867
 40
0.1353546305
 40
0.1697928829
 40
0.2072172401
 40
0.2472881192
 40
0.2896419955
 40
0.3338945348
 40
0.3796441209
 40
0.4264756426
 40
0.4739639021
 40
0.5216779759
 40
0.5691847009
 40
0.6160529419
 40
0.6618573587
 40
0.7061821595
 40
0.7486251352
 40
0.7888010179
 40
0.826345354
 40
0.8609175981
 40
0.8922042609
 40
0.9065257218
 40
0.9199218496
 40
0.9323623958
 40
0.943819441
 40
0.9542666682
 40
0.9636812081
 40
0.9720413258
 40
0.979329044
 40
0.9855281495
 40
0.990625699
 40
0.9927584723
 40
0.9946125484
 40
0.9961874565
 40
0.9974835598
 40
0.9980274434
 40
0.998502238
 40
0.9989084563
 40
0.9992469733
 40
0.9995193813
 40
0.9997288966
 40
0.9998122615
 40
0.9998833702
 40
1.0
 40
1.0
 40
1.0
 40
1.0
 10
5.3765630448
 20
5.2742114675
 30
0.0
 10
5.3763232404
 20
5.2741624579
 30
0.0
 10
5.3757871603
 20
5.2740679626
 30
0.0
 10
5.3748981127
 20
5.273939355
 30
0.0
 10
5.3738437658
 20
5.2738102105
 30
0.0
 10
5.3721100335
 20
5.2736261561
 30
0.0
 10
5.3695334517
 20
5.2734021945
 30
0.0
 10
5.3659548726
 20
5.2731450285
 30
0.0
 10
5.3617347106
 20
5.2728869007
 30
0.0
 10
5.3568825541
 20
5.2726279804
 30
0.0
 10
5.3514092616
 20
5.2723685516
 30
0.0
 10
5.3453273426
 20
5.2721087929
 30
0.0
 10
5.3386504964
 20
5.2718487387
 30
0.0
 10
5.3286038655
 20
5.2714885352
 30
0.0
 10
5.3146830555
 20
5.2710441331
 30
0.0
 10
5.2964345043
 20
5.2705268916
 30
0.0
 10
5.2762516194
 20
5.2700087594
 30
0.0
 10
5.2543176559
 20
5.2694899261
 30
0.0
 10
5.2308317594
 20
5.2689706206
 30
0.0
 10
5.2060071712
 20
5.268450968
 30
0.0
 10
5.1800692728
 20
5.267931068
 30
0.0
 10
5.153253545
 20
5.2674109934
 30
0.0
 10
5.1258034699
 20
5.2668908032
 30
0.0
 10
5.097968269
 20
5.2663705463
 30
0.0
 10
5.070000699
 20
5.265850267
 30
0.0
 10
5.0421546795
 20
5.2653300081
 30
0.0
 10
5.0146830366
 20
5.2648098137
 30
0.0
 10
4.9878351941
 20
5.2642897334
 30
0.0
 10
4.9618549118
 20
5.2637698245
 30
0.0
 10
4.9369781023
 20
5.2632501614
 30
0.0
 10
4.9134306285
 20
5.2627308338
 30
0.0
 10
4.8914262822
 20
5.2622119926
 30
0.0
 10
4.8711648187
 20
5.2616937707
 30
0.0
 10
4.8554548793
 20
5.2612506839
 30
0.0
 10
4.8438949879
 20
5.2608927005
 30
0.0
 10
4.8360278914
 20
5.2606323034
 30
0.0
 10
4.8287225727
 20
5.2603720584
 30
0.0
 10
4.8219956551
 20
5.2601120162
 30
0.0
 10
4.8158623371
 20
5.259852203
 30
0.0
 10
4.8103366259
 20
5.2595927692
 30
0.0
 10
4.8054309483
 20
5.2593337735
 30
0.0
 10
4.8011564566
 20
5.2590755789
 30
0.0
 10
4.7975227652
 20
5.2588183075
 30
0.0
 10
4.7948998204
 20
5.2585943322
 30
0.0
 10
4.7931286549
 20
5.2584104863
 30
0.0
 10
4.7920461136
 20
5.258281285
 30
0.0
 10
4.7911288764
 20
5.2581525268
 30
0.0
 10
4.7904687923
 20
5.2580404159
 30
0.0
 10
4.7900244277
 20
5.257948516
 30
0.0
 10
4.789752671
 20
5.2578838161
 30
0.0
 10
4.7895224306
 20
5.2578193057
 30
0.0
 10
4.7893334982
 20
5.2577550818
 30
0.0
 10
4.7891857976
 20
5.2576911028
 30
0.0
 10
4.78908976
 20
5.2576345202
 30
0.0
 10
4.7890358252
 20
5.2575873268
 30
0.0
 10
4.7890018103
 20
5.2575465093
 30
0.0
 10
4.7889880524
 20
5.2575096618
 30
0.0
 10
4.7889880617
 20
5.2574868012
 30
0.0
  0
SPLINE
  5
3C5
100
AcDbEntity
  8
0
100
AcDbSpline
 62
7
  6
CONTINUOUS
 70
0
 71
3
 72
45
 73
41
 74
0
 42
0.0000001
 43
0.0000001
 44
0.0000000001
 40
0.0
 40
0.0
 40
0.0
 40
0.0
 40
0.0009100686
 40
0.0020684834
 40
0.0034764675
 40
0.0051340866
 40
0.0070409769
 40
0.0091965778
 40
0.0142508831
 40
0.0202879836
 40
0.0272963843
 40
0.0352628945
 40
0.0441712598
 40
0.0540043854
 40
0.064742278
 40
0.0888452446
 40
0.1162872947
 40
0.1468484979
 40
0.1802837366
 40
0.2163247764
 40
0.254682227
 40
0.2950480371
 40
0.3370981179
 40
0.3804948161
 40
0.4699260439
 40
0.5604744616
 40
0.6492371657
 40
0.7333683877
 40
0.7728461223
 40
0.8101711234
 40
0.8450437407
 40
0.877184001
 40
0.9063339762
 40
0.9322598344
 40
0.9547541435
 40
0.973636748
 40
0.9816757795
 40
0.9887586514
 40
0.9948709871
 40
1.0
 40
1.0
 40
1.0
 40
1.0
 10
5.39742612
 20
4.9351059126
 30
0.0
 10
5.3972433363
 20
4.935058528
 30
0.0
 10
5.3968233345
 20
4.9349686725
 30
0.0
 10
5.3961120547
 20
4.9348483089
 30
0.0
 10
5.3952439208
 20
4.9347272898
 30
0.0
 10
5.3942193429
 20
4.9346057493
 30
0.0
 10
5.3930387398
 20
4.9344838881
 30
0.0
 10
5.3911549468
 20
4.9343118537
 30
0.0
 10
5.3884143388
 20
4.9341013174
 30
0.0
 10
5.3846666881
 20
4.933858768
 30
0.0
 10
5.3803137544
 20
4.9336154932
 30
0.0
 10
5.3753643061
 20
4.9333716513
 30
0.0
 10
5.3698281573
 20
4.9331274168
 30
0.0
 10
5.363716498
 20
4.9328829061
 30
0.0
 10
5.3544535154
 20
4.9325433871
 30
0.0
 10
5.3415374604
 20
4.9321248681
 30
0.0
 10
5.324508557
 20
4.9316384747
 30
0.0
 10
5.3055426649
 20
4.9311511762
 30
0.0
 10
5.2847920976
 20
4.9306631579
 30
0.0
 10
5.262423524
 20
4.9301746578
 30
0.0
 10
5.2386166479
 20
4.9296857969
 30
0.0
 10
5.2135627421
 20
4.9291966759
 30
0.0
 10
5.1874630811
 20
4.9287073551
 30
0.0
 10
5.1511844761
 20
4.9280481626
 30
0.0
 10
5.1048443431
 20
4.9272342818
 30
0.0
 10
5.0490926885
 20
4.926266716
 30
0.0
 10
4.9944408635
 20
4.9252997075
 30
0.0
 10
4.950384523
 20
4.9244789854
 30
0.0
 10
4.9169997554
 20
4.9238127853
 30
0.0
 10
4.8938339247
 20
4.923324062
 30
0.0
 10
4.8721908608
 20
4.9228357682
 30
0.0
 10
4.8522444415
 20
4.9223480531
 30
0.0
 10
4.8341549265
 20
4.921861124
 30
0.0
 10
4.8180675576
 20
4.9213754875
 30
0.0
 10
4.8041115756
 20
4.9208914267
 30
0.0
 10
4.7938669715
 20
4.9204714227
 30
0.0
 10
4.7868198925
 20
4.9201275112
 30
0.0
 10
4.782420785
 20
4.9198841362
 30
0.0
 10
4.7786264824
 20
4.9196415328
 30
0.0
 10
4.7763006294
 20
4.919465324
 30
0.0
 10
4.7752403036
 20
4.9193746691
 30
0.0
  0
SPLINE
  5
3C6
100
AcDbEntity
  8
0
100
AcDbSpline
 62
7
  6
CONTINUOUS
 70
0
 71
3
 72
44
 73
40
 74
0
 42
0.0000001
 43
0.0000001
 44
0.0000000001
 40
0.0
 40
0.0
 40
0.0
 40
0.0
 40
0.0009625489
 40
0.0021722568
 40
0.0036302654
 40
0.0053369669
 40
0.0094947464
 40
0.0146395253
 40
0.0207630436
 40
0.0278533982
 40
0.0358969637
 40
0.0448783135
 40
0.0547791525
 40
0.0655804545
 40
0.0897954551
 40
0.1173303796
 40
0.1479653687
 40
0.1814553263
 40
0.2175323632
 40
0.2559079008
 40
0.2962748997
 40
0.3383102876
 40
0.3816775515
 40
0.4710112166
 40
0.5614213885
 40
0.6500188431
 40
0.7339725747
 40
0.7733614309
 40
0.8105998224
 40
0.8453898155
 40
0.8774530994
 40
0.9065332452
 40
0.9323976643
 40
0.9548401957
 40
0.9736818109
 40
0.9817048503
 40
0.9887747929
 40
0.994877398
 40
1.0
 40
1.0
 40
1.0
 40
1.0
 10
5.3770274639
 20
4.9298176406
 30
0.0
 10
5.376846659
 20
4.9297707663
 30
0.0
 10
5.3764344315
 20
4.9296813485
 30
0.0
 10
5.3757402572
 20
4.9295609907
 30
0.0
 10
5.37489997
 20
4.9294399944
 30
0.0
 10
5.3734896156
 20
4.9292664678
 30
0.0
 10
5.3713634006
 20
4.9290561099
 30
0.0
 10
5.3683796317
 20
4.9288149869
 30
0.0
 10
5.3648252986
 20
4.9285728895
 30
0.0
 10
5.360707427
 20
4.9283298905
 30
0.0
 10
5.3560341773
 20
4.9280863902
 30
0.0
 10
5.350814919
 20
4.9278425321
 30
0.0
 10
5.3450600109
 20
4.9275983712
 30
0.0
 10
5.3363504302
 20
4.9272595373
 30
0.0
 10
5.3242195234
 20
4.9268417344
 30
0.0
 10
5.3082401124
 20
4.9263560645
 30
0.0
 10
5.290460182
 20
4.9258695056
 30
0.0
 10
5.2710221171
 20
4.9253822415
 30
0.0
 10
5.2500815784
 20
4.9248945029
 30
0.0
 10
5.2278062231
 20
4.9244064099
 30
0.0
 10
5.2043743954
 20
4.9239180622
 30
0.0
 10
5.1799737283
 20
4.9234295189
 30
0.0
 10
5.1460725936
 20
4.9227714674
 30
0.0
 10
5.1027855875
 20
4.9219589505
 30
0.0
 10
5.0507230192
 20
4.920992898
 30
0.0
 10
4.9997045957
 20
4.9200274059
 30
0.0
 10
4.958585855
 20
4.9192079426
 30
0.0
 10
4.9274322682
 20
4.9185427782
 30
0.0
 10
4.9058172927
 20
4.9180548378
 30
0.0
 10
4.8856242157
 20
4.917567326
 30
0.0
 10
4.8670147223
 20
4.9170803907
 30
0.0
 10
4.8501378577
 20
4.9165942414
 30
0.0
 10
4.8351287027
 20
4.9161093777
 30
0.0
 10
4.8221074628
 20
4.9156260832
 30
0.0
 10
4.8125484707
 20
4.9152067525
 30
0.0
 10
4.805972394
 20
4.914863411
 30
0.0
 10
4.8018665344
 20
4.9146204147
 30
0.0
 10
4.7983245904
 20
4.9143781905
 30
0.0
 10
4.7961533449
 20
4.9142022863
 30
0.0
 10
4.7951634327
 20
4.9141118012
 30
0.0
  0
ELLIPSE
  5
3C7
100
AcDbEntity
  8
0
100
AcDbEllipse
 62
7
  6
CONTINUOUS
 10
4.9446637509
 20
4.5773618012
 30
0.0
 11
-0.0398102322
 21
0.0
 31
0.0
 40
0.5023834047
 41
0.0
 42
1.5707963268
  0
ELLIPSE
  5
3C8
100
AcDbEntity
  8
0
100
AcDbEllipse
 62
7
  6
CONTINUOUS
 10
5.2221121768
 20
4.5773618012
 30
0.0
 11
-0.0398102322
 21
0.0
 31
0.0
 40
0.5023834047
 41
1.5707963268
 42
3.1415926536
  0
ELLIPSE
  5
3C9
100
AcDbEntity
  8
0
100
AcDbEllipse
 62
7
  6
CONTINUOUS
 10
4.8456552683
 20
4.5773618012
 30
0.0
 11
0.020289227
 21
0.0
 31
0.0
 40
0.985744801
 41
-1.5707963268
 42
0.0
  0
ELLIPSE
  5
3CA
100
AcDbEntity
  8
0
100
AcDbEllipse
 62
7
  6
CONTINUOUS
 10
5.3211206594
 20
4.5773618012
 30
0.0
 11
0.020289227
 21
-0.0
 31
0.0
 40
0.985744801
 41
-3.1415926536
 42
-1.5707963268
  0
ENDSEC
  0
SECTION
  2
OBJECTS
  0
DICTIONARY
  5
C
100
AcDbDictionary
280
0
281
1
  3
ACAD_GROUP
350
D
  3
ACAD_MLINESTYLE
350
17
  3
ACAD_LAYOUT
350
1A
  3
ACAD_PLOTSETTINGS
350
19
  3
ACAD_PLOTSTYLENAME
350
E
  0
DICTIONARY
  5
D
102
{ACAD_REACTORS
330
C
102
}
100
AcDbDictionary
280
0
281
1
  0
ACDBDICTIONARYWDFLT
  5
E
102
{ACAD_REACTORS
330
C
102
}
100
AcDbDictionary
281
1
  3
Normal
350
F
100
AcDbDictionaryWithDefault
340
F
  0
DICTIONARY
  5
17
102
{ACAD_REACTORS
330
C
102
}
100
AcDbDictionary
280
0
281
1
  3
Standard
350
18
  0
DICTIONARY
  5
19
102
{ACAD_REACTORS
330
C
102
}
100
AcDbDictionary
281
1
  0
DICTIONARY
  5
1A
102
{ACAD_REACTORS
330
C
102
}
100
AcDbDictionary
281
1
  3
Model
350
3CB
  3
Layout1
350
3CC
  0
ACDBPLACEHOLDER
  5
F
102
{ACAD_REACTORS
330
E
102
}
  0
MLINESTYLE
  5
18
102
{ACAD_REACTORS
330
17
102
}
100
AcDbMlineStyle
  2
STANDARD
 70
0
  3

 62
256
 51
90.0
 52
90.0
 71
2
 49
0.5
 62
256
  6
BYLAYER
 49
-0.5
 62
256
  6
BYLAYER
  0
LAYOUT
  5
3CB
102
{ACAD_REACTORS
330
1A
102
}
100
AcDbPlotSettings
  1

  2
none_device
  4
ANSI_A_(11.00_x_8.50_Inches)
  6

 40
0.0
 41
0.0
 42
0.0
 43
0.0
 44
279.4
 45
215.9
 46
0.0
 47
0.0
 48
0.0
 49
0.0
140
0.0
141
0.0
142
1.0
143
1.0
 70
1024
 72
0
 73
0
 74
0
  7

 75
0
147
1.0
148
0.0
149
0.0
100
AcDbLayout
  1
Model
 70
0
 71
0
 10
0.0
 20
0.0
 11
11.0
 21
8.5
 12
0.0
 22
0.0
 32
0.0
 14
0.0
 24
0.0
 34
0.0
 15
0.0
 25
0.0
 35
0.0
146
0.0
 13
0.0
 23
0.0
 33
0.0
 16
1.0
 26
0.0
 36
0.0
 17
0.0
 27
1.0
 37
0.0
 76
0
330
202
345
0
346
0
  0
LAYOUT
  5
3CC
102
{ACAD_REACTORS
330
1A
102
}
100
AcDbPlotSettings
  1

  2
none_device
  4
ANSI_A_(11.00_x_8.50_Inches)
  6

 40
0.0
 41
0.0
 42
0.0
 43
0.0
 44
279.4
 45
215.9
 46
0.0
 47
0.0
 48
0.0
 49
0.0
140
0.0
141
0.0
142
1.0
143
1.0
 70
0
 72
0
 73
0
 74
0
  7

 75
0
147
1.0
148
0.0
149
0.0
100
AcDbLayout
  1
Layout1
 70
0
 71
1
 10
0.0
 20
0.0
 11
11.0
 21
8.5
 12
0.0
 22
0.0
 32
0.0
 14
0.0
 24
0.0
 34
0.0
 15
0.0
 25
0.0
 35
0.0
146
0.0
 13
0.0
 23
0.0
 33
0.0
 16
1.0
 26
0.0
 36
0.0
 17
0.0
 27
1.0
 37
0.0
 76
0
330
203
345
0
346
0
  0
ENDSEC
  0
EOF
