999
DXF file: 1500-5711_right.dxf
999
Pro/ENGINEER 2018400 by Parametric Technology Corporation
  0
SECTION
  2
HEADER
  9
$ACADVER
  1
AC1027
  9
$DWGCODEPAGE
  3
ANSI_1252
  9
$EXTMAX
 10
11.0
 20
8.5
 30
0.0
  9
$EXTMIN
 10
0.0
 20
0.0
 30
0.0
  9
$LIMMIN
 10
0.0
 20
0.0
  9
$LIMMAX
 10
11.0
 20
8.5
  9
$VIEWCTR
 10
5.5
 20
4.25
  9
$VIEWSIZE
 40
8.5
  9
$CLAYER
  8
0
  9
$LTSCALE
 40
0.605
  9
$CELTYPE
  6
BYLAYER
  9
$DIMSCALE
 40
1.0
  9
$DIMASZ
 40
0.1
  9
$DIMEXO
 40
0.0625
  9
$DIMDLI
 40
0.418
  9
$DIMEXE
 40
0.125
  9
$DIMCEN
 40
0.099
  9
$DIMLFAC
 40
1.0
  9
$DIMBLK
  1
_FILLED
  9
$DIMALT
 70
1
  9
$DIMALTD
 70
1
  9
$DIMALTTD
 70
2
  9
$DIMALTF
 40
25.4
  9
$DIMTXT
 40
0.08
  9
$DIMTOL
 70
1
  9
$DIMLIM
 70
0
  9
$DIMTFAC
 40
1.0
  9
$DIMTP
 40
0.01
  9
$DIMTM
 40
0.01
  9
$DIMGAP
 40
0.09
  9
$DIMDSEP
 70
46
  9
$AUNITS
 70
0
  9
$PDMODE
 70
3
  9
$PDSIZE
 40
0.3125
  9
$HANDSEED
  5
3CA
  9
$TILEMODE
 70
1
  9
$MEASUREMENT
 70
0
  9
$INSUNITS
 70
1
  0
ENDSEC
  0
SECTION
  2
CLASSES
  0
CLASS
  1
ACDBDICTIONARYWDFLT
  2
AcDbDictionaryWithDefault
  3
AutoCAD 2000
 90
0
 91
1
280
0
281
0
  0
CLASS
  1
ACDBPLACEHOLDER
  2
AcDbPlaceHolder
  3
AutoCAD 2000
 90
0
 91
1
280
0
281
0
  0
CLASS
  1
LAYOUT
  2
AcDbLayout
  3
AutoCAD 2000
 90
0
 91
0
280
0
281
0
  0
ENDSEC
  0
SECTION
  2
TABLES
  0
TABLE
  2
VPORT
  5
8
100
AcDbSymbolTable
 70
2
  0
VPORT
  5
1F4
100
AcDbSymbolTableRecord
100
AcDbViewportTableRecord
  2
*ACTIVE
 70
0
 10
0.0
 20
0.0
 11
1.0
 21
1.0
 12
5.5
 22
4.25
 13
0.0
 23
0.0
 14
1.0
 24
1.0
 15
0.0
 25
0.0
 16
0.0
 26
0.0
 36
1.0
 17
0.0
 27
0.0
 37
0.0
 40
8.5
 41
1.2941176471
 42
50.0
 43
0.0
 44
0.0
 50
0.0
 51
0.0
 71
0
 72
100
 73
1
 74
1
 75
0
 76
0
 77
0
 78
0
  0
ENDTAB
  0
TABLE
  2
LTYPE
  5
5
100
AcDbSymbolTable
 70
6
  0
LTYPE
  5
14
100
AcDbSymbolTableRecord
100
AcDbLinetypeTableRecord
  2
BYBLOCK
 70
0
  3

 72
65
 73
0
 40
0.0
  0
LTYPE
  5
15
100
AcDbSymbolTableRecord
100
AcDbLinetypeTableRecord
  2
BYLAYER
 70
0
  3

 72
65
 73
0
 40
0.0
  0
LTYPE
  5
16
100
AcDbSymbolTableRecord
100
AcDbLinetypeTableRecord
  2
CONTINUOUS
 70
64
  3
Solid line
 72
65
 73
0
 40
0.0
  0
LTYPE
  5
1F5
100
AcDbSymbolTableRecord
100
AcDbLinetypeTableRecord
  2
CENTER
 70
64
  3
____ _ ____ _ ____ _ ____ _ ____ _ ____ _ ____
 72
65
 73
4
 40
0.6
 49
0.375
 74
0
 49
-0.075
 74
0
 49
0.075
 74
0
 49
-0.075
 74
0
  0
LTYPE
  5
1F6
100
AcDbSymbolTableRecord
100
AcDbLinetypeTableRecord
  2
HIDDEN
 70
64
  3
- - - - - - - - - - - - - - - - - - - -
 72
65
 73
2
 40
0.2
 49
0.1
 74
0
 49
-0.1
 74
0
  0
LTYPE
  5
1F7
100
AcDbSymbolTableRecord
100
AcDbLinetypeTableRecord
  2
PHANTOM
 70
64
  3
_____ _ _ _____ _ _ _____ _ _ _____
 72
65
 73
6
 40
0.8
 49
0.45
 74
0
 49
-0.05
 74
0
 49
0.1
 74
0
 49
-0.05
 74
0
 49
0.1
 74
0
 49
-0.05
 74
0
  0
LTYPE
  5
1F8
100
AcDbSymbolTableRecord
100
AcDbLinetypeTableRecord
  2
DOT
 70
64
  3
. . . . . . . . . . . . . . . . . . . .
 72
65
 73
2
 40
0.2
 49
0.1
 74
0
 49
-0.1
 74
0
  0
LTYPE
  5
1F9
100
AcDbSymbolTableRecord
100
AcDbLinetypeTableRecord
  2
DASHED
 70
64
  3
- - - - - - - - - - - - - - - - - - - -
 72
65
 73
2
 40
0.2
 49
0.1
 74
0
 49
-0.1
 74
0
  0
ENDTAB
  0
TABLE
  2
LAYER
  5
2
100
AcDbSymbolTable
 70
36
  0
LAYER
  5
10
100
AcDbSymbolTableRecord
100
AcDbLayerTableRecord
  2
0
 70
0
 62
7
  6
CONTINUOUS
370
-3
390
F
  0
LAYER
  5
1FA
100
AcDbSymbolTableRecord
100
AcDbLayerTableRecord
  2
DEFAULT_1
 70
0
 62
7
  6
CENTER
370
-3
390
F
  0
LAYER
  5
1FB
100
AcDbSymbolTableRecord
100
AcDbLayerTableRecord
  2
DEFAULT_2
 70
0
 62
8
  6
HIDDEN
370
-3
390
F
  0
LAYER
  5
1FC
100
AcDbSymbolTableRecord
100
AcDbLayerTableRecord
  2
DEFAULT_3
 70
0
 62
7
  6
PHANTOM
370
-3
390
F
  0
LAYER
  5
1FD
100
AcDbSymbolTableRecord
100
AcDbLayerTableRecord
  2
DEFAULT_COORDINATE_SYSTEM
 70
0
 62
7
  6
CONTINUOUS
370
-3
390
F
  0
LAYER
  5
1FE
100
AcDbSymbolTableRecord
100
AcDbLayerTableRecord
  2
DEFAULT_DATUM_AXES
 70
0
 62
7
  6
CONTINUOUS
370
-3
390
F
  0
LAYER
  5
1FF
100
AcDbSymbolTableRecord
100
AcDbLayerTableRecord
  2
DEFAULT_DATUM_PLANES
 70
0
 62
7
  6
CONTINUOUS
370
-3
390
F
  0
ENDTAB
  0
TABLE
  2
STYLE
  5
3
100
AcDbSymbolTable
 70
1
  0
STYLE
  5
11
100
AcDbSymbolTableRecord
100
AcDbTextStyleTableRecord
  2
STANDARD
 70
0
 40
0.0
 41
0.8
 50
0.0
 71
0
 42
0.2
  3
txt
  4

  0
STYLE
  5
200
100
AcDbSymbolTableRecord
100
AcDbTextStyleTableRecord
  2
TEXTSTYLE_1
 70
0
 40
0.0
 41
0.8
 50
0.0
 71
0
 42
0.2
  3
gdt
  4

  0
ENDTAB
  0
TABLE
  2
VIEW
  5
6
100
AcDbSymbolTable
 70
0
  0
ENDTAB
  0
TABLE
  2
UCS
  5
7
100
AcDbSymbolTable
 70
0
  0
ENDTAB
  0
TABLE
  2
APPID
  5
9
100
AcDbSymbolTable
 70
1
  0
APPID
  5
201
100
AcDbSymbolTableRecord
100
AcDbRegAppTableRecord
  2
ACAD
 70
0
  0
ENDTAB
  0
TABLE
  2
BLOCK_RECORD
  5
1
100
AcDbSymbolTable
 70
0
  0
BLOCK_RECORD
  5
202
100
AcDbSymbolTableRecord
100
AcDbBlockTableRecord
  2
*Model_Space
  0
BLOCK_RECORD
  5
203
100
AcDbSymbolTableRecord
100
AcDbBlockTableRecord
  2
*Paper_Space
  0
BLOCK_RECORD
  5
204
100
AcDbSymbolTableRecord
100
AcDbBlockTableRecord
  2
_FILLED
  0
ENDTAB
  0
TABLE
  2
DIMSTYLE
  5
A
100
AcDbSymbolTable
 70
1
100
AcDbDimStyleTable
 71
0
  0
DIMSTYLE
105
205
100
AcDbSymbolTableRecord
100
AcDbDimStyleTableRecord
  2
STANDARD
 70
0
  3

  4

 40
1.0
 41
0.1
 42
0.0625
 43
0.38
 44
0.125
 45
0.0
 46
0.0
 47
0.01
 48
0.01
140
0.08
141
0.09
142
0.0
143
25.4
144
1.0
145
0.0
146
1.0
147
0.09
 71
1.0
 72
0.0
 73
1
 74
1
 75
0
 76
0
 77
0
 78
4
 79
1
170
1
171
1
172
0
173
0
174
0
175
0
176
0
177
0
178
0
270
2
179
2
271
2
272
2
273
2
274
2
275
0
280
0
281
0
282
0
283
1
284
4
285
0
286
0
287
3
288
0
340
11
278
46
341
204
342
204
343
204
344
204
  0
ENDTAB
  0
ENDSEC
  0
SECTION
  2
BLOCKS
  0
BLOCK
  5
20
100
AcDbEntity
  8
0
100
AcDbBlockBegin
  2
*Model_Space
 70
0
 10
0.0
 20
0.0
 30
0.0
  3
*Model_Space
  1

  0
ENDBLK
  5
21
100
AcDbEntity
  8
0
100
AcDbBlockEnd
  0
BLOCK
  5
1C
100
AcDbEntity
  8
0
100
AcDbBlockBegin
  2
*Paper_Space
 70
0
 10
0.0
 20
0.0
 30
0.0
  3
*Paper_Space
  1

  0
ENDBLK
  5
1D
100
AcDbEntity
  8
0
100
AcDbBlockEnd
  0
BLOCK
  5
206
100
AcDbEntity
  8
0
100
AcDbBlockBegin
  2
_FILLED
 70
64
 10
0.0
 20
0.0
  3
_FILLED
  1

  0
SOLID
  5
207
100
AcDbEntity
  8
0
  6
BYBLOCK
 62
0
100
AcDbTrace
 10
0.0
 20
0.0
 11
-1.0
 21
0.2
 12
-1.0
 22
-0.2
 13
-1.0
 23
-0.2
  0
ENDBLK
  5
208
100
AcDbEntity
  8
0
  6
BYBLOCK
 62
0
100
AcDbBlockEnd
  0
ENDSEC
  0
SECTION
  2
ENTITIES
  0
MTEXT
  5
209
100
AcDbEntity
  8
0
100
AcDbMText
 62
2
  6
CONTINUOUS
  7
STANDARD
 71
3
 72
1
 10
5.2724518002
 20
1.453371118
 30
0.0
 11
1.0
 21
0.0
 31
0.0
 73
2
 44
0.9
  1
SCALE  .500
 40
0.08
 41
0.704
  0
LINE
  5
20A
100
AcDbEntity
  8
0
100
AcDbLine
 62
7
  6
CONTINUOUS
 10
0.0
 20
0.0
 11
0.0
 21
8.5
  0
LINE
  5
20B
100
AcDbEntity
  8
0
100
AcDbLine
 62
7
  6
CONTINUOUS
 10
0.0
 20
0.0
 11
11.0
 21
0.0
  0
LINE
  5
20C
100
AcDbEntity
  8
0
100
AcDbLine
 62
7
  6
CONTINUOUS
 10
0.0
 20
8.5
 11
11.0
 21
8.5
  0
LINE
  5
20D
100
AcDbEntity
  8
0
100
AcDbLine
 62
7
  6
CONTINUOUS
 10
11.0
 20
0.0
 11
11.0
 21
8.5
  0
LINE
  5
20E
100
AcDbEntity
  8
0
100
AcDbLine
 62
7
  6
CONTINUOUS
 10
4.7825543478
 20
2.2286118012
 11
5.0875543478
 21
2.2286118012
  0
LINE
  5
20F
100
AcDbEntity
  8
0
100
AcDbLine
 62
7
  6
CONTINUOUS
 10
4.7825543478
 20
2.2433618012
 11
5.0875543478
 21
2.2433618012
  0
LINE
  5
210
100
AcDbEntity
  8
0
100
AcDbLine
 62
7
  6
CONTINUOUS
 10
4.7825543478
 20
2.2728618012
 11
5.0875543478
 21
2.2728618012
  0
LINE
  5
211
100
AcDbEntity
  8
0
100
AcDbLine
 62
7
  6
CONTINUOUS
 10
4.7825543478
 20
2.3513618012
 11
5.0875543478
 21
2.3513618012
  0
LINE
  5
212
100
AcDbEntity
  8
0
100
AcDbLine
 62
7
  6
CONTINUOUS
 10
4.7825543478
 20
2.3808618012
 11
5.0875543478
 21
2.3808618012
  0
LINE
  5
213
100
AcDbEntity
  8
0
100
AcDbLine
 62
7
  6
CONTINUOUS
 10
4.7825543478
 20
2.4593618012
 11
5.0875543478
 21
2.4593618012
  0
LINE
  5
214
100
AcDbEntity
  8
0
100
AcDbLine
 62
7
  6
CONTINUOUS
 10
4.7825543478
 20
2.4888618012
 11
5.0875543478
 21
2.4888618012
  0
LINE
  5
215
100
AcDbEntity
  8
0
100
AcDbLine
 62
7
  6
CONTINUOUS
 10
4.7825543478
 20
2.5673618012
 11
5.0875543478
 21
2.5673618012
  0
LINE
  5
216
100
AcDbEntity
  8
0
100
AcDbLine
 62
7
  6
CONTINUOUS
 10
4.7825543478
 20
2.5968618012
 11
5.0875543478
 21
2.5968618012
  0
LINE
  5
217
100
AcDbEntity
  8
0
100
AcDbLine
 62
7
  6
CONTINUOUS
 10
4.7825543478
 20
2.6753618012
 11
5.0875543478
 21
2.6753618012
  0
LINE
  5
218
100
AcDbEntity
  8
0
100
AcDbLine
 62
7
  6
CONTINUOUS
 10
4.7825543478
 20
2.7048618012
 11
5.0875543478
 21
2.7048618012
  0
LINE
  5
219
100
AcDbEntity
  8
0
100
AcDbLine
 62
7
  6
CONTINUOUS
 10
4.7825543478
 20
2.7833618012
 11
5.0875543478
 21
2.7833618012
  0
LINE
  5
21A
100
AcDbEntity
  8
0
100
AcDbLine
 62
7
  6
CONTINUOUS
 10
4.7825543478
 20
2.8128618012
 11
5.0875543478
 21
2.8128618012
  0
LINE
  5
21B
100
AcDbEntity
  8
0
100
AcDbLine
 62
7
  6
CONTINUOUS
 10
4.9488689989
 20
3.7186118012
 11
4.9212396968
 21
3.7186118012
  0
LINE
  5
21C
100
AcDbEntity
  8
0
100
AcDbLine
 62
7
  6
CONTINUOUS
 10
4.6425543478
 20
3.7318618012
 11
5.2275543478
 21
3.7318618012
  0
LINE
  5
21D
100
AcDbEntity
  8
0
100
AcDbLine
 62
7
  6
CONTINUOUS
 10
4.4400543478
 20
5.3443618012
 11
4.4400543478
 21
5.5568618012
  0
LINE
  5
21E
100
AcDbEntity
  8
0
100
AcDbLine
 62
7
  6
CONTINUOUS
 10
4.4850543478
 20
4.7973618012
 11
4.4850543478
 21
4.8623618012
  0
LINE
  5
21F
100
AcDbEntity
  8
0
100
AcDbLine
 62
7
  6
CONTINUOUS
 10
4.4950543478
 20
4.7723618012
 11
4.4950543478
 21
4.7973618012
  0
LINE
  5
220
100
AcDbEntity
  8
0
100
AcDbLine
 62
7
  6
CONTINUOUS
 10
4.5179028644
 20
5.5603618012
 11
4.5263043478
 21
5.6189321432
  0
LINE
  5
221
100
AcDbEntity
  8
0
100
AcDbLine
 62
7
  6
CONTINUOUS
 10
4.5177063249
 20
5.5603618012
 11
4.5177063249
 21
5.5568618012
  0
LINE
  5
222
100
AcDbEntity
  8
0
100
AcDbLine
 62
7
  6
CONTINUOUS
 10
4.5263043478
 20
5.6189321432
 11
4.5263043478
 21
5.8968618012
  0
LINE
  5
223
100
AcDbEntity
  8
0
100
AcDbLine
 62
7
  6
CONTINUOUS
 10
4.5263043478
 20
5.9943618012
 11
4.5263043478
 21
6.0938618012
  0
LINE
  5
224
100
AcDbEntity
  8
0
100
AcDbLine
 62
7
  6
CONTINUOUS
 10
4.5263043478
 20
6.1913618012
 11
4.5263043478
 21
6.5368618012
  0
LINE
  5
225
100
AcDbEntity
  8
0
100
AcDbLine
 62
7
  6
CONTINUOUS
 10
4.5800543478
 20
4.5573618012
 11
4.5800543478
 21
4.7323618012
  0
LINE
  5
226
100
AcDbEntity
  8
0
100
AcDbLine
 62
7
  6
CONTINUOUS
 10
4.602661601
 20
4.7323618012
 11
4.602661601
 21
4.5773618012
  0
LINE
  5
227
100
AcDbEntity
  8
0
100
AcDbLine
 62
7
  6
CONTINUOUS
 10
4.6203043478
 20
4.5479121691
 11
4.6203043478
 21
4.5573618012
  0
LINE
  5
228
100
AcDbEntity
  8
0
100
AcDbLine
 62
7
  6
CONTINUOUS
 10
4.6203043478
 20
4.8623618012
 11
4.6203043478
 21
4.8686364334
  0
LINE
  5
229
100
AcDbEntity
  8
0
100
AcDbLine
 62
7
  6
CONTINUOUS
 10
4.6203043478
 20
4.8924121691
 11
4.6203043478
 21
4.9030864334
  0
LINE
  5
22A
100
AcDbEntity
  8
0
100
AcDbLine
 62
7
  6
CONTINUOUS
 10
4.6203043478
 20
4.9268621691
 11
4.6203043478
 21
4.9375364334
  0
LINE
  5
22B
100
AcDbEntity
  8
0
100
AcDbLine
 62
7
  6
CONTINUOUS
 10
4.6203043478
 20
4.9613121691
 11
4.6203043478
 21
4.9719864334
  0
LINE
  5
22C
100
AcDbEntity
  8
0
100
AcDbLine
 62
7
  6
CONTINUOUS
 10
4.6203043478
 20
4.9957621691
 11
4.6203043478
 21
5.0064364334
  0
LINE
  5
22D
100
AcDbEntity
  8
0
100
AcDbLine
 62
7
  6
CONTINUOUS
 10
4.6203043478
 20
5.0302121691
 11
4.6203043478
 21
5.0408864334
  0
LINE
  5
22E
100
AcDbEntity
  8
0
100
AcDbLine
 62
7
  6
CONTINUOUS
 10
4.6203043478
 20
5.0646621691
 11
4.6203043478
 21
5.0753364334
  0
LINE
  5
22F
100
AcDbEntity
  8
0
100
AcDbLine
 62
7
  6
CONTINUOUS
 10
4.6203043478
 20
5.0991121691
 11
4.6203043478
 21
5.1097864334
  0
LINE
  5
230
100
AcDbEntity
  8
0
100
AcDbLine
 62
7
  6
CONTINUOUS
 10
4.6203043478
 20
5.1335621691
 11
4.6203043478
 21
5.1442364334
  0
LINE
  5
231
100
AcDbEntity
  8
0
100
AcDbLine
 62
7
  6
CONTINUOUS
 10
4.6203043478
 20
5.1680121691
 11
4.6203043478
 21
5.1786864334
  0
LINE
  5
232
100
AcDbEntity
  8
0
100
AcDbLine
 62
7
  6
CONTINUOUS
 10
4.6203043478
 20
5.2024621691
 11
4.6203043478
 21
5.2131364334
  0
LINE
  5
233
100
AcDbEntity
  8
0
100
AcDbLine
 62
7
  6
CONTINUOUS
 10
4.6203043478
 20
5.2369121691
 11
4.6203043478
 21
5.2475864334
  0
LINE
  5
234
100
AcDbEntity
  8
0
100
AcDbLine
 62
7
  6
CONTINUOUS
 10
4.6203043478
 20
5.2713621691
 11
4.6203043478
 21
5.2820364334
  0
LINE
  5
235
100
AcDbEntity
  8
0
100
AcDbLine
 62
7
  6
CONTINUOUS
 10
4.6203043478
 20
5.3058121691
 11
4.6203043478
 21
5.3164864334
  0
LINE
  5
236
100
AcDbEntity
  8
0
100
AcDbLine
 62
7
  6
CONTINUOUS
 10
4.6203043478
 20
5.3402621691
 11
4.6203043478
 21
5.3443618012
  0
LINE
  5
237
100
AcDbEntity
  8
0
100
AcDbLine
 62
7
  6
CONTINUOUS
 10
4.6406543478
 20
5.3349993012
 11
4.6406543478
 21
5.3219462991
  0
LINE
  5
238
100
AcDbEntity
  8
0
100
AcDbLine
 62
7
  6
CONTINUOUS
 10
4.6406543478
 20
5.3005493012
 11
4.6406543478
 21
5.2874962991
  0
LINE
  5
239
100
AcDbEntity
  8
0
100
AcDbLine
 62
7
  6
CONTINUOUS
 10
4.6406543478
 20
5.2660993012
 11
4.6406543478
 21
5.2530462991
  0
LINE
  5
23A
100
AcDbEntity
  8
0
100
AcDbLine
 62
7
  6
CONTINUOUS
 10
4.6406543478
 20
5.2316493012
 11
4.6406543478
 21
5.2185962991
  0
LINE
  5
23B
100
AcDbEntity
  8
0
100
AcDbLine
 62
7
  6
CONTINUOUS
 10
4.6406543478
 20
5.1971993012
 11
4.6406543478
 21
5.1841462991
  0
LINE
  5
23C
100
AcDbEntity
  8
0
100
AcDbLine
 62
7
  6
CONTINUOUS
 10
4.6406543478
 20
5.1627493012
 11
4.6406543478
 21
5.1496962991
  0
LINE
  5
23D
100
AcDbEntity
  8
0
100
AcDbLine
 62
7
  6
CONTINUOUS
 10
4.6406543478
 20
5.1282993012
 11
4.6406543478
 21
5.1152462991
  0
LINE
  5
23E
100
AcDbEntity
  8
0
100
AcDbLine
 62
7
  6
CONTINUOUS
 10
4.6406543478
 20
5.0938493012
 11
4.6406543478
 21
5.0807962991
  0
LINE
  5
23F
100
AcDbEntity
  8
0
100
AcDbLine
 62
7
  6
CONTINUOUS
 10
4.6406543478
 20
5.0593993012
 11
4.6406543478
 21
5.0463462991
  0
LINE
  5
240
100
AcDbEntity
  8
0
100
AcDbLine
 62
7
  6
CONTINUOUS
 10
4.6406543478
 20
5.0249493012
 11
4.6406543478
 21
5.0118962991
  0
LINE
  5
241
100
AcDbEntity
  8
0
100
AcDbLine
 62
7
  6
CONTINUOUS
 10
4.6406543478
 20
4.9904993012
 11
4.6406543478
 21
4.9774462991
  0
LINE
  5
242
100
AcDbEntity
  8
0
100
AcDbLine
 62
7
  6
CONTINUOUS
 10
4.6406543478
 20
4.9560493012
 11
4.6406543478
 21
4.9429962991
  0
LINE
  5
243
100
AcDbEntity
  8
0
100
AcDbLine
 62
7
  6
CONTINUOUS
 10
4.6406543478
 20
4.9215993012
 11
4.6406543478
 21
4.9085462991
  0
LINE
  5
244
100
AcDbEntity
  8
0
100
AcDbLine
 62
7
  6
CONTINUOUS
 10
4.6406543478
 20
4.8871493012
 11
4.6406543478
 21
4.8740962991
  0
LINE
  5
245
100
AcDbEntity
  8
0
100
AcDbLine
 62
7
  6
CONTINUOUS
 10
4.6406543478
 20
4.5426493012
 11
4.6406543478
 21
4.5295962991
  0
LINE
  5
246
100
AcDbEntity
  8
0
100
AcDbLine
 62
7
  6
CONTINUOUS
 10
4.6425543478
 20
3.7318618012
 11
4.6425543478
 21
4.5271118012
  0
LINE
  5
247
100
AcDbEntity
  8
0
100
AcDbLine
 62
7
  6
CONTINUOUS
 10
4.6850543478
 20
5.9968618012
 11
4.6850543478
 21
5.9943618012
  0
LINE
  5
248
100
AcDbEntity
  8
0
100
AcDbLine
 62
7
  6
CONTINUOUS
 10
4.7215543478
 20
3.5319675013
 11
4.7215543478
 21
3.1235467819
  0
LINE
  5
249
100
AcDbEntity
  8
0
100
AcDbLine
 62
7
  6
CONTINUOUS
 10
4.7215543478
 20
3.0661798556
 11
4.7215543478
 21
2.9989294611
  0
LINE
  5
24A
100
AcDbEntity
  8
0
100
AcDbLine
 62
7
  6
CONTINUOUS
 10
4.7215543478
 20
2.941527954
 11
4.7215543478
 21
2.8743121404
  0
LINE
  5
24B
100
AcDbEntity
  8
0
100
AcDbLine
 62
7
  6
CONTINUOUS
 10
4.7215543478
 20
2.8169106333
 11
4.7215543478
 21
2.7496948197
  0
LINE
  5
24C
100
AcDbEntity
  8
0
100
AcDbLine
 62
7
  6
CONTINUOUS
 10
4.7215543478
 20
2.6922933125
 11
4.7215543478
 21
2.625077499
  0
LINE
  5
24D
100
AcDbEntity
  8
0
100
AcDbLine
 62
7
  6
CONTINUOUS
 10
4.7215543478
 20
2.5676759918
 11
4.7215543478
 21
2.5004601783
  0
LINE
  5
24E
100
AcDbEntity
  8
0
100
AcDbLine
 62
7
  6
CONTINUOUS
 10
4.7825543478
 20
5.9968618012
 11
4.7825543478
 21
5.9943618012
  0
LINE
  5
24F
100
AcDbEntity
  8
0
100
AcDbLine
 62
7
  6
CONTINUOUS
 10
4.7825543478
 20
2.2286118012
 11
4.7825543478
 21
2.2433618012
  0
LINE
  5
250
100
AcDbEntity
  8
0
100
AcDbLine
 62
7
  6
CONTINUOUS
 10
4.7825543478
 20
2.2728618012
 11
4.7825543478
 21
2.3513618012
  0
LINE
  5
251
100
AcDbEntity
  8
0
100
AcDbLine
 62
7
  6
CONTINUOUS
 10
4.7825543478
 20
2.3808618012
 11
4.7825543478
 21
2.4593618012
  0
LINE
  5
252
100
AcDbEntity
  8
0
100
AcDbLine
 62
7
  6
CONTINUOUS
 10
4.7825543478
 20
2.4888618012
 11
4.7825543478
 21
2.5673618012
  0
LINE
  5
253
100
AcDbEntity
  8
0
100
AcDbLine
 62
7
  6
CONTINUOUS
 10
4.7825543478
 20
2.5968618012
 11
4.7825543478
 21
2.6753618012
  0
LINE
  5
254
100
AcDbEntity
  8
0
100
AcDbLine
 62
7
  6
CONTINUOUS
 10
4.7825543478
 20
2.7048618012
 11
4.7825543478
 21
2.7833618012
  0
LINE
  5
255
100
AcDbEntity
  8
0
100
AcDbLine
 62
7
  6
CONTINUOUS
 10
4.7825543478
 20
2.8128618012
 11
4.7825543478
 21
3.525222018
  0
LINE
  5
256
100
AcDbEntity
  8
0
100
AcDbLine
 62
7
  6
CONTINUOUS
 10
4.8075543478
 20
5.9568618012
 11
4.8075543478
 21
6.0378618012
  0
LINE
  5
257
100
AcDbEntity
  8
0
100
AcDbLine
 62
7
  6
CONTINUOUS
 10
4.814399688
 20
6.0275213769
 11
4.814399688
 21
6.0051171195
  0
LINE
  5
258
100
AcDbEntity
  8
0
100
AcDbLine
 62
7
  6
CONTINUOUS
 10
4.814399688
 20
5.9947766952
 11
4.814399688
 21
5.9568618012
  0
LINE
  5
259
100
AcDbEntity
  8
0
100
AcDbLine
 62
7
  6
CONTINUOUS
 10
4.8440628296
 20
6.0051171195
 11
4.8440628296
 21
5.9947766952
  0
LINE
  5
25A
100
AcDbEntity
  8
0
100
AcDbLine
 62
7
  6
CONTINUOUS
 10
4.8486263886
 20
6.0378618012
 11
4.8486263886
 21
6.0275213769
  0
LINE
  5
25B
100
AcDbEntity
  8
0
100
AcDbLine
 62
7
  6
CONTINUOUS
 10
4.8577535098
 20
6.0378618012
 11
4.8577535098
 21
5.9568618012
  0
LINE
  5
25C
100
AcDbEntity
  8
0
100
AcDbLine
 62
7
  6
CONTINUOUS
 10
4.8645988467
 20
6.0378618012
 11
4.8645988467
 21
5.9672022267
  0
LINE
  5
25D
100
AcDbEntity
  8
0
100
AcDbLine
 62
7
  6
CONTINUOUS
 10
4.8988255473
 20
5.9672022267
 11
4.8988255473
 21
5.9568618012
  0
LINE
  5
25E
100
AcDbEntity
  8
0
100
AcDbLine
 62
7
  6
CONTINUOUS
 10
4.9125543478
 20
4.7323618012
 11
4.9125543478
 21
4.5773618012
  0
LINE
  5
25F
100
AcDbEntity
  8
0
100
AcDbLine
 62
7
  6
CONTINUOUS
 10
4.9575543478
 20
4.7323618012
 11
4.9575543478
 21
4.5773618012
  0
LINE
  5
260
100
AcDbEntity
  8
0
100
AcDbLine
 62
7
  6
CONTINUOUS
 10
5.0875543478
 20
2.2286118012
 11
5.0875543478
 21
2.2433618012
  0
LINE
  5
261
100
AcDbEntity
  8
0
100
AcDbLine
 62
7
  6
CONTINUOUS
 10
5.0875543478
 20
2.2728618012
 11
5.0875543478
 21
2.3513618012
  0
LINE
  5
262
100
AcDbEntity
  8
0
100
AcDbLine
 62
7
  6
CONTINUOUS
 10
5.0875543478
 20
2.3808618012
 11
5.0875543478
 21
2.4593618012
  0
LINE
  5
263
100
AcDbEntity
  8
0
100
AcDbLine
 62
7
  6
CONTINUOUS
 10
5.0875543478
 20
2.4888618012
 11
5.0875543478
 21
2.5673618012
  0
LINE
  5
264
100
AcDbEntity
  8
0
100
AcDbLine
 62
7
  6
CONTINUOUS
 10
5.0875543478
 20
2.5968618012
 11
5.0875543478
 21
2.6753618012
  0
LINE
  5
265
100
AcDbEntity
  8
0
100
AcDbLine
 62
7
  6
CONTINUOUS
 10
5.0875543478
 20
2.7048618012
 11
5.0875543478
 21
2.7833618012
  0
LINE
  5
266
100
AcDbEntity
  8
0
100
AcDbLine
 62
7
  6
CONTINUOUS
 10
5.0875543478
 20
2.8128618012
 11
5.0875543478
 21
3.525222018
  0
LINE
  5
267
100
AcDbEntity
  8
0
100
AcDbLine
 62
7
  6
CONTINUOUS
 10
4.6414147587
 20
4.5297934618
 11
4.6310714262
 21
4.5271118012
  0
LINE
  5
268
100
AcDbEntity
  8
0
100
AcDbLine
 62
7
  6
CONTINUOUS
 10
4.6310720039
 20
4.5271118012
 11
5.249804315
 21
4.5271118012
  0
LINE
  5
269
100
AcDbEntity
  8
0
100
AcDbLine
 62
7
  6
CONTINUOUS
 10
5.2900543478
 20
4.5573618012
 11
4.5800543478
 21
4.5573618012
  0
LINE
  5
26A
100
AcDbEntity
  8
0
100
AcDbLine
 62
7
  6
CONTINUOUS
 10
5.2900543478
 20
4.5773618012
 11
5.2674470946
 21
4.5773618012
  0
LINE
  5
26B
100
AcDbEntity
  8
0
100
AcDbLine
 62
7
  6
CONTINUOUS
 10
4.9575543478
 20
4.5773618012
 11
4.9125543478
 21
4.5773618012
  0
LINE
  5
26C
100
AcDbEntity
  8
0
100
AcDbLine
 62
7
  6
CONTINUOUS
 10
4.602661601
 20
4.5773618012
 11
4.5800543478
 21
4.5773618012
  0
LINE
  5
26D
100
AcDbEntity
  8
0
100
AcDbLine
 62
7
  6
CONTINUOUS
 10
4.6210159432
 20
4.5475434124
 11
4.6406064882
 21
4.5424647132
  0
LINE
  5
26E
100
AcDbEntity
  8
0
100
AcDbLine
 62
7
  6
CONTINUOUS
 10
5.1485543478
 20
3.5319675013
 11
5.1485543478
 21
3.1235467819
  0
LINE
  5
26F
100
AcDbEntity
  8
0
100
AcDbLine
 62
7
  6
CONTINUOUS
 10
5.1485543478
 20
3.0661588508
 11
5.1485543478
 21
2.9989294611
  0
LINE
  5
270
100
AcDbEntity
  8
0
100
AcDbLine
 62
7
  6
CONTINUOUS
 10
5.1485543478
 20
2.9415639392
 11
5.1485543478
 21
2.8743121404
  0
LINE
  5
271
100
AcDbEntity
  8
0
100
AcDbLine
 62
7
  6
CONTINUOUS
 10
5.1485543478
 20
2.8169466184
 11
5.1485543478
 21
2.7496948197
  0
LINE
  5
272
100
AcDbEntity
  8
0
100
AcDbLine
 62
7
  6
CONTINUOUS
 10
5.1485543478
 20
2.6923292977
 11
5.1485543478
 21
2.625077499
  0
LINE
  5
273
100
AcDbEntity
  8
0
100
AcDbLine
 62
7
  6
CONTINUOUS
 10
5.1485543478
 20
2.567711977
 11
5.1485543478
 21
2.5004601783
  0
LINE
  5
274
100
AcDbEntity
  8
0
100
AcDbLine
 62
7
  6
CONTINUOUS
 10
5.2275543478
 20
3.7318618012
 11
5.2275543478
 21
4.5271118012
  0
LINE
  5
275
100
AcDbEntity
  8
0
100
AcDbLine
 62
7
  6
CONTINUOUS
 10
5.2294543478
 20
4.5466243012
 11
5.2294543478
 21
4.5573618012
  0
LINE
  5
276
100
AcDbEntity
  8
0
100
AcDbLine
 62
7
  6
CONTINUOUS
 10
5.2294543478
 20
4.8623618012
 11
5.2294543478
 21
4.8697273042
  0
LINE
  5
277
100
AcDbEntity
  8
0
100
AcDbLine
 62
7
  6
CONTINUOUS
 10
5.2294543478
 20
4.8911243012
 11
5.2294543478
 21
4.9041773042
  0
LINE
  5
278
100
AcDbEntity
  8
0
100
AcDbLine
 62
7
  6
CONTINUOUS
 10
5.2294543478
 20
4.9255743012
 11
5.2294543478
 21
4.9386273042
  0
LINE
  5
279
100
AcDbEntity
  8
0
100
AcDbLine
 62
7
  6
CONTINUOUS
 10
5.2294543478
 20
4.9600243012
 11
5.2294543478
 21
4.9730773042
  0
LINE
  5
27A
100
AcDbEntity
  8
0
100
AcDbLine
 62
7
  6
CONTINUOUS
 10
5.2294543478
 20
4.9944743012
 11
5.2294543478
 21
5.0075273042
  0
LINE
  5
27B
100
AcDbEntity
  8
0
100
AcDbLine
 62
7
  6
CONTINUOUS
 10
5.2294543478
 20
5.0289243012
 11
5.2294543478
 21
5.0419773042
  0
LINE
  5
27C
100
AcDbEntity
  8
0
100
AcDbLine
 62
7
  6
CONTINUOUS
 10
5.2294543478
 20
5.0633743012
 11
5.2294543478
 21
5.0764273042
  0
LINE
  5
27D
100
AcDbEntity
  8
0
100
AcDbLine
 62
7
  6
CONTINUOUS
 10
5.2294543478
 20
5.0978243012
 11
5.2294543478
 21
5.1108773042
  0
LINE
  5
27E
100
AcDbEntity
  8
0
100
AcDbLine
 62
7
  6
CONTINUOUS
 10
5.2294543478
 20
5.1322743012
 11
5.2294543478
 21
5.1453273042
  0
LINE
  5
27F
100
AcDbEntity
  8
0
100
AcDbLine
 62
7
  6
CONTINUOUS
 10
5.2294543478
 20
5.1667243012
 11
5.2294543478
 21
5.1797773042
  0
LINE
  5
280
100
AcDbEntity
  8
0
100
AcDbLine
 62
7
  6
CONTINUOUS
 10
5.2294543478
 20
5.2011743012
 11
5.2294543478
 21
5.2142273042
  0
LINE
  5
281
100
AcDbEntity
  8
0
100
AcDbLine
 62
7
  6
CONTINUOUS
 10
5.2294543478
 20
5.2356243012
 11
5.2294543478
 21
5.2486773042
  0
LINE
  5
282
100
AcDbEntity
  8
0
100
AcDbLine
 62
7
  6
CONTINUOUS
 10
5.2294543478
 20
5.2700743012
 11
5.2294543478
 21
5.2831273042
  0
LINE
  5
283
100
AcDbEntity
  8
0
100
AcDbLine
 62
7
  6
CONTINUOUS
 10
5.2294543478
 20
5.3045243012
 11
5.2294543478
 21
5.3175773042
  0
LINE
  5
284
100
AcDbEntity
  8
0
100
AcDbLine
 62
7
  6
CONTINUOUS
 10
5.2294543478
 20
5.3389743012
 11
5.2294543478
 21
5.3443618012
  0
LINE
  5
285
100
AcDbEntity
  8
0
100
AcDbLine
 62
7
  6
CONTINUOUS
 10
5.2498043478
 20
4.5271118012
 11
5.2498043478
 21
4.5413614334
  0
LINE
  5
286
100
AcDbEntity
  8
0
100
AcDbLine
 62
7
  6
CONTINUOUS
 10
5.2498043478
 20
4.8751871691
 11
5.2498043478
 21
4.8858614334
  0
LINE
  5
287
100
AcDbEntity
  8
0
100
AcDbLine
 62
7
  6
CONTINUOUS
 10
5.2498043478
 20
4.9096371691
 11
5.2498043478
 21
4.9203114334
  0
LINE
  5
288
100
AcDbEntity
  8
0
100
AcDbLine
 62
7
  6
CONTINUOUS
 10
5.2498043478
 20
4.9440871691
 11
5.2498043478
 21
4.9547614334
  0
LINE
  5
289
100
AcDbEntity
  8
0
100
AcDbLine
 62
7
  6
CONTINUOUS
 10
5.2498043478
 20
4.9785371691
 11
5.2498043478
 21
4.9892114334
  0
LINE
  5
28A
100
AcDbEntity
  8
0
100
AcDbLine
 62
7
  6
CONTINUOUS
 10
5.2498043478
 20
5.0129871691
 11
5.2498043478
 21
5.0236614334
  0
LINE
  5
28B
100
AcDbEntity
  8
0
100
AcDbLine
 62
7
  6
CONTINUOUS
 10
5.2498043478
 20
5.0474371691
 11
5.2498043478
 21
5.0581114334
  0
LINE
  5
28C
100
AcDbEntity
  8
0
100
AcDbLine
 62
7
  6
CONTINUOUS
 10
5.2498043478
 20
5.0818871691
 11
5.2498043478
 21
5.0925614334
  0
LINE
  5
28D
100
AcDbEntity
  8
0
100
AcDbLine
 62
7
  6
CONTINUOUS
 10
5.2498043478
 20
5.1163371691
 11
5.2498043478
 21
5.1270114334
  0
LINE
  5
28E
100
AcDbEntity
  8
0
100
AcDbLine
 62
7
  6
CONTINUOUS
 10
5.2498043478
 20
5.1507871691
 11
5.2498043478
 21
5.1614614334
  0
LINE
  5
28F
100
AcDbEntity
  8
0
100
AcDbLine
 62
7
  6
CONTINUOUS
 10
5.2498043478
 20
5.1852371691
 11
5.2498043478
 21
5.1959114334
  0
LINE
  5
290
100
AcDbEntity
  8
0
100
AcDbLine
 62
7
  6
CONTINUOUS
 10
5.2498043478
 20
5.2196871691
 11
5.2498043478
 21
5.2303614334
  0
LINE
  5
291
100
AcDbEntity
  8
0
100
AcDbLine
 62
7
  6
CONTINUOUS
 10
5.2498043478
 20
5.2541371691
 11
5.2498043478
 21
5.2648114334
  0
LINE
  5
292
100
AcDbEntity
  8
0
100
AcDbLine
 62
7
  6
CONTINUOUS
 10
5.2498043478
 20
5.2885871691
 11
5.2498043478
 21
5.2992614334
  0
LINE
  5
293
100
AcDbEntity
  8
0
100
AcDbLine
 62
7
  6
CONTINUOUS
 10
5.2498043478
 20
5.3230371691
 11
5.2498043478
 21
5.3337114334
  0
LINE
  5
294
100
AcDbEntity
  8
0
100
AcDbLine
 62
7
  6
CONTINUOUS
 10
4.5350543478
 20
4.7323618012
 11
5.3350543478
 21
4.7323618012
  0
LINE
  5
295
100
AcDbEntity
  8
0
100
AcDbLine
 62
7
  6
CONTINUOUS
 10
5.2490927525
 20
4.5417301901
 11
5.2294543478
 21
4.5468212991
  0
LINE
  5
296
100
AcDbEntity
  8
0
100
AcDbLine
 62
7
  6
CONTINUOUS
 10
5.2674470946
 20
4.7323618012
 11
5.2674470946
 21
4.5773618012
  0
LINE
  5
297
100
AcDbEntity
  8
0
100
AcDbLine
 62
7
  6
CONTINUOUS
 10
5.2900543478
 20
4.7323618012
 11
5.2900543478
 21
4.5573618012
  0
LINE
  5
298
100
AcDbEntity
  8
0
100
AcDbLine
 62
7
  6
CONTINUOUS
 10
5.3438043478
 20
5.6189321432
 11
5.3438043478
 21
6.5368618012
  0
LINE
  5
299
100
AcDbEntity
  8
0
100
AcDbLine
 62
7
  6
CONTINUOUS
 10
5.3524023707
 20
5.5603618012
 11
5.3524023707
 21
5.5568618012
  0
LINE
  5
29A
100
AcDbEntity
  8
0
100
AcDbLine
 62
7
  6
CONTINUOUS
 10
5.3750543478
 20
4.7723618012
 11
5.3750543478
 21
4.7973618012
  0
LINE
  5
29B
100
AcDbEntity
  8
0
100
AcDbLine
 62
7
  6
CONTINUOUS
 10
5.3850543478
 20
4.7973618012
 11
5.3850543478
 21
4.8623618012
  0
LINE
  5
29C
100
AcDbEntity
  8
0
100
AcDbLine
 62
7
  6
CONTINUOUS
 10
5.2286939368
 20
4.8695301407
 11
5.2490927524
 21
4.8748184124
  0
LINE
  5
29D
100
AcDbEntity
  8
0
100
AcDbLine
 62
7
  6
CONTINUOUS
 10
5.2286939368
 20
4.9039801407
 11
5.2490927524
 21
4.9092684124
  0
LINE
  5
29E
100
AcDbEntity
  8
0
100
AcDbLine
 62
7
  6
CONTINUOUS
 10
5.2286939368
 20
4.9384301407
 11
5.2490927524
 21
4.9437184124
  0
LINE
  5
29F
100
AcDbEntity
  8
0
100
AcDbLine
 62
7
  6
CONTINUOUS
 10
5.2286939368
 20
4.9728801407
 11
5.2490927524
 21
4.9781684124
  0
LINE
  5
2A0
100
AcDbEntity
  8
0
100
AcDbLine
 62
7
  6
CONTINUOUS
 10
4.4950543478
 20
4.7723618012
 11
5.3750543478
 21
4.7723618012
  0
LINE
  5
2A1
100
AcDbEntity
  8
0
100
AcDbLine
 62
7
  6
CONTINUOUS
 10
5.3850543478
 20
4.7973618012
 11
4.4850543478
 21
4.7973618012
  0
LINE
  5
2A2
100
AcDbEntity
  8
0
100
AcDbLine
 62
7
  6
CONTINUOUS
 10
5.3850543478
 20
4.8623618012
 11
4.4850543478
 21
4.8623618012
  0
LINE
  5
2A3
100
AcDbEntity
  8
0
100
AcDbLine
 62
7
  6
CONTINUOUS
 10
4.6210159432
 20
4.8920434124
 11
4.6406064882
 21
4.8869647132
  0
LINE
  5
2A4
100
AcDbEntity
  8
0
100
AcDbLine
 62
7
  6
CONTINUOUS
 10
4.6210159432
 20
4.9264934124
 11
4.6406064882
 21
4.9214147132
  0
LINE
  5
2A5
100
AcDbEntity
  8
0
100
AcDbLine
 62
7
  6
CONTINUOUS
 10
4.6210159432
 20
4.9609434124
 11
4.6406064882
 21
4.9558647132
  0
LINE
  5
2A6
100
AcDbEntity
  8
0
100
AcDbLine
 62
7
  6
CONTINUOUS
 10
4.6210159432
 20
4.9953934124
 11
4.6406064882
 21
4.9903147132
  0
LINE
  5
2A7
100
AcDbEntity
  8
0
100
AcDbLine
 62
7
  6
CONTINUOUS
 10
5.4300543478
 20
5.3443618012
 11
5.4300543478
 21
5.5568618012
  0
LINE
  5
2A8
100
AcDbEntity
  8
0
100
AcDbLine
 62
7
  6
CONTINUOUS
 10
5.2286939368
 20
5.0073301407
 11
5.2490927524
 21
5.0126184124
  0
LINE
  5
2A9
100
AcDbEntity
  8
0
100
AcDbLine
 62
7
  6
CONTINUOUS
 10
4.6414147587
 20
4.8742934618
 11
4.6210159432
 21
4.8690051901
  0
LINE
  5
2AA
100
AcDbEntity
  8
0
100
AcDbLine
 62
7
  6
CONTINUOUS
 10
5.2286939368
 20
5.0417801407
 11
5.2490927524
 21
5.0470684124
  0
LINE
  5
2AB
100
AcDbEntity
  8
0
100
AcDbLine
 62
7
  6
CONTINUOUS
 10
4.6414147587
 20
4.9087434618
 11
4.6210159432
 21
4.9034551901
  0
LINE
  5
2AC
100
AcDbEntity
  8
0
100
AcDbLine
 62
7
  6
CONTINUOUS
 10
5.2286939368
 20
5.0762301407
 11
5.2490927524
 21
5.0815184124
  0
LINE
  5
2AD
100
AcDbEntity
  8
0
100
AcDbLine
 62
7
  6
CONTINUOUS
 10
4.6414147587
 20
4.9431934618
 11
4.6210159432
 21
4.9379051901
  0
LINE
  5
2AE
100
AcDbEntity
  8
0
100
AcDbLine
 62
7
  6
CONTINUOUS
 10
5.2286939368
 20
5.1106801407
 11
5.2490927524
 21
5.1159684124
  0
LINE
  5
2AF
100
AcDbEntity
  8
0
100
AcDbLine
 62
7
  6
CONTINUOUS
 10
4.6414147587
 20
4.9776434618
 11
4.6210159432
 21
4.9723551901
  0
LINE
  5
2B0
100
AcDbEntity
  8
0
100
AcDbLine
 62
7
  6
CONTINUOUS
 10
5.2286939368
 20
5.1451301407
 11
5.2490927524
 21
5.1504184124
  0
LINE
  5
2B1
100
AcDbEntity
  8
0
100
AcDbLine
 62
7
  6
CONTINUOUS
 10
4.6210159432
 20
5.0298434124
 11
4.6406064882
 21
5.0247647132
  0
LINE
  5
2B2
100
AcDbEntity
  8
0
100
AcDbLine
 62
7
  6
CONTINUOUS
 10
5.2490927525
 20
4.8862301901
 11
5.2294543478
 21
4.8913212991
  0
LINE
  5
2B3
100
AcDbEntity
  8
0
100
AcDbLine
 62
7
  6
CONTINUOUS
 10
4.6210159432
 20
5.0642934124
 11
4.6406064882
 21
5.0592147132
  0
LINE
  5
2B4
100
AcDbEntity
  8
0
100
AcDbLine
 62
7
  6
CONTINUOUS
 10
5.2490927525
 20
4.9206801901
 11
5.2294543478
 21
4.9257712991
  0
LINE
  5
2B5
100
AcDbEntity
  8
0
100
AcDbLine
 62
7
  6
CONTINUOUS
 10
4.6210159432
 20
5.0987434124
 11
4.6406064882
 21
5.0936647132
  0
LINE
  5
2B6
100
AcDbEntity
  8
0
100
AcDbLine
 62
7
  6
CONTINUOUS
 10
5.2490927525
 20
4.9551301901
 11
5.2294543478
 21
4.9602212991
  0
LINE
  5
2B7
100
AcDbEntity
  8
0
100
AcDbLine
 62
7
  6
CONTINUOUS
 10
4.6210159432
 20
5.1331934124
 11
4.6406064882
 21
5.1281147132
  0
LINE
  5
2B8
100
AcDbEntity
  8
0
100
AcDbLine
 62
7
  6
CONTINUOUS
 10
5.2490927525
 20
4.9895801901
 11
5.2294543478
 21
4.9946712991
  0
LINE
  5
2B9
100
AcDbEntity
  8
0
100
AcDbLine
 62
7
  6
CONTINUOUS
 10
5.3522058313
 20
5.5603618012
 11
5.3438043478
 21
5.6189321432
  0
LINE
  5
2BA
100
AcDbEntity
  8
0
100
AcDbLine
 62
7
  6
CONTINUOUS
 10
4.6414147587
 20
5.0120934618
 11
4.6210159432
 21
5.0068051901
  0
LINE
  5
2BB
100
AcDbEntity
  8
0
100
AcDbLine
 62
7
  6
CONTINUOUS
 10
5.2286939368
 20
5.1795801407
 11
5.2490927524
 21
5.1848684124
  0
LINE
  5
2BC
100
AcDbEntity
  8
0
100
AcDbLine
 62
7
  6
CONTINUOUS
 10
4.6414147587
 20
5.0465434618
 11
4.6210159432
 21
5.0412551901
  0
LINE
  5
2BD
100
AcDbEntity
  8
0
100
AcDbLine
 62
7
  6
CONTINUOUS
 10
5.2286939368
 20
5.2140301407
 11
5.2490927524
 21
5.2193184124
  0
LINE
  5
2BE
100
AcDbEntity
  8
0
100
AcDbLine
 62
7
  6
CONTINUOUS
 10
4.6414147587
 20
5.0809934618
 11
4.6210159432
 21
5.0757051901
  0
LINE
  5
2BF
100
AcDbEntity
  8
0
100
AcDbLine
 62
7
  6
CONTINUOUS
 10
5.2286939368
 20
5.2484801407
 11
5.2490927524
 21
5.2537684124
  0
LINE
  5
2C0
100
AcDbEntity
  8
0
100
AcDbLine
 62
7
  6
CONTINUOUS
 10
4.6414147587
 20
5.1154434618
 11
4.6210159432
 21
5.1101551901
  0
LINE
  5
2C1
100
AcDbEntity
  8
0
100
AcDbLine
 62
7
  6
CONTINUOUS
 10
5.2286939368
 20
5.2829301407
 11
5.2490927524
 21
5.2882184124
  0
LINE
  5
2C2
100
AcDbEntity
  8
0
100
AcDbLine
 62
7
  6
CONTINUOUS
 10
4.6414147587
 20
5.1498934618
 11
4.6210159432
 21
5.1446051901
  0
LINE
  5
2C3
100
AcDbEntity
  8
0
100
AcDbLine
 62
7
  6
CONTINUOUS
 10
5.2286939368
 20
5.3173801407
 11
5.2490927524
 21
5.3226684124
  0
LINE
  5
2C4
100
AcDbEntity
  8
0
100
AcDbLine
 62
7
  6
CONTINUOUS
 10
4.9779746163
 20
5.1535989334
 11
4.9350543478
 21
5.1528489334
  0
LINE
  5
2C5
100
AcDbEntity
  8
0
100
AcDbLine
 62
7
  6
CONTINUOUS
 10
4.9350543478
 20
5.1766246691
 11
4.9779746163
 21
5.1773746691
  0
LINE
  5
2C6
100
AcDbEntity
  8
0
100
AcDbLine
 62
7
  6
CONTINUOUS
 10
4.6210159432
 20
5.1676434124
 11
4.6406064882
 21
5.1625647132
  0
LINE
  5
2C7
100
AcDbEntity
  8
0
100
AcDbLine
 62
7
  6
CONTINUOUS
 10
5.2490927525
 20
5.0240301901
 11
5.2294543478
 21
5.0291212991
  0
LINE
  5
2C8
100
AcDbEntity
  8
0
100
AcDbLine
 62
7
  6
CONTINUOUS
 10
4.6210159432
 20
5.2020934124
 11
4.6406064882
 21
5.1970147132
  0
LINE
  5
2C9
100
AcDbEntity
  8
0
100
AcDbLine
 62
7
  6
CONTINUOUS
 10
5.2490927525
 20
5.0584801901
 11
5.2294543478
 21
5.0635712991
  0
LINE
  5
2CA
100
AcDbEntity
  8
0
100
AcDbLine
 62
7
  6
CONTINUOUS
 10
4.6210159432
 20
5.2365434124
 11
4.6406064882
 21
5.2314647132
  0
LINE
  5
2CB
100
AcDbEntity
  8
0
100
AcDbLine
 62
7
  6
CONTINUOUS
 10
5.2490927525
 20
5.0929301901
 11
5.2294543478
 21
5.0980212991
  0
LINE
  5
2CC
100
AcDbEntity
  8
0
100
AcDbLine
 62
7
  6
CONTINUOUS
 10
4.6210159432
 20
5.2709934124
 11
4.6406064882
 21
5.2659147132
  0
LINE
  5
2CD
100
AcDbEntity
  8
0
100
AcDbLine
 62
7
  6
CONTINUOUS
 10
5.2490927525
 20
5.1273801901
 11
5.2294543478
 21
5.1324712991
  0
LINE
  5
2CE
100
AcDbEntity
  8
0
100
AcDbLine
 62
7
  6
CONTINUOUS
 10
4.6210159432
 20
5.3054434124
 11
4.6406064882
 21
5.3003647132
  0
LINE
  5
2CF
100
AcDbEntity
  8
0
100
AcDbLine
 62
7
  6
CONTINUOUS
 10
4.6414147587
 20
5.1843434618
 11
4.6210159432
 21
5.1790551901
  0
LINE
  5
2D0
100
AcDbEntity
  8
0
100
AcDbLine
 62
7
  6
CONTINUOUS
 10
4.6414147587
 20
5.2187934618
 11
4.6210159432
 21
5.2135051901
  0
LINE
  5
2D1
100
AcDbEntity
  8
0
100
AcDbLine
 62
7
  6
CONTINUOUS
 10
4.6414147587
 20
5.2532434618
 11
4.6210159432
 21
5.2479551901
  0
LINE
  5
2D2
100
AcDbEntity
  8
0
100
AcDbLine
 62
7
  6
CONTINUOUS
 10
4.6414147587
 20
5.2876934618
 11
4.6210159432
 21
5.2824051901
  0
LINE
  5
2D3
100
AcDbEntity
  8
0
100
AcDbLine
 62
7
  6
CONTINUOUS
 10
4.6422022845
 20
5.2878618012
 11
4.6414147587
 21
5.2876934618
  0
LINE
  5
2D4
100
AcDbEntity
  8
0
100
AcDbLine
 62
7
  6
CONTINUOUS
 10
4.6219592836
 20
5.2825989334
 11
4.6210159432
 21
5.2824051901
  0
LINE
  5
2D5
100
AcDbEntity
  8
0
100
AcDbLine
 62
7
  6
CONTINUOUS
 10
4.4400543478
 20
5.3443618012
 11
5.4300543478
 21
5.3443618012
  0
LINE
  5
2D6
100
AcDbEntity
  8
0
100
AcDbLine
 62
7
  6
CONTINUOUS
 10
5.2490927525
 20
5.1618301901
 11
5.2294543478
 21
5.1669212991
  0
LINE
  5
2D7
100
AcDbEntity
  8
0
100
AcDbLine
 62
7
  6
CONTINUOUS
 10
4.6210159432
 20
5.3398934124
 11
4.6406064882
 21
5.3348147132
  0
LINE
  5
2D8
100
AcDbEntity
  8
0
100
AcDbLine
 62
7
  6
CONTINUOUS
 10
5.2490927525
 20
5.1962801901
 11
5.2294543478
 21
5.2013712991
  0
LINE
  5
2D9
100
AcDbEntity
  8
0
100
AcDbLine
 62
7
  6
CONTINUOUS
 10
5.2490927525
 20
5.2307301901
 11
5.2294543478
 21
5.2358212991
  0
LINE
  5
2DA
100
AcDbEntity
  8
0
100
AcDbLine
 62
7
  6
CONTINUOUS
 10
5.2490927525
 20
5.2651801901
 11
5.2294543478
 21
5.2702712991
  0
LINE
  5
2DB
100
AcDbEntity
  8
0
100
AcDbLine
 62
7
  6
CONTINUOUS
 10
5.2490927525
 20
5.2996301901
 11
5.2294543478
 21
5.3047212991
  0
LINE
  5
2DC
100
AcDbEntity
  8
0
100
AcDbLine
 62
7
  6
CONTINUOUS
 10
4.6414147587
 20
5.3221434618
 11
4.6210159432
 21
5.3168551901
  0
LINE
  5
2DD
100
AcDbEntity
  8
0
100
AcDbLine
 62
7
  6
CONTINUOUS
 10
5.2490927525
 20
5.3340801901
 11
5.2294543478
 21
5.3391712991
  0
LINE
  5
2DE
100
AcDbEntity
  8
0
100
AcDbLine
 62
7
  6
CONTINUOUS
 10
4.4400543478
 20
5.5568618012
 11
5.4300543478
 21
5.5568618012
  0
LINE
  5
2DF
100
AcDbEntity
  8
0
100
AcDbLine
 62
7
  6
CONTINUOUS
 10
4.5177063249
 20
5.5603618012
 11
5.3524023707
 21
5.5603618012
  0
LINE
  5
2E0
100
AcDbEntity
  8
0
100
AcDbLine
 62
7
  6
CONTINUOUS
 10
5.3438043478
 20
5.6189321432
 11
4.5263043478
 21
5.6189321432
  0
LINE
  5
2E1
100
AcDbEntity
  8
0
100
AcDbLine
 62
7
  6
CONTINUOUS
 10
4.5774616151
 20
5.8968618012
 11
4.5263043478
 21
5.8968618012
  0
LINE
  5
2E2
100
AcDbEntity
  8
0
100
AcDbLine
 62
7
  6
CONTINUOUS
 10
4.8988255473
 20
5.9568618012
 11
4.8577535098
 21
5.9568618012
  0
LINE
  5
2E3
100
AcDbEntity
  8
0
100
AcDbLine
 62
7
  6
CONTINUOUS
 10
4.814399688
 20
5.9568618012
 11
4.8075543478
 21
5.9568618012
  0
LINE
  5
2E4
100
AcDbEntity
  8
0
100
AcDbLine
 62
7
  6
CONTINUOUS
 10
4.8988255473
 20
5.9672022267
 11
4.8645988467
 21
5.9672022267
  0
LINE
  5
2E5
100
AcDbEntity
  8
0
100
AcDbLine
 62
7
  6
CONTINUOUS
 10
4.7825543478
 20
5.9943618012
 11
4.6850543478
 21
5.9943618012
  0
LINE
  5
2E6
100
AcDbEntity
  8
0
100
AcDbLine
 62
7
  6
CONTINUOUS
 10
4.5774616151
 20
5.9943618012
 11
4.5263043478
 21
5.9943618012
  0
LINE
  5
2E7
100
AcDbEntity
  8
0
100
AcDbLine
 62
7
  6
CONTINUOUS
 10
4.8440628296
 20
5.9947766952
 11
4.814399688
 21
5.9947766952
  0
LINE
  5
2E8
100
AcDbEntity
  8
0
100
AcDbLine
 62
7
  6
CONTINUOUS
 10
4.7825543478
 20
5.9968618012
 11
4.6850543478
 21
5.9968618012
  0
LINE
  5
2E9
100
AcDbEntity
  8
0
100
AcDbLine
 62
7
  6
CONTINUOUS
 10
4.814399688
 20
6.0051171195
 11
4.8440628296
 21
6.0051171195
  0
LINE
  5
2EA
100
AcDbEntity
  8
0
100
AcDbLine
 62
7
  6
CONTINUOUS
 10
4.8486263886
 20
6.0275213769
 11
4.814399688
 21
6.0275213769
  0
LINE
  5
2EB
100
AcDbEntity
  8
0
100
AcDbLine
 62
7
  6
CONTINUOUS
 10
4.8645988467
 20
6.0378618012
 11
4.8577535098
 21
6.0378618012
  0
LINE
  5
2EC
100
AcDbEntity
  8
0
100
AcDbLine
 62
7
  6
CONTINUOUS
 10
4.8075543478
 20
6.0378618012
 11
4.8486263886
 21
6.0378618012
  0
LINE
  5
2ED
100
AcDbEntity
  8
0
100
AcDbLine
 62
7
  6
CONTINUOUS
 10
4.5774616151
 20
6.0938618012
 11
4.5263043478
 21
6.0938618012
  0
LINE
  5
2EE
100
AcDbEntity
  8
0
100
AcDbLine
 62
7
  6
CONTINUOUS
 10
4.5774616151
 20
6.1913618012
 11
4.5263043478
 21
6.1913618012
  0
LINE
  5
2EF
100
AcDbEntity
  8
0
100
AcDbLine
 62
7
  6
CONTINUOUS
 10
5.3438043478
 20
6.5368618012
 11
4.5263043478
 21
6.5368618012
  0
LINE
  5
2F0
100
AcDbEntity
  8
0
100
AcDbLine
 62
7
  6
CONTINUOUS
 10
5.2288043478
 20
6.6518618012
 11
4.6413043478
 21
6.6518618012
  0
ARC
  5
2F1
100
AcDbEntity
  8
0
100
AcDbCircle
 62
7
  6
CONTINUOUS
 10
4.9350543478
 20
3.7318618012
 40
0.2925
100
AcDbArc
 50
311.0443782716
 51
360.0
  0
ARC
  5
2F2
100
AcDbEntity
  8
0
100
AcDbCircle
 62
7
  6
CONTINUOUS
 10
4.9350543478
 20
3.7318618012
 40
0.2925
100
AcDbArc
 50
180.0
 51
228.9556217284
  0
ARC
  5
2F3
100
AcDbEntity
  8
0
100
AcDbCircle
 62
7
  6
CONTINUOUS
 10
5.2288043478
 20
6.5368618012
 40
0.115
100
AcDbArc
 50
0.0
 51
90.0
  0
ARC
  5
2F4
100
AcDbEntity
  8
0
100
AcDbCircle
 62
7
  6
CONTINUOUS
 10
4.6413043478
 20
6.5368618012
 40
0.115
100
AcDbArc
 50
90.0
 51
180.0
  0
ARC
  5
2F5
100
AcDbEntity
  8
0
100
AcDbCircle
 62
7
  6
CONTINUOUS
 10
4.5350543478
 20
4.7723618012
 40
0.04
100
AcDbArc
 50
180.0
 51
270.0
  0
ARC
  5
2F6
100
AcDbEntity
  8
0
100
AcDbCircle
 62
7
  6
CONTINUOUS
 10
5.3350543478
 20
4.7723618012
 40
0.04
100
AcDbArc
 50
270.0
 51
360.0
  0
ARC
  5
2F7
100
AcDbEntity
  8
0
100
AcDbCircle
 62
7
  6
CONTINUOUS
 10
5.0841713691
 20
2.2581118012
 40
0.0151329787
100
AcDbArc
 50
282.9176327574
 51
77.0823672426
  0
ARC
  5
2F8
100
AcDbEntity
  8
0
100
AcDbCircle
 62
7
  6
CONTINUOUS
 10
5.0841713691
 20
2.3661118012
 40
0.0151329787
100
AcDbArc
 50
282.9176327574
 51
77.0823672426
  0
ARC
  5
2F9
100
AcDbEntity
  8
0
100
AcDbCircle
 62
7
  6
CONTINUOUS
 10
5.0841713691
 20
2.4741118012
 40
0.0151329787
100
AcDbArc
 50
282.9176327574
 51
77.0823672426
  0
ARC
  5
2FA
100
AcDbEntity
  8
0
100
AcDbCircle
 62
7
  6
CONTINUOUS
 10
5.0841713691
 20
2.5821118012
 40
0.0151329787
100
AcDbArc
 50
282.9176327574
 51
77.0823672426
  0
ARC
  5
2FB
100
AcDbEntity
  8
0
100
AcDbCircle
 62
7
  6
CONTINUOUS
 10
5.0841713691
 20
2.6901118012
 40
0.0151329787
100
AcDbArc
 50
282.9176327574
 51
77.0823672426
  0
ARC
  5
2FC
100
AcDbEntity
  8
0
100
AcDbCircle
 62
7
  6
CONTINUOUS
 10
5.0841713691
 20
2.7981118012
 40
0.0151329787
100
AcDbArc
 50
282.9176327574
 51
77.0823672426
  0
ARC
  5
2FD
100
AcDbEntity
  8
0
100
AcDbCircle
 62
7
  6
CONTINUOUS
 10
4.7859373265
 20
2.2581118012
 40
0.0151329787
100
AcDbArc
 50
102.9176327574
 51
257.0823672426
  0
ARC
  5
2FE
100
AcDbEntity
  8
0
100
AcDbCircle
 62
7
  6
CONTINUOUS
 10
4.7859373265
 20
2.3661118012
 40
0.0151329787
100
AcDbArc
 50
102.9176327574
 51
257.0823672426
  0
ARC
  5
2FF
100
AcDbEntity
  8
0
100
AcDbCircle
 62
7
  6
CONTINUOUS
 10
4.7859373265
 20
2.4741118012
 40
0.0151329787
100
AcDbArc
 50
102.9176327574
 51
257.0823672426
  0
ARC
  5
300
100
AcDbEntity
  8
0
100
AcDbCircle
 62
7
  6
CONTINUOUS
 10
4.7859373265
 20
2.5821118012
 40
0.0151329787
100
AcDbArc
 50
102.9176327574
 51
257.0823672426
  0
ARC
  5
301
100
AcDbEntity
  8
0
100
AcDbCircle
 62
7
  6
CONTINUOUS
 10
4.7859373265
 20
2.6901118012
 40
0.0151329787
100
AcDbArc
 50
102.9176327574
 51
257.0823672426
  0
ARC
  5
302
100
AcDbEntity
  8
0
100
AcDbCircle
 62
7
  6
CONTINUOUS
 10
4.7859373265
 20
2.7981118012
 40
0.0151329787
100
AcDbArc
 50
102.9176327574
 51
257.0823672426
  0
ARC
  5
303
100
AcDbEntity
  8
0
100
AcDbCircle
 62
7
  6
CONTINUOUS
 10
5.226826626
 20
4.876742746
 40
0.0074504016
100
AcDbArc
 50
282.9305470544
 51
284.5148417817
  0
LINE
  5
304
100
AcDbEntity
  8
0
100
AcDbLine
 62
7
  6
CONTINUOUS
 10
4.6203043565
 20
5.3058121691
 11
4.6210159427
 21
5.3054434123
  0
LINE
  5
305
100
AcDbEntity
  8
0
100
AcDbLine
 62
7
  6
CONTINUOUS
 10
4.6203044593
 20
5.2713621691
 11
4.6210159643
 21
5.2709934123
  0
LINE
  5
306
100
AcDbEntity
  8
0
100
AcDbLine
 62
7
  6
CONTINUOUS
 10
4.6203044593
 20
5.2369121691
 11
4.6210159643
 21
5.2365434123
  0
LINE
  5
307
100
AcDbEntity
  8
0
100
AcDbLine
 62
7
  6
CONTINUOUS
 10
4.6203044593
 20
5.2024621691
 11
4.6210159643
 21
5.2020934123
  0
LINE
  5
308
100
AcDbEntity
  8
0
100
AcDbLine
 62
7
  6
CONTINUOUS
 10
4.6203044594
 20
5.1680121691
 11
4.6210159643
 21
5.1676434123
  0
LINE
  5
309
100
AcDbEntity
  8
0
100
AcDbLine
 62
7
  6
CONTINUOUS
 10
4.6203044593
 20
5.1335621691
 11
4.6210159643
 21
5.1331934123
  0
LINE
  5
30A
100
AcDbEntity
  8
0
100
AcDbLine
 62
7
  6
CONTINUOUS
 10
4.6203044593
 20
5.0991121691
 11
4.6210159643
 21
5.0987434123
  0
LINE
  5
30B
100
AcDbEntity
  8
0
100
AcDbLine
 62
7
  6
CONTINUOUS
 10
4.6203044593
 20
5.0646621691
 11
4.6210159643
 21
5.0642934123
  0
LINE
  5
30C
100
AcDbEntity
  8
0
100
AcDbLine
 62
7
  6
CONTINUOUS
 10
4.6203044594
 20
5.0302121691
 11
4.6210159642
 21
5.0298434123
  0
LINE
  5
30D
100
AcDbEntity
  8
0
100
AcDbLine
 62
7
  6
CONTINUOUS
 10
4.6203044593
 20
4.9957621691
 11
4.6210159643
 21
4.9953934123
  0
LINE
  5
30E
100
AcDbEntity
  8
0
100
AcDbLine
 62
7
  6
CONTINUOUS
 10
4.6203044593
 20
4.9613121691
 11
4.6210159643
 21
4.9609434123
  0
LINE
  5
30F
100
AcDbEntity
  8
0
100
AcDbLine
 62
7
  6
CONTINUOUS
 10
4.6203044583
 20
4.9268621691
 11
4.6210159497
 21
4.9264934124
  0
LINE
  5
310
100
AcDbEntity
  8
0
100
AcDbLine
 62
7
  6
CONTINUOUS
 10
4.6203044593
 20
4.8924121691
 11
4.6210159643
 21
4.8920434123
  0
LINE
  5
311
100
AcDbEntity
  8
0
100
AcDbLine
 62
7
  6
CONTINUOUS
 10
5.2498042898
 20
5.3337114333
 11
5.2490926578
 21
5.3340801901
  0
LINE
  5
312
100
AcDbEntity
  8
0
100
AcDbLine
 62
7
  6
CONTINUOUS
 10
5.2498042638
 20
5.323037169
 11
5.2490927494
 21
5.3226684124
  0
LINE
  5
313
100
AcDbEntity
  8
0
100
AcDbLine
 62
7
  6
CONTINUOUS
 10
4.6203043483
 20
5.3402621691
 11
4.6210160402
 21
5.3398934124
  0
LINE
  5
314
100
AcDbEntity
  8
0
100
AcDbLine
 62
7
  6
CONTINUOUS
 10
5.2498042364
 20
5.2885871691
 11
5.2490927314
 21
5.2882184123
  0
LINE
  5
315
100
AcDbEntity
  8
0
100
AcDbLine
 62
7
  6
CONTINUOUS
 10
5.2498042364
 20
5.2541371691
 11
5.2490927314
 21
5.2537684123
  0
LINE
  5
316
100
AcDbEntity
  8
0
100
AcDbLine
 62
7
  6
CONTINUOUS
 10
5.2498042364
 20
5.2196871691
 11
5.2490927314
 21
5.2193184123
  0
LINE
  5
317
100
AcDbEntity
  8
0
100
AcDbLine
 62
7
  6
CONTINUOUS
 10
5.2498042543
 20
5.1852371691
 11
5.2490926873
 21
5.1848684123
  0
LINE
  5
318
100
AcDbEntity
  8
0
100
AcDbLine
 62
7
  6
CONTINUOUS
 10
5.2498042364
 20
5.1507871691
 11
5.2490927314
 21
5.1504184123
  0
LINE
  5
319
100
AcDbEntity
  8
0
100
AcDbLine
 62
7
  6
CONTINUOUS
 10
5.2498042364
 20
5.1163371691
 11
5.2490927314
 21
5.1159684123
  0
LINE
  5
31A
100
AcDbEntity
  8
0
100
AcDbLine
 62
7
  6
CONTINUOUS
 10
5.2498042364
 20
5.0818871691
 11
5.2490927314
 21
5.0815184123
  0
LINE
  5
31B
100
AcDbEntity
  8
0
100
AcDbLine
 62
7
  6
CONTINUOUS
 10
5.2498043478
 20
5.0474371689
 11
5.2490926708
 21
5.0470684124
  0
LINE
  5
31C
100
AcDbEntity
  8
0
100
AcDbLine
 62
7
  6
CONTINUOUS
 10
5.2498042364
 20
5.0129871691
 11
5.2490927314
 21
5.0126184123
  0
LINE
  5
31D
100
AcDbEntity
  8
0
100
AcDbLine
 62
7
  6
CONTINUOUS
 10
5.2498042364
 20
4.9785371691
 11
5.2490927314
 21
4.9781684123
  0
LINE
  5
31E
100
AcDbEntity
  8
0
100
AcDbLine
 62
7
  6
CONTINUOUS
 10
5.2498042364
 20
4.9440871691
 11
5.2490927314
 21
4.9437184123
  0
LINE
  5
31F
100
AcDbEntity
  8
0
100
AcDbLine
 62
7
  6
CONTINUOUS
 10
5.2498042363
 20
4.9096371691
 11
5.2490927314
 21
4.9092684123
  0
LINE
  5
320
100
AcDbEntity
  8
0
100
AcDbLine
 62
7
  6
CONTINUOUS
 10
5.2498042364
 20
4.8751871691
 11
5.2490927314
 21
4.8748184123
  0
SPLINE
  5
321
100
AcDbEntity
  8
0
100
AcDbSpline
 62
7
  6
CONTINUOUS
 70
0
 71
3
 72
33
 73
29
 74
0
 42
0.0000001
 43
0.0000001
 44
0.0000000001
 40
0.0
 40
0.0
 40
0.0
 40
0.0
 40
0.0203760966
 40
0.0416231976
 40
0.0640319847
 40
0.087830121
 40
0.1131804308
 40
0.1401881326
 40
0.1689217761
 40
0.1994203684
 40
0.2316982376
 40
0.2657433272
 40
0.3388379059
 40
0.4176930688
 40
0.5000000076
 40
0.5823069361
 40
0.6611620949
 40
0.7342566704
 40
0.7683017603
 40
0.8005796301
 40
0.8310782232
 40
0.8598118678
 40
0.88681957
 40
0.9121698796
 40
0.9359680158
 40
0.9583768026
 40
0.9796239035
 40
1.0
 40
1.0
 40
1.0
 40
1.0
 10
4.5774616151
 20
5.8968618012
 30
0.0
 10
4.5783195746
 20
5.8968618012
 30
0.0
 10
4.5800749295
 20
5.8970141323
 30
0.0
 10
4.5827006686
 20
5.8976658845
 30
0.0
 10
4.5853423216
 20
5.8987320014
 30
0.0
 10
4.5879802445
 20
5.9002020056
 30
0.0
 10
4.590596301
 20
5.902066598
 30
0.0
 10
4.5931685627
 20
5.9043199079
 30
0.0
 10
4.5956730606
 20
5.9069557476
 30
0.0
 10
4.5980813238
 20
5.9099692057
 30
0.0
 10
4.6003620481
 20
5.9133537449
 30
0.0
 10
4.6032511401
 20
5.9184697902
 30
0.0
 10
4.606280278
 20
5.9257290932
 30
0.0
 10
4.6086350809
 20
5.9353486334
 30
0.0
 10
4.6094651684
 20
5.9456118018
 30
0.0
 10
4.6086350807
 20
5.9558749699
 30
0.0
 10
4.6062802779
 20
5.9654945094
 30
0.0
 10
4.6032511401
 20
5.9727538122
 30
0.0
 10
4.6003620483
 20
5.9778698574
 30
0.0
 10
4.5980813239
 20
5.9812543967
 30
0.0
 10
4.5956730607
 20
5.9842678549
 30
0.0
 10
4.5931685627
 20
5.9869036946
 30
0.0
 10
4.590596301
 20
5.9891570046
 30
0.0
 10
4.5879802444
 20
5.9910215969
 30
0.0
 10
4.5853423216
 20
5.9924916011
 30
0.0
 10
4.5827006686
 20
5.993557718
 30
0.0
 10
4.5800749295
 20
5.9942094702
 30
0.0
 10
4.5783195746
 20
5.9943618012
 30
0.0
 10
4.5774616151
 20
5.9943618012
 30
0.0
  0
SPLINE
  5
322
100
AcDbEntity
  8
0
100
AcDbSpline
 62
7
  6
CONTINUOUS
 70
0
 71
3
 72
33
 73
29
 74
0
 42
0.0000001
 43
0.0000001
 44
0.0000000001
 40
0.0
 40
0.0
 40
0.0
 40
0.0
 40
0.0203760966
 40
0.0416231976
 40
0.0640319847
 40
0.087830121
 40
0.1131804308
 40
0.1401881326
 40
0.1689217761
 40
0.1994203684
 40
0.2316982376
 40
0.2657433272
 40
0.3388379059
 40
0.4176930688
 40
0.5000000076
 40
0.5823069361
 40
0.6611620949
 40
0.7342566704
 40
0.7683017603
 40
0.8005796301
 40
0.8310782232
 40
0.8598118678
 40
0.88681957
 40
0.9121698796
 40
0.9359680158
 40
0.9583768026
 40
0.9796239035
 40
1.0
 40
1.0
 40
1.0
 40
1.0
 10
4.5774616151
 20
6.0938618012
 30
0.0
 10
4.5783195746
 20
6.0938618012
 30
0.0
 10
4.5800749295
 20
6.0940141323
 30
0.0
 10
4.5827006686
 20
6.0946658845
 30
0.0
 10
4.5853423216
 20
6.0957320014
 30
0.0
 10
4.5879802445
 20
6.0972020056
 30
0.0
 10
4.590596301
 20
6.099066598
 30
0.0
 10
4.5931685627
 20
6.1013199079
 30
0.0
 10
4.5956730606
 20
6.1039557476
 30
0.0
 10
4.5980813238
 20
6.1069692057
 30
0.0
 10
4.6003620481
 20
6.1103537449
 30
0.0
 10
4.6032511401
 20
6.1154697902
 30
0.0
 10
4.606280278
 20
6.1227290932
 30
0.0
 10
4.6086350809
 20
6.1323486334
 30
0.0
 10
4.6094651684
 20
6.1426118018
 30
0.0
 10
4.6086350807
 20
6.1528749699
 30
0.0
 10
4.6062802779
 20
6.1624945094
 30
0.0
 10
4.6032511401
 20
6.1697538122
 30
0.0
 10
4.6003620483
 20
6.1748698574
 30
0.0
 10
4.5980813239
 20
6.1782543967
 30
0.0
 10
4.5956730607
 20
6.1812678549
 30
0.0
 10
4.5931685627
 20
6.1839036946
 30
0.0
 10
4.590596301
 20
6.1861570046
 30
0.0
 10
4.5879802444
 20
6.1880215969
 30
0.0
 10
4.5853423216
 20
6.1894916011
 30
0.0
 10
4.5827006686
 20
6.190557718
 30
0.0
 10
4.5800749295
 20
6.1912094702
 30
0.0
 10
4.5783195746
 20
6.1913618012
 30
0.0
 10
4.5774616151
 20
6.1913618012
 30
0.0
  0
SPLINE
  5
323
100
AcDbEntity
  8
0
100
AcDbSpline
 62
7
  6
CONTINUOUS
 70
0
 71
3
 72
33
 73
29
 74
0
 42
0.0000001
 43
0.0000001
 44
0.0000000001
 40
0.0
 40
0.0
 40
0.0
 40
0.0
 40
0.0205845238
 40
0.0422892423
 40
0.065301002
 40
0.0897531953
 40
0.1157330971
 40
0.1432988274
 40
0.1724821179
 40
0.2032983142
 40
0.2357360546
 40
0.2697656565
 40
0.3422467857
 40
0.4196826318
 40
0.4999999478
 40
0.5803172749
 40
0.6577531338
 40
0.7302342756
 40
0.7642638857
 40
0.796701634
 40
0.827517837
 40
0.856701134
 40
0.8842668707
 40
0.9102467794
 40
0.9346989798
 40
0.9577107465
 40
0.9794154711
 40
1.0
 40
1.0
 40
1.0
 40
1.0
 10
4.5784786197
 20
6.0942112743
 30
0.0
 10
4.5792755806
 20
6.094382419
 30
0.0
 10
4.5808886896
 20
6.0948547042
 30
0.0
 10
4.5832615813
 20
6.0958972688
 30
0.0
 10
4.5856309397
 20
6.0972823618
 30
0.0
 10
4.5879815243
 20
6.0990027443
 30
0.0
 10
4.5902964445
 20
6.1010536189
 30
0.0
 10
4.5925572717
 20
6.1034295244
 30
0.0
 10
4.5947423663
 20
6.1061263634
 30
0.0
 10
4.5968284965
 20
6.1091381544
 30
0.0
 10
4.5987883642
 20
6.11245867
 30
0.0
 10
4.6012447957
 20
6.1173864469
 30
0.0
 10
4.6037886145
 20
6.1242398582
 30
0.0
 10
4.6057418755
 20
6.133175857
 30
0.0
 10
4.6064242045
 20
6.1426117897
 30
0.0
 10
4.6057418788
 20
6.1520477232
 30
0.0
 10
4.6037886204
 20
6.160983724
 30
0.0
 10
4.6012448034
 20
6.1678371374
 30
0.0
 10
4.5987883731
 20
6.1727649162
 30
0.0
 10
4.596828506
 20
6.1760854332
 30
0.0
 10
4.5947423764
 20
6.1790972256
 30
0.0
 10
4.5925572823
 20
6.181794066
 30
0.0
 10
4.5902964555
 20
6.184169973
 30
0.0
 10
4.5879815356
 20
6.1862208491
 30
0.0
 10
4.5856309511
 20
6.1879412332
 30
0.0
 10
4.5832615927
 20
6.1893263279
 30
0.0
 10
4.580888701
 20
6.1903688941
 30
0.0
 10
4.5792755919
 20
6.1908411805
 30
0.0
 10
4.5784786309
 20
6.1910123258
 30
0.0
  0
SPLINE
  5
324
100
AcDbEntity
  8
0
100
AcDbSpline
 62
7
  6
CONTINUOUS
 70
0
 71
3
 72
33
 73
29
 74
0
 42
0.0000001
 43
0.0000001
 44
0.0000000001
 40
0.0
 40
0.0
 40
0.0
 40
0.0
 40
0.0205845238
 40
0.0422892423
 40
0.065301002
 40
0.0897531953
 40
0.1157330971
 40
0.1432988274
 40
0.1724821179
 40
0.2032983142
 40
0.2357360546
 40
0.2697656565
 40
0.3422467857
 40
0.4196826318
 40
0.4999999478
 40
0.5803172749
 40
0.6577531338
 40
0.7302342756
 40
0.7642638857
 40
0.796701634
 40
0.827517837
 40
0.856701134
 40
0.8842668707
 40
0.9102467794
 40
0.9346989798
 40
0.9577107465
 40
0.9794154711
 40
1.0
 40
1.0
 40
1.0
 40
1.0
 10
4.5784786197
 20
5.8972112743
 30
0.0
 10
4.5792755806
 20
5.897382419
 30
0.0
 10
4.5808886896
 20
5.8978547042
 30
0.0
 10
4.5832615813
 20
5.8988972688
 30
0.0
 10
4.5856309397
 20
5.9002823618
 30
0.0
 10
4.5879815243
 20
5.9020027443
 30
0.0
 10
4.5902964445
 20
5.9040536189
 30
0.0
 10
4.5925572717
 20
5.9064295244
 30
0.0
 10
4.5947423663
 20
5.9091263634
 30
0.0
 10
4.5968284965
 20
5.9121381544
 30
0.0
 10
4.5987883642
 20
5.91545867
 30
0.0
 10
4.6012447957
 20
5.9203864469
 30
0.0
 10
4.6037886145
 20
5.9272398582
 30
0.0
 10
4.6057418755
 20
5.936175857
 30
0.0
 10
4.6064242045
 20
5.9456117897
 30
0.0
 10
4.6057418788
 20
5.9550477232
 30
0.0
 10
4.6037886204
 20
5.963983724
 30
0.0
 10
4.6012448034
 20
5.9708371374
 30
0.0
 10
4.5987883731
 20
5.9757649162
 30
0.0
 10
4.596828506
 20
5.9790854332
 30
0.0
 10
4.5947423764
 20
5.9820972256
 30
0.0
 10
4.5925572823
 20
5.984794066
 30
0.0
 10
4.5902964555
 20
5.987169973
 30
0.0
 10
4.5879815356
 20
5.9892208491
 30
0.0
 10
4.5856309511
 20
5.9909412332
 30
0.0
 10
4.5832615927
 20
5.9923263279
 30
0.0
 10
4.580888701
 20
5.9933688941
 30
0.0
 10
4.5792755919
 20
5.9938411805
 30
0.0
 10
4.5784786309
 20
5.9940123258
 30
0.0
  0
LINE
  5
325
100
AcDbEntity
  8
0
100
AcDbLine
 62
7
  6
CONTINUOUS
 10
5.2490927314
 20
4.5417301901
 11
5.2498042364
 21
4.5413614334
  0
LINE
  5
326
100
AcDbEntity
  8
0
100
AcDbLine
 62
7
  6
CONTINUOUS
 10
5.2490927314
 20
4.8862301901
 11
5.2498042364
 21
4.8858614334
  0
LINE
  5
327
100
AcDbEntity
  8
0
100
AcDbLine
 62
7
  6
CONTINUOUS
 10
4.6210159642
 20
4.8690051901
 11
4.6203044593
 21
4.8686364334
  0
LINE
  5
328
100
AcDbEntity
  8
0
100
AcDbLine
 62
7
  6
CONTINUOUS
 10
5.2490927314
 20
4.9206801901
 11
5.2498042364
 21
4.9203114334
  0
LINE
  5
329
100
AcDbEntity
  8
0
100
AcDbLine
 62
7
  6
CONTINUOUS
 10
5.2490927314
 20
4.9551301901
 11
5.2498042364
 21
4.9547614334
  0
LINE
  5
32A
100
AcDbEntity
  8
0
100
AcDbLine
 62
7
  6
CONTINUOUS
 10
5.2490927314
 20
4.9895801901
 11
5.2498042364
 21
4.9892114334
  0
LINE
  5
32B
100
AcDbEntity
  8
0
100
AcDbLine
 62
7
  6
CONTINUOUS
 10
5.2490927249
 20
5.0240301901
 11
5.2498043475
 21
5.0236614332
  0
LINE
  5
32C
100
AcDbEntity
  8
0
100
AcDbLine
 62
7
  6
CONTINUOUS
 10
4.6210159824
 20
4.9034551901
 11
4.6203044583
 21
4.9030864334
  0
LINE
  5
32D
100
AcDbEntity
  8
0
100
AcDbLine
 62
7
  6
CONTINUOUS
 10
4.6210159642
 20
4.9379051901
 11
4.6203044593
 21
4.9375364334
  0
LINE
  5
32E
100
AcDbEntity
  8
0
100
AcDbLine
 62
7
  6
CONTINUOUS
 10
4.6210159642
 20
4.9723551901
 11
4.6203044593
 21
4.9719864334
  0
LINE
  5
32F
100
AcDbEntity
  8
0
100
AcDbLine
 62
7
  6
CONTINUOUS
 10
4.6210159642
 20
5.0068051901
 11
4.6203044593
 21
5.0064364334
  0
SPLINE
  5
330
100
AcDbEntity
  8
0
100
AcDbSpline
 62
7
  6
CONTINUOUS
 70
0
 71
3
 72
30
 73
26
 74
0
 42
0.0000001
 43
0.0000001
 44
0.0000000001
 40
0.0
 40
0.0
 40
0.0
 40
0.0
 40
0.059405325
 40
0.1177172979
 40
0.1466165858
 40
0.1754103886
 40
0.2041263732
 40
0.2327927538
 40
0.2614407745
 40
0.2900848661
 40
0.3187381792
 40
0.3474273832
 40
0.3761808489
 40
0.4050205246
 40
0.4339983067
 40
0.4631687648
 40
0.5222576219
 40
0.5828381888
 40
0.6138485527
 40
0.645414506
 40
0.7103998608
 40
0.7781560981
 40
0.8489320264
 40
0.922863967
 40
1.0
 40
1.0
 40
1.0
 40
1.0
 10
5.1485592835
 20
2.522883326
 30
0.0
 10
5.1505274953
 20
2.5203648527
 30
0.0
 10
5.1541503152
 20
2.5151481691
 30
0.0
 10
5.1577915032
 20
2.5081206449
 30
0.0
 10
5.1600557476
 20
2.5022987957
 30
0.0
 10
5.1614145285
 20
2.4978477231
 30
0.0
 10
5.1624262265
 20
2.4933179447
 30
0.0
 10
5.1630764747
 20
2.4887299038
 30
0.0
 10
5.1633540181
 20
2.4841081762
 30
0.0
 10
5.1632600545
 20
2.4794797855
 30
0.0
 10
5.162791894
 20
2.4748719036
 30
0.0
 10
5.1619560271
 20
2.4703106338
 30
0.0
 10
5.1607669992
 20
2.4658182939
 30
0.0
 10
5.1592356358
 20
2.4614146663
 30
0.0
 10
5.1573786993
 20
2.4571139518
 30
0.0
 10
5.1544810969
 20
2.451506031
 30
0.0
 10
5.150102537
 20
2.4447731603
 30
0.0
 10
5.1449030767
 20
2.4385306945
 30
0.0
 10
5.1402817756
 20
2.4337784954
 30
0.0
 10
5.1352610805
 20
2.4290951422
 30
0.0
 10
5.1283887946
 20
2.4235149369
 30
0.0
 10
5.1193567291
 20
2.4173064153
 30
0.0
 10
5.1094974676
 20
2.4115034795
 30
0.0
 10
5.0988464933
 20
2.4061003598
 30
0.0
 10
5.0913992193
 20
2.4028323136
 30
0.0
 10
5.0875584922
 20
2.4012593567
 30
0.0
  0
SPLINE
  5
331
100
AcDbEntity
  8
0
100
AcDbSpline
 62
7
  6
CONTINUOUS
 70
0
 71
3
 72
30
 73
26
 74
0
 42
0.0000001
 43
0.0000001
 44
0.0000000001
 40
0.0
 40
0.0
 40
0.0
 40
0.0
 40
0.059405325
 40
0.1177172979
 40
0.1466165858
 40
0.1754103886
 40
0.2041263732
 40
0.2327927538
 40
0.2614407745
 40
0.2900848661
 40
0.3187381792
 40
0.3474273832
 40
0.3761808489
 40
0.4050205246
 40
0.4339983067
 40
0.4631687648
 40
0.5222576219
 40
0.5828381888
 40
0.6138485527
 40
0.645414506
 40
0.7103998608
 40
0.7781560981
 40
0.8489320264
 40
0.922863967
 40
1.0
 40
1.0
 40
1.0
 40
1.0
 10
5.1485592835
 20
2.6475006467
 30
0.0
 10
5.1505274953
 20
2.6449821734
 30
0.0
 10
5.1541503152
 20
2.6397654898
 30
0.0
 10
5.1577915032
 20
2.6327379656
 30
0.0
 10
5.1600557476
 20
2.6269161164
 30
0.0
 10
5.1614145285
 20
2.6224650438
 30
0.0
 10
5.1624262265
 20
2.6179352655
 30
0.0
 10
5.1630764747
 20
2.6133472245
 30
0.0
 10
5.1633540181
 20
2.6087254969
 30
0.0
 10
5.1632600545
 20
2.6040971062
 30
0.0
 10
5.162791894
 20
2.5994892243
 30
0.0
 10
5.1619560271
 20
2.5949279545
 30
0.0
 10
5.1607669992
 20
2.5904356146
 30
0.0
 10
5.1592356358
 20
2.586031987
 30
0.0
 10
5.1573786993
 20
2.5817312725
 30
0.0
 10
5.1544810969
 20
2.5761233517
 30
0.0
 10
5.150102537
 20
2.569390481
 30
0.0
 10
5.1449030767
 20
2.5631480152
 30
0.0
 10
5.1402817756
 20
2.5583958162
 30
0.0
 10
5.1352610805
 20
2.5537124629
 30
0.0
 10
5.1283887946
 20
2.5481322577
 30
0.0
 10
5.1193567291
 20
2.541923736
 30
0.0
 10
5.1094974676
 20
2.5361208002
 30
0.0
 10
5.0988464933
 20
2.5307176805
 30
0.0
 10
5.0913992193
 20
2.5274496343
 30
0.0
 10
5.0875584922
 20
2.5258766774
 30
0.0
  0
SPLINE
  5
332
100
AcDbEntity
  8
0
100
AcDbSpline
 62
7
  6
CONTINUOUS
 70
0
 71
3
 72
30
 73
26
 74
0
 42
0.0000001
 43
0.0000001
 44
0.0000000001
 40
0.0
 40
0.0
 40
0.0
 40
0.0
 40
0.059405325
 40
0.1177172979
 40
0.1466165858
 40
0.1754103886
 40
0.2041263732
 40
0.2327927538
 40
0.2614407745
 40
0.2900848661
 40
0.3187381792
 40
0.3474273832
 40
0.3761808489
 40
0.4050205246
 40
0.4339983067
 40
0.4631687648
 40
0.5222576219
 40
0.5828381888
 40
0.6138485527
 40
0.645414506
 40
0.7103998608
 40
0.7781560981
 40
0.8489320264
 40
0.922863967
 40
1.0
 40
1.0
 40
1.0
 40
1.0
 10
5.1485592835
 20
2.7721179674
 30
0.0
 10
5.1505274953
 20
2.7695994941
 30
0.0
 10
5.1541503152
 20
2.7643828105
 30
0.0
 10
5.1577915032
 20
2.7573552864
 30
0.0
 10
5.1600557476
 20
2.7515334372
 30
0.0
 10
5.1614145285
 20
2.7470823646
 30
0.0
 10
5.1624262265
 20
2.7425525862
 30
0.0
 10
5.1630764747
 20
2.7379645452
 30
0.0
 10
5.1633540181
 20
2.7333428176
 30
0.0
 10
5.1632600545
 20
2.728714427
 30
0.0
 10
5.162791894
 20
2.724106545
 30
0.0
 10
5.1619560271
 20
2.7195452753
 30
0.0
 10
5.1607669992
 20
2.7150529354
 30
0.0
 10
5.1592356358
 20
2.7106493078
 30
0.0
 10
5.1573786993
 20
2.7063485932
 30
0.0
 10
5.1544810969
 20
2.7007406724
 30
0.0
 10
5.150102537
 20
2.6940078017
 30
0.0
 10
5.1449030767
 20
2.687765336
 30
0.0
 10
5.1402817756
 20
2.6830131369
 30
0.0
 10
5.1352610805
 20
2.6783297836
 30
0.0
 10
5.1283887946
 20
2.6727495784
 30
0.0
 10
5.1193567291
 20
2.6665410567
 30
0.0
 10
5.1094974676
 20
2.660738121
 30
0.0
 10
5.0988464933
 20
2.6553350012
 30
0.0
 10
5.0913992193
 20
2.6520669551
 30
0.0
 10
5.0875584922
 20
2.6504939981
 30
0.0
  0
SPLINE
  5
333
100
AcDbEntity
  8
0
100
AcDbSpline
 62
7
  6
CONTINUOUS
 70
0
 71
3
 72
30
 73
26
 74
0
 42
0.0000001
 43
0.0000001
 44
0.0000000001
 40
0.0
 40
0.0
 40
0.0
 40
0.0
 40
0.059405325
 40
0.1177172979
 40
0.1466165858
 40
0.1754103886
 40
0.2041263732
 40
0.2327927538
 40
0.2614407745
 40
0.2900848661
 40
0.3187381792
 40
0.3474273832
 40
0.3761808489
 40
0.4050205246
 40
0.4339983067
 40
0.4631687648
 40
0.5222576219
 40
0.5828381888
 40
0.6138485527
 40
0.645414506
 40
0.7103998608
 40
0.7781560981
 40
0.8489320264
 40
0.922863967
 40
1.0
 40
1.0
 40
1.0
 40
1.0
 10
5.1485592835
 20
2.8967352881
 30
0.0
 10
5.1505274953
 20
2.8942168148
 30
0.0
 10
5.1541503152
 20
2.8890001313
 30
0.0
 10
5.1577915032
 20
2.8819726071
 30
0.0
 10
5.1600557476
 20
2.8761507579
 30
0.0
 10
5.1614145285
 20
2.8716996853
 30
0.0
 10
5.1624262265
 20
2.8671699069
 30
0.0
 10
5.1630764747
 20
2.862581866
 30
0.0
 10
5.1633540181
 20
2.8579601383
 30
0.0
 10
5.1632600545
 20
2.8533317477
 30
0.0
 10
5.162791894
 20
2.8487238657
 30
0.0
 10
5.1619560271
 20
2.844162596
 30
0.0
 10
5.1607669992
 20
2.8396702561
 30
0.0
 10
5.1592356358
 20
2.8352666285
 30
0.0
 10
5.1573786993
 20
2.830965914
 30
0.0
 10
5.1544810969
 20
2.8253579932
 30
0.0
 10
5.150102537
 20
2.8186251224
 30
0.0
 10
5.1449030767
 20
2.8123826567
 30
0.0
 10
5.1402817756
 20
2.8076304576
 30
0.0
 10
5.1352610805
 20
2.8029471043
 30
0.0
 10
5.1283887946
 20
2.7973668991
 30
0.0
 10
5.1193567291
 20
2.7911583774
 30
0.0
 10
5.1094974676
 20
2.7853554417
 30
0.0
 10
5.0988464933
 20
2.7799523219
 30
0.0
 10
5.0913992193
 20
2.7766842758
 30
0.0
 10
5.0875584922
 20
2.7751113188
 30
0.0
  0
SPLINE
  5
334
100
AcDbEntity
  8
0
100
AcDbSpline
 62
7
  6
CONTINUOUS
 70
0
 71
3
 72
30
 73
26
 74
0
 42
0.0000001
 43
0.0000001
 44
0.0000000001
 40
0.0
 40
0.0
 40
0.0
 40
0.0
 40
0.059405325
 40
0.1177172979
 40
0.1466165858
 40
0.1754103886
 40
0.2041263732
 40
0.2327927538
 40
0.2614407745
 40
0.2900848661
 40
0.3187381792
 40
0.3474273832
 40
0.3761808489
 40
0.4050205246
 40
0.4339983067
 40
0.4631687648
 40
0.5222576219
 40
0.5828381888
 40
0.6138485527
 40
0.645414506
 40
0.7103998608
 40
0.7781560981
 40
0.8489320264
 40
0.922863967
 40
1.0
 40
1.0
 40
1.0
 40
1.0
 10
5.1485592835
 20
3.0213526089
 30
0.0
 10
5.1505274953
 20
3.0188341356
 30
0.0
 10
5.1541503152
 20
3.013617452
 30
0.0
 10
5.1577915032
 20
3.0065899278
 30
0.0
 10
5.1600557476
 20
3.0007680786
 30
0.0
 10
5.1614145285
 20
2.996317006
 30
0.0
 10
5.1624262265
 20
2.9917872276
 30
0.0
 10
5.1630764747
 20
2.9871991867
 30
0.0
 10
5.1633540181
 20
2.982577459
 30
0.0
 10
5.1632600545
 20
2.9779490684
 30
0.0
 10
5.162791894
 20
2.9733411864
 30
0.0
 10
5.1619560271
 20
2.9687799167
 30
0.0
 10
5.1607669992
 20
2.9642875768
 30
0.0
 10
5.1592356358
 20
2.9598839492
 30
0.0
 10
5.1573786993
 20
2.9555832347
 30
0.0
 10
5.1544810969
 20
2.9499753139
 30
0.0
 10
5.150102537
 20
2.9432424431
 30
0.0
 10
5.1449030767
 20
2.9369999774
 30
0.0
 10
5.1402817756
 20
2.9322477783
 30
0.0
 10
5.1352610805
 20
2.927564425
 30
0.0
 10
5.1283887946
 20
2.9219842198
 30
0.0
 10
5.1193567291
 20
2.9157756981
 30
0.0
 10
5.1094974676
 20
2.9099727624
 30
0.0
 10
5.0988464933
 20
2.9045696427
 30
0.0
 10
5.0913992193
 20
2.9013015965
 30
0.0
 10
5.0875584922
 20
2.8997286395
 30
0.0
  0
SPLINE
  5
335
100
AcDbEntity
  8
0
100
AcDbSpline
 62
7
  6
CONTINUOUS
 70
0
 71
3
 72
26
 73
22
 74
0
 42
0.0000001
 43
0.0000001
 44
0.0000000001
 40
0.0
 40
0.0
 40
0.0
 40
0.0
 40
0.0771482092
 40
0.1510917526
 40
0.2218789761
 40
0.2896460536
 40
0.354640153
 40
0.3862092675
 40
0.4172239934
 40
0.4778110122
 40
0.5369135648
 40
0.5950302947
 40
0.6525988874
 40
0.6812907862
 40
0.7099528428
 40
0.7672095809
 40
0.8245618411
 40
0.8533598873
 40
0.8822639979
 40
0.9405859871
 40
1.0
 40
1.0
 40
1.0
 40
1.0
 10
4.782548784
 20
3.0243465416
 30
0.0
 10
4.7787086489
 20
3.0259192875
 30
0.0
 10
4.7712625048
 20
3.0291868387
 30
0.0
 10
4.7606131407
 20
3.034589132
 30
0.0
 10
4.750755193
 20
3.0403909154
 30
0.0
 10
4.7417245019
 20
3.0465983738
 30
0.0
 10
4.7348529147
 20
3.0521770231
 30
0.0
 10
4.7298329929
 20
3.0568594165
 30
0.0
 10
4.72521228
 20
3.0616102332
 30
0.0
 10
4.7200121051
 20
3.06785145
 30
0.0
 10
4.7147838605
 20
3.0758894015
 30
0.0
 10
4.7107266959
 20
3.0844035216
 30
0.0
 10
4.7084353022
 20
3.0918577232
 30
0.0
 10
4.7073184929
 20
3.0979434406
 30
0.0
 10
4.706694958
 20
3.1040823572
 30
0.0
 10
4.7068435235
 20
3.1118233843
 30
0.0
 10
4.7082402515
 20
3.1194442336
 30
0.0
 10
4.7100469538
 20
3.125368382
 30
0.0
 10
4.712309604
 20
3.131190196
 30
0.0
 10
4.7159478621
 20
3.1382177403
 30
0.0
 10
4.7195690107
 20
3.1434344991
 30
0.0
 10
4.7215362699
 20
3.145953056
 30
0.0
  0
SPLINE
  5
336
100
AcDbEntity
  8
0
100
AcDbSpline
 62
7
  6
CONTINUOUS
 70
0
 71
3
 72
29
 73
25
 74
0
 42
0.0000001
 43
0.0000001
 44
0.0000000001
 40
0.0
 40
0.0
 40
0.0
 40
0.0
 40
0.0771394863
 40
0.1510752571
 40
0.221855407
 40
0.2896161897
 40
0.3546061317
 40
0.3861738707
 40
0.4171864976
 40
0.4777707704
 40
0.5368644974
 40
0.5660355668
 40
0.5950127772
 40
0.6238560369
 40
0.6526103122
 40
0.6812988331
 40
0.7099546407
 40
0.7386003563
 40
0.7672479528
 40
0.8245898492
 40
0.8533824696
 40
0.8822823359
 40
0.9405952898
 40
1.0
 40
1.0
 40
1.0
 40
1.0
 10
4.7825533246
 20
2.4012580797
 30
0.0
 10
4.7787132957
 20
2.4028306924
 30
0.0
 10
4.7712673218
 20
2.4060979816
 30
0.0
 10
4.7606181125
 20
2.4114998139
 30
0.0
 10
4.7507602127
 20
2.4173011694
 30
0.0
 10
4.7417293023
 20
2.4235081342
 30
0.0
 10
4.7348574724
 20
2.4290865651
 30
0.0
 10
4.7298370994
 20
2.4337686146
 30
0.0
 10
4.7252159621
 20
2.4385193978
 30
0.0
 10
4.720015965
 20
2.4447597266
 30
0.0
 10
4.7156369883
 20
2.4514906684
 30
0.0
 10
4.7127381302
 20
2.4570965726
 30
0.0
 10
4.7108801844
 20
2.4613958965
 30
0.0
 10
4.7093482093
 20
2.4657983754
 30
0.0
 10
4.708157333
 20
2.4702892849
 30
0.0
 10
4.7073196509
 20
2.4748493273
 30
0.0
 10
4.7068506674
 20
2.4794561406
 30
0.0
 10
4.706754017
 20
2.4840838558
 30
0.0
 10
4.7071210285
 20
2.4902448135
 30
0.0
 10
4.7082378095
 20
2.4963485968
 30
0.0
 10
4.7100436
 20
2.5022718444
 30
0.0
 10
4.7123051203
 20
2.5080936638
 30
0.0
 10
4.7159418262
 20
2.5151212675
 30
0.0
 10
4.7195620074
 20
2.5203381185
 30
0.0
 10
4.7215287413
 20
2.5228567638
 30
0.0
  0
SPLINE
  5
337
100
AcDbEntity
  8
0
100
AcDbSpline
 62
7
  6
CONTINUOUS
 70
0
 71
3
 72
29
 73
25
 74
0
 42
0.0000001
 43
0.0000001
 44
0.0000000001
 40
0.0
 40
0.0
 40
0.0
 40
0.0
 40
0.0771394863
 40
0.1510752571
 40
0.221855407
 40
0.2896161897
 40
0.3546061317
 40
0.3861738707
 40
0.4171864976
 40
0.4777707704
 40
0.5368644974
 40
0.5660355668
 40
0.5950127772
 40
0.6238560369
 40
0.6526103122
 40
0.6812988331
 40
0.7099546407
 40
0.7386003563
 40
0.7672479528
 40
0.8245898492
 40
0.8533824696
 40
0.8822823359
 40
0.9405952898
 40
1.0
 40
1.0
 40
1.0
 40
1.0
 10
4.7825533246
 20
2.5258754004
 30
0.0
 10
4.7787132957
 20
2.5274480131
 30
0.0
 10
4.7712673218
 20
2.5307153023
 30
0.0
 10
4.7606181125
 20
2.5361171347
 30
0.0
 10
4.7507602127
 20
2.5419184901
 30
0.0
 10
4.7417293023
 20
2.548125455
 30
0.0
 10
4.7348574724
 20
2.5537038858
 30
0.0
 10
4.7298370994
 20
2.5583859353
 30
0.0
 10
4.7252159621
 20
2.5631367185
 30
0.0
 10
4.720015965
 20
2.5693770473
 30
0.0
 10
4.7156369883
 20
2.5761079891
 30
0.0
 10
4.7127381302
 20
2.5817138933
 30
0.0
 10
4.7108801844
 20
2.5860132172
 30
0.0
 10
4.7093482093
 20
2.5904156961
 30
0.0
 10
4.708157333
 20
2.5949066056
 30
0.0
 10
4.7073196509
 20
2.599466648
 30
0.0
 10
4.7068506674
 20
2.6040734614
 30
0.0
 10
4.706754017
 20
2.6087011765
 30
0.0
 10
4.7071210285
 20
2.6148621342
 30
0.0
 10
4.7082378095
 20
2.6209659175
 30
0.0
 10
4.7100436
 20
2.6268891651
 30
0.0
 10
4.7123051203
 20
2.6327109845
 30
0.0
 10
4.7159418262
 20
2.6397385883
 30
0.0
 10
4.7195620074
 20
2.6449554392
 30
0.0
 10
4.7215287413
 20
2.6474740845
 30
0.0
  0
SPLINE
  5
338
100
AcDbEntity
  8
0
100
AcDbSpline
 62
7
  6
CONTINUOUS
 70
0
 71
3
 72
29
 73
25
 74
0
 42
0.0000001
 43
0.0000001
 44
0.0000000001
 40
0.0
 40
0.0
 40
0.0
 40
0.0
 40
0.0771394863
 40
0.1510752571
 40
0.221855407
 40
0.2896161897
 40
0.3546061317
 40
0.3861738707
 40
0.4171864976
 40
0.4777707704
 40
0.5368644974
 40
0.5660355668
 40
0.5950127772
 40
0.6238560369
 40
0.6526103122
 40
0.6812988331
 40
0.7099546407
 40
0.7386003563
 40
0.7672479528
 40
0.8245898492
 40
0.8533824696
 40
0.8822823359
 40
0.9405952898
 40
1.0
 40
1.0
 40
1.0
 40
1.0
 10
4.7825533246
 20
2.6504927211
 30
0.0
 10
4.7787132957
 20
2.6520653339
 30
0.0
 10
4.7712673218
 20
2.655332623
 30
0.0
 10
4.7606181125
 20
2.6607344554
 30
0.0
 10
4.7507602127
 20
2.6665358109
 30
0.0
 10
4.7417293023
 20
2.6727427757
 30
0.0
 10
4.7348574724
 20
2.6783212066
 30
0.0
 10
4.7298370994
 20
2.683003256
 30
0.0
 10
4.7252159621
 20
2.6877540392
 30
0.0
 10
4.720015965
 20
2.693994368
 30
0.0
 10
4.7156369883
 20
2.7007253098
 30
0.0
 10
4.7127381302
 20
2.706331214
 30
0.0
 10
4.7108801844
 20
2.7106305379
 30
0.0
 10
4.7093482093
 20
2.7150330168
 30
0.0
 10
4.708157333
 20
2.7195239263
 30
0.0
 10
4.7073196509
 20
2.7240839687
 30
0.0
 10
4.7068506674
 20
2.7286907821
 30
0.0
 10
4.706754017
 20
2.7333184972
 30
0.0
 10
4.7071210285
 20
2.7394794549
 30
0.0
 10
4.7082378095
 20
2.7455832383
 30
0.0
 10
4.7100436
 20
2.7515064858
 30
0.0
 10
4.7123051203
 20
2.7573283053
 30
0.0
 10
4.7159418262
 20
2.764355909
 30
0.0
 10
4.7195620074
 20
2.7695727599
 30
0.0
 10
4.7215287413
 20
2.7720914052
 30
0.0
  0
SPLINE
  5
339
100
AcDbEntity
  8
0
100
AcDbSpline
 62
7
  6
CONTINUOUS
 70
0
 71
3
 72
29
 73
25
 74
0
 42
0.0000001
 43
0.0000001
 44
0.0000000001
 40
0.0
 40
0.0
 40
0.0
 40
0.0
 40
0.0771394863
 40
0.1510752571
 40
0.221855407
 40
0.2896161897
 40
0.3546061317
 40
0.3861738707
 40
0.4171864976
 40
0.4777707704
 40
0.5368644974
 40
0.5660355668
 40
0.5950127772
 40
0.6238560369
 40
0.6526103122
 40
0.6812988331
 40
0.7099546407
 40
0.7386003563
 40
0.7672479528
 40
0.8245898492
 40
0.8533824696
 40
0.8822823359
 40
0.9405952898
 40
1.0
 40
1.0
 40
1.0
 40
1.0
 10
4.7825533246
 20
2.7751100418
 30
0.0
 10
4.7787132957
 20
2.7766826546
 30
0.0
 10
4.7712673218
 20
2.7799499437
 30
0.0
 10
4.7606181125
 20
2.7853517761
 30
0.0
 10
4.7507602127
 20
2.7911531316
 30
0.0
 10
4.7417293023
 20
2.7973600964
 30
0.0
 10
4.7348574724
 20
2.8029385273
 30
0.0
 10
4.7298370994
 20
2.8076205767
 30
0.0
 10
4.7252159621
 20
2.8123713599
 30
0.0
 10
4.720015965
 20
2.8186116887
 30
0.0
 10
4.7156369883
 20
2.8253426305
 30
0.0
 10
4.7127381302
 20
2.8309485347
 30
0.0
 10
4.7108801844
 20
2.8352478586
 30
0.0
 10
4.7093482093
 20
2.8396503376
 30
0.0
 10
4.708157333
 20
2.8441412471
 30
0.0
 10
4.7073196509
 20
2.8487012894
 30
0.0
 10
4.7068506674
 20
2.8533081028
 30
0.0
 10
4.706754017
 20
2.8579358179
 30
0.0
 10
4.7071210285
 20
2.8640967756
 30
0.0
 10
4.7082378095
 20
2.870200559
 30
0.0
 10
4.7100436
 20
2.8761238065
 30
0.0
 10
4.7123051203
 20
2.881945626
 30
0.0
 10
4.7159418262
 20
2.8889732297
 30
0.0
 10
4.7195620074
 20
2.8941900806
 30
0.0
 10
4.7215287413
 20
2.8967087259
 30
0.0
  0
SPLINE
  5
33A
100
AcDbEntity
  8
0
100
AcDbSpline
 62
7
  6
CONTINUOUS
 70
0
 71
3
 72
29
 73
25
 74
0
 42
0.0000001
 43
0.0000001
 44
0.0000000001
 40
0.0
 40
0.0
 40
0.0
 40
0.0
 40
0.0771394863
 40
0.1510752571
 40
0.221855407
 40
0.2896161897
 40
0.3546061317
 40
0.3861738707
 40
0.4171864976
 40
0.4777707704
 40
0.5368644974
 40
0.5660355668
 40
0.5950127772
 40
0.6238560369
 40
0.6526103122
 40
0.6812988331
 40
0.7099546407
 40
0.7386003563
 40
0.7672479528
 40
0.8245898492
 40
0.8533824696
 40
0.8822823359
 40
0.9405952898
 40
1.0
 40
1.0
 40
1.0
 40
1.0
 10
4.7825533246
 20
2.8997273625
 30
0.0
 10
4.7787132957
 20
2.9012999753
 30
0.0
 10
4.7712673218
 20
2.9045672644
 30
0.0
 10
4.7606181125
 20
2.9099690968
 30
0.0
 10
4.7507602127
 20
2.9157704523
 30
0.0
 10
4.7417293023
 20
2.9219774171
 30
0.0
 10
4.7348574724
 20
2.927555848
 30
0.0
 10
4.7298370994
 20
2.9322378975
 30
0.0
 10
4.7252159621
 20
2.9369886806
 30
0.0
 10
4.720015965
 20
2.9432290095
 30
0.0
 10
4.7156369883
 20
2.9499599513
 30
0.0
 10
4.7127381302
 20
2.9555658554
 30
0.0
 10
4.7108801844
 20
2.9598651793
 30
0.0
 10
4.7093482093
 20
2.9642676583
 30
0.0
 10
4.708157333
 20
2.9687585678
 30
0.0
 10
4.7073196509
 20
2.9733186101
 30
0.0
 10
4.7068506674
 20
2.9779254235
 30
0.0
 10
4.706754017
 20
2.9825531386
 30
0.0
 10
4.7071210285
 20
2.9887140964
 30
0.0
 10
4.7082378095
 20
2.9948178797
 30
0.0
 10
4.7100436
 20
3.0007411272
 30
0.0
 10
4.7123051203
 20
3.0065629467
 30
0.0
 10
4.7159418262
 20
3.0135905504
 30
0.0
 10
4.7195620074
 20
3.0188074013
 30
0.0
 10
4.7215287413
 20
3.0213260466
 30
0.0
  0
LINE
  5
33B
100
AcDbEntity
  8
0
100
AcDbLine
 62
7
  6
CONTINUOUS
 10
4.6203043967
 20
4.547912169
 11
4.62101597
 21
4.5475434124
  0
LINE
  5
33C
100
AcDbEntity
  8
0
100
AcDbLine
 62
7
  6
CONTINUOUS
 10
5.2490927314
 20
5.0584801901
 11
5.2498042364
 21
5.0581114334
  0
LINE
  5
33D
100
AcDbEntity
  8
0
100
AcDbLine
 62
7
  6
CONTINUOUS
 10
5.2490927314
 20
5.0929301901
 11
5.2498042364
 21
5.0925614334
  0
LINE
  5
33E
100
AcDbEntity
  8
0
100
AcDbLine
 62
7
  6
CONTINUOUS
 10
5.2490927314
 20
5.1273801901
 11
5.2498042364
 21
5.1270114334
  0
LINE
  5
33F
100
AcDbEntity
  8
0
100
AcDbLine
 62
7
  6
CONTINUOUS
 10
4.6210159642
 20
5.0412551901
 11
4.6203044593
 21
5.0408864334
  0
LINE
  5
340
100
AcDbEntity
  8
0
100
AcDbLine
 62
7
  6
CONTINUOUS
 10
4.6210159642
 20
5.0757051901
 11
4.6203044593
 21
5.0753364334
  0
LINE
  5
341
100
AcDbEntity
  8
0
100
AcDbLine
 62
7
  6
CONTINUOUS
 10
4.6210159642
 20
5.1101551901
 11
4.6203044593
 21
5.1097864334
  0
LINE
  5
342
100
AcDbEntity
  8
0
100
AcDbLine
 62
7
  6
CONTINUOUS
 10
4.6210159642
 20
5.1446051901
 11
4.6203044593
 21
5.1442364334
  0
LINE
  5
343
100
AcDbEntity
  8
0
100
AcDbLine
 62
7
  6
CONTINUOUS
 10
4.6210159642
 20
5.3168551901
 11
4.6203044593
 21
5.3164864334
  0
LINE
  5
344
100
AcDbEntity
  8
0
100
AcDbLine
 62
7
  6
CONTINUOUS
 10
5.2490927314
 20
5.2996301901
 11
5.2498042364
 21
5.2992614334
  0
LINE
  5
345
100
AcDbEntity
  8
0
100
AcDbLine
 62
7
  6
CONTINUOUS
 10
5.2490927523
 20
5.1618301901
 11
5.2498042543
 21
5.1614614334
  0
LINE
  5
346
100
AcDbEntity
  8
0
100
AcDbLine
 62
7
  6
CONTINUOUS
 10
5.2490927314
 20
5.1962801901
 11
5.2498042364
 21
5.1959114334
  0
LINE
  5
347
100
AcDbEntity
  8
0
100
AcDbLine
 62
7
  6
CONTINUOUS
 10
5.2490927314
 20
5.2307301901
 11
5.2498042364
 21
5.2303614334
  0
LINE
  5
348
100
AcDbEntity
  8
0
100
AcDbLine
 62
7
  6
CONTINUOUS
 10
5.2490927314
 20
5.2651801901
 11
5.2498042364
 21
5.2648114334
  0
LINE
  5
349
100
AcDbEntity
  8
0
100
AcDbLine
 62
7
  6
CONTINUOUS
 10
4.6210159642
 20
5.1790551901
 11
4.6203044593
 21
5.1786864334
  0
LINE
  5
34A
100
AcDbEntity
  8
0
100
AcDbLine
 62
7
  6
CONTINUOUS
 10
4.6210159642
 20
5.2135051901
 11
4.6203044593
 21
5.2131364334
  0
LINE
  5
34B
100
AcDbEntity
  8
0
100
AcDbLine
 62
7
  6
CONTINUOUS
 10
4.6210159642
 20
5.2479551901
 11
4.6203044593
 21
5.2475864334
  0
LINE
  5
34C
100
AcDbEntity
  8
0
100
AcDbLine
 62
7
  6
CONTINUOUS
 10
4.6210161108
 20
5.2824051901
 11
4.6203043565
 21
5.2820364334
  0
SPLINE
  5
34D
100
AcDbEntity
  8
0
100
AcDbSpline
 62
7
  6
CONTINUOUS
 70
0
 71
3
 72
30
 73
26
 74
0
 42
0.0000001
 43
0.0000001
 44
0.0000000001
 40
0.0
 40
0.0
 40
0.0
 40
0.0
 40
0.0594010963
 40
0.1177087397
 40
0.1466087024
 40
0.1754040073
 40
0.2041193129
 40
0.2327863203
 40
0.2614360416
 40
0.2900814791
 40
0.3187354739
 40
0.3474253442
 40
0.3761807565
 40
0.4050225094
 40
0.4339994851
 40
0.4631701965
 40
0.5222606067
 40
0.5828393767
 40
0.6138489744
 40
0.6454139481
 40
0.7103982985
 40
0.7781552832
 40
0.8489318365
 40
0.9228640334
 40
1.0
 40
1.0
 40
1.0
 40
1.0
 10
5.1485757698
 20
3.1459489536
 30
0.0
 10
5.1505426982
 20
3.1434304571
 30
0.0
 10
5.1541626148
 20
3.1382136701
 30
0.0
 10
5.1578012772
 20
3.1311868115
 30
0.0
 10
5.1600625545
 20
3.1253650607
 30
0.0
 10
5.1614196322
 20
3.1209142352
 30
0.0
 10
5.1624300331
 20
3.116384885
 30
0.0
 10
5.1630781939
 20
3.1117972465
 30
0.0
 10
5.1633541087
 20
3.1071760297
 30
0.0
 10
5.1632588861
 20
3.1025482548
 30
0.0
 10
5.162789448
 20
3.0979411439
 30
0.0
 10
5.1619521504
 20
3.0933807572
 30
0.0
 10
5.1607619715
 20
3.088889295
 30
0.0
 10
5.1592300665
 20
3.0844865149
 30
0.0
 10
5.1573723208
 20
3.0801869192
 30
0.0
 10
5.1544737699
 20
3.0745806513
 30
0.0
 10
5.1500950453
 20
3.0678495441
 30
0.0
 10
5.1448955017
 20
3.0616090175
 30
0.0
 10
5.1402746238
 20
3.0568582565
 30
0.0
 10
5.1352545365
 20
3.0521761854
 30
0.0
 10
5.1283831619
 20
3.0465973621
 30
0.0
 10
5.1193523295
 20
3.0403903151
 30
0.0
 10
5.109494561
 20
3.0345885208
 30
0.0
 10
5.0988452884
 20
3.0291864488
 30
0.0
 10
5.0913992772
 20
3.0259189519
 30
0.0
 10
5.0875592124
 20
3.0243462525
 30
0.0
  0
SPLINE
  5
34E
100
AcDbEntity
  8
0
100
AcDbSpline
 62
7
  6
CONTINUOUS
 70
0
 71
3
 72
39
 73
35
 74
0
 42
0.0000001
 43
0.0000001
 44
0.0000000001
 40
0.0
 40
0.0
 40
0.0
 40
0.0
 40
0.000522443
 40
0.0007225193
 40
0.0009552567
 40
0.0015233136
 40
0.0022329777
 40
0.0030871452
 40
0.0040873247
 40
0.0052343691
 40
0.0079707117
 40
0.0112981435
 40
0.0152168847
 40
0.0197258015
 40
0.0305042131
 40
0.0436114798
 40
0.0590180463
 40
0.0766875226
 40
0.0965788924
 40
0.1186437664
 40
0.1428305587
 40
0.1690801068
 40
0.1973305283
 40
0.2275130044
 40
0.2595556403
 40
0.2933809986
 40
0.3660507836
 40
0.4448230863
 40
0.5289400226
 40
0.6175916474
 40
0.7099254491
 40
0.8050502783
 40
0.9020555645
 40
1.0
 40
1.0
 40
1.0
 40
1.0
 10
5.2498042364
 20
5.1270114334
 30
0.0
 10
5.2498042364
 20
5.1269565722
 30
0.0
 10
5.2497372975
 20
5.1268921762
 30
0.0
 10
5.249653979
 20
5.126840968
 30
0.0
 10
5.2495596833
 20
5.126792744
 30
0.0
 10
5.2494120562
 20
5.1267351001
 30
0.0
 10
5.2491979382
 20
5.1266688394
 30
0.0
 10
5.2489369612
 20
5.1266025004
 30
0.0
 10
5.2486288467
 20
5.1265358635
 30
0.0
 10
5.2481247989
 20
5.1264412041
 30
0.0
 10
5.2473762757
 20
5.1263257469
 30
0.0
 10
5.2463363804
 20
5.1261931586
 30
0.0
 10
5.245109123
 20
5.1260600989
 30
0.0
 10
5.2431011771
 20
5.1258707548
 30
0.0
 10
5.2401282502
 20
5.1256401004
 30
0.0
 10
5.2360106702
 20
5.1253751478
 30
0.0
 10
5.2311682477
 20
5.1251092389
 30
0.0
 10
5.2256125659
 20
5.1248425096
 30
0.0
 10
5.2193570137
 20
5.124575319
 30
0.0
 10
5.2124165454
 20
5.1243077429
 30
0.0
 10
5.2048079715
 20
5.1240399311
 30
0.0
 10
5.1965494995
 20
5.1237719013
 30
0.0
 10
5.1876611253
 20
5.1235037374
 30
0.0
 10
5.1781641713
 20
5.1232354429
 30
0.0
 10
5.1680815828
 20
5.1229670553
 30
0.0
 10
5.1535385008
 20
5.1226002779
 30
0.0
 10
5.1340890688
 20
5.1221454009
 30
0.0
 10
5.1093590331
 20
5.121611076
 30
0.0
 10
5.0829504064
 20
5.1210762992
 30
0.0
 10
5.0551174341
 20
5.120541169
 30
0.0
 10
5.0261283356
 20
5.1200058015
 30
0.0
 10
4.9962618871
 20
5.1194702616
 30
0.0
 10
4.9658061815
 20
5.118934622
 30
0.0
 10
4.945337827
 20
5.1185780697
 30
0.0
 10
4.9350543478
 20
5.1183989334
 30
0.0
  0
SPLINE
  5
34F
100
AcDbEntity
  8
0
100
AcDbSpline
 62
7
  6
CONTINUOUS
 70
0
 71
3
 72
39
 73
35
 74
0
 42
0.0000001
 43
0.0000001
 44
0.0000000001
 40
0.0
 40
0.0
 40
0.0
 40
0.0
 40
0.000522443
 40
0.0007225193
 40
0.0009552567
 40
0.0015233136
 40
0.0022329777
 40
0.0030871452
 40
0.0040873247
 40
0.0052343691
 40
0.0079707117
 40
0.0112981435
 40
0.0152168847
 40
0.0197258015
 40
0.0305042131
 40
0.0436114798
 40
0.0590180463
 40
0.0766875226
 40
0.0965788924
 40
0.1186437664
 40
0.1428305587
 40
0.1690801068
 40
0.1973305283
 40
0.2275130044
 40
0.2595556403
 40
0.2933809986
 40
0.3660507836
 40
0.4448230863
 40
0.5289400226
 40
0.6175916474
 40
0.7099254491
 40
0.8050502783
 40
0.9020555645
 40
1.0
 40
1.0
 40
1.0
 40
1.0
 10
5.2498042364
 20
5.0925614334
 30
0.0
 10
5.2498042364
 20
5.0925065722
 30
0.0
 10
5.2497372975
 20
5.0924421762
 30
0.0
 10
5.249653979
 20
5.092390968
 30
0.0
 10
5.2495596833
 20
5.092342744
 30
0.0
 10
5.2494120562
 20
5.0922851001
 30
0.0
 10
5.2491979382
 20
5.0922188394
 30
0.0
 10
5.2489369612
 20
5.0921525004
 30
0.0
 10
5.2486288467
 20
5.0920858635
 30
0.0
 10
5.2481247989
 20
5.0919912041
 30
0.0
 10
5.2473762757
 20
5.0918757469
 30
0.0
 10
5.2463363804
 20
5.0917431586
 30
0.0
 10
5.245109123
 20
5.0916100989
 30
0.0
 10
5.2431011771
 20
5.0914207548
 30
0.0
 10
5.2401282502
 20
5.0911901004
 30
0.0
 10
5.2360106702
 20
5.0909251478
 30
0.0
 10
5.2311682477
 20
5.0906592389
 30
0.0
 10
5.2256125659
 20
5.0903925096
 30
0.0
 10
5.2193570137
 20
5.090125319
 30
0.0
 10
5.2124165454
 20
5.0898577429
 30
0.0
 10
5.2048079715
 20
5.0895899311
 30
0.0
 10
5.1965494995
 20
5.0893219013
 30
0.0
 10
5.1876611253
 20
5.0890537374
 30
0.0
 10
5.1781641713
 20
5.0887854429
 30
0.0
 10
5.1680815828
 20
5.0885170553
 30
0.0
 10
5.1535385008
 20
5.0881502779
 30
0.0
 10
5.1340890688
 20
5.0876954009
 30
0.0
 10
5.1093590331
 20
5.087161076
 30
0.0
 10
5.0829504064
 20
5.0866262992
 30
0.0
 10
5.0551174341
 20
5.086091169
 30
0.0
 10
5.0261283356
 20
5.0855558015
 30
0.0
 10
4.9962618871
 20
5.0850202616
 30
0.0
 10
4.9658061815
 20
5.084484622
 30
0.0
 10
4.945337827
 20
5.0841280697
 30
0.0
 10
4.9350543478
 20
5.0839489334
 30
0.0
  0
SPLINE
  5
350
100
AcDbEntity
  8
0
100
AcDbSpline
 62
7
  6
CONTINUOUS
 70
0
 71
3
 72
15
 73
11
 74
0
 42
0.0000001
 43
0.0000001
 44
0.0000000001
 40
0.0
 40
0.0
 40
0.0
 40
0.0
 40
0.2184797565
 40
0.4090474033
 40
0.571887543
 40
0.7073134491
 40
0.8158949812
 40
0.8604687428
 40
0.8988609118
 40
1.0
 40
1.0
 40
1.0
 40
1.0
 10
4.6422022845
 20
5.3011118012
 30
0.0
 10
4.6420812268
 20
5.3010897865
 30
0.0
 10
4.6418549825
 20
5.3010462799
 30
0.0
 10
4.6415404535
 20
5.3009766624
 30
0.0
 10
4.6412739851
 20
5.3009073269
 30
0.0
 10
4.6410552917
 20
5.3008380693
 30
0.0
 10
4.6409044635
 20
5.3007778101
 30
0.0
 10
4.6408081599
 20
5.3007274474
 30
0.0
 10
4.6407224572
 20
5.3006736194
 30
0.0
 10
4.6406544709
 20
5.3006062607
 30
0.0
 10
4.6406544
 20
5.3005493013
 30
0.0
  0
SPLINE
  5
351
100
AcDbEntity
  8
0
100
AcDbSpline
 62
7
  6
CONTINUOUS
 70
0
 71
3
 72
39
 73
35
 74
0
 42
0.0000001
 43
0.0000001
 44
0.0000000001
 40
0.0
 40
0.0
 40
0.0
 40
0.0
 40
0.000522443
 40
0.0007225193
 40
0.0009552567
 40
0.0015233136
 40
0.0022329777
 40
0.0030871452
 40
0.0040873247
 40
0.0052343691
 40
0.0079707117
 40
0.0112981435
 40
0.0152168847
 40
0.0197258015
 40
0.0305042131
 40
0.0436114798
 40
0.0590180463
 40
0.0766875226
 40
0.0965788924
 40
0.1186437664
 40
0.1428305587
 40
0.1690801068
 40
0.1973305283
 40
0.2275130044
 40
0.2595556403
 40
0.2933809986
 40
0.3660507836
 40
0.4448230863
 40
0.5289400226
 40
0.6175916474
 40
0.7099254491
 40
0.8050502783
 40
0.9020555645
 40
1.0
 40
1.0
 40
1.0
 40
1.0
 10
5.2498042364
 20
5.0581114334
 30
0.0
 10
5.2498042364
 20
5.0580565722
 30
0.0
 10
5.2497372975
 20
5.0579921762
 30
0.0
 10
5.249653979
 20
5.057940968
 30
0.0
 10
5.2495596833
 20
5.057892744
 30
0.0
 10
5.2494120562
 20
5.0578351001
 30
0.0
 10
5.2491979382
 20
5.0577688394
 30
0.0
 10
5.2489369612
 20
5.0577025004
 30
0.0
 10
5.2486288467
 20
5.0576358635
 30
0.0
 10
5.2481247989
 20
5.0575412041
 30
0.0
 10
5.2473762757
 20
5.0574257469
 30
0.0
 10
5.2463363804
 20
5.0572931586
 30
0.0
 10
5.245109123
 20
5.0571600989
 30
0.0
 10
5.2431011771
 20
5.0569707548
 30
0.0
 10
5.2401282502
 20
5.0567401004
 30
0.0
 10
5.2360106702
 20
5.0564751478
 30
0.0
 10
5.2311682477
 20
5.0562092389
 30
0.0
 10
5.2256125659
 20
5.0559425096
 30
0.0
 10
5.2193570137
 20
5.055675319
 30
0.0
 10
5.2124165454
 20
5.0554077429
 30
0.0
 10
5.2048079715
 20
5.0551399311
 30
0.0
 10
5.1965494995
 20
5.0548719013
 30
0.0
 10
5.1876611253
 20
5.0546037374
 30
0.0
 10
5.1781641713
 20
5.0543354429
 30
0.0
 10
5.1680815828
 20
5.0540670553
 30
0.0
 10
5.1535385008
 20
5.0537002779
 30
0.0
 10
5.1340890688
 20
5.0532454009
 30
0.0
 10
5.1093590331
 20
5.052711076
 30
0.0
 10
5.0829504064
 20
5.0521762992
 30
0.0
 10
5.0551174341
 20
5.051641169
 30
0.0
 10
5.0261283356
 20
5.0511058015
 30
0.0
 10
4.9962618871
 20
5.0505702616
 30
0.0
 10
4.9658061815
 20
5.050034622
 30
0.0
 10
4.945337827
 20
5.0496780697
 30
0.0
 10
4.9350543478
 20
5.0494989334
 30
0.0
  0
SPLINE
  5
352
100
AcDbEntity
  8
0
100
AcDbSpline
 62
7
  6
CONTINUOUS
 70
0
 71
3
 72
39
 73
35
 74
0
 42
0.0000001
 43
0.0000001
 44
0.0000000001
 40
0.0
 40
0.0
 40
0.0
 40
0.0
 40
0.0005224677
 40
0.0007225728
 40
0.0009553479
 40
0.0015235054
 40
0.0022332601
 40
0.0030874541
 40
0.0040876087
 40
0.0052345927
 40
0.0079707756
 40
0.0112981099
 40
0.0152168904
 40
0.0197257609
 40
0.0305040073
 40
0.0436113434
 40
0.0590177284
 40
0.0766872442
 40
0.0965785095
 40
0.1186433939
 40
0.1428301351
 40
0.169079624
 40
0.197330054
 40
0.2275124605
 40
0.2595551692
 40
0.293380491
 40
0.3660502426
 40
0.4448226252
 40
0.5289396223
 40
0.6175912644
 40
0.7099252065
 40
0.8050500242
 40
0.9020555653
 40
1.0
 40
1.0
 40
1.0
 40
1.0
 10
5.2498043475
 20
5.0236614332
 30
0.0
 10
5.249804347
 20
5.0236065695
 30
0.0
 10
5.2497373872
 20
5.0235421777
 30
0.0
 10
5.2496540559
 20
5.0234909751
 30
0.0
 10
5.2495597389
 20
5.0234427528
 30
0.0
 10
5.2494120846
 20
5.0233851135
 30
0.0
 10
5.2491979418
 20
5.0233188559
 30
0.0
 10
5.2489369551
 20
5.0232525159
 30
0.0
 10
5.2486288469
 20
5.0231858785
 30
0.0
 10
5.2481248255
 20
5.023091218
 30
0.0
 10
5.2473763364
 20
5.022975757
 30
0.0
 10
5.2463364641
 20
5.022843166
 30
0.0
 10
5.245109217
 20
5.02271011
 30
0.0
 10
5.2431012889
 20
5.0225207631
 30
0.0
 10
5.2401283763
 20
5.0222901058
 30
0.0
 10
5.2360108238
 20
5.0220251608
 30
0.0
 10
5.231168408
 20
5.0217592446
 30
0.0
 10
5.2256127504
 20
5.02149252
 30
0.0
 10
5.2193572023
 20
5.0212253254
 30
0.0
 10
5.2124167473
 20
5.020957751
 30
0.0
 10
5.2048081817
 20
5.0206899382
 30
0.0
 10
5.1965497181
 20
5.0204219078
 30
0.0
 10
5.187661354
 20
5.0201537446
 30
0.0
 10
5.1781643962
 20
5.0198854483
 30
0.0
 10
5.1680818083
 20
5.0196170618
 30
0.0
 10
5.1535387219
 20
5.0192502825
 30
0.0
 10
5.1340892833
 20
5.0187954058
 30
0.0
 10
5.1093592294
 20
5.0182610801
 30
0.0
 10
5.0829505788
 20
5.0177263025
 30
0.0
 10
5.0551175756
 20
5.0171911717
 30
0.0
 10
5.0261284536
 20
5.0166558037
 30
0.0
 10
4.9962619564
 20
5.0161202628
 30
0.0
 10
4.9658062167
 20
5.0155846226
 30
0.0
 10
4.9453378299
 20
5.0152280698
 30
0.0
 10
4.9350543478
 20
5.0150489334
 30
0.0
  0
SPLINE
  5
353
100
AcDbEntity
  8
0
100
AcDbSpline
 62
7
  6
CONTINUOUS
 70
0
 71
3
 72
39
 73
35
 74
0
 42
0.0000001
 43
0.0000001
 44
0.0000000001
 40
0.0
 40
0.0
 40
0.0
 40
0.0
 40
0.093478315
 40
0.1872588766
 40
0.2802719572
 40
0.3714615371
 40
0.4597895434
 40
0.5442515275
 40
0.6238869066
 40
0.6977900298
 40
0.7323267706
 40
0.7651207872
 40
0.7960794568
 40
0.8251139863
 40
0.8521428729
 40
0.8770884093
 40
0.8998810024
 40
0.9204549265
 40
0.9387534459
 40
0.9547240087
 40
0.96832361
 40
0.9795142601
 40
0.9841974928
 40
0.9882690454
 40
0.9917267195
 40
0.9945699183
 40
0.9957616387
 40
0.9968006787
 40
0.9976879085
 40
0.9984248565
 40
0.9990143719
 40
0.9992556233
 40
0.9994627422
 40
1.0
 40
1.0
 40
1.0
 40
1.0
 10
4.9751996283
 20
5.1721118012
 30
0.0
 10
4.9647679032
 20
5.1719156895
 30
0.0
 10
4.9438706694
 20
5.171525712
 30
0.0
 10
4.9125935674
 20
5.1709438756
 30
0.0
 10
4.8815719655
 20
5.1703620927
 30
0.0
 10
4.8511590553
 20
5.1697804465
 30
0.0
 10
4.8217007489
 20
5.1691990241
 30
0.0
 10
4.7935323156
 20
5.1686179537
 30
0.0
 10
4.7669742638
 20
5.1680373544
 30
0.0
 10
4.745988064
 20
5.1675436533
 30
0.0
 10
4.7302292895
 20
5.1671455306
 30
0.0
 10
4.7192626055
 20
5.1668537897
 30
0.0
 10
4.7089102756
 20
5.1665621697
 30
0.0
 10
4.6992016871
 20
5.1662706624
 30
0.0
 10
4.6901645704
 20
5.165979337
 30
0.0
 10
4.6818245287
 20
5.1656882036
 30
0.0
 10
4.6742054211
 20
5.1653973764
 30
0.0
 10
4.6673287943
 20
5.1651069138
 30
0.0
 10
4.6612143373
 20
5.1648170079
 30
0.0
 10
4.6558792447
 20
5.1645279415
 30
0.0
 10
4.6513387931
 20
5.1642399579
 30
0.0
 10
4.6480584929
 20
5.1639892672
 30
0.0
 10
4.6458417721
 20
5.1637834553
 30
0.0
 10
4.6444863107
 20
5.1636388217
 30
0.0
 10
4.6433375338
 20
5.1634947061
 30
0.0
 10
4.6425105315
 20
5.1633691934
 30
0.0
 10
4.6419535859
 20
5.1632662886
 30
0.0
 10
4.6416131214
 20
5.1631938499
 30
0.0
 10
4.6413247149
 20
5.1631217388
 30
0.0
 10
4.6410880502
 20
5.1630497146
 30
0.0
 10
4.6409248476
 20
5.1629870735
 30
0.0
 10
4.6408205253
 20
5.1629346285
 30
0.0
 10
4.6407288218
 20
5.1628791955
 30
0.0
 10
4.6406544057
 20
5.1628092671
 30
0.0
 10
4.6406544356
 20
5.1627493012
 30
0.0
  0
SPLINE
  5
354
100
AcDbEntity
  8
0
100
AcDbSpline
 62
7
  6
CONTINUOUS
 70
0
 71
3
 72
30
 73
26
 74
0
 42
0.0000001
 43
0.0000001
 44
0.0000000001
 40
0.0
 40
0.0
 40
0.0
 40
0.0
 40
0.1798524123
 40
0.2693138783
 40
0.3572205203
 40
0.4426528819
 40
0.5247199387
 40
0.6025649633
 40
0.6753757215
 40
0.7423924289
 40
0.8029162263
 40
0.8563160371
 40
0.8801673849
 40
0.9020360372
 40
0.921864012
 40
0.9396012453
 40
0.9552009291
 40
0.9686243525
 40
0.979837209
 40
0.9846062339
 40
0.9888136486
 40
0.992457282
 40
0.9955356126
 40
0.9980490162
 40
1.0
 40
1.0
 40
1.0
 40
1.0
 10
4.9751996283
 20
5.1588618012
 30
0.0
 10
4.9551819474
 20
5.1584854779
 30
0.0
 10
4.9252070046
 20
5.1579298358
 30
0.0
 10
4.8854480958
 20
5.1571851268
 30
0.0
 10
4.856198389
 20
5.1566276719
 30
0.0
 10
4.827771979
 20
5.1560703899
 30
0.0
 10
4.8004658477
 20
5.1555133754
 30
0.0
 10
4.7745650535
 20
5.1549567468
 30
0.0
 10
4.7503400655
 20
5.1544006536
 30
0.0
 10
4.7280438034
 20
5.153845374
 30
0.0
 10
4.7079090809
 20
5.1532911314
 30
0.0
 10
4.692579285
 20
5.1528146034
 30
0.0
 10
4.6815520051
 20
5.1524279104
 30
0.0
 10
4.6742604982
 20
5.1521491794
 30
0.0
 10
4.6676501444
 20
5.1518707696
 30
0.0
 10
4.6617383171
 20
5.1515928224
 30
0.0
 10
4.6565402832
 20
5.1513155489
 30
0.0
 10
4.6520696863
 20
5.1510391514
 30
0.0
 10
4.6488049507
 20
5.150799113
 30
0.0
 10
4.6465660249
 20
5.1506028222
 30
0.0
 10
4.6451679925
 20
5.1504639423
 30
0.0
 10
4.6439591889
 20
5.1503254667
 30
0.0
 10
4.6429402533
 20
5.150187639
 30
0.0
 10
4.6421117638
 20
5.1500506567
 30
0.0
 10
4.641625086
 20
5.1499479662
 30
0.0
 10
4.6414148524
 20
5.1498934618
 30
0.0
  0
SPLINE
  5
355
100
AcDbEntity
  8
0
100
AcDbSpline
 62
7
  6
CONTINUOUS
 70
0
 71
3
 72
39
 73
35
 74
0
 42
0.0000001
 43
0.0000001
 44
0.0000000001
 40
0.0
 40
0.0
 40
0.0
 40
0.0
 40
0.000522443
 40
0.0007225193
 40
0.0009552567
 40
0.0015233136
 40
0.0022329777
 40
0.0030871452
 40
0.0040873247
 40
0.0052343691
 40
0.0079707117
 40
0.0112981435
 40
0.0152168847
 40
0.0197258015
 40
0.0305042131
 40
0.0436114798
 40
0.0590180463
 40
0.0766875226
 40
0.0965788924
 40
0.1186437664
 40
0.1428305587
 40
0.1690801068
 40
0.1973305283
 40
0.2275130044
 40
0.2595556403
 40
0.2933809986
 40
0.3660507836
 40
0.4448230863
 40
0.5289400226
 40
0.6175916474
 40
0.7099254491
 40
0.8050502783
 40
0.9020555645
 40
1.0
 40
1.0
 40
1.0
 40
1.0
 10
5.2498042364
 20
4.9892114334
 30
0.0
 10
5.2498042364
 20
4.9891565722
 30
0.0
 10
5.2497372975
 20
4.9890921762
 30
0.0
 10
5.249653979
 20
4.989040968
 30
0.0
 10
5.2495596833
 20
4.988992744
 30
0.0
 10
5.2494120562
 20
4.9889351001
 30
0.0
 10
5.2491979382
 20
4.9888688394
 30
0.0
 10
5.2489369612
 20
4.9888025004
 30
0.0
 10
5.2486288467
 20
4.9887358635
 30
0.0
 10
5.2481247989
 20
4.9886412041
 30
0.0
 10
5.2473762757
 20
4.9885257469
 30
0.0
 10
5.2463363804
 20
4.9883931586
 30
0.0
 10
5.245109123
 20
4.9882600989
 30
0.0
 10
5.2431011771
 20
4.9880707548
 30
0.0
 10
5.2401282502
 20
4.9878401004
 30
0.0
 10
5.2360106702
 20
4.9875751478
 30
0.0
 10
5.2311682477
 20
4.9873092389
 30
0.0
 10
5.2256125659
 20
4.9870425096
 30
0.0
 10
5.2193570137
 20
4.986775319
 30
0.0
 10
5.2124165454
 20
4.9865077429
 30
0.0
 10
5.2048079715
 20
4.9862399311
 30
0.0
 10
5.1965494995
 20
4.9859719013
 30
0.0
 10
5.1876611253
 20
4.9857037374
 30
0.0
 10
5.1781641713
 20
4.9854354429
 30
0.0
 10
5.1680815828
 20
4.9851670553
 30
0.0
 10
5.1535385008
 20
4.9848002779
 30
0.0
 10
5.1340890688
 20
4.9843454009
 30
0.0
 10
5.1093590331
 20
4.983811076
 30
0.0
 10
5.0829504064
 20
4.9832762992
 30
0.0
 10
5.0551174341
 20
4.982741169
 30
0.0
 10
5.0261283356
 20
4.9822058015
 30
0.0
 10
4.9962618871
 20
4.9816702616
 30
0.0
 10
4.9658061815
 20
4.981134622
 30
0.0
 10
4.945337827
 20
4.9807780697
 30
0.0
 10
4.9350543478
 20
4.9805989334
 30
0.0
  0
SPLINE
  5
356
100
AcDbEntity
  8
0
100
AcDbSpline
 62
7
  6
CONTINUOUS
 70
0
 71
3
 72
39
 73
35
 74
0
 42
0.0000001
 43
0.0000001
 44
0.0000000001
 40
0.0
 40
0.0
 40
0.0
 40
0.0
 40
0.0979447629
 40
0.1949495418
 40
0.2900746204
 40
0.3824083471
 40
0.4710599898
 40
0.5551768877
 40
0.6339491784
 40
0.7066188829
 40
0.7404444305
 40
0.7724868607
 40
0.8026695547
 40
0.8309197247
 40
0.8571694862
 40
0.8813561144
 40
0.9034211022
 40
0.9233124762
 40
0.9409818631
 40
0.9563886257
 40
0.969495597
 40
0.980274373
 40
0.9847830256
 40
0.9887016093
 40
0.9920292491
 40
0.9947658123
 40
0.995912858
 40
0.9969129121
 40
0.997766886
 40
0.9984764287
 40
0.9990444936
 40
0.9992772687
 40
0.999477395
 40
1.0
 40
1.0
 40
1.0
 40
1.0
 10
4.9350543478
 20
5.3250989334
 30
0.0
 10
4.9453378619
 20
5.3252780703
 30
0.0
 10
4.9658061984
 20
5.3256346223
 30
0.0
 10
4.9962619128
 20
5.3261702621
 30
0.0
 10
5.0261283278
 20
5.3267058012
 30
0.0
 10
5.0551174479
 20
5.3272411692
 30
0.0
 10
5.0829504116
 20
5.3277762989
 30
0.0
 10
5.109359036
 20
5.3283110762
 30
0.0
 10
5.1340890592
 20
5.3288454
 30
0.0
 10
5.1535385022
 20
5.3293002803
 30
0.0
 10
5.1680815749
 20
5.3296670527
 30
0.0
 10
5.1781641849
 20
5.329935446
 30
0.0
 10
5.1876611144
 20
5.3302037338
 30
0.0
 10
5.1965495077
 20
5.3304719049
 30
0.0
 10
5.2048079591
 20
5.3307399278
 30
0.0
 10
5.2124165503
 20
5.3310077452
 30
0.0
 10
5.2193570142
 20
5.3312753184
 30
0.0
 10
5.2256125698
 20
5.3315425077
 30
0.0
 10
5.2311682631
 20
5.3318092441
 30
0.0
 10
5.2360106669
 20
5.3320751383
 30
0.0
 10
5.2401282734
 20
5.3323401141
 30
0.0
 10
5.243101182
 20
5.3325707423
 30
0.0
 10
5.2451091208
 20
5.3327600997
 30
0.0
 10
5.2463363549
 20
5.3328931665
 30
0.0
 10
5.2473762795
 20
5.3330257489
 30
0.0
 10
5.2481248494
 20
5.3331412002
 30
0.0
 10
5.2486289076
 20
5.3332358591
 30
0.0
 10
5.2489369881
 20
5.3333024962
 30
0.0
 10
5.2491979161
 20
5.3333688408
 30
0.0
 10
5.2494119989
 20
5.3334351058
 30
0.0
 10
5.2495596174
 20
5.3334927484
 30
0.0
 10
5.2496539262
 20
5.3335409688
 30
0.0
 10
5.2497372721
 20
5.3335921811
 30
0.0
 10
5.2498042598
 20
5.3336565552
 30
0.0
 10
5.2498042898
 20
5.3337114333
 30
0.0
  0
SPLINE
  5
357
100
AcDbEntity
  8
0
100
AcDbSpline
 62
7
  6
CONTINUOUS
 70
0
 71
3
 72
31
 73
27
 74
0
 42
0.0000001
 43
0.0000001
 44
0.0000000001
 40
0.0
 40
0.0
 40
0.0
 40
0.0
 40
0.2253392313
 40
0.3284299576
 40
0.4248090805
 40
0.5142782923
 40
0.5966479653
 40
0.6717387922
 40
0.7393822955
 40
0.7994375588
 40
0.851772801
 40
0.8962818672
 40
0.9328722623
 40
0.9481761208
 40
0.96147867
 40
0.972776514
 40
0.9820690877
 40
0.9859655523
 40
0.9893647375
 40
0.9922702372
 40
0.9946880432
 40
0.996628913
 40
0.9981143236
 40
0.9987009991
 40
0.9991975027
 40
1.0
 40
1.0
 40
1.0
 40
1.0
 10
4.7042654346
 20
5.3443618012
 30
0.0
 10
4.6979431214
 20
5.3441998317
 30
0.0
 10
4.6887286736
 20
5.3439528002
 30
0.0
 10
4.6768111152
 20
5.3436017017
 30
0.0
 10
4.6687057438
 20
5.3433463747
 30
0.0
 10
4.6611822345
 20
5.34309121
 30
0.0
 10
4.6542565677
 20
5.3428362222
 30
0.0
 10
4.6479439035
 20
5.3425814961
 30
0.0
 10
4.6422580609
 20
5.3423270889
 30
0.0
 10
4.6372115669
 20
5.3420731684
 30
0.0
 10
4.6328152373
 20
5.3418199884
 30
0.0
 10
4.6290786944
 20
5.3415677384
 30
0.0
 10
4.6263817813
 20
5.3413481426
 30
0.0
 10
4.6245608217
 20
5.3411678486
 30
0.0
 10
4.6234479936
 20
5.3410411672
 30
0.0
 10
4.6225051007
 20
5.3409149444
 30
0.0
 10
4.6218265218
 20
5.3408050285
 30
0.0
 10
4.6213697169
 20
5.3407149012
 30
0.0
 10
4.6210904685
 20
5.3406514714
 30
0.0
 10
4.6208539075
 20
5.3405882306
 30
0.0
 10
4.6206598069
 20
5.3405252941
 30
0.0
 10
4.6205080904
 20
5.3404626094
 30
0.0
 10
4.6204092965
 20
5.3404072115
 30
0.0
 10
4.6203536627
 20
5.3403608447
 30
0.0
 10
4.6203187901
 20
5.3403210922
 30
0.0
 10
4.6203043503
 20
5.340284692
 30
0.0
 10
4.6203043483
 20
5.3402621691
 30
0.0
  0
SPLINE
  5
358
100
AcDbEntity
  8
0
100
AcDbSpline
 62
7
  6
CONTINUOUS
 70
0
 71
3
 72
23
 73
19
 74
0
 42
0.0000001
 43
0.0000001
 44
0.0000000001
 40
0.0
 40
0.0
 40
0.0
 40
0.0
 40
0.0216665118
 40
0.0437948284
 40
0.0897116347
 40
0.1382352329
 40
0.1896351682
 40
0.2440293451
 40
0.301419099
 40
0.3617190357
 40
0.424780655
 40
0.4904083172
 40
0.5583724427
 40
0.6284199454
 40
0.7002788473
 40
0.773661202
 40
0.8482767327
 40
1.0
 40
1.0
 40
1.0
 40
1.0
 10
5.087554321
 20
3.5252220321
 30
0.0
 10
5.0875543438
 20
3.5269767378
 30
0.0
 10
5.0874207794
 20
3.5305248075
 30
0.0
 10
5.0866395566
 20
3.5377528879
 30
0.0
 10
5.0846982423
 20
3.5470180942
 30
0.0
 10
5.0810069099
 20
3.5582576711
 30
0.0
 10
5.0760197901
 20
3.5697336835
 30
0.0
 10
5.0698298657
 20
3.58142232
 30
0.0
 10
5.062529422
 20
3.5933029845
 30
0.0
 10
5.0542110453
 20
3.605355218
 30
0.0
 10
5.0449676592
 20
3.6175596632
 30
0.0
 10
5.034892203
 20
3.6298977104
 30
0.0
 10
5.0240777459
 20
3.6423518605
 30
0.0
 10
5.0126171578
 20
3.654905496
 30
0.0
 10
5.0006032157
 20
3.6675426578
 30
0.0
 10
4.9881284024
 20
3.6802484636
 30
0.0
 10
4.9709078803
 20
3.6973563376
 30
0.0
 10
4.9577282275
 20
3.7100971387
 30
0.0
 10
4.9488689989
 20
3.7186118012
 30
0.0
  0
SPLINE
  5
359
100
AcDbEntity
  8
0
100
AcDbSpline
 62
7
  6
CONTINUOUS
 70
0
 71
3
 72
39
 73
35
 74
0
 42
0.0000001
 43
0.0000001
 44
0.0000000001
 40
0.0
 40
0.0
 40
0.0
 40
0.0
 40
0.000522443
 40
0.0007225193
 40
0.0009552567
 40
0.0015233136
 40
0.0022329777
 40
0.0030871452
 40
0.0040873247
 40
0.0052343691
 40
0.0079707117
 40
0.0112981435
 40
0.0152168847
 40
0.0197258015
 40
0.0305042131
 40
0.0436114798
 40
0.0590180463
 40
0.0766875226
 40
0.0965788924
 40
0.1186437664
 40
0.1428305587
 40
0.1690801068
 40
0.1973305283
 40
0.2275130044
 40
0.2595556403
 40
0.2933809986
 40
0.3660507836
 40
0.4448230863
 40
0.5289400226
 40
0.6175916474
 40
0.7099254491
 40
0.8050502783
 40
0.9020555645
 40
1.0
 40
1.0
 40
1.0
 40
1.0
 10
5.2498042364
 20
4.9547614334
 30
0.0
 10
5.2498042364
 20
4.9547065722
 30
0.0
 10
5.2497372975
 20
4.9546421762
 30
0.0
 10
5.249653979
 20
4.954590968
 30
0.0
 10
5.2495596833
 20
4.954542744
 30
0.0
 10
5.2494120562
 20
4.9544851001
 30
0.0
 10
5.2491979382
 20
4.9544188394
 30
0.0
 10
5.2489369612
 20
4.9543525004
 30
0.0
 10
5.2486288467
 20
4.9542858635
 30
0.0
 10
5.2481247989
 20
4.9541912041
 30
0.0
 10
5.2473762757
 20
4.9540757469
 30
0.0
 10
5.2463363804
 20
4.9539431586
 30
0.0
 10
5.245109123
 20
4.9538100989
 30
0.0
 10
5.2431011771
 20
4.9536207548
 30
0.0
 10
5.2401282502
 20
4.9533901004
 30
0.0
 10
5.2360106702
 20
4.9531251478
 30
0.0
 10
5.2311682477
 20
4.9528592389
 30
0.0
 10
5.2256125659
 20
4.9525925096
 30
0.0
 10
5.2193570137
 20
4.952325319
 30
0.0
 10
5.2124165454
 20
4.9520577429
 30
0.0
 10
5.2048079715
 20
4.9517899311
 30
0.0
 10
5.1965494995
 20
4.9515219013
 30
0.0
 10
5.1876611253
 20
4.9512537374
 30
0.0
 10
5.1781641713
 20
4.9509854429
 30
0.0
 10
5.1680815828
 20
4.9507170553
 30
0.0
 10
5.1535385008
 20
4.9503502779
 30
0.0
 10
5.1340890688
 20
4.9498954009
 30
0.0
 10
5.1093590331
 20
4.949361076
 30
0.0
 10
5.0829504064
 20
4.9488262992
 30
0.0
 10
5.0551174341
 20
4.948291169
 30
0.0
 10
5.0261283356
 20
4.9477558015
 30
0.0
 10
4.9962618871
 20
4.9472202616
 30
0.0
 10
4.9658061815
 20
4.946684622
 30
0.0
 10
4.945337827
 20
4.9463280697
 30
0.0
 10
4.9350543478
 20
4.9461489334
 30
0.0
  0
SPLINE
  5
35A
100
AcDbEntity
  8
0
100
AcDbSpline
 62
7
  6
CONTINUOUS
 70
0
 71
3
 72
22
 73
18
 74
0
 42
0.0000001
 43
0.0000001
 44
0.0000000001
 40
0.0
 40
0.0
 40
0.0
 40
0.0
 40
0.1643395276
 40
0.2419594504
 40
0.3164721801
 40
0.3878605033
 40
0.4561387264
 40
0.5213498853
 40
0.5835790958
 40
0.6429507638
 40
0.6996377835
 40
0.753867553
 40
0.8059208406
 40
0.8561400493
 40
0.904921807
 40
0.9527134167
 40
1.0
 40
1.0
 40
1.0
 40
1.0
 10
5.0875825023
 20
3.0604118505
 30
0.0
 10
5.0922370691
 20
3.0624202643
 30
0.0
 10
5.0989951731
 20
3.0656107301
 30
0.0
 10
5.107549896
 20
3.0703184719
 30
0.0
 10
5.1134403726
 20
3.0739070398
 30
0.0
 10
5.1189136274
 20
3.0776123371
 30
0.0
 10
5.1239574022
 20
3.0814256053
 30
0.0
 10
5.1285595617
 20
3.0853388218
 30
0.0
 10
5.1327097107
 20
3.0893427847
 30
0.0
 10
5.1363979286
 20
3.0934288728
 30
0.0
 10
5.139615087
 20
3.09758829
 30
0.0
 10
5.1423536627
 20
3.1018115538
 30
0.0
 10
5.1446056463
 20
3.1060898656
 30
0.0
 10
5.1463652298
 20
3.1104130298
 30
0.0
 10
5.1476265661
 20
3.1147711826
 30
0.0
 10
5.1483850469
 20
3.1191525353
 30
0.0
 10
5.1485543348
 20
3.1220881301
 30
0.0
 10
5.1485543467
 20
3.1235467819
 30
0.0
  0
SPLINE
  5
35B
100
AcDbEntity
  8
0
100
AcDbSpline
 62
7
  6
CONTINUOUS
 70
0
 71
3
 72
63
 73
59
 74
0
 42
0.0000001
 43
0.0000001
 44
0.0000000001
 40
0.0
 40
0.0
 40
0.0
 40
0.0
 40
0.0001173584
 40
0.0001890694
 40
0.0002732359
 40
0.0004849649
 40
0.0007603708
 40
0.0011026622
 40
0.0015134543
 40
0.0019936474
 40
0.0025437792
 40
0.0038550305
 40
0.0054486626
 40
0.0073246413
 40
0.0094823952
 40
0.0146398621
 40
0.0209118997
 40
0.0282845069
 40
0.0367420955
 40
0.0462650878
 40
0.0568322006
 40
0.0684193214
 40
0.080999747
 40
0.0945451392
 40
0.1090238518
 40
0.1406475394
 40
0.1755806036
 40
0.213502117
 40
0.2540637448
 40
0.2968927943
 40
0.3415956342
 40
0.3877615182
 40
0.4349659924
 40
0.4827752227
 40
0.5307496984
 40
0.578448459
 40
0.62543311
 40
0.6712717564
 40
0.7155430693
 40
0.7578401429
 40
0.7977742316
 40
0.8349784885
 40
0.8691111439
 40
0.8998587843
 40
0.9269392966
 40
0.9390252638
 40
0.9501044608
 40
0.9601509904
 40
0.9691426745
 40
0.9770586042
 40
0.9838815003
 40
0.9895964321
 40
0.9920345077
 40
0.9941916133
 40
0.9960669338
 40
0.9976598772
 40
0.9989704449
 40
1.0
 40
1.0
 40
1.0
 40
1.0
 10
5.2294543392
 20
4.8911243013
 30
0.0
 10
5.2294543474
 20
4.8911012792
 30
0.0
 10
5.2294403573
 20
4.8910641552
 30
0.0
 10
5.2294058906
 20
4.8910231213
 30
0.0
 10
5.2293512021
 20
4.8909756182
 30
0.0
 10
5.2292538919
 20
4.890918694
 30
0.0
 10
5.2291043039
 20
4.8908543126
 30
0.0
 10
5.2289129879
 20
4.8907896827
 30
0.0
 10
5.2286798611
 20
4.8907247624
 30
0.0
 10
5.2284046989
 20
4.8906596517
 30
0.0
 10
5.2279547138
 20
4.8905671612
 30
0.0
 10
5.2272862178
 20
4.8904543364
 30
0.0
 10
5.2263572866
 20
4.8903247815
 30
0.0
 10
5.2252609929
 20
4.890194759
 30
0.0
 10
5.2234674365
 20
4.8900097324
 30
0.0
 10
5.2208113984
 20
4.8897843412
 30
0.0
 10
5.2171320428
 20
4.8895254564
 30
0.0
 10
5.2128040048
 20
4.8892655972
 30
0.0
 10
5.2078372994
 20
4.8890049878
 30
0.0
 10
5.2022431965
 20
4.8887438846
 30
0.0
 10
5.1960345974
 20
4.8884824388
 30
0.0
 10
5.1892257544
 20
4.8882207412
 30
0.0
 10
5.1818322789
 20
4.8879588432
 30
0.0
 10
5.1738712395
 20
4.8876968029
 30
0.0
 10
5.1621757407
 20
4.8873365655
 30
0.0
 10
5.1462853321
 20
4.8868907135
 30
0.0
 10
5.1257965723
 20
4.8863692136
 30
0.0
 10
5.1035539623
 20
4.8858470936
 30
0.0
 10
5.0797620228
 20
4.8853244846
 30
0.0
 10
5.0546395038
 20
4.8848015388
 30
0.0
 10
5.0284173829
 20
4.8842783476
 30
0.0
 10
5.0013367791
 20
4.8837549864
 30
0.0
 10
4.9736466898
 20
4.8832315133
 30
0.0
 10
4.9456017501
 20
4.8827079782
 30
0.0
 10
4.9174598304
 20
4.8821844265
 30
0.0
 10
4.8894796949
 20
4.8816609024
 30
0.0
 10
4.8619186152
 20
4.8811374522
 30
0.0
 10
4.8350300149
 20
4.8806141277
 30
0.0
 10
4.8090611465
 20
4.880090991
 30
0.0
 10
4.7842508068
 20
4.879568119
 30
0.0
 10
4.7608271179
 20
4.8790456199
 30
0.0
 10
4.7390054451
 20
4.8785236273
 30
0.0
 10
4.7189864
 20
4.878002397
 30
0.0
 10
4.7009540321
 20
4.8774821284
 30
0.0
 10
4.6872463044
 20
4.877034685
 30
0.0
 10
4.6773963405
 20
4.8766716818
 30
0.0
 10
4.6708864801
 20
4.8764100962
 30
0.0
 10
4.6649841427
 20
4.8761488019
 30
0.0
 10
4.6597029916
 20
4.8758879277
 30
0.0
 10
4.6550550372
 20
4.8756276675
 30
0.0
 10
4.6510509932
 20
4.8753681819
 30
0.0
 10
4.6481216996
 20
4.8751429531
 30
0.0
 10
4.6461075338
 20
4.8749589061
 30
0.0
 10
4.6448448967
 20
4.8748285248
 30
0.0
 10
4.6437490159
 20
4.874698494
 30
0.0
 10
4.6428204251
 20
4.874569027
 30
0.0
 10
4.6420596167
 20
4.8744402706
 30
0.0
 10
4.6416103748
 20
4.8743441546
 30
0.0
 10
4.6414148735
 20
4.8742934618
 30
0.0
  0
SPLINE
  5
35C
100
AcDbEntity
  8
0
100
AcDbSpline
 62
7
  6
CONTINUOUS
 70
0
 71
3
 72
12
 73
8
 74
0
 42
0.0000001
 43
0.0000001
 44
0.0000000001
 40
0.0
 40
0.0
 40
0.0
 40
0.0
 40
0.2747016155
 40
0.5392983723
 40
0.784064576
 40
0.8961607147
 40
1.0
 40
1.0
 40
1.0
 40
1.0
 10
4.9350543478
 20
4.8665746691
 30
0.0
 10
4.9150243182
 20
4.8662257496
 30
0.0
 10
4.8757010575
 20
4.8655408554
 30
0.0
 10
4.8185311749
 20
4.8645082707
 30
0.0
 10
4.7732187805
 20
4.8636269019
 30
0.0
 10
4.7396290273
 20
4.8629084172
 30
0.0
 10
4.7238857573
 20
4.8625452095
 30
0.0
 10
4.7163153274
 20
4.862361805
 30
0.0
  0
SPLINE
  5
35D
100
AcDbEntity
  8
0
100
AcDbSpline
 62
7
  6
CONTINUOUS
 70
0
 71
3
 72
30
 73
26
 74
0
 42
0.0000001
 43
0.0000001
 44
0.0000000001
 40
0.0
 40
0.0
 40
0.0
 40
0.0
 40
0.1871952896
 40
0.2787245436
 40
0.3677975187
 40
0.4536252493
 40
0.5354519333
 40
0.6125554172
 40
0.6842559489
 40
0.7499212211
 40
0.8089726894
 40
0.8608903732
 40
0.8840291013
 40
0.9052177575
 40
0.9244110535
 40
0.9415662249
 40
0.9566465403
 40
0.969619711
 40
0.9804581083
 40
0.9850703888
 40
0.9891416203
 40
0.9926700474
 40
0.9956552529
 40
0.9980978099
 40
1.0
 40
1.0
 40
1.0
 40
1.0
 10
4.9350543478
 20
4.8772489334
 30
0.0
 10
4.9154517567
 20
4.8769074598
 30
0.0
 10
4.8862644637
 20
4.8763991334
 30
0.0
 10
4.8477500059
 20
4.8757102128
 30
0.0
 10
4.8198506479
 20
4.875197507
 30
0.0
 10
4.7929676444
 20
4.8746849927
 30
0.0
 10
4.767338476
 20
4.8741727473
 30
0.0
 10
4.7431891972
 20
4.873660875
 30
0.0
 10
4.7207329487
 20
4.8731495088
 30
0.0
 10
4.7001678534
 20
4.8726388993
 30
0.0
 10
4.6816753577
 20
4.8721292517
 30
0.0
 10
4.6676365995
 20
4.8716907767
 30
0.0
 10
4.6575628093
 20
4.8713350338
 30
0.0
 10
4.6509150075
 20
4.8710787752
 30
0.0
 10
4.6448943763
 20
4.8708228536
 30
0.0
 10
4.6395141133
 20
4.8705673136
 30
0.0
 10
4.6347860842
 20
4.8703124152
 30
0.0
 10
4.6307206946
 20
4.870058304
 30
0.0
 10
4.6277518339
 20
4.8698376114
 30
0.0
 10
4.6257151827
 20
4.8696572057
 30
0.0
 10
4.6244425349
 20
4.8695295334
 30
0.0
 10
4.6233412397
 20
4.8694022051
 30
0.0
 10
4.6224117107
 20
4.869275469
 30
0.0
 10
4.6216543505
 20
4.8691494989
 30
0.0
 10
4.6212088152
 20
4.8690551713
 30
0.0
 10
4.6210159642
 20
4.8690051901
 30
0.0
  0
SPLINE
  5
35E
100
AcDbEntity
  8
0
100
AcDbSpline
 62
7
  6
CONTINUOUS
 70
0
 71
3
 72
30
 73
26
 74
0
 42
0.0000001
 43
0.0000001
 44
0.0000000001
 40
0.0
 40
0.0
 40
0.0
 40
0.0
 40
0.1871953476
 40
0.2787245382
 40
0.3677975432
 40
0.4536252772
 40
0.5354519753
 40
0.6125554631
 40
0.6842559728
 40
0.7499212402
 40
0.8089727043
 40
0.8608904093
 40
0.8840291401
 40
0.9052178279
 40
0.9244110607
 40
0.9415663163
 40
0.9566465479
 40
0.9696198096
 40
0.980458145
 40
0.9850703891
 40
0.9891416703
 40
0.9926701577
 40
0.9956553266
 40
0.9980978225
 40
1.0
 40
1.0
 40
1.0
 40
1.0
 10
4.9350543478
 20
4.9116989334
 30
0.0
 10
4.9154517518
 20
4.9113574597
 30
0.0
 10
4.8862644609
 20
4.9108491333
 30
0.0
 10
4.8477500028
 20
4.9101602128
 30
0.0
 10
4.8198506495
 20
4.909647507
 30
0.0
 10
4.7929676426
 20
4.9091349927
 30
0.0
 10
4.7673384734
 20
4.9086227473
 30
0.0
 10
4.7431891964
 20
4.9081108751
 30
0.0
 10
4.7207329515
 20
4.9075995088
 30
0.0
 10
4.7001678607
 20
4.9070888993
 30
0.0
 10
4.6816753648
 20
4.9065792515
 30
0.0
 10
4.6676366053
 20
4.906140777
 30
0.0
 10
4.6575628099
 20
4.9057850333
 30
0.0
 10
4.6509150114
 20
4.9055287763
 30
0.0
 10
4.6448943751
 20
4.9052728518
 30
0.0
 10
4.6395141188
 20
4.9050173159
 30
0.0
 10
4.6347860806
 20
4.9047624128
 30
0.0
 10
4.6307206968
 20
4.9045083059
 30
0.0
 10
4.6277518371
 20
4.904287612
 30
0.0
 10
4.6257151913
 20
4.9041072043
 30
0.0
 10
4.6244425357
 20
4.9039795328
 30
0.0
 10
4.6233412325
 20
4.9038522073
 30
0.0
 10
4.6224117077
 20
4.9037254699
 30
0.0
 10
4.6216543595
 20
4.9035994983
 30
0.0
 10
4.6212088323
 20
4.9035051699
 30
0.0
 10
4.6210159824
 20
4.9034551901
 30
0.0
  0
SPLINE
  5
35F
100
AcDbEntity
  8
0
100
AcDbSpline
 62
7
  6
CONTINUOUS
 70
0
 71
3
 72
39
 73
35
 74
0
 42
0.0000001
 43
0.0000001
 44
0.0000000001
 40
0.0
 40
0.0
 40
0.0
 40
0.0
 40
0.0979444355
 40
0.1949497217
 40
0.2900745509
 40
0.3824083526
 40
0.4710599774
 40
0.5551769137
 40
0.6339492164
 40
0.7066190014
 40
0.7404443597
 40
0.7724869956
 40
0.8026694717
 40
0.8309198932
 40
0.8571694413
 40
0.8813562336
 40
0.9034211076
 40
0.9233124774
 40
0.9409819537
 40
0.9563885202
 40
0.9694957869
 40
0.9802741985
 40
0.9847831153
 40
0.9887018565
 40
0.9920292883
 40
0.9947656309
 40
0.9959126753
 40
0.9969128548
 40
0.9977670223
 40
0.9984766864
 40
0.9990447433
 40
0.9992774807
 40
0.999477557
 40
1.0
 40
1.0
 40
1.0
 40
1.0
 10
4.9350543478
 20
4.9010246691
 30
0.0
 10
4.9247708686
 20
4.9008455327
 30
0.0
 10
4.9043025142
 20
4.9004889805
 30
0.0
 10
4.8738468086
 20
4.8999533409
 30
0.0
 10
4.8439803601
 20
4.899417801
 30
0.0
 10
4.8149912616
 20
4.8988824335
 30
0.0
 10
4.7871582892
 20
4.8983473033
 30
0.0
 10
4.7607496626
 20
4.8978125265
 30
0.0
 10
4.7360196269
 20
4.8972782016
 30
0.0
 10
4.7165701949
 20
4.8968233246
 30
0.0
 10
4.7020271128
 20
4.8964565472
 30
0.0
 10
4.6919445243
 20
4.8961881596
 30
0.0
 10
4.6824475704
 20
4.8959198651
 30
0.0
 10
4.6735591962
 20
4.8956517012
 30
0.0
 10
4.6653007241
 20
4.8953836714
 30
0.0
 10
4.6576921502
 20
4.8951158596
 30
0.0
 10
4.6507516819
 20
4.8948482835
 30
0.0
 10
4.6444961297
 20
4.8945810929
 30
0.0
 10
4.638940448
 20
4.8943143636
 30
0.0
 10
4.6340980255
 20
4.8940484546
 30
0.0
 10
4.6299804455
 20
4.8937835021
 30
0.0
 10
4.6270075185
 20
4.8935528477
 30
0.0
 10
4.6249995726
 20
4.8933635036
 30
0.0
 10
4.6237723152
 20
4.8932304438
 30
0.0
 10
4.6227324199
 20
4.8930978556
 30
0.0
 10
4.6219838967
 20
4.8929823984
 30
0.0
 10
4.621479849
 20
4.892887739
 30
0.0
 10
4.6211717345
 20
4.8928211021
 30
0.0
 10
4.6209107574
 20
4.8927547631
 30
0.0
 10
4.6206966395
 20
4.8926885024
 30
0.0
 10
4.6205490124
 20
4.8926308585
 30
0.0
 10
4.6204547166
 20
4.8925826344
 30
0.0
 10
4.6203713981
 20
4.8925314263
 30
0.0
 10
4.6203044593
 20
4.8924670303
 30
0.0
 10
4.6203044593
 20
4.8924121691
 30
0.0
  0
SPLINE
  5
360
100
AcDbEntity
  8
0
100
AcDbSpline
 62
7
  6
CONTINUOUS
 70
0
 71
3
 72
39
 73
35
 74
0
 42
0.0000001
 43
0.0000001
 44
0.0000000001
 40
0.0
 40
0.0
 40
0.0
 40
0.0
 40
0.0979443522
 40
0.194949762
 40
0.290074521
 40
0.382408345
 40
0.4710599582
 40
0.5551769042
 40
0.6339492106
 40
0.706619004
 40
0.7404443214
 40
0.7724870048
 40
0.8026694309
 40
0.8309198828
 40
0.8571694139
 40
0.8813562006
 40
0.9034211042
 40
0.923312415
 40
0.9409819652
 40
0.9563884474
 40
0.9694958169
 40
0.9802741337
 40
0.9847830512
 40
0.9887018805
 40
0.9920293044
 40
0.9947655837
 40
0.9959126016
 40
0.996912772
 40
0.9977669576
 40
0.998476674
 40
0.9990447695
 40
0.9992775127
 40
0.9994775879
 40
1.0
 40
1.0
 40
1.0
 40
1.0
 10
4.9350543478
 20
4.9354746691
 30
0.0
 10
4.9247708771
 20
4.9352955329
 30
0.0
 10
4.9043025181
 20
4.9349389805
 30
0.0
 10
4.873846815
 20
4.934403341
 30
0.0
 10
4.8439803579
 20
4.9338678009
 30
0.0
 10
4.814991265
 20
4.9333324335
 30
0.0
 10
4.78715829
 20
4.9327973033
 30
0.0
 10
4.7607496626
 20
4.9322625265
 30
0.0
 10
4.7360196241
 20
4.9317282014
 30
0.0
 10
4.7165701947
 20
4.9312733252
 30
0.0
 10
4.7020271109
 20
4.9309065466
 30
0.0
 10
4.6919445267
 20
4.9306381602
 30
0.0
 10
4.6824475696
 20
4.9303698646
 30
0.0
 10
4.673559199
 20
4.9301017016
 30
0.0
 10
4.665300726
 20
4.9298336714
 30
0.0
 10
4.6576921512
 20
4.9295658591
 30
0.0
 10
4.6507516864
 20
4.9292982846
 30
0.0
 10
4.6444961295
 20
4.9290310912
 30
0.0
 10
4.6389404548
 20
4.928764366
 30
0.0
 10
4.6340980228
 20
4.9284984517
 30
0.0
 10
4.6299804503
 20
4.9282335051
 30
0.0
 10
4.6270075226
 20
4.9280028473
 30
0.0
 10
4.6249995775
 20
4.9278135015
 30
0.0
 10
4.6237723111
 20
4.9276804458
 30
0.0
 10
4.622732414
 20
4.9275478571
 30
0.0
 10
4.6219839013
 20
4.9274323985
 30
0.0
 10
4.6214798643
 20
4.9273377386
 30
0.0
 10
4.6211717517
 20
4.9272711013
 30
0.0
 10
4.6209107684
 20
4.9272047611
 30
0.0
 10
4.6206966379
 20
4.9271385023
 30
0.0
 10
4.6205489994
 20
4.92708086
 30
0.0
 10
4.6204546988
 20
4.9270326347
 30
0.0
 10
4.6203713827
 20
4.926981429
 30
0.0
 10
4.6203044489
 20
4.926917027
 30
0.0
 10
4.6203044583
 20
4.9268621691
 30
0.0
  0
SPLINE
  5
361
100
AcDbEntity
  8
0
100
AcDbSpline
 62
7
  6
CONTINUOUS
 70
0
 71
3
 72
30
 73
26
 74
0
 42
0.0000001
 43
0.0000001
 44
0.0000000001
 40
0.0
 40
0.0
 40
0.0
 40
0.0
 40
0.1871952896
 40
0.2787245436
 40
0.3677975187
 40
0.4536252493
 40
0.5354519333
 40
0.6125554172
 40
0.6842559489
 40
0.7499212211
 40
0.8089726894
 40
0.8608903732
 40
0.8840291013
 40
0.9052177575
 40
0.9244110535
 40
0.9415662249
 40
0.9566465403
 40
0.969619711
 40
0.9804581083
 40
0.9850703888
 40
0.9891416203
 40
0.9926700474
 40
0.9956552529
 40
0.9980978099
 40
1.0
 40
1.0
 40
1.0
 40
1.0
 10
4.9350543478
 20
4.9461489334
 30
0.0
 10
4.9154517567
 20
4.9458074598
 30
0.0
 10
4.8862644637
 20
4.9452991334
 30
0.0
 10
4.8477500059
 20
4.9446102128
 30
0.0
 10
4.8198506479
 20
4.944097507
 30
0.0
 10
4.7929676444
 20
4.9435849927
 30
0.0
 10
4.767338476
 20
4.9430727473
 30
0.0
 10
4.7431891972
 20
4.942560875
 30
0.0
 10
4.7207329487
 20
4.9420495088
 30
0.0
 10
4.7001678534
 20
4.9415388993
 30
0.0
 10
4.6816753577
 20
4.9410292517
 30
0.0
 10
4.6676365995
 20
4.9405907767
 30
0.0
 10
4.6575628093
 20
4.9402350338
 30
0.0
 10
4.6509150075
 20
4.9399787752
 30
0.0
 10
4.6448943763
 20
4.9397228536
 30
0.0
 10
4.6395141133
 20
4.9394673136
 30
0.0
 10
4.6347860842
 20
4.9392124152
 30
0.0
 10
4.6307206946
 20
4.938958304
 30
0.0
 10
4.6277518339
 20
4.9387376114
 30
0.0
 10
4.6257151827
 20
4.9385572057
 30
0.0
 10
4.6244425349
 20
4.9384295334
 30
0.0
 10
4.6233412397
 20
4.9383022051
 30
0.0
 10
4.6224117107
 20
4.938175469
 30
0.0
 10
4.6216543505
 20
4.9380494989
 30
0.0
 10
4.6212088152
 20
4.9379551713
 30
0.0
 10
4.6210159642
 20
4.9379051901
 30
0.0
  0
SPLINE
  5
362
100
AcDbEntity
  8
0
100
AcDbSpline
 62
7
  6
CONTINUOUS
 70
0
 71
3
 72
39
 73
35
 74
0
 42
0.0000001
 43
0.0000001
 44
0.0000000001
 40
0.0
 40
0.0
 40
0.0
 40
0.0
 40
0.0979444355
 40
0.1949497217
 40
0.2900745509
 40
0.3824083526
 40
0.4710599774
 40
0.5551769137
 40
0.6339492164
 40
0.7066190014
 40
0.7404443597
 40
0.7724869956
 40
0.8026694717
 40
0.8309198932
 40
0.8571694413
 40
0.8813562336
 40
0.9034211076
 40
0.9233124774
 40
0.9409819537
 40
0.9563885202
 40
0.9694957869
 40
0.9802741985
 40
0.9847831153
 40
0.9887018565
 40
0.9920292883
 40
0.9947656309
 40
0.9959126753
 40
0.9969128548
 40
0.9977670223
 40
0.9984766864
 40
0.9990447433
 40
0.9992774807
 40
0.999477557
 40
1.0
 40
1.0
 40
1.0
 40
1.0
 10
4.9350543478
 20
4.9699246691
 30
0.0
 10
4.9247708686
 20
4.9697455327
 30
0.0
 10
4.9043025142
 20
4.9693889805
 30
0.0
 10
4.8738468086
 20
4.9688533409
 30
0.0
 10
4.8439803601
 20
4.968317801
 30
0.0
 10
4.8149912616
 20
4.9677824335
 30
0.0
 10
4.7871582892
 20
4.9672473033
 30
0.0
 10
4.7607496626
 20
4.9667125265
 30
0.0
 10
4.7360196269
 20
4.9661782016
 30
0.0
 10
4.7165701949
 20
4.9657233246
 30
0.0
 10
4.7020271128
 20
4.9653565472
 30
0.0
 10
4.6919445243
 20
4.9650881596
 30
0.0
 10
4.6824475704
 20
4.9648198651
 30
0.0
 10
4.6735591962
 20
4.9645517012
 30
0.0
 10
4.6653007241
 20
4.9642836714
 30
0.0
 10
4.6576921502
 20
4.9640158596
 30
0.0
 10
4.6507516819
 20
4.9637482835
 30
0.0
 10
4.6444961297
 20
4.9634810929
 30
0.0
 10
4.638940448
 20
4.9632143636
 30
0.0
 10
4.6340980255
 20
4.9629484546
 30
0.0
 10
4.6299804455
 20
4.9626835021
 30
0.0
 10
4.6270075185
 20
4.9624528477
 30
0.0
 10
4.6249995726
 20
4.9622635036
 30
0.0
 10
4.6237723152
 20
4.9621304438
 30
0.0
 10
4.6227324199
 20
4.9619978556
 30
0.0
 10
4.6219838967
 20
4.9618823984
 30
0.0
 10
4.621479849
 20
4.961787739
 30
0.0
 10
4.6211717345
 20
4.9617211021
 30
0.0
 10
4.6209107574
 20
4.9616547631
 30
0.0
 10
4.6206966395
 20
4.9615885024
 30
0.0
 10
4.6205490124
 20
4.9615308585
 30
0.0
 10
4.6204547166
 20
4.9614826344
 30
0.0
 10
4.6203713981
 20
4.9614314263
 30
0.0
 10
4.6203044593
 20
4.9613670303
 30
0.0
 10
4.6203044593
 20
4.9613121691
 30
0.0
  0
SPLINE
  5
363
100
AcDbEntity
  8
0
100
AcDbSpline
 62
7
  6
CONTINUOUS
 70
0
 71
3
 72
30
 73
26
 74
0
 42
0.0000001
 43
0.0000001
 44
0.0000000001
 40
0.0
 40
0.0
 40
0.0
 40
0.0
 40
0.1871952896
 40
0.2787245436
 40
0.3677975187
 40
0.4536252493
 40
0.5354519333
 40
0.6125554172
 40
0.6842559489
 40
0.7499212211
 40
0.8089726894
 40
0.8608903732
 40
0.8840291013
 40
0.9052177575
 40
0.9244110535
 40
0.9415662249
 40
0.9566465403
 40
0.969619711
 40
0.9804581083
 40
0.9850703888
 40
0.9891416203
 40
0.9926700474
 40
0.9956552529
 40
0.9980978099
 40
1.0
 40
1.0
 40
1.0
 40
1.0
 10
4.9350543478
 20
4.9805989334
 30
0.0
 10
4.9154517567
 20
4.9802574598
 30
0.0
 10
4.8862644637
 20
4.9797491334
 30
0.0
 10
4.8477500059
 20
4.9790602128
 30
0.0
 10
4.8198506479
 20
4.978547507
 30
0.0
 10
4.7929676444
 20
4.9780349927
 30
0.0
 10
4.767338476
 20
4.9775227473
 30
0.0
 10
4.7431891972
 20
4.977010875
 30
0.0
 10
4.7207329487
 20
4.9764995088
 30
0.0
 10
4.7001678534
 20
4.9759888993
 30
0.0
 10
4.6816753577
 20
4.9754792517
 30
0.0
 10
4.6676365995
 20
4.9750407767
 30
0.0
 10
4.6575628093
 20
4.9746850338
 30
0.0
 10
4.6509150075
 20
4.9744287752
 30
0.0
 10
4.6448943763
 20
4.9741728536
 30
0.0
 10
4.6395141133
 20
4.9739173136
 30
0.0
 10
4.6347860842
 20
4.9736624152
 30
0.0
 10
4.6307206946
 20
4.973408304
 30
0.0
 10
4.6277518339
 20
4.9731876114
 30
0.0
 10
4.6257151827
 20
4.9730072057
 30
0.0
 10
4.6244425349
 20
4.9728795334
 30
0.0
 10
4.6233412397
 20
4.9727522051
 30
0.0
 10
4.6224117107
 20
4.972625469
 30
0.0
 10
4.6216543505
 20
4.9724994989
 30
0.0
 10
4.6212088152
 20
4.9724051713
 30
0.0
 10
4.6210159642
 20
4.9723551901
 30
0.0
  0
SPLINE
  5
364
100
AcDbEntity
  8
0
100
AcDbSpline
 62
7
  6
CONTINUOUS
 70
0
 71
3
 72
39
 73
35
 74
0
 42
0.0000001
 43
0.0000001
 44
0.0000000001
 40
0.0
 40
0.0
 40
0.0
 40
0.0
 40
0.0979444355
 40
0.1949497217
 40
0.2900745509
 40
0.3824083526
 40
0.4710599774
 40
0.5551769137
 40
0.6339492164
 40
0.7066190014
 40
0.7404443597
 40
0.7724869956
 40
0.8026694717
 40
0.8309198932
 40
0.8571694413
 40
0.8813562336
 40
0.9034211076
 40
0.9233124774
 40
0.9409819537
 40
0.9563885202
 40
0.9694957869
 40
0.9802741985
 40
0.9847831153
 40
0.9887018565
 40
0.9920292883
 40
0.9947656309
 40
0.9959126753
 40
0.9969128548
 40
0.9977670223
 40
0.9984766864
 40
0.9990447433
 40
0.9992774807
 40
0.999477557
 40
1.0
 40
1.0
 40
1.0
 40
1.0
 10
4.9350543478
 20
5.0043746691
 30
0.0
 10
4.9247708686
 20
5.0041955327
 30
0.0
 10
4.9043025142
 20
5.0038389805
 30
0.0
 10
4.8738468086
 20
5.0033033409
 30
0.0
 10
4.8439803601
 20
5.002767801
 30
0.0
 10
4.8149912616
 20
5.0022324335
 30
0.0
 10
4.7871582892
 20
5.0016973033
 30
0.0
 10
4.7607496626
 20
5.0011625265
 30
0.0
 10
4.7360196269
 20
5.0006282016
 30
0.0
 10
4.7165701949
 20
5.0001733246
 30
0.0
 10
4.7020271128
 20
4.9998065472
 30
0.0
 10
4.6919445243
 20
4.9995381596
 30
0.0
 10
4.6824475704
 20
4.9992698651
 30
0.0
 10
4.6735591962
 20
4.9990017012
 30
0.0
 10
4.6653007241
 20
4.9987336714
 30
0.0
 10
4.6576921502
 20
4.9984658596
 30
0.0
 10
4.6507516819
 20
4.9981982835
 30
0.0
 10
4.6444961297
 20
4.9979310929
 30
0.0
 10
4.638940448
 20
4.9976643636
 30
0.0
 10
4.6340980255
 20
4.9973984546
 30
0.0
 10
4.6299804455
 20
4.9971335021
 30
0.0
 10
4.6270075185
 20
4.9969028477
 30
0.0
 10
4.6249995726
 20
4.9967135036
 30
0.0
 10
4.6237723152
 20
4.9965804438
 30
0.0
 10
4.6227324199
 20
4.9964478556
 30
0.0
 10
4.6219838967
 20
4.9963323984
 30
0.0
 10
4.621479849
 20
4.996237739
 30
0.0
 10
4.6211717345
 20
4.9961711021
 30
0.0
 10
4.6209107574
 20
4.9961047631
 30
0.0
 10
4.6206966395
 20
4.9960385024
 30
0.0
 10
4.6205490124
 20
4.9959808585
 30
0.0
 10
4.6204547166
 20
4.9959326344
 30
0.0
 10
4.6203713981
 20
4.9958814263
 30
0.0
 10
4.6203044593
 20
4.9958170303
 30
0.0
 10
4.6203044593
 20
4.9957621691
 30
0.0
  0
SPLINE
  5
365
100
AcDbEntity
  8
0
100
AcDbSpline
 62
7
  6
CONTINUOUS
 70
0
 71
3
 72
30
 73
26
 74
0
 42
0.0000001
 43
0.0000001
 44
0.0000000001
 40
0.0
 40
0.0
 40
0.0
 40
0.0
 40
0.1871952896
 40
0.2787245436
 40
0.3677975187
 40
0.4536252493
 40
0.5354519333
 40
0.6125554172
 40
0.6842559489
 40
0.7499212211
 40
0.8089726894
 40
0.8608903732
 40
0.8840291013
 40
0.9052177575
 40
0.9244110535
 40
0.9415662249
 40
0.9566465403
 40
0.969619711
 40
0.9804581083
 40
0.9850703888
 40
0.9891416203
 40
0.9926700474
 40
0.9956552529
 40
0.9980978099
 40
1.0
 40
1.0
 40
1.0
 40
1.0
 10
4.9350543478
 20
5.0150489334
 30
0.0
 10
4.9154517567
 20
5.0147074598
 30
0.0
 10
4.8862644637
 20
5.0141991334
 30
0.0
 10
4.8477500059
 20
5.0135102128
 30
0.0
 10
4.8198506479
 20
5.012997507
 30
0.0
 10
4.7929676444
 20
5.0124849927
 30
0.0
 10
4.767338476
 20
5.0119727473
 30
0.0
 10
4.7431891972
 20
5.011460875
 30
0.0
 10
4.7207329487
 20
5.0109495088
 30
0.0
 10
4.7001678534
 20
5.0104388993
 30
0.0
 10
4.6816753577
 20
5.0099292517
 30
0.0
 10
4.6676365995
 20
5.0094907767
 30
0.0
 10
4.6575628093
 20
5.0091350338
 30
0.0
 10
4.6509150075
 20
5.0088787752
 30
0.0
 10
4.6448943763
 20
5.0086228536
 30
0.0
 10
4.6395141133
 20
5.0083673136
 30
0.0
 10
4.6347860842
 20
5.0081124152
 30
0.0
 10
4.6307206946
 20
5.007858304
 30
0.0
 10
4.6277518339
 20
5.0076376114
 30
0.0
 10
4.6257151827
 20
5.0074572057
 30
0.0
 10
4.6244425349
 20
5.0073295334
 30
0.0
 10
4.6233412397
 20
5.0072022051
 30
0.0
 10
4.6224117107
 20
5.007075469
 30
0.0
 10
4.6216543505
 20
5.0069494989
 30
0.0
 10
4.6212088152
 20
5.0068551713
 30
0.0
 10
4.6210159642
 20
5.0068051901
 30
0.0
  0
SPLINE
  5
366
100
AcDbEntity
  8
0
100
AcDbSpline
 62
7
  6
CONTINUOUS
 70
0
 71
3
 72
30
 73
26
 74
0
 42
0.0000001
 43
0.0000001
 44
0.0000000001
 40
0.0
 40
0.0
 40
0.0
 40
0.0
 40
0.1871952896
 40
0.2787245436
 40
0.3677975187
 40
0.4536252493
 40
0.5354519333
 40
0.6125554172
 40
0.6842559489
 40
0.7499212211
 40
0.8089726894
 40
0.8608903732
 40
0.8840291013
 40
0.9052177575
 40
0.9244110535
 40
0.9415662249
 40
0.9566465403
 40
0.969619711
 40
0.9804581083
 40
0.9850703888
 40
0.9891416203
 40
0.9926700474
 40
0.9956552529
 40
0.9980978099
 40
1.0
 40
1.0
 40
1.0
 40
1.0
 10
4.9350543478
 20
5.0494989334
 30
0.0
 10
4.9154517567
 20
5.0491574598
 30
0.0
 10
4.8862644637
 20
5.0486491334
 30
0.0
 10
4.8477500059
 20
5.0479602128
 30
0.0
 10
4.8198506479
 20
5.047447507
 30
0.0
 10
4.7929676444
 20
5.0469349927
 30
0.0
 10
4.767338476
 20
5.0464227473
 30
0.0
 10
4.7431891972
 20
5.045910875
 30
0.0
 10
4.7207329487
 20
5.0453995088
 30
0.0
 10
4.7001678534
 20
5.0448888993
 30
0.0
 10
4.6816753577
 20
5.0443792517
 30
0.0
 10
4.6676365995
 20
5.0439407767
 30
0.0
 10
4.6575628093
 20
5.0435850338
 30
0.0
 10
4.6509150075
 20
5.0433287752
 30
0.0
 10
4.6448943763
 20
5.0430728536
 30
0.0
 10
4.6395141133
 20
5.0428173136
 30
0.0
 10
4.6347860842
 20
5.0425624152
 30
0.0
 10
4.6307206946
 20
5.042308304
 30
0.0
 10
4.6277518339
 20
5.0420876114
 30
0.0
 10
4.6257151827
 20
5.0419072057
 30
0.0
 10
4.6244425349
 20
5.0417795334
 30
0.0
 10
4.6233412397
 20
5.0416522051
 30
0.0
 10
4.6224117107
 20
5.041525469
 30
0.0
 10
4.6216543505
 20
5.0413994989
 30
0.0
 10
4.6212088152
 20
5.0413051713
 30
0.0
 10
4.6210159642
 20
5.0412551901
 30
0.0
  0
SPLINE
  5
367
100
AcDbEntity
  8
0
100
AcDbSpline
 62
7
  6
CONTINUOUS
 70
0
 71
3
 72
39
 73
35
 74
0
 42
0.0000001
 43
0.0000001
 44
0.0000000001
 40
0.0
 40
0.0
 40
0.0
 40
0.0
 40
0.0979444339
 40
0.1949497171
 40
0.2900745495
 40
0.3824083537
 40
0.4710599801
 40
0.5551769169
 40
0.6339492164
 40
0.706618998
 40
0.7404443556
 40
0.7724869912
 40
0.8026694671
 40
0.8309198888
 40
0.8571694373
 40
0.8813562308
 40
0.9034211067
 40
0.9233124783
 40
0.9409819553
 40
0.9563885208
 40
0.9694957875
 40
0.9802741994
 40
0.9847831167
 40
0.9887018584
 40
0.99202929
 40
0.994765632
 40
0.995912676
 40
0.9969128553
 40
0.9977670226
 40
0.9984766866
 40
0.9990447435
 40
0.9992774809
 40
0.9994775572
 40
1.0
 40
1.0
 40
1.0
 40
1.0
 10
4.9350543478
 20
5.0388246691
 30
0.0
 10
4.9247708688
 20
5.0386455327
 30
0.0
 10
4.9043025149
 20
5.0382889805
 30
0.0
 10
4.8738468094
 20
5.0377533409
 30
0.0
 10
4.8439803606
 20
5.037217801
 30
0.0
 10
4.8149912613
 20
5.0366824335
 30
0.0
 10
4.7871582885
 20
5.0361473033
 30
0.0
 10
4.760749662
 20
5.0356125265
 30
0.0
 10
4.7360196269
 20
5.0350782016
 30
0.0
 10
4.7165701957
 20
5.0346233246
 30
0.0
 10
4.7020271141
 20
5.0342565473
 30
0.0
 10
4.6919445257
 20
5.0339881596
 30
0.0
 10
4.6824475718
 20
5.0337198652
 30
0.0
 10
4.6735591976
 20
5.0334517012
 30
0.0
 10
4.6653007254
 20
5.0331836714
 30
0.0
 10
4.6576921511
 20
5.0329158596
 30
0.0
 10
4.6507516823
 20
5.0326482835
 30
0.0
 10
4.6444961296
 20
5.0323810929
 30
0.0
 10
4.6389404477
 20
5.0321143636
 30
0.0
 10
4.6340980252
 20
5.0318484546
 30
0.0
 10
4.6299804453
 20
5.0315835021
 30
0.0
 10
4.6270075183
 20
5.0313528477
 30
0.0
 10
4.6249995722
 20
5.0311635035
 30
0.0
 10
4.6237723147
 20
5.0310304438
 30
0.0
 10
4.6227324195
 20
5.0308978555
 30
0.0
 10
4.6219838964
 20
5.0307823983
 30
0.0
 10
4.6214798488
 20
5.030687739
 30
0.0
 10
4.6211717344
 20
5.0306211021
 30
0.0
 10
4.6209107574
 20
5.030554763
 30
0.0
 10
4.6206966395
 20
5.0304885024
 30
0.0
 10
4.6205490124
 20
5.0304308585
 30
0.0
 10
4.6204547166
 20
5.0303826344
 30
0.0
 10
4.6203713982
 20
5.0303314263
 30
0.0
 10
4.6203044594
 20
5.0302670302
 30
0.0
 10
4.6203044594
 20
5.0302121691
 30
0.0
  0
SPLINE
  5
368
100
AcDbEntity
  8
0
100
AcDbSpline
 62
7
  6
CONTINUOUS
 70
0
 71
3
 72
39
 73
35
 74
0
 42
0.0000001
 43
0.0000001
 44
0.0000000001
 40
0.0
 40
0.0
 40
0.0
 40
0.0
 40
0.0979444355
 40
0.1949497217
 40
0.2900745509
 40
0.3824083526
 40
0.4710599774
 40
0.5551769137
 40
0.6339492164
 40
0.7066190014
 40
0.7404443597
 40
0.7724869956
 40
0.8026694717
 40
0.8309198932
 40
0.8571694413
 40
0.8813562336
 40
0.9034211076
 40
0.9233124774
 40
0.9409819537
 40
0.9563885202
 40
0.9694957869
 40
0.9802741985
 40
0.9847831153
 40
0.9887018565
 40
0.9920292883
 40
0.9947656309
 40
0.9959126753
 40
0.9969128548
 40
0.9977670223
 40
0.9984766864
 40
0.9990447433
 40
0.9992774807
 40
0.999477557
 40
1.0
 40
1.0
 40
1.0
 40
1.0
 10
4.9350543478
 20
5.0732746691
 30
0.0
 10
4.9247708686
 20
5.0730955327
 30
0.0
 10
4.9043025142
 20
5.0727389805
 30
0.0
 10
4.8738468086
 20
5.0722033409
 30
0.0
 10
4.8439803601
 20
5.071667801
 30
0.0
 10
4.8149912616
 20
5.0711324335
 30
0.0
 10
4.7871582892
 20
5.0705973033
 30
0.0
 10
4.7607496626
 20
5.0700625265
 30
0.0
 10
4.7360196269
 20
5.0695282016
 30
0.0
 10
4.7165701949
 20
5.0690733246
 30
0.0
 10
4.7020271128
 20
5.0687065472
 30
0.0
 10
4.6919445243
 20
5.0684381596
 30
0.0
 10
4.6824475704
 20
5.0681698651
 30
0.0
 10
4.6735591962
 20
5.0679017012
 30
0.0
 10
4.6653007241
 20
5.0676336714
 30
0.0
 10
4.6576921502
 20
5.0673658596
 30
0.0
 10
4.6507516819
 20
5.0670982835
 30
0.0
 10
4.6444961297
 20
5.0668310929
 30
0.0
 10
4.638940448
 20
5.0665643636
 30
0.0
 10
4.6340980255
 20
5.0662984546
 30
0.0
 10
4.6299804455
 20
5.0660335021
 30
0.0
 10
4.6270075185
 20
5.0658028477
 30
0.0
 10
4.6249995726
 20
5.0656135036
 30
0.0
 10
4.6237723152
 20
5.0654804438
 30
0.0
 10
4.6227324199
 20
5.0653478556
 30
0.0
 10
4.6219838967
 20
5.0652323984
 30
0.0
 10
4.621479849
 20
5.065137739
 30
0.0
 10
4.6211717345
 20
5.0650711021
 30
0.0
 10
4.6209107574
 20
5.0650047631
 30
0.0
 10
4.6206966395
 20
5.0649385024
 30
0.0
 10
4.6205490124
 20
5.0648808585
 30
0.0
 10
4.6204547166
 20
5.0648326344
 30
0.0
 10
4.6203713981
 20
5.0647814263
 30
0.0
 10
4.6203044593
 20
5.0647170303
 30
0.0
 10
4.6203044593
 20
5.0646621691
 30
0.0
  0
SPLINE
  5
369
100
AcDbEntity
  8
0
100
AcDbSpline
 62
7
  6
CONTINUOUS
 70
0
 71
3
 72
30
 73
26
 74
0
 42
0.0000001
 43
0.0000001
 44
0.0000000001
 40
0.0
 40
0.0
 40
0.0
 40
0.0
 40
0.1871952896
 40
0.2787245436
 40
0.3677975187
 40
0.4536252493
 40
0.5354519333
 40
0.6125554172
 40
0.6842559489
 40
0.7499212211
 40
0.8089726894
 40
0.8608903732
 40
0.8840291013
 40
0.9052177575
 40
0.9244110535
 40
0.9415662249
 40
0.9566465403
 40
0.969619711
 40
0.9804581083
 40
0.9850703888
 40
0.9891416203
 40
0.9926700474
 40
0.9956552529
 40
0.9980978099
 40
1.0
 40
1.0
 40
1.0
 40
1.0
 10
4.9350543478
 20
5.0839489334
 30
0.0
 10
4.9154517567
 20
5.0836074598
 30
0.0
 10
4.8862644637
 20
5.0830991334
 30
0.0
 10
4.8477500059
 20
5.0824102128
 30
0.0
 10
4.8198506479
 20
5.081897507
 30
0.0
 10
4.7929676444
 20
5.0813849927
 30
0.0
 10
4.767338476
 20
5.0808727473
 30
0.0
 10
4.7431891972
 20
5.080360875
 30
0.0
 10
4.7207329487
 20
5.0798495088
 30
0.0
 10
4.7001678534
 20
5.0793388993
 30
0.0
 10
4.6816753577
 20
5.0788292517
 30
0.0
 10
4.6676365995
 20
5.0783907767
 30
0.0
 10
4.6575628093
 20
5.0780350338
 30
0.0
 10
4.6509150075
 20
5.0777787752
 30
0.0
 10
4.6448943763
 20
5.0775228536
 30
0.0
 10
4.6395141133
 20
5.0772673136
 30
0.0
 10
4.6347860842
 20
5.0770124152
 30
0.0
 10
4.6307206946
 20
5.076758304
 30
0.0
 10
4.6277518339
 20
5.0765376114
 30
0.0
 10
4.6257151827
 20
5.0763572057
 30
0.0
 10
4.6244425349
 20
5.0762295334
 30
0.0
 10
4.6233412397
 20
5.0761022051
 30
0.0
 10
4.6224117107
 20
5.075975469
 30
0.0
 10
4.6216543505
 20
5.0758494989
 30
0.0
 10
4.6212088152
 20
5.0757551713
 30
0.0
 10
4.6210159642
 20
5.0757051901
 30
0.0
  0
SPLINE
  5
36A
100
AcDbEntity
  8
0
100
AcDbSpline
 62
7
  6
CONTINUOUS
 70
0
 71
3
 72
39
 73
35
 74
0
 42
0.0000001
 43
0.0000001
 44
0.0000000001
 40
0.0
 40
0.0
 40
0.0
 40
0.0
 40
0.0979444355
 40
0.1949497217
 40
0.2900745509
 40
0.3824083526
 40
0.4710599774
 40
0.5551769137
 40
0.6339492164
 40
0.7066190014
 40
0.7404443597
 40
0.7724869956
 40
0.8026694717
 40
0.8309198932
 40
0.8571694413
 40
0.8813562336
 40
0.9034211076
 40
0.9233124774
 40
0.9409819537
 40
0.9563885202
 40
0.9694957869
 40
0.9802741985
 40
0.9847831153
 40
0.9887018565
 40
0.9920292883
 40
0.9947656309
 40
0.9959126753
 40
0.9969128548
 40
0.9977670223
 40
0.9984766864
 40
0.9990447433
 40
0.9992774807
 40
0.999477557
 40
1.0
 40
1.0
 40
1.0
 40
1.0
 10
4.9350543478
 20
5.1077246691
 30
0.0
 10
4.9247708686
 20
5.1075455327
 30
0.0
 10
4.9043025142
 20
5.1071889805
 30
0.0
 10
4.8738468086
 20
5.1066533409
 30
0.0
 10
4.8439803601
 20
5.106117801
 30
0.0
 10
4.8149912616
 20
5.1055824335
 30
0.0
 10
4.7871582892
 20
5.1050473033
 30
0.0
 10
4.7607496626
 20
5.1045125265
 30
0.0
 10
4.7360196269
 20
5.1039782016
 30
0.0
 10
4.7165701949
 20
5.1035233246
 30
0.0
 10
4.7020271128
 20
5.1031565472
 30
0.0
 10
4.6919445243
 20
5.1028881596
 30
0.0
 10
4.6824475704
 20
5.1026198651
 30
0.0
 10
4.6735591962
 20
5.1023517012
 30
0.0
 10
4.6653007241
 20
5.1020836714
 30
0.0
 10
4.6576921502
 20
5.1018158596
 30
0.0
 10
4.6507516819
 20
5.1015482835
 30
0.0
 10
4.6444961297
 20
5.1012810929
 30
0.0
 10
4.638940448
 20
5.1010143636
 30
0.0
 10
4.6340980255
 20
5.1007484546
 30
0.0
 10
4.6299804455
 20
5.1004835021
 30
0.0
 10
4.6270075185
 20
5.1002528477
 30
0.0
 10
4.6249995726
 20
5.1000635036
 30
0.0
 10
4.6237723152
 20
5.0999304438
 30
0.0
 10
4.6227324199
 20
5.0997978556
 30
0.0
 10
4.6219838967
 20
5.0996823984
 30
0.0
 10
4.621479849
 20
5.099587739
 30
0.0
 10
4.6211717345
 20
5.0995211021
 30
0.0
 10
4.6209107574
 20
5.0994547631
 30
0.0
 10
4.6206966395
 20
5.0993885024
 30
0.0
 10
4.6205490124
 20
5.0993308585
 30
0.0
 10
4.6204547166
 20
5.0992826344
 30
0.0
 10
4.6203713981
 20
5.0992314263
 30
0.0
 10
4.6203044593
 20
5.0991670303
 30
0.0
 10
4.6203044593
 20
5.0991121691
 30
0.0
  0
SPLINE
  5
36B
100
AcDbEntity
  8
0
100
AcDbSpline
 62
7
  6
CONTINUOUS
 70
0
 71
3
 72
30
 73
26
 74
0
 42
0.0000001
 43
0.0000001
 44
0.0000000001
 40
0.0
 40
0.0
 40
0.0
 40
0.0
 40
0.1871952896
 40
0.2787245436
 40
0.3677975187
 40
0.4536252493
 40
0.5354519333
 40
0.6125554172
 40
0.6842559489
 40
0.7499212211
 40
0.8089726894
 40
0.8608903732
 40
0.8840291013
 40
0.9052177575
 40
0.9244110535
 40
0.9415662249
 40
0.9566465403
 40
0.969619711
 40
0.9804581083
 40
0.9850703888
 40
0.9891416203
 40
0.9926700474
 40
0.9956552529
 40
0.9980978099
 40
1.0
 40
1.0
 40
1.0
 40
1.0
 10
4.9350543478
 20
5.1183989334
 30
0.0
 10
4.9154517567
 20
5.1180574598
 30
0.0
 10
4.8862644637
 20
5.1175491334
 30
0.0
 10
4.8477500059
 20
5.1168602128
 30
0.0
 10
4.8198506479
 20
5.116347507
 30
0.0
 10
4.7929676444
 20
5.1158349927
 30
0.0
 10
4.767338476
 20
5.1153227473
 30
0.0
 10
4.7431891972
 20
5.114810875
 30
0.0
 10
4.7207329487
 20
5.1142995088
 30
0.0
 10
4.7001678534
 20
5.1137888993
 30
0.0
 10
4.6816753577
 20
5.1132792517
 30
0.0
 10
4.6676365995
 20
5.1128407767
 30
0.0
 10
4.6575628093
 20
5.1124850338
 30
0.0
 10
4.6509150075
 20
5.1122287752
 30
0.0
 10
4.6448943763
 20
5.1119728536
 30
0.0
 10
4.6395141133
 20
5.1117173136
 30
0.0
 10
4.6347860842
 20
5.1114624152
 30
0.0
 10
4.6307206946
 20
5.111208304
 30
0.0
 10
4.6277518339
 20
5.1109876114
 30
0.0
 10
4.6257151827
 20
5.1108072057
 30
0.0
 10
4.6244425349
 20
5.1106795334
 30
0.0
 10
4.6233412397
 20
5.1105522051
 30
0.0
 10
4.6224117107
 20
5.110425469
 30
0.0
 10
4.6216543505
 20
5.1102994989
 30
0.0
 10
4.6212088152
 20
5.1102051713
 30
0.0
 10
4.6210159642
 20
5.1101551901
 30
0.0
  0
SPLINE
  5
36C
100
AcDbEntity
  8
0
100
AcDbSpline
 62
7
  6
CONTINUOUS
 70
0
 71
3
 72
39
 73
35
 74
0
 42
0.0000001
 43
0.0000001
 44
0.0000000001
 40
0.0
 40
0.0
 40
0.0
 40
0.0
 40
0.0979444355
 40
0.1949497217
 40
0.2900745509
 40
0.3824083526
 40
0.4710599774
 40
0.5551769137
 40
0.6339492164
 40
0.7066190014
 40
0.7404443597
 40
0.7724869956
 40
0.8026694717
 40
0.8309198932
 40
0.8571694413
 40
0.8813562336
 40
0.9034211076
 40
0.9233124774
 40
0.9409819537
 40
0.9563885202
 40
0.9694957869
 40
0.9802741985
 40
0.9847831153
 40
0.9887018565
 40
0.9920292883
 40
0.9947656309
 40
0.9959126753
 40
0.9969128548
 40
0.9977670223
 40
0.9984766864
 40
0.9990447433
 40
0.9992774807
 40
0.999477557
 40
1.0
 40
1.0
 40
1.0
 40
1.0
 10
4.9350543478
 20
5.1421746691
 30
0.0
 10
4.9247708686
 20
5.1419955327
 30
0.0
 10
4.9043025142
 20
5.1416389805
 30
0.0
 10
4.8738468086
 20
5.1411033409
 30
0.0
 10
4.8439803601
 20
5.140567801
 30
0.0
 10
4.8149912616
 20
5.1400324335
 30
0.0
 10
4.7871582892
 20
5.1394973033
 30
0.0
 10
4.7607496626
 20
5.1389625265
 30
0.0
 10
4.7360196269
 20
5.1384282016
 30
0.0
 10
4.7165701949
 20
5.1379733246
 30
0.0
 10
4.7020271128
 20
5.1376065472
 30
0.0
 10
4.6919445243
 20
5.1373381596
 30
0.0
 10
4.6824475704
 20
5.1370698651
 30
0.0
 10
4.6735591962
 20
5.1368017012
 30
0.0
 10
4.6653007241
 20
5.1365336714
 30
0.0
 10
4.6576921502
 20
5.1362658596
 30
0.0
 10
4.6507516819
 20
5.1359982835
 30
0.0
 10
4.6444961297
 20
5.1357310929
 30
0.0
 10
4.638940448
 20
5.1354643636
 30
0.0
 10
4.6340980255
 20
5.1351984546
 30
0.0
 10
4.6299804455
 20
5.1349335021
 30
0.0
 10
4.6270075185
 20
5.1347028477
 30
0.0
 10
4.6249995726
 20
5.1345135036
 30
0.0
 10
4.6237723152
 20
5.1343804438
 30
0.0
 10
4.6227324199
 20
5.1342478556
 30
0.0
 10
4.6219838967
 20
5.1341323984
 30
0.0
 10
4.621479849
 20
5.134037739
 30
0.0
 10
4.6211717345
 20
5.1339711021
 30
0.0
 10
4.6209107574
 20
5.1339047631
 30
0.0
 10
4.6206966395
 20
5.1338385024
 30
0.0
 10
4.6205490124
 20
5.1337808585
 30
0.0
 10
4.6204547166
 20
5.1337326344
 30
0.0
 10
4.6203713981
 20
5.1336814263
 30
0.0
 10
4.6203044593
 20
5.1336170303
 30
0.0
 10
4.6203044593
 20
5.1335621691
 30
0.0
  0
SPLINE
  5
36D
100
AcDbEntity
  8
0
100
AcDbSpline
 62
7
  6
CONTINUOUS
 70
0
 71
3
 72
30
 73
26
 74
0
 42
0.0000001
 43
0.0000001
 44
0.0000000001
 40
0.0
 40
0.0
 40
0.0
 40
0.0
 40
0.1871952896
 40
0.2787245436
 40
0.3677975187
 40
0.4536252493
 40
0.5354519333
 40
0.6125554172
 40
0.6842559489
 40
0.7499212211
 40
0.8089726894
 40
0.8608903732
 40
0.8840291013
 40
0.9052177575
 40
0.9244110535
 40
0.9415662249
 40
0.9566465403
 40
0.969619711
 40
0.9804581083
 40
0.9850703888
 40
0.9891416203
 40
0.9926700474
 40
0.9956552529
 40
0.9980978099
 40
1.0
 40
1.0
 40
1.0
 40
1.0
 10
4.9350543478
 20
5.1528489334
 30
0.0
 10
4.9154517567
 20
5.1525074598
 30
0.0
 10
4.8862644637
 20
5.1519991334
 30
0.0
 10
4.8477500059
 20
5.1513102128
 30
0.0
 10
4.8198506479
 20
5.150797507
 30
0.0
 10
4.7929676444
 20
5.1502849927
 30
0.0
 10
4.767338476
 20
5.1497727473
 30
0.0
 10
4.7431891972
 20
5.149260875
 30
0.0
 10
4.7207329487
 20
5.1487495088
 30
0.0
 10
4.7001678534
 20
5.1482388993
 30
0.0
 10
4.6816753577
 20
5.1477292517
 30
0.0
 10
4.6676365995
 20
5.1472907767
 30
0.0
 10
4.6575628093
 20
5.1469350338
 30
0.0
 10
4.6509150075
 20
5.1466787752
 30
0.0
 10
4.6448943763
 20
5.1464228536
 30
0.0
 10
4.6395141133
 20
5.1461673136
 30
0.0
 10
4.6347860842
 20
5.1459124152
 30
0.0
 10
4.6307206946
 20
5.145658304
 30
0.0
 10
4.6277518339
 20
5.1454376114
 30
0.0
 10
4.6257151827
 20
5.1452572057
 30
0.0
 10
4.6244425349
 20
5.1451295334
 30
0.0
 10
4.6233412397
 20
5.1450022051
 30
0.0
 10
4.6224117107
 20
5.144875469
 30
0.0
 10
4.6216543505
 20
5.1447494989
 30
0.0
 10
4.6212088152
 20
5.1446551713
 30
0.0
 10
4.6210159642
 20
5.1446051901
 30
0.0
  0
SPLINE
  5
36E
100
AcDbEntity
  8
0
100
AcDbSpline
 62
7
  6
CONTINUOUS
 70
0
 71
3
 72
30
 73
26
 74
0
 42
0.0000001
 43
0.0000001
 44
0.0000000001
 40
0.0
 40
0.0
 40
0.0
 40
0.0
 40
0.1871952896
 40
0.2787245436
 40
0.3677975187
 40
0.4536252493
 40
0.5354519333
 40
0.6125554172
 40
0.6842559489
 40
0.7499212211
 40
0.8089726894
 40
0.8608903732
 40
0.8840291013
 40
0.9052177575
 40
0.9244110535
 40
0.9415662249
 40
0.9566465403
 40
0.969619711
 40
0.9804581083
 40
0.9850703888
 40
0.9891416203
 40
0.9926700474
 40
0.9956552529
 40
0.9980978099
 40
1.0
 40
1.0
 40
1.0
 40
1.0
 10
4.9350543478
 20
5.1872989334
 30
0.0
 10
4.9154517567
 20
5.1869574598
 30
0.0
 10
4.8862644637
 20
5.1864491334
 30
0.0
 10
4.8477500059
 20
5.1857602128
 30
0.0
 10
4.8198506479
 20
5.185247507
 30
0.0
 10
4.7929676444
 20
5.1847349927
 30
0.0
 10
4.767338476
 20
5.1842227473
 30
0.0
 10
4.7431891972
 20
5.183710875
 30
0.0
 10
4.7207329487
 20
5.1831995088
 30
0.0
 10
4.7001678534
 20
5.1826888993
 30
0.0
 10
4.6816753577
 20
5.1821792517
 30
0.0
 10
4.6676365995
 20
5.1817407767
 30
0.0
 10
4.6575628093
 20
5.1813850338
 30
0.0
 10
4.6509150075
 20
5.1811287752
 30
0.0
 10
4.6448943763
 20
5.1808728536
 30
0.0
 10
4.6395141133
 20
5.1806173136
 30
0.0
 10
4.6347860842
 20
5.1803624152
 30
0.0
 10
4.6307206946
 20
5.180108304
 30
0.0
 10
4.6277518339
 20
5.1798876114
 30
0.0
 10
4.6257151827
 20
5.1797072057
 30
0.0
 10
4.6244425349
 20
5.1795795334
 30
0.0
 10
4.6233412397
 20
5.1794522051
 30
0.0
 10
4.6224117107
 20
5.179325469
 30
0.0
 10
4.6216543505
 20
5.1791994989
 30
0.0
 10
4.6212088152
 20
5.1791051713
 30
0.0
 10
4.6210159642
 20
5.1790551901
 30
0.0
  0
SPLINE
  5
36F
100
AcDbEntity
  8
0
100
AcDbSpline
 62
7
  6
CONTINUOUS
 70
0
 71
3
 72
39
 73
35
 74
0
 42
0.0000001
 43
0.0000001
 44
0.0000000001
 40
0.0
 40
0.0
 40
0.0
 40
0.0
 40
0.0979444361
 40
0.1949497217
 40
0.2900745568
 40
0.3824083636
 40
0.4710599932
 40
0.555176932
 40
0.633949234
 40
0.7066190177
 40
0.7404443729
 40
0.7724870063
 40
0.8026694812
 40
0.8309199019
 40
0.8571694484
 40
0.8813562385
 40
0.9034211108
 40
0.9233124793
 40
0.940981955
 40
0.9563885218
 40
0.9694957884
 40
0.9802741996
 40
0.9847831161
 40
0.9887018569
 40
0.9920292886
 40
0.9947656314
 40
0.9959126758
 40
0.9969128553
 40
0.9977670227
 40
0.9984766865
 40
0.9990447432
 40
0.9992774807
 40
0.999477557
 40
1.0
 40
1.0
 40
1.0
 40
1.0
 10
4.9350543478
 20
5.1766246691
 30
0.0
 10
4.9247708685
 20
5.1764455327
 30
0.0
 10
4.9043025141
 20
5.1760889805
 30
0.0
 10
4.8738468079
 20
5.1755533409
 30
0.0
 10
4.8439803583
 20
5.175017801
 30
0.0
 10
4.8149912582
 20
5.1744824334
 30
0.0
 10
4.7871582845
 20
5.1739473032
 30
0.0
 10
4.7607496572
 20
5.1734125264
 30
0.0
 10
4.7360196215
 20
5.1728782014
 30
0.0
 10
4.71657019
 20
5.1724233245
 30
0.0
 10
4.7020271087
 20
5.1720565471
 30
0.0
 10
4.6919445209
 20
5.1717881595
 30
0.0
 10
4.6824475674
 20
5.171519865
 30
0.0
 10
4.6735591936
 20
5.1712517011
 30
0.0
 10
4.6653007221
 20
5.1709836713
 30
0.0
 10
4.6576921487
 20
5.1707158595
 30
0.0
 10
4.6507516809
 20
5.1704482835
 30
0.0
 10
4.6444961291
 20
5.1701810929
 30
0.0
 10
4.6389404476
 20
5.1699143635
 30
0.0
 10
4.6340980251
 20
5.1696484546
 30
0.0
 10
4.6299804451
 20
5.1693835021
 30
0.0
 10
4.6270075183
 20
5.1691528477
 30
0.0
 10
4.6249995725
 20
5.1689635036
 30
0.0
 10
4.6237723152
 20
5.1688304438
 30
0.0
 10
4.6227324199
 20
5.1686978555
 30
0.0
 10
4.6219838967
 20
5.1685823984
 30
0.0
 10
4.6214798489
 20
5.168487739
 30
0.0
 10
4.6211717344
 20
5.1684211021
 30
0.0
 10
4.6209107574
 20
5.1683547631
 30
0.0
 10
4.6206966395
 20
5.1682885024
 30
0.0
 10
4.6205490124
 20
5.1682308585
 30
0.0
 10
4.6204547167
 20
5.1681826344
 30
0.0
 10
4.6203713982
 20
5.1681314262
 30
0.0
 10
4.6203044594
 20
5.1680670303
 30
0.0
 10
4.6203044594
 20
5.1680121691
 30
0.0
  0
SPLINE
  5
370
100
AcDbEntity
  8
0
100
AcDbSpline
 62
7
  6
CONTINUOUS
 70
0
 71
3
 72
39
 73
35
 74
0
 42
0.0000001
 43
0.0000001
 44
0.0000000001
 40
0.0
 40
0.0
 40
0.0
 40
0.0
 40
0.0979444355
 40
0.1949497217
 40
0.2900745509
 40
0.3824083526
 40
0.4710599774
 40
0.5551769137
 40
0.6339492164
 40
0.7066190014
 40
0.7404443597
 40
0.7724869956
 40
0.8026694717
 40
0.8309198932
 40
0.8571694413
 40
0.8813562336
 40
0.9034211076
 40
0.9233124774
 40
0.9409819537
 40
0.9563885202
 40
0.9694957869
 40
0.9802741985
 40
0.9847831153
 40
0.9887018565
 40
0.9920292883
 40
0.9947656309
 40
0.9959126753
 40
0.9969128548
 40
0.9977670223
 40
0.9984766864
 40
0.9990447433
 40
0.9992774807
 40
0.999477557
 40
1.0
 40
1.0
 40
1.0
 40
1.0
 10
4.9350543478
 20
5.2110746691
 30
0.0
 10
4.9247708686
 20
5.2108955327
 30
0.0
 10
4.9043025142
 20
5.2105389805
 30
0.0
 10
4.8738468086
 20
5.2100033409
 30
0.0
 10
4.8439803601
 20
5.209467801
 30
0.0
 10
4.8149912616
 20
5.2089324335
 30
0.0
 10
4.7871582892
 20
5.2083973033
 30
0.0
 10
4.7607496626
 20
5.2078625265
 30
0.0
 10
4.7360196269
 20
5.2073282016
 30
0.0
 10
4.7165701949
 20
5.2068733246
 30
0.0
 10
4.7020271128
 20
5.2065065472
 30
0.0
 10
4.6919445243
 20
5.2062381596
 30
0.0
 10
4.6824475704
 20
5.2059698651
 30
0.0
 10
4.6735591962
 20
5.2057017012
 30
0.0
 10
4.6653007241
 20
5.2054336714
 30
0.0
 10
4.6576921502
 20
5.2051658596
 30
0.0
 10
4.6507516819
 20
5.2048982835
 30
0.0
 10
4.6444961297
 20
5.2046310929
 30
0.0
 10
4.638940448
 20
5.2043643636
 30
0.0
 10
4.6340980255
 20
5.2040984546
 30
0.0
 10
4.6299804455
 20
5.2038335021
 30
0.0
 10
4.6270075185
 20
5.2036028477
 30
0.0
 10
4.6249995726
 20
5.2034135036
 30
0.0
 10
4.6237723152
 20
5.2032804438
 30
0.0
 10
4.6227324199
 20
5.2031478556
 30
0.0
 10
4.6219838967
 20
5.2030323984
 30
0.0
 10
4.621479849
 20
5.202937739
 30
0.0
 10
4.6211717345
 20
5.2028711021
 30
0.0
 10
4.6209107574
 20
5.2028047631
 30
0.0
 10
4.6206966395
 20
5.2027385024
 30
0.0
 10
4.6205490124
 20
5.2026808585
 30
0.0
 10
4.6204547166
 20
5.2026326344
 30
0.0
 10
4.6203713981
 20
5.2025814263
 30
0.0
 10
4.6203044593
 20
5.2025170303
 30
0.0
 10
4.6203044593
 20
5.2024621691
 30
0.0
  0
SPLINE
  5
371
100
AcDbEntity
  8
0
100
AcDbSpline
 62
7
  6
CONTINUOUS
 70
0
 71
3
 72
30
 73
26
 74
0
 42
0.0000001
 43
0.0000001
 44
0.0000000001
 40
0.0
 40
0.0
 40
0.0
 40
0.0
 40
0.1871952896
 40
0.2787245436
 40
0.3677975187
 40
0.4536252493
 40
0.5354519333
 40
0.6125554172
 40
0.6842559489
 40
0.7499212211
 40
0.8089726894
 40
0.8608903732
 40
0.8840291013
 40
0.9052177575
 40
0.9244110535
 40
0.9415662249
 40
0.9566465403
 40
0.969619711
 40
0.9804581083
 40
0.9850703888
 40
0.9891416203
 40
0.9926700474
 40
0.9956552529
 40
0.9980978099
 40
1.0
 40
1.0
 40
1.0
 40
1.0
 10
4.9350543478
 20
5.2217489334
 30
0.0
 10
4.9154517567
 20
5.2214074598
 30
0.0
 10
4.8862644637
 20
5.2208991334
 30
0.0
 10
4.8477500059
 20
5.2202102128
 30
0.0
 10
4.8198506479
 20
5.219697507
 30
0.0
 10
4.7929676444
 20
5.2191849927
 30
0.0
 10
4.767338476
 20
5.2186727473
 30
0.0
 10
4.7431891972
 20
5.218160875
 30
0.0
 10
4.7207329487
 20
5.2176495088
 30
0.0
 10
4.7001678534
 20
5.2171388993
 30
0.0
 10
4.6816753577
 20
5.2166292517
 30
0.0
 10
4.6676365995
 20
5.2161907767
 30
0.0
 10
4.6575628093
 20
5.2158350338
 30
0.0
 10
4.6509150075
 20
5.2155787752
 30
0.0
 10
4.6448943763
 20
5.2153228536
 30
0.0
 10
4.6395141133
 20
5.2150673136
 30
0.0
 10
4.6347860842
 20
5.2148124152
 30
0.0
 10
4.6307206946
 20
5.214558304
 30
0.0
 10
4.6277518339
 20
5.2143376114
 30
0.0
 10
4.6257151827
 20
5.2141572057
 30
0.0
 10
4.6244425349
 20
5.2140295334
 30
0.0
 10
4.6233412397
 20
5.2139022051
 30
0.0
 10
4.6224117107
 20
5.213775469
 30
0.0
 10
4.6216543505
 20
5.2136494989
 30
0.0
 10
4.6212088152
 20
5.2135551713
 30
0.0
 10
4.6210159642
 20
5.2135051901
 30
0.0
  0
SPLINE
  5
372
100
AcDbEntity
  8
0
100
AcDbSpline
 62
7
  6
CONTINUOUS
 70
0
 71
3
 72
39
 73
35
 74
0
 42
0.0000001
 43
0.0000001
 44
0.0000000001
 40
0.0
 40
0.0
 40
0.0
 40
0.0
 40
0.0979444355
 40
0.1949497217
 40
0.2900745509
 40
0.3824083526
 40
0.4710599774
 40
0.5551769137
 40
0.6339492164
 40
0.7066190014
 40
0.7404443597
 40
0.7724869956
 40
0.8026694717
 40
0.8309198932
 40
0.8571694413
 40
0.8813562336
 40
0.9034211076
 40
0.9233124774
 40
0.9409819537
 40
0.9563885202
 40
0.9694957869
 40
0.9802741985
 40
0.9847831153
 40
0.9887018565
 40
0.9920292883
 40
0.9947656309
 40
0.9959126753
 40
0.9969128548
 40
0.9977670223
 40
0.9984766864
 40
0.9990447433
 40
0.9992774807
 40
0.999477557
 40
1.0
 40
1.0
 40
1.0
 40
1.0
 10
4.9350543478
 20
5.2455246691
 30
0.0
 10
4.9247708686
 20
5.2453455327
 30
0.0
 10
4.9043025142
 20
5.2449889805
 30
0.0
 10
4.8738468086
 20
5.2444533409
 30
0.0
 10
4.8439803601
 20
5.243917801
 30
0.0
 10
4.8149912616
 20
5.2433824335
 30
0.0
 10
4.7871582892
 20
5.2428473033
 30
0.0
 10
4.7607496626
 20
5.2423125265
 30
0.0
 10
4.7360196269
 20
5.2417782016
 30
0.0
 10
4.7165701949
 20
5.2413233246
 30
0.0
 10
4.7020271128
 20
5.2409565472
 30
0.0
 10
4.6919445243
 20
5.2406881596
 30
0.0
 10
4.6824475704
 20
5.2404198651
 30
0.0
 10
4.6735591962
 20
5.2401517012
 30
0.0
 10
4.6653007241
 20
5.2398836714
 30
0.0
 10
4.6576921502
 20
5.2396158596
 30
0.0
 10
4.6507516819
 20
5.2393482835
 30
0.0
 10
4.6444961297
 20
5.2390810929
 30
0.0
 10
4.638940448
 20
5.2388143636
 30
0.0
 10
4.6340980255
 20
5.2385484546
 30
0.0
 10
4.6299804455
 20
5.2382835021
 30
0.0
 10
4.6270075185
 20
5.2380528477
 30
0.0
 10
4.6249995726
 20
5.2378635036
 30
0.0
 10
4.6237723152
 20
5.2377304438
 30
0.0
 10
4.6227324199
 20
5.2375978556
 30
0.0
 10
4.6219838967
 20
5.2374823984
 30
0.0
 10
4.621479849
 20
5.237387739
 30
0.0
 10
4.6211717345
 20
5.2373211021
 30
0.0
 10
4.6209107574
 20
5.2372547631
 30
0.0
 10
4.6206966395
 20
5.2371885024
 30
0.0
 10
4.6205490124
 20
5.2371308585
 30
0.0
 10
4.6204547166
 20
5.2370826344
 30
0.0
 10
4.6203713981
 20
5.2370314263
 30
0.0
 10
4.6203044593
 20
5.2369670303
 30
0.0
 10
4.6203044593
 20
5.2369121691
 30
0.0
  0
SPLINE
  5
373
100
AcDbEntity
  8
0
100
AcDbSpline
 62
7
  6
CONTINUOUS
 70
0
 71
3
 72
30
 73
26
 74
0
 42
0.0000001
 43
0.0000001
 44
0.0000000001
 40
0.0
 40
0.0
 40
0.0
 40
0.0
 40
0.1871952896
 40
0.2787245436
 40
0.3677975187
 40
0.4536252493
 40
0.5354519333
 40
0.6125554172
 40
0.6842559489
 40
0.7499212211
 40
0.8089726894
 40
0.8608903732
 40
0.8840291013
 40
0.9052177575
 40
0.9244110535
 40
0.9415662249
 40
0.9566465403
 40
0.969619711
 40
0.9804581083
 40
0.9850703888
 40
0.9891416203
 40
0.9926700474
 40
0.9956552529
 40
0.9980978099
 40
1.0
 40
1.0
 40
1.0
 40
1.0
 10
4.9350543478
 20
5.2561989334
 30
0.0
 10
4.9154517567
 20
5.2558574598
 30
0.0
 10
4.8862644637
 20
5.2553491334
 30
0.0
 10
4.8477500059
 20
5.2546602128
 30
0.0
 10
4.8198506479
 20
5.254147507
 30
0.0
 10
4.7929676444
 20
5.2536349927
 30
0.0
 10
4.767338476
 20
5.2531227473
 30
0.0
 10
4.7431891972
 20
5.252610875
 30
0.0
 10
4.7207329487
 20
5.2520995088
 30
0.0
 10
4.7001678534
 20
5.2515888993
 30
0.0
 10
4.6816753577
 20
5.2510792517
 30
0.0
 10
4.6676365995
 20
5.2506407767
 30
0.0
 10
4.6575628093
 20
5.2502850338
 30
0.0
 10
4.6509150075
 20
5.2500287752
 30
0.0
 10
4.6448943763
 20
5.2497728536
 30
0.0
 10
4.6395141133
 20
5.2495173136
 30
0.0
 10
4.6347860842
 20
5.2492624152
 30
0.0
 10
4.6307206946
 20
5.249008304
 30
0.0
 10
4.6277518339
 20
5.2487876114
 30
0.0
 10
4.6257151827
 20
5.2486072057
 30
0.0
 10
4.6244425349
 20
5.2484795334
 30
0.0
 10
4.6233412397
 20
5.2483522051
 30
0.0
 10
4.6224117107
 20
5.248225469
 30
0.0
 10
4.6216543505
 20
5.2480994989
 30
0.0
 10
4.6212088152
 20
5.2480051713
 30
0.0
 10
4.6210159642
 20
5.2479551901
 30
0.0
  0
SPLINE
  5
374
100
AcDbEntity
  8
0
100
AcDbSpline
 62
7
  6
CONTINUOUS
 70
0
 71
3
 72
39
 73
35
 74
0
 42
0.0000001
 43
0.0000001
 44
0.0000000001
 40
0.0
 40
0.0
 40
0.0
 40
0.0
 40
0.0979444355
 40
0.1949497217
 40
0.2900745509
 40
0.3824083526
 40
0.4710599774
 40
0.5551769137
 40
0.6339492164
 40
0.7066190014
 40
0.7404443597
 40
0.7724869956
 40
0.8026694717
 40
0.8309198932
 40
0.8571694413
 40
0.8813562336
 40
0.9034211076
 40
0.9233124774
 40
0.9409819537
 40
0.9563885202
 40
0.9694957869
 40
0.9802741985
 40
0.9847831153
 40
0.9887018565
 40
0.9920292883
 40
0.9947656309
 40
0.9959126753
 40
0.9969128548
 40
0.9977670223
 40
0.9984766864
 40
0.9990447433
 40
0.9992774807
 40
0.999477557
 40
1.0
 40
1.0
 40
1.0
 40
1.0
 10
4.9350543478
 20
5.2799746691
 30
0.0
 10
4.9247708686
 20
5.2797955327
 30
0.0
 10
4.9043025142
 20
5.2794389805
 30
0.0
 10
4.8738468086
 20
5.2789033409
 30
0.0
 10
4.8439803601
 20
5.278367801
 30
0.0
 10
4.8149912616
 20
5.2778324335
 30
0.0
 10
4.7871582892
 20
5.2772973033
 30
0.0
 10
4.7607496626
 20
5.2767625265
 30
0.0
 10
4.7360196269
 20
5.2762282016
 30
0.0
 10
4.7165701949
 20
5.2757733246
 30
0.0
 10
4.7020271128
 20
5.2754065472
 30
0.0
 10
4.6919445243
 20
5.2751381596
 30
0.0
 10
4.6824475704
 20
5.2748698651
 30
0.0
 10
4.6735591962
 20
5.2746017012
 30
0.0
 10
4.6653007241
 20
5.2743336714
 30
0.0
 10
4.6576921502
 20
5.2740658596
 30
0.0
 10
4.6507516819
 20
5.2737982835
 30
0.0
 10
4.6444961297
 20
5.2735310929
 30
0.0
 10
4.638940448
 20
5.2732643636
 30
0.0
 10
4.6340980255
 20
5.2729984546
 30
0.0
 10
4.6299804455
 20
5.2727335021
 30
0.0
 10
4.6270075185
 20
5.2725028477
 30
0.0
 10
4.6249995726
 20
5.2723135036
 30
0.0
 10
4.6237723152
 20
5.2721804438
 30
0.0
 10
4.6227324199
 20
5.2720478556
 30
0.0
 10
4.6219838967
 20
5.2719323984
 30
0.0
 10
4.621479849
 20
5.271837739
 30
0.0
 10
4.6211717345
 20
5.2717711021
 30
0.0
 10
4.6209107574
 20
5.2717047631
 30
0.0
 10
4.6206966395
 20
5.2716385024
 30
0.0
 10
4.6205490124
 20
5.2715808585
 30
0.0
 10
4.6204547166
 20
5.2715326344
 30
0.0
 10
4.6203713981
 20
5.2714814263
 30
0.0
 10
4.6203044593
 20
5.2714170303
 30
0.0
 10
4.6203044593
 20
5.2713621691
 30
0.0
  0
SPLINE
  5
375
100
AcDbEntity
  8
0
100
AcDbSpline
 62
7
  6
CONTINUOUS
 70
0
 71
3
 72
27
 73
23
 74
0
 42
0.0000001
 43
0.0000001
 44
0.0000000001
 40
0.0
 40
0.0
 40
0.0
 40
0.0
 40
0.183408033
 40
0.360655796
 40
0.4450972747
 40
0.5257951246
 40
0.6020702557
 40
0.6732813888
 40
0.7388297154
 40
0.7981643436
 40
0.8507870156
 40
0.8962562021
 40
0.916187155
 40
0.9341915414
 40
0.9502327911
 40
0.9642771059
 40
0.9762964324
 40
0.9862678688
 40
0.990479464
 40
0.9941727309
 40
0.9973464656
 40
1.0
 40
1.0
 40
1.0
 40
1.0
 10
4.9350543478
 20
5.2906489334
 30
0.0
 10
4.9159072238
 20
5.290315394
 30
0.0
 10
4.8782560854
 20
5.2896595383
 30
0.0
 10
4.8317900365
 20
5.2888231231
 30
0.0
 10
4.7960470958
 20
5.2881446639
 30
0.0
 10
4.7708454536
 20
5.2876442753
 30
0.0
 10
4.7470254991
 20
5.287144221
 30
0.0
 10
4.7247876983
 20
5.2866446118
 30
0.0
 10
4.7043191575
 20
5.2861456081
 30
0.0
 10
4.6857920776
 20
5.2856475367
 30
0.0
 10
4.6693623168
 20
5.2851506387
 30
0.0
 10
4.657046691
 20
5.2847216677
 30
0.0
 10
4.6483452236
 20
5.2843725852
 30
0.0
 10
4.6427149321
 20
5.2841227
 30
0.0
 10
4.6376999276
 20
5.2838732698
 30
0.0
 10
4.6333106562
 20
5.2836245144
 30
0.0
 10
4.6295562795
 20
5.2833765664
 30
0.0
 10
4.6268287902
 20
5.2831610043
 30
0.0
 10
4.6249706195
 20
5.2829844336
 30
0.0
 10
4.6238205583
 20
5.2828598608
 30
0.0
 10
4.6228342316
 20
5.2827357107
 30
0.0
 10
4.6222324217
 20
5.2826453929
 30
0.0
 10
4.6219592836
 20
5.2825989334
 30
0.0
  0
SPLINE
  5
376
100
AcDbEntity
  8
0
100
AcDbSpline
 62
7
  6
CONTINUOUS
 70
0
 71
3
 72
30
 73
26
 74
0
 42
0.0000001
 43
0.0000001
 44
0.0000000001
 40
0.0
 40
0.0
 40
0.0
 40
0.0
 40
0.1871952896
 40
0.2787245436
 40
0.3677975187
 40
0.4536252493
 40
0.5354519333
 40
0.6125554172
 40
0.6842559489
 40
0.7499212211
 40
0.8089726894
 40
0.8608903732
 40
0.8840291013
 40
0.9052177575
 40
0.9244110535
 40
0.9415662249
 40
0.9566465403
 40
0.969619711
 40
0.9804581083
 40
0.9850703888
 40
0.9891416203
 40
0.9926700474
 40
0.9956552529
 40
0.9980978099
 40
1.0
 40
1.0
 40
1.0
 40
1.0
 10
4.9350543478
 20
5.3250989334
 30
0.0
 10
4.9154517567
 20
5.3247574598
 30
0.0
 10
4.8862644637
 20
5.3242491334
 30
0.0
 10
4.8477500059
 20
5.3235602128
 30
0.0
 10
4.8198506479
 20
5.323047507
 30
0.0
 10
4.7929676444
 20
5.3225349927
 30
0.0
 10
4.767338476
 20
5.3220227473
 30
0.0
 10
4.7431891972
 20
5.321510875
 30
0.0
 10
4.7207329487
 20
5.3209995088
 30
0.0
 10
4.7001678534
 20
5.3204888993
 30
0.0
 10
4.6816753577
 20
5.3199792517
 30
0.0
 10
4.6676365995
 20
5.3195407767
 30
0.0
 10
4.6575628093
 20
5.3191850338
 30
0.0
 10
4.6509150075
 20
5.3189287752
 30
0.0
 10
4.6448943763
 20
5.3186728536
 30
0.0
 10
4.6395141133
 20
5.3184173136
 30
0.0
 10
4.6347860842
 20
5.3181624152
 30
0.0
 10
4.6307206946
 20
5.317908304
 30
0.0
 10
4.6277518339
 20
5.3176876114
 30
0.0
 10
4.6257151827
 20
5.3175072057
 30
0.0
 10
4.6244425349
 20
5.3173795334
 30
0.0
 10
4.6233412397
 20
5.3172522051
 30
0.0
 10
4.6224117107
 20
5.317125469
 30
0.0
 10
4.6216543505
 20
5.3169994989
 30
0.0
 10
4.6212088152
 20
5.3169051713
 30
0.0
 10
4.6210159642
 20
5.3168551901
 30
0.0
  0
SPLINE
  5
377
100
AcDbEntity
  8
0
100
AcDbSpline
 62
7
  6
CONTINUOUS
 70
0
 71
3
 72
27
 73
23
 74
0
 42
0.0000001
 43
0.0000001
 44
0.0000000001
 40
0.0
 40
0.0
 40
0.0
 40
0.0
 40
0.183408033
 40
0.360655796
 40
0.4450972747
 40
0.5257951246
 40
0.6020702557
 40
0.6732813888
 40
0.7388297154
 40
0.7981643436
 40
0.8507870156
 40
0.8962562021
 40
0.916187155
 40
0.9341915414
 40
0.9502327911
 40
0.9642771059
 40
0.9762964324
 40
0.9862678688
 40
0.990479464
 40
0.9941727309
 40
0.9973464656
 40
1.0
 40
1.0
 40
1.0
 40
1.0
 10
4.9350543478
 20
5.3144246691
 30
0.0
 10
4.9159072238
 20
5.3140911297
 30
0.0
 10
4.8782560854
 20
5.313435274
 30
0.0
 10
4.8317900365
 20
5.3125988588
 30
0.0
 10
4.7960470958
 20
5.3119203995
 30
0.0
 10
4.7708454536
 20
5.311420011
 30
0.0
 10
4.7470254991
 20
5.3109199567
 30
0.0
 10
4.7247876983
 20
5.3104203474
 30
0.0
 10
4.7043191575
 20
5.3099213437
 30
0.0
 10
4.6857920776
 20
5.3094232724
 30
0.0
 10
4.6693623168
 20
5.3089263744
 30
0.0
 10
4.657046691
 20
5.3084974034
 30
0.0
 10
4.6483452236
 20
5.3081483208
 30
0.0
 10
4.6427149321
 20
5.3078984357
 30
0.0
 10
4.6376999276
 20
5.3076490055
 30
0.0
 10
4.6333106562
 20
5.30740025
 30
0.0
 10
4.6295562795
 20
5.3071523021
 30
0.0
 10
4.6268287902
 20
5.30693674
 30
0.0
 10
4.6249706195
 20
5.3067601693
 30
0.0
 10
4.6238205583
 20
5.3066355964
 30
0.0
 10
4.6228342316
 20
5.3065114464
 30
0.0
 10
4.6222324217
 20
5.3064211286
 30
0.0
 10
4.6219592836
 20
5.3063746691
 30
0.0
  0
SPLINE
  5
378
100
AcDbEntity
  8
0
100
AcDbSpline
 62
7
  6
CONTINUOUS
 70
0
 71
3
 72
15
 73
11
 74
0
 42
0.0000001
 43
0.0000001
 44
0.0000000001
 40
0.0
 40
0.0
 40
0.0
 40
0.0
 40
0.2200229032
 40
0.4118002867
 40
0.5754925315
 40
0.7113757823
 40
0.8199589793
 40
0.8643296214
 40
0.9023585972
 40
1.0
 40
1.0
 40
1.0
 40
1.0
 10
4.6219592836
 20
5.3063746691
 30
0.0
 10
4.6218298851
 20
5.306352659
 30
0.0
 10
4.6215880812
 20
5.3063091691
 30
0.0
 10
4.6212518257
 20
5.30623956
 30
0.0
 10
4.6209669937
 20
5.3061702526
 30
0.0
 10
4.6207332341
 20
5.306101023
 30
0.0
 10
4.6205720082
 20
5.3060408185
 30
0.0
 10
4.6204687994
 20
5.305990371
 30
0.0
 10
4.6203787615
 20
5.3059374077
 30
0.0
 10
4.620304406
 20
5.3058704181
 30
0.0
 10
4.6203043565
 20
5.3058121691
 30
0.0
  0
SPLINE
  5
379
100
AcDbEntity
  8
0
100
AcDbSpline
 62
7
  6
CONTINUOUS
 70
0
 71
3
 72
15
 73
11
 74
0
 42
0.0000001
 43
0.0000001
 44
0.0000000001
 40
0.0
 40
0.0
 40
0.0
 40
0.0
 40
0.296838458
 40
0.4391305135
 40
0.5741813565
 40
0.6997651204
 40
0.8138123003
 40
0.9144415841
 40
0.9592029295
 40
1.0
 40
1.0
 40
1.0
 40
1.0
 10
4.9350543478
 20
4.5327489334
 30
0.0
 10
4.9083832296
 20
4.5322843274
 30
0.0
 10
4.8689270692
 20
4.5315975338
 30
0.0
 10
4.8173373298
 20
4.5306532446
 30
0.0
 10
4.7811353411
 20
4.5299556755
 30
0.0
 10
4.7474720295
 20
4.5292592548
 30
0.0
 10
4.7169026746
 20
4.5285643315
 30
0.0
 10
4.6935960919
 20
4.5279666201
 30
0.0
 10
4.6768715283
 20
4.5274803142
 30
0.0
 10
4.6691867717
 20
4.5272353988
 30
0.0
 10
4.6655226577
 20
4.5271118012
 30
0.0
  0
SPLINE
  5
37A
100
AcDbEntity
  8
0
100
AcDbSpline
 62
7
  6
CONTINUOUS
 70
0
 71
3
 72
30
 73
26
 74
0
 42
0.0000001
 43
0.0000001
 44
0.0000000001
 40
0.0
 40
0.0
 40
0.0
 40
0.0
 40
0.0019021902
 40
0.0043447472
 40
0.0073299527
 40
0.0108583799
 40
0.0149296114
 40
0.019541892
 40
0.0303802893
 40
0.0433534602
 40
0.0584337756
 40
0.0755889471
 40
0.0947822431
 40
0.1159708994
 40
0.1391096275
 40
0.1910273113
 40
0.2500787797
 40
0.3157440519
 40
0.3874445836
 40
0.4645480674
 40
0.5463747513
 40
0.6322024818
 40
0.7212754567
 40
0.8128047107
 40
1.0
 40
1.0
 40
1.0
 40
1.0
 10
5.2490927314
 20
4.8748184123
 30
0.0
 10
5.2488998804
 20
4.8747684312
 30
0.0
 10
5.248454345
 20
4.8746741035
 30
0.0
 10
5.2476969849
 20
4.8745481334
 30
0.0
 10
5.2467674559
 20
4.8744213974
 30
0.0
 10
5.2456661607
 20
4.8742940691
 30
0.0
 10
5.2443935128
 20
4.8741663968
 30
0.0
 10
5.2423568616
 20
4.8739859911
 30
0.0
 10
5.2393880009
 20
4.8737652985
 30
0.0
 10
5.2353226113
 20
4.8735111872
 30
0.0
 10
5.2305945822
 20
4.8732562889
 30
0.0
 10
5.2252143191
 20
4.8730007489
 30
0.0
 10
5.2191936879
 20
4.8727448273
 30
0.0
 10
5.2125458861
 20
4.8724885687
 30
0.0
 10
5.2024720959
 20
4.8721328258
 30
0.0
 10
5.1884333377
 20
4.8716943508
 30
0.0
 10
5.169940842
 20
4.8711847032
 30
0.0
 10
5.1493757467
 20
4.8706740936
 30
0.0
 10
5.1269194982
 20
4.8701627275
 30
0.0
 10
5.1027702194
 20
4.8696508552
 30
0.0
 10
5.077141051
 20
4.8691386097
 30
0.0
 10
5.0502580476
 20
4.8686260955
 30
0.0
 10
5.0223586896
 20
4.8681133896
 30
0.0
 10
4.9838442319
 20
4.8674244691
 30
0.0
 10
4.9546569389
 20
4.8669161427
 30
0.0
 10
4.9350543478
 20
4.8665746691
 30
0.0
  0
SPLINE
  5
37B
100
AcDbEntity
  8
0
100
AcDbSpline
 62
7
  6
CONTINUOUS
 70
0
 71
3
 72
27
 73
23
 74
0
 42
0.0000001
 43
0.0000001
 44
0.0000000001
 40
0.0
 40
0.0
 40
0.0
 40
0.0
 40
0.0023312187
 40
0.0051615168
 40
0.0084920714
 40
0.0123230404
 40
0.0214841764
 40
0.0326359597
 40
0.0457613314
 40
0.0608413499
 40
0.0778522834
 40
0.0967658892
 40
0.140178733
 40
0.1907963103
 40
0.2482873451
 40
0.3122754122
 40
0.3823398147
 40
0.4580195964
 40
0.5388174796
 40
0.6242024118
 40
0.8064586026
 40
1.0
 40
1.0
 40
1.0
 40
1.0
 10
5.2284938007
 20
4.8694812714
 30
0.0
 10
5.2283139271
 20
4.8694397675
 30
0.0
 10
5.2279130068
 20
4.8693594787
 30
0.0
 10
5.2272494836
 20
4.8692498659
 30
0.0
 10
5.2264658943
 20
4.8691398371
 30
0.0
 10
5.2251828386
 20
4.8689832647
 30
0.0
 10
5.2232803306
 20
4.8687925185
 30
0.0
 10
5.2206414988
 20
4.868573469
 30
0.0
 10
5.2175326649
 20
4.8683535991
 30
0.0
 10
5.2139589303
 20
4.8681330892
 30
0.0
 10
5.209926106
 20
4.8679121661
 30
0.0
 10
5.2036512972
 20
4.8676027923
 30
0.0
 10
5.1947156939
 20
4.8672229237
 30
0.0
 10
5.1827253322
 20
4.8667834655
 30
0.0
 10
5.1691047797
 20
4.8663429234
 30
0.0
 10
5.1539436283
 20
4.8659015104
 30
0.0
 10
5.1373416465
 20
4.8654595305
 30
0.0
 10
5.1194081419
 20
4.8650171276
 30
0.0
 10
5.1002611308
 20
4.8645744006
 30
0.0
 10
5.072676254
 20
4.8639706191
 30
0.0
 10
5.0361646582
 20
4.863225439
 30
0.0
 10
5.0064122778
 20
4.8626524881
 30
0.0
 10
4.9910892728
 20
4.8623617989
 30
0.0
  0
SPLINE
  5
37C
100
AcDbEntity
  8
0
100
AcDbSpline
 62
7
  6
CONTINUOUS
 70
0
 71
3
 72
30
 73
26
 74
0
 42
0.0000001
 43
0.0000001
 44
0.0000000001
 40
0.0
 40
0.0
 40
0.0
 40
0.0
 40
0.0019021898
 40
0.0043447465
 40
0.0073299517
 40
0.010858379
 40
0.0149296109
 40
0.0195418917
 40
0.030380289
 40
0.0433534595
 40
0.0584337741
 40
0.0755889461
 40
0.0947822431
 40
0.1159708999
 40
0.1391096272
 40
0.1910273095
 40
0.2500787753
 40
0.3157440418
 40
0.3874445733
 40
0.4645480554
 40
0.5463747422
 40
0.632202476
 40
0.7212754554
 40
0.8128047131
 40
1.0
 40
1.0
 40
1.0
 40
1.0
 10
5.2490927314
 20
4.9092684123
 30
0.0
 10
5.2488998805
 20
4.9092184312
 30
0.0
 10
5.2484543452
 20
4.9091241035
 30
0.0
 10
5.2476969851
 20
4.9089981335
 30
0.0
 10
5.2467674562
 20
4.9088713974
 30
0.0
 10
5.2456661609
 20
4.9087440691
 30
0.0
 10
5.244393513
 20
4.9086163968
 30
0.0
 10
5.2423568618
 20
4.9084359911
 30
0.0
 10
5.239388001
 20
4.9082152985
 30
0.0
 10
5.2353226116
 20
4.9079611872
 30
0.0
 10
5.2305945825
 20
4.9077062889
 30
0.0
 10
5.2252143194
 20
4.9074507489
 30
0.0
 10
5.219193688
 20
4.9071948273
 30
0.0
 10
5.2125458861
 20
4.9069385687
 30
0.0
 10
5.2024720961
 20
4.9065828258
 30
0.0
 10
5.1884333384
 20
4.9061443508
 30
0.0
 10
5.1699408437
 20
4.9056347033
 30
0.0
 10
5.1493757493
 20
4.9051240937
 30
0.0
 10
5.1269195016
 20
4.9046127276
 30
0.0
 10
5.1027702227
 20
4.9041008553
 30
0.0
 10
5.0771410539
 20
4.9035886098
 30
0.0
 10
5.0502580493
 20
4.9030760955
 30
0.0
 10
5.0223586901
 20
4.9025633896
 30
0.0
 10
4.9838442318
 20
4.9018744691
 30
0.0
 10
4.9546569386
 20
4.9013661427
 30
0.0
 10
4.9350543478
 20
4.9010246691
 30
0.0
  0
LINE
  5
37D
100
AcDbEntity
  8
0
100
AcDbLine
 62
7
  6
CONTINUOUS
 10
5.2286938233
 20
4.9039801407
 11
5.2284543156
 21
4.9039222735
  0
SPLINE
  5
37E
100
AcDbEntity
  8
0
100
AcDbSpline
 62
7
  6
CONTINUOUS
 70
0
 71
3
 72
62
 73
58
 74
0
 42
0.0000001
 43
0.0000001
 44
0.0000000001
 40
0.0
 40
0.0
 40
0.0
 40
0.0
 40
0.0011489886
 40
0.0025779869
 40
0.0042876482
 40
0.0062776288
 40
0.0110956052
 40
0.0170242372
 40
0.0240506611
 40
0.0321599794
 40
0.0413340686
 40
0.0515520954
 40
0.0627914266
 40
0.0750259764
 40
0.1023686375
 40
0.133331098
 40
0.1676312052
 40
0.2049560929
 40
0.2449652527
 40
0.2872936623
 40
0.3315549261
 40
0.3773451358
 40
0.4242461648
 40
0.4718299228
 40
0.5196620304
 40
0.5673058218
 40
0.614326417
 40
0.6602945223
 40
0.7047904926
 40
0.7474082165
 40
0.7877587076
 40
0.8254737914
 40
0.8602093762
 40
0.8916485887
 40
0.9060411058
 40
0.9195048865
 40
0.9320086537
 40
0.943524552
 40
0.9540260726
 40
0.9634895925
 40
0.9718939496
 40
0.9792199416
 40
0.9854521498
 40
0.9905767415
 40
0.9927207624
 40
0.9945847997
 40
0.9961682731
 40
0.9974712002
 40
0.9980178714
 40
0.9984950687
 40
0.9989033277
 40
0.9992435459
 40
0.9995173355
 40
0.9997278989
 40
0.9998116461
 40
0.9998830389
 40
1.0
 40
1.0
 40
1.0
 40
1.0
 10
5.2284543156
 20
4.9039222735
 30
0.0
 10
5.228234565
 20
4.9038725704
 30
0.0
 10
5.2277378598
 20
4.9037773484
 30
0.0
 10
5.2269069422
 20
4.9036486472
 30
0.0
 10
5.2259095459
 20
4.9035193281
 30
0.0
 10
5.2242495746
 20
4.9033343163
 30
0.0
 10
5.2217619926
 20
4.9031096582
 30
0.0
 10
5.2182864022
 20
4.9028520444
 30
0.0
 10
5.214163994
 20
4.9025933549
 30
0.0
 10
5.2094041953
 20
4.9023337955
 30
0.0
 10
5.2040177765
 20
4.9020737192
 30
0.0
 10
5.1980169887
 20
4.9018132477
 30
0.0
 10
5.1914155868
 20
4.9015525063
 30
0.0
 10
5.1814576836
 20
4.901191022
 30
0.0
 10
5.1676329231
 20
4.9007452439
 30
0.0
 10
5.1494816503
 20
4.9002266205
 30
0.0
 10
5.1293723034
 20
4.8997070776
 30
0.0
 10
5.1074885011
 20
4.8991868052
 30
0.0
 10
5.0840300548
 20
4.8986660461
 30
0.0
 10
5.0592111712
 20
4.8981449281
 30
0.0
 10
5.0332584685
 20
4.8976235551
 30
0.0
 10
5.0064089657
 20
4.897102002
 30
0.0
 10
4.9789078491
 20
4.8965803282
 30
0.0
 10
4.9510062741
 20
4.8960585846
 30
0.0
 10
4.9229590286
 20
4.8955368162
 30
0.0
 10
4.8950222305
 20
4.8950150666
 30
0.0
 10
4.8674510015
 20
4.8944933806
 30
0.0
 10
4.8404971285
 20
4.8939718076
 30
0.0
 10
4.8144067625
 20
4.8934504052
 30
0.0
 10
4.7894181587
 20
4.8929292483
 30
0.0
 10
4.7657594922
 20
4.8924084275
 30
0.0
 10
4.7436467928
 20
4.8918880949
 30
0.0
 10
4.7232819824
 20
4.8913683805
 30
0.0
 10
4.7074900231
 20
4.8909240397
 30
0.0
 10
4.6958684983
 20
4.8905650244
 30
0.0
 10
4.6879587282
 20
4.8903038851
 30
0.0
 10
4.6806133487
 20
4.8900428848
 30
0.0
 10
4.6738492159
 20
4.8897820891
 30
0.0
 10
4.6676817064
 20
4.8895215379
 30
0.0
 10
4.6621249081
 20
4.8892613348
 30
0.0
 10
4.6571915243
 20
4.8890016182
 30
0.0
 10
4.6528926892
 20
4.8887426523
 30
0.0
 10
4.6492382738
 20
4.8884846583
 30
0.0
 10
4.6466003006
 20
4.8882600367
 30
0.0
 10
4.6448189791
 20
4.8880756473
 30
0.0
 10
4.6437301734
 20
4.8879460726
 30
0.0
 10
4.6428076004
 20
4.887816961
 30
0.0
 10
4.6421436909
 20
4.8877045223
 30
0.0
 10
4.6416967954
 20
4.8876123514
 30
0.0
 10
4.6414235136
 20
4.8875474639
 30
0.0
 10
4.6411919774
 20
4.887482766
 30
0.0
 10
4.6410019649
 20
4.8874183556
 30
0.0
 10
4.6408533937
 20
4.8873541921
 30
0.0
 10
4.6407567553
 20
4.8872974583
 30
0.0
 10
4.6407024564
 20
4.8872501255
 30
0.0
 10
4.6406682221
 20
4.8872092126
 30
0.0
 10
4.6406543537
 20
4.8871722357
 30
0.0
 10
4.6406543643
 20
4.8871493012
 30
0.0
  0
SPLINE
  5
37F
100
AcDbEntity
  8
0
100
AcDbSpline
 62
7
  6
CONTINUOUS
 70
0
 71
3
 72
22
 73
18
 74
0
 42
0.0000001
 43
0.0000001
 44
0.0000000001
 40
0.0
 40
0.0
 40
0.0
 40
0.0
 40
0.0472865833
 40
0.095078193
 40
0.1438599507
 40
0.1940791594
 40
0.246132447
 40
0.3003622165
 40
0.3570492362
 40
0.4164209042
 40
0.4786501147
 40
0.5438612736
 40
0.6121394967
 40
0.6835278199
 40
0.7580405496
 40
0.8356604724
 40
1.0
 40
1.0
 40
1.0
 40
1.0
 10
4.721554349
 20
3.1235467819
 30
0.0
 10
4.7215543608
 20
3.1220881301
 30
0.0
 10
4.7217236487
 20
3.1191525353
 30
0.0
 10
4.7224821296
 20
3.1147711826
 30
0.0
 10
4.7237434659
 20
3.1104130298
 30
0.0
 10
4.7255030494
 20
3.1060898656
 30
0.0
 10
4.727755033
 20
3.1018115538
 30
0.0
 10
4.7304936087
 20
3.09758829
 30
0.0
 10
4.733710767
 20
3.0934288728
 30
0.0
 10
4.737398985
 20
3.0893427847
 30
0.0
 10
4.7415491339
 20
3.0853388218
 30
0.0
 10
4.7461512934
 20
3.0814256053
 30
0.0
 10
4.7511950682
 20
3.0776123371
 30
0.0
 10
4.7566683231
 20
3.0739070398
 30
0.0
 10
4.7625587996
 20
3.0703184719
 30
0.0
 10
4.7711135225
 20
3.0656107301
 30
0.0
 10
4.7778716266
 20
3.0624202643
 30
0.0
 10
4.7825261934
 20
3.0604118505
 30
0.0
  0
SPLINE
  5
380
100
AcDbEntity
  8
0
100
AcDbSpline
 62
7
  6
CONTINUOUS
 70
0
 71
3
 72
22
 73
18
 74
0
 42
0.0000001
 43
0.0000001
 44
0.0000000001
 40
0.0
 40
0.0
 40
0.0
 40
0.0
 40
0.0472858147
 40
0.0950767068
 40
0.1438576938
 40
0.1940763084
 40
0.2461291001
 40
0.3003586206
 40
0.3570456236
 40
0.4164170796
 40
0.4786463753
 40
0.5438576819
 40
0.6121363927
 40
0.6835254342
 40
0.7580384996
 40
0.8356589918
 40
1.0
 40
1.0
 40
1.0
 40
1.0
 10
4.7215543478
 20
2.5004601783
 30
0.0
 10
4.7215543478
 20
2.4990014571
 30
0.0
 10
4.7217236601
 20
2.496065719
 30
0.0
 10
4.7224822407
 20
2.4916841683
 30
0.0
 10
4.7237436488
 20
2.4873258008
 30
0.0
 10
4.7255034328
 20
2.4830024569
 30
0.0
 10
4.7277556085
 20
2.4787239459
 30
0.0
 10
4.7304944427
 20
2.4745004926
 30
0.0
 10
4.7337119208
 20
2.4703409186
 30
0.0
 10
4.7374004397
 20
2.4662546348
 30
0.0
 10
4.7415509863
 20
2.462250552
 30
0.0
 10
4.7461535484
 20
2.4583371814
 30
0.0
 10
4.7511977838
 20
2.4545237824
 30
0.0
 10
4.7566715401
 20
2.4508183905
 30
0.0
 10
4.7625625095
 20
2.4472296892
 30
0.0
 10
4.7711179902
 20
2.442521879
 30
0.0
 10
4.7778766541
 20
2.4393313361
 30
0.0
 10
4.782531617
 20
2.4373229089
 30
0.0
  0
SPLINE
  5
381
100
AcDbEntity
  8
0
100
AcDbSpline
 62
7
  6
CONTINUOUS
 70
0
 71
3
 72
39
 73
35
 74
0
 42
0.0000001
 43
0.0000001
 44
0.0000000001
 40
0.0
 40
0.0
 40
0.0
 40
0.0
 40
0.000522443
 40
0.0007225193
 40
0.0009552567
 40
0.0015233136
 40
0.0022329777
 40
0.0030871452
 40
0.0040873247
 40
0.0052343691
 40
0.0079707117
 40
0.0112981435
 40
0.0152168847
 40
0.0197258015
 40
0.0305042131
 40
0.0436114798
 40
0.0590180463
 40
0.0766875226
 40
0.0965788924
 40
0.1186437664
 40
0.1428305587
 40
0.1690801068
 40
0.1973305283
 40
0.2275130044
 40
0.2595556403
 40
0.2933809986
 40
0.3660507836
 40
0.4448230863
 40
0.5289400226
 40
0.6175916474
 40
0.7099254491
 40
0.8050502783
 40
0.9020555645
 40
1.0
 40
1.0
 40
1.0
 40
1.0
 10
5.2498042364
 20
4.9203114334
 30
0.0
 10
5.2498042364
 20
4.9202565722
 30
0.0
 10
5.2497372975
 20
4.9201921762
 30
0.0
 10
5.249653979
 20
4.920140968
 30
0.0
 10
5.2495596833
 20
4.920092744
 30
0.0
 10
5.2494120562
 20
4.9200351001
 30
0.0
 10
5.2491979382
 20
4.9199688394
 30
0.0
 10
5.2489369612
 20
4.9199025004
 30
0.0
 10
5.2486288467
 20
4.9198358635
 30
0.0
 10
5.2481247989
 20
4.9197412041
 30
0.0
 10
5.2473762757
 20
4.9196257469
 30
0.0
 10
5.2463363804
 20
4.9194931586
 30
0.0
 10
5.245109123
 20
4.9193600989
 30
0.0
 10
5.2431011771
 20
4.9191707548
 30
0.0
 10
5.2401282502
 20
4.9189401004
 30
0.0
 10
5.2360106702
 20
4.9186751478
 30
0.0
 10
5.2311682477
 20
4.9184092389
 30
0.0
 10
5.2256125659
 20
4.9181425096
 30
0.0
 10
5.2193570137
 20
4.917875319
 30
0.0
 10
5.2124165454
 20
4.9176077429
 30
0.0
 10
5.2048079715
 20
4.9173399311
 30
0.0
 10
5.1965494995
 20
4.9170719013
 30
0.0
 10
5.1876611253
 20
4.9168037374
 30
0.0
 10
5.1781641713
 20
4.9165354429
 30
0.0
 10
5.1680815828
 20
4.9162670553
 30
0.0
 10
5.1535385008
 20
4.9159002779
 30
0.0
 10
5.1340890688
 20
4.9154454009
 30
0.0
 10
5.1093590331
 20
4.914911076
 30
0.0
 10
5.0829504064
 20
4.9143762992
 30
0.0
 10
5.0551174341
 20
4.913841169
 30
0.0
 10
5.0261283356
 20
4.9133058015
 30
0.0
 10
4.9962618871
 20
4.9127702616
 30
0.0
 10
4.9658061815
 20
4.912234622
 30
0.0
 10
4.945337827
 20
4.9118780697
 30
0.0
 10
4.9350543478
 20
4.9116989334
 30
0.0
  0
SPLINE
  5
382
100
AcDbEntity
  8
0
100
AcDbSpline
 62
7
  6
CONTINUOUS
 70
0
 71
3
 72
11
 73
7
 74
0
 42
0.0000001
 43
0.0000001
 44
0.0000000001
 40
0.0
 40
0.0
 40
0.0
 40
0.0
 40
0.2241428639
 40
0.465579693
 40
0.724318003
 40
1.0
 40
1.0
 40
1.0
 40
1.0
 10
5.1271225014
 20
3.5112579565
 30
0.0
 10
5.1245130734
 20
3.5089861298
 30
0.0
 10
5.1188423934
 20
3.5045505727
 30
0.0
 10
5.1094615671
 20
3.4984471779
 30
0.0
 10
5.0989523832
 20
3.4926839607
 30
0.0
 10
5.0914681554
 20
3.4892002635
 30
0.0
 10
5.0875608155
 20
3.4875148035
 30
0.0
  0
SPLINE
  5
383
100
AcDbEntity
  8
0
100
AcDbSpline
 62
7
  6
CONTINUOUS
 70
0
 71
3
 72
22
 73
18
 74
0
 42
0.0000001
 43
0.0000001
 44
0.0000000001
 40
0.0
 40
0.0
 40
0.0
 40
0.0
 40
0.0472858147
 40
0.0950767068
 40
0.1438576938
 40
0.1940763084
 40
0.2461291001
 40
0.3003586206
 40
0.3570456236
 40
0.4164170796
 40
0.4786463753
 40
0.5438576819
 40
0.6121363927
 40
0.6835254342
 40
0.7580384996
 40
0.8356589918
 40
1.0
 40
1.0
 40
1.0
 40
1.0
 10
5.1485543478
 20
2.625077499
 30
0.0
 10
5.1485543478
 20
2.6236187779
 30
0.0
 10
5.1483850355
 20
2.6206830397
 30
0.0
 10
5.1476264549
 20
2.616301489
 30
0.0
 10
5.1463650468
 20
2.6119431215
 30
0.0
 10
5.1446052628
 20
2.6076197776
 30
0.0
 10
5.1423530871
 20
2.6033412666
 30
0.0
 10
5.1396142529
 20
2.5991178133
 30
0.0
 10
5.1363967749
 20
2.5949582393
 30
0.0
 10
5.132708256
 20
2.5908719555
 30
0.0
 10
5.1285577093
 20
2.5868678727
 30
0.0
 10
5.1239551473
 20
2.5829545021
 30
0.0
 10
5.1189109118
 20
2.5791411032
 30
0.0
 10
5.1134371555
 20
2.5754357112
 30
0.0
 10
5.1075461862
 20
2.5718470099
 30
0.0
 10
5.0989907055
 20
2.5671391997
 30
0.0
 10
5.0922320416
 20
2.5639486568
 30
0.0
 10
5.0875770786
 20
2.5619402296
 30
0.0
  0
SPLINE
  5
384
100
AcDbEntity
  8
0
100
AcDbSpline
 62
7
  6
CONTINUOUS
 70
0
 71
3
 72
21
 73
17
 74
0
 42
0.0000001
 43
0.0000001
 44
0.0000000001
 40
0.0
 40
0.0
 40
0.0
 40
0.0
 40
0.0491308533
 40
0.0986831099
 40
0.1490643642
 40
0.2006574777
 40
0.2538085253
 40
0.308824849
 40
0.3659702947
 40
0.425463095
 40
0.4874834318
 40
0.5521704819
 40
0.6898818813
 40
0.7630699988
 40
0.839162751
 40
1.0
 40
1.0
 40
1.0
 40
1.0
 10
5.1485543478
 20
2.7496948197
 30
0.0
 10
5.1485543478
 20
2.7483893496
 30
0.0
 10
5.1484190157
 20
2.7457652567
 30
0.0
 10
5.1478121933
 20
2.7418447221
 30
0.0
 10
5.1468027601
 20
2.737940351
 30
0.0
 10
5.1453929862
 20
2.7340607552
 30
0.0
 10
5.1435870331
 20
2.7302130335
 30
0.0
 10
5.1413886028
 20
2.7264045502
 30
0.0
 10
5.1388024032
 20
2.7226422731
 30
0.0
 10
5.1358341476
 20
2.7189326205
 30
0.0
 10
5.1324891557
 20
2.7152823987
 30
0.0
 10
5.1274301698
 20
2.7104017622
 30
0.0
 10
5.1217294578
 20
2.7057803338
 30
0.0
 10
5.115482352
 20
2.7014043106
 30
0.0
 10
5.1085285018
 20
2.6969789712
 30
0.0
 10
5.1030093174
 20
2.693933521
 30
0.0
 10
5.0991993266
 20
2.6919975249
 30
0.0
  0
SPLINE
  5
385
100
AcDbEntity
  8
0
100
AcDbSpline
 62
7
  6
CONTINUOUS
 70
0
 71
3
 72
22
 73
18
 74
0
 42
0.0000001
 43
0.0000001
 44
0.0000000001
 40
0.0
 40
0.0
 40
0.0
 40
0.0
 40
0.0476181918
 40
0.0957256416
 40
0.1447928404
 40
0.1952554077
 40
0.2475007456
 40
0.3018655397
 40
0.3586278714
 40
0.4180136815
 40
0.4801987946
 40
0.5453100702
 40
0.6134375093
 40
0.6846303577
 40
0.7589073989
 40
0.8362604734
 40
1.0
 40
1.0
 40
1.0
 40
1.0
 10
5.1485543478
 20
2.8743121404
 30
0.0
 10
5.1485543478
 20
2.8728818201
 30
0.0
 10
5.1483916275
 20
2.870003922
 30
0.0
 10
5.1476624707
 20
2.8657078154
 30
0.0
 10
5.1464498899
 20
2.8614334515
 30
0.0
 10
5.1447578601
 20
2.8571920334
 30
0.0
 10
5.1425920254
 20
2.8529928043
 30
0.0
 10
5.1399576098
 20
2.8488454638
 30
0.0
 10
5.136862021
 20
2.8447584416
 30
0.0
 10
5.1333124555
 20
2.8407405111
 30
0.0
 10
5.1293170782
 20
2.8368003115
 30
0.0
 10
5.1248853517
 20
2.832945744
 30
0.0
 10
5.1200267944
 20
2.829185614
 30
0.0
 10
5.1147526282
 20
2.8255276687
 30
0.0
 10
5.1090743989
 20
2.8219798646
 30
0.0
 10
5.1008249593
 20
2.817318975
 30
0.0
 10
5.0943026833
 20
2.8141505762
 30
0.0
 10
5.0898086376
 20
2.8121523001
 30
0.0
  0
SPLINE
  5
386
100
AcDbEntity
  8
0
100
AcDbSpline
 62
7
  6
CONTINUOUS
 70
0
 71
3
 72
22
 73
18
 74
0
 42
0.0000001
 43
0.0000001
 44
0.0000000001
 40
0.0
 40
0.0
 40
0.0
 40
0.0
 40
0.0472858147
 40
0.0950767068
 40
0.1438576938
 40
0.1940763084
 40
0.2461291001
 40
0.3003586206
 40
0.3570456236
 40
0.4164170796
 40
0.4786463753
 40
0.5438576819
 40
0.6121363927
 40
0.6835254342
 40
0.7580384996
 40
0.8356589918
 40
1.0
 40
1.0
 40
1.0
 40
1.0
 10
5.1485543478
 20
2.9989294611
 30
0.0
 10
5.1485543478
 20
2.99747074
 30
0.0
 10
5.1483850355
 20
2.9945350019
 30
0.0
 10
5.1476264549
 20
2.9901534512
 30
0.0
 10
5.1463650468
 20
2.9857950836
 30
0.0
 10
5.1446052628
 20
2.9814717398
 30
0.0
 10
5.1423530871
 20
2.9771932288
 30
0.0
 10
5.1396142529
 20
2.9729697755
 30
0.0
 10
5.1363967749
 20
2.9688102015
 30
0.0
 10
5.132708256
 20
2.9647239177
 30
0.0
 10
5.1285577093
 20
2.9607198348
 30
0.0
 10
5.1239551473
 20
2.9568064643
 30
0.0
 10
5.1189109118
 20
2.9529930653
 30
0.0
 10
5.1134371555
 20
2.9492876733
 30
0.0
 10
5.1075461862
 20
2.9456989721
 30
0.0
 10
5.0989907055
 20
2.9409911618
 30
0.0
 10
5.0922320416
 20
2.937800619
 30
0.0
 10
5.0875770786
 20
2.9357921918
 30
0.0
  0
SPLINE
  5
387
100
AcDbEntity
  8
0
100
AcDbSpline
 62
7
  6
CONTINUOUS
 70
0
 71
3
 72
39
 73
35
 74
0
 42
0.0000001
 43
0.0000001
 44
0.0000000001
 40
0.0
 40
0.0
 40
0.0
 40
0.0
 40
0.000522443
 40
0.0007225193
 40
0.0009552567
 40
0.0015233136
 40
0.0022329777
 40
0.0030871452
 40
0.0040873247
 40
0.0052343691
 40
0.0079707117
 40
0.0112981435
 40
0.0152168847
 40
0.0197258015
 40
0.0305042131
 40
0.0436114798
 40
0.0590180463
 40
0.0766875226
 40
0.0965788924
 40
0.1186437664
 40
0.1428305587
 40
0.1690801068
 40
0.1973305283
 40
0.2275130044
 40
0.2595556403
 40
0.2933809986
 40
0.3660507836
 40
0.4448230863
 40
0.5289400226
 40
0.6175916474
 40
0.7099254491
 40
0.8050502783
 40
0.9020555645
 40
1.0
 40
1.0
 40
1.0
 40
1.0
 10
5.2498042364
 20
4.8858614334
 30
0.0
 10
5.2498042364
 20
4.8858065722
 30
0.0
 10
5.2497372975
 20
4.8857421762
 30
0.0
 10
5.249653979
 20
4.885690968
 30
0.0
 10
5.2495596833
 20
4.885642744
 30
0.0
 10
5.2494120562
 20
4.8855851001
 30
0.0
 10
5.2491979382
 20
4.8855188394
 30
0.0
 10
5.2489369612
 20
4.8854525004
 30
0.0
 10
5.2486288467
 20
4.8853858635
 30
0.0
 10
5.2481247989
 20
4.8852912041
 30
0.0
 10
5.2473762757
 20
4.8851757469
 30
0.0
 10
5.2463363804
 20
4.8850431586
 30
0.0
 10
5.245109123
 20
4.8849100989
 30
0.0
 10
5.2431011771
 20
4.8847207548
 30
0.0
 10
5.2401282502
 20
4.8844901004
 30
0.0
 10
5.2360106702
 20
4.8842251478
 30
0.0
 10
5.2311682477
 20
4.8839592389
 30
0.0
 10
5.2256125659
 20
4.8836925096
 30
0.0
 10
5.2193570137
 20
4.883425319
 30
0.0
 10
5.2124165454
 20
4.8831577429
 30
0.0
 10
5.2048079715
 20
4.8828899311
 30
0.0
 10
5.1965494995
 20
4.8826219013
 30
0.0
 10
5.1876611253
 20
4.8823537374
 30
0.0
 10
5.1781641713
 20
4.8820854429
 30
0.0
 10
5.1680815828
 20
4.8818170553
 30
0.0
 10
5.1535385008
 20
4.8814502779
 30
0.0
 10
5.1340890688
 20
4.8809954009
 30
0.0
 10
5.1093590331
 20
4.880461076
 30
0.0
 10
5.0829504064
 20
4.8799262992
 30
0.0
 10
5.0551174341
 20
4.879391169
 30
0.0
 10
5.0261283356
 20
4.8788558015
 30
0.0
 10
4.9962618871
 20
4.8783202616
 30
0.0
 10
4.9658061815
 20
4.877784622
 30
0.0
 10
4.945337827
 20
4.8774280697
 30
0.0
 10
4.9350543478
 20
4.8772489334
 30
0.0
  0
SPLINE
  5
388
100
AcDbEntity
  8
0
100
AcDbSpline
 62
7
  6
CONTINUOUS
 70
0
 71
3
 72
63
 73
59
 74
0
 42
0.0000001
 43
0.0000001
 44
0.0000000001
 40
0.0
 40
0.0
 40
0.0
 40
0.0
 40
0.0001173489
 40
0.0001890299
 40
0.0002731513
 40
0.0004847724
 40
0.0007601022
 40
0.0011023963
 40
0.0015132542
 40
0.0019935446
 40
0.0025437731
 40
0.0038550829
 40
0.005448502
 40
0.0073243589
 40
0.0094822594
 40
0.0146398676
 40
0.0209116593
 40
0.0282845688
 40
0.0367418222
 40
0.0462650751
 40
0.0568320457
 40
0.0684192047
 40
0.0809997306
 40
0.0945449064
 40
0.1090238727
 40
0.1406475268
 40
0.1755804658
 40
0.2135019253
 40
0.2540635499
 40
0.2968926277
 40
0.3415955721
 40
0.3877614139
 40
0.4349658888
 40
0.4827750872
 40
0.5307495509
 40
0.5784483822
 40
0.625432997
 40
0.6712716331
 40
0.7155428726
 40
0.757839917
 40
0.7977740802
 40
0.8349783955
 40
0.8691111375
 40
0.8998587562
 40
0.9269391283
 40
0.9390251876
 40
0.9501041827
 40
0.9601510019
 40
0.9691423632
 40
0.9770585787
 40
0.983881284
 40
0.9895962761
 40
0.9920345312
 40
0.9941915331
 40
0.9960666554
 40
0.9976595694
 40
0.9989703604
 40
1.0
 40
1.0
 40
1.0
 40
1.0
 10
5.2294542325
 20
4.9255743013
 30
0.0
 10
5.229454238
 20
4.9255512811
 30
0.0
 10
5.2294402671
 20
4.9255141644
 30
0.0
 10
5.2294058341
 20
4.9254731226
 30
0.0
 10
5.2293511953
 20
4.925425617
 30
0.0
 10
5.2292539398
 20
4.9253686852
 30
0.0
 10
5.2291043902
 20
4.9253043032
 30
0.0
 10
5.2289130738
 20
4.9252396781
 30
0.0
 10
5.2286799123
 20
4.925174761
 30
0.0
 10
5.2284046972
 20
4.9251096526
 30
0.0
 10
5.2279546602
 20
4.9250171688
 30
0.0
 10
5.2272861753
 20
4.924904349
 30
0.0
 10
5.2263573014
 20
4.924774775
 30
0.0
 10
5.2252610449
 20
4.9246447501
 30
0.0
 10
5.2234674538
 20
4.9244597404
 30
0.0
 10
5.2208114075
 20
4.9242343504
 30
0.0
 10
5.2171320145
 20
4.9239754405
 30
0.0
 10
5.2128040291
 20
4.9237156141
 30
0.0
 10
5.2078372804
 20
4.9234549732
 30
0.0
 10
5.2022432186
 20
4.9231938945
 30
0.0
 10
5.196034589
 20
4.9229324342
 30
0.0
 10
5.1892257462
 20
4.9226707406
 30
0.0
 10
5.1818322854
 20
4.9224088473
 30
0.0
 10
5.173871219
 20
4.9221467969
 30
0.0
 10
5.1621757184
 20
4.9217865725
 30
0.0
 10
5.1462852905
 20
4.9213407117
 30
0.0
 10
5.1257965713
 20
4.9208192138
 30
0.0
 10
5.1035539959
 20
4.920297093
 30
0.0
 10
5.0797620607
 20
4.9197744841
 30
0.0
 10
5.0546395149
 20
4.9192515387
 30
0.0
 10
5.0284173749
 20
4.918728348
 30
0.0
 10
5.0013367572
 20
4.9182049866
 30
0.0
 10
4.9736466808
 20
4.9176815132
 30
0.0
 10
4.945601748
 20
4.917157978
 30
0.0
 10
4.9174598216
 20
4.9166344263
 30
0.0
 10
4.8894796801
 20
4.9161109025
 30
0.0
 10
4.8619185942
 20
4.9155874524
 30
0.0
 10
4.835030016
 20
4.9150641277
 30
0.0
 10
4.8090611683
 20
4.9145409905
 30
0.0
 10
4.7842508329
 20
4.9140181183
 30
0.0
 10
4.7608271223
 20
4.9134956193
 30
0.0
 10
4.7390054052
 20
4.9129736273
 30
0.0
 10
4.7189863349
 20
4.9124523967
 30
0.0
 10
4.7009539807
 20
4.9119321314
 30
0.0
 10
4.6872462663
 20
4.911484679
 30
0.0
 10
4.6773963505
 20
4.9111216877
 30
0.0
 10
4.6708864552
 20
4.9108600851
 30
0.0
 10
4.6649841624
 20
4.9105988156
 30
0.0
 10
4.6597029629
 20
4.9103379131
 30
0.0
 10
4.6550550516
 20
4.9100776793
 30
0.0
 10
4.6510509777
 20
4.9098181779
 30
0.0
 10
4.6481216751
 20
4.9095929416
 30
0.0
 10
4.6461074805
 20
4.9094089149
 30
0.0
 10
4.6448448678
 20
4.9092785288
 30
0.0
 10
4.6437490534
 20
4.9091484896
 30
0.0
 10
4.6428204649
 20
4.9090190124
 30
0.0
 10
4.6420595986
 20
4.9088902742
 30
0.0
 10
4.6416102932
 20
4.908794163
 30
0.0
 10
4.6414147769
 20
4.9087434617
 30
0.0
  0
SPLINE
  5
389
100
AcDbEntity
  8
0
100
AcDbSpline
 62
7
  6
CONTINUOUS
 70
0
 71
3
 72
63
 73
59
 74
0
 42
0.0000001
 43
0.0000001
 44
0.0000000001
 40
0.0
 40
0.0
 40
0.0
 40
0.0
 40
0.0001173802
 40
0.0001890939
 40
0.0002732505
 40
0.0004849245
 40
0.0007602468
 40
0.001102454
 40
0.0015131909
 40
0.0019933871
 40
0.0025436007
 40
0.003855063
 40
0.0054486598
 40
0.0073244618
 40
0.0094821264
 40
0.014639907
 40
0.02091167
 40
0.0282844908
 40
0.0367419798
 40
0.0462649229
 40
0.0568321801
 40
0.0684190751
 40
0.0809997862
 40
0.0945449375
 40
0.109023821
 40
0.1406473993
 40
0.1755804037
 40
0.213501933
 40
0.2540636515
 40
0.2968927277
 40
0.3415956009
 40
0.3877614398
 40
0.4349658838
 40
0.4827751234
 40
0.5307496143
 40
0.5784483887
 40
0.6254330136
 40
0.6712716145
 40
0.7155429172
 40
0.7578400421
 40
0.7977742133
 40
0.834978516
 40
0.8691111096
 40
0.899858676
 40
0.9269390858
 40
0.9390253099
 40
0.9501042378
 40
0.9601509917
 40
0.9691425584
 40
0.9770584818
 40
0.9838815203
 40
0.9895962138
 40
0.9920344556
 40
0.9941916894
 40
0.9960668917
 40
0.9976596395
 40
0.9989702701
 40
1.0
 40
1.0
 40
1.0
 40
1.0
 10
5.2294542883
 20
4.9600243012
 30
0.0
 10
5.2294542746
 20
4.9600012748
 30
0.0
 10
5.2294402638
 20
4.9599641603
 30
0.0
 10
5.2294057967
 20
4.9599231234
 30
0.0
 10
5.2293511232
 20
4.9598756221
 30
0.0
 10
5.2292538493
 20
4.9598186944
 30
0.0
 10
5.2291043094
 20
4.9597543105
 30
0.0
 10
5.2289130402
 20
4.9596896788
 30
0.0
 10
5.2286799412
 20
4.9596247577
 30
0.0
 10
5.2284047729
 20
4.9595596467
 30
0.0
 10
5.2279547274
 20
4.9594671614
 30
0.0
 10
5.2272861782
 20
4.9593543504
 30
0.0
 10
5.2263572489
 20
4.9592247847
 30
0.0
 10
5.2252610155
 20
4.9590947549
 30
0.0
 10
5.2234674505
 20
4.9589097198
 30
0.0
 10
5.2208114194
 20
4.958684363
 30
0.0
 10
5.2171320172
 20
4.9584254393
 30
0.0
 10
5.212804009
 20
4.9581656073
 30
0.0
 10
5.2078372919
 20
4.9579049846
 30
0.0
 10
5.20224319
 20
4.9576438816
 30
0.0
 10
5.1960346163
 20
4.9573824454
 30
0.0
 10
5.1892257339
 20
4.9571207326
 30
0.0
 10
5.1818322936
 20
4.9568588514
 30
0.0
 10
5.1738712126
 20
4.9565967963
 30
0.0
 10
5.1621757489
 20
4.956236572
 30
0.0
 10
5.1462853406
 20
4.9557907109
 30
0.0
 10
5.1257966114
 20
4.9552692133
 30
0.0
 10
5.1035539928
 20
4.9547470931
 30
0.0
 10
5.0797620277
 20
4.9542244847
 30
0.0
 10
5.0546394799
 20
4.9537015389
 30
0.0
 10
5.0284173568
 20
4.9531783478
 30
0.0
 10
5.0013367618
 20
4.9526549863
 30
0.0
 10
4.9736466862
 20
4.952131513
 30
0.0
 10
4.9456017484
 20
4.951607978
 30
0.0
 10
4.9174598219
 20
4.9510844266
 30
0.0
 10
4.8894796866
 20
4.9505609026
 30
0.0
 10
4.8619186189
 20
4.9500374523
 30
0.0
 10
4.8350300354
 20
4.9495141275
 30
0.0
 10
4.8090611686
 20
4.9489909904
 30
0.0
 10
4.7842508053
 20
4.9484681187
 30
0.0
 10
4.7608270818
 20
4.94794562
 30
0.0
 10
4.7390053964
 20
4.9474236282
 30
0.0
 10
4.7189863696
 20
4.9469023963
 30
0.0
 10
4.7009540488
 20
4.9463821316
 30
0.0
 10
4.6872463062
 20
4.9459346751
 30
0.0
 10
4.6773963643
 20
4.945571691
 30
0.0
 10
4.6708864632
 20
4.9453100868
 30
0.0
 10
4.6649841571
 20
4.9450488081
 30
0.0
 10
4.6597029868
 20
4.9447879267
 30
0.0
 10
4.6550550292
 20
4.9445276611
 30
0.0
 10
4.6510510038
 20
4.9442681967
 30
0.0
 10
4.6481216988
 20
4.9440429387
 30
0.0
 10
4.6461075208
 20
4.9438589059
 30
0.0
 10
4.6448448481
 20
4.9437285329
 30
0.0
 10
4.6437490041
 20
4.9435985
 30
0.0
 10
4.6428204655
 20
4.943469015
 30
0.0
 10
4.6420596487
 20
4.9433402617
 30
0.0
 10
4.6416103574
 20
4.9432441545
 30
0.0
 10
4.6414148206
 20
4.9431934618
 30
0.0
  0
SPLINE
  5
38A
100
AcDbEntity
  8
0
100
AcDbSpline
 62
7
  6
CONTINUOUS
 70
0
 71
3
 72
63
 73
59
 74
0
 42
0.0000001
 43
0.0000001
 44
0.0000000001
 40
0.0
 40
0.0
 40
0.0
 40
0.0
 40
0.0001173508
 40
0.0001890537
 40
0.0002732138
 40
0.0004849379
 40
0.0007603489
 40
0.001102652
 40
0.0015134586
 40
0.0019936646
 40
0.0025438034
 40
0.0038550334
 40
0.0054486337
 40
0.007324628
 40
0.0094824121
 40
0.0146398502
 40
0.0209118963
 40
0.0282845219
 40
0.0367420706
 40
0.046265108
 40
0.0568321744
 40
0.068419339
 40
0.0809997337
 40
0.0945451268
 40
0.1090238521
 40
0.140647568
 40
0.1755805936
 40
0.213502115
 40
0.2540637287
 40
0.2968927557
 40
0.3415956466
 40
0.3877614826
 40
0.4349660114
 40
0.4827752028
 40
0.5307496874
 40
0.5784484695
 40
0.6254330963
 40
0.671271782
 40
0.7155430622
 40
0.757840133
 40
0.7977742263
 40
0.8349784801
 40
0.8691111577
 40
0.8998588111
 40
0.926939311
 40
0.9390252572
 40
0.9501044702
 40
0.9601510041
 40
0.9691426433
 40
0.9770586189
 40
0.9838814749
 40
0.9895964638
 40
0.9920345317
 40
0.9941916052
 40
0.9960669045
 40
0.9976598723
 40
0.9989704635
 40
1.0
 40
1.0
 40
1.0
 40
1.0
 10
5.2294543263
 20
4.9944743013
 30
0.0
 10
5.2294543379
 20
4.9944512807
 30
0.0
 10
5.2294403591
 20
4.9944141563
 30
0.0
 10
5.2294059003
 20
4.9943731205
 30
0.0
 10
5.2293512173
 20
4.9943256168
 30
0.0
 10
5.229253908
 20
4.9942686927
 30
0.0
 10
5.2291043172
 20
4.9942043122
 30
0.0
 10
5.2289129946
 20
4.9941396827
 30
0.0
 10
5.2286798597
 20
4.9940747628
 30
0.0
 10
5.2284046905
 20
4.9940096523
 30
0.0
 10
5.2279547055
 20
4.9939171632
 30
0.0
 10
5.227286219
 20
4.9938043367
 30
0.0
 10
5.2263572954
 20
4.9936747797
 30
0.0
 10
5.2252609987
 20
4.9935447591
 30
0.0
 10
5.2234674387
 20
4.993359735
 30
0.0
 10
5.220811399
 20
4.9931343393
 30
0.0
 10
5.2171320436
 20
4.9928754566
 30
0.0
 10
5.2128040081
 20
4.9926155985
 30
0.0
 10
5.2078372982
 20
4.9923549862
 30
0.0
 10
5.2022432032
 20
4.9920938867
 30
0.0
 10
5.1960345959
 20
4.9918324371
 30
0.0
 10
5.1892257593
 20
4.9915707425
 30
0.0
 10
5.1818322811
 20
4.9913088425
 30
0.0
 10
5.1738712451
 20
4.9910468031
 30
0.0
 10
5.162175738
 20
4.9906865658
 30
0.0
 10
5.1462853288
 20
4.9902407138
 30
0.0
 10
5.1257965694
 20
4.9897192136
 30
0.0
 10
5.1035539681
 20
4.9891970938
 30
0.0
 10
5.0797620341
 20
4.9886744846
 30
0.0
 10
5.0546395122
 20
4.9881515389
 30
0.0
 10
5.028417395
 20
4.9876283478
 30
0.0
 10
5.0013367797
 20
4.9871049865
 30
0.0
 10
4.9736466966
 20
4.9865815135
 30
0.0
 10
4.9456017519
 20
4.9860579783
 30
0.0
 10
4.9174598338
 20
4.9855344266
 30
0.0
 10
4.8894796969
 20
4.9850109025
 30
0.0
 10
4.8619186099
 20
4.9844874522
 30
0.0
 10
4.835030013
 20
4.9839641278
 30
0.0
 10
4.8090611437
 20
4.9834409909
 30
0.0
 10
4.78425081
 20
4.9829181188
 30
0.0
 10
4.7608271212
 20
4.9823956197
 30
0.0
 10
4.7390054436
 20
4.9818736271
 30
0.0
 10
4.7189863922
 20
4.9813523969
 30
0.0
 10
4.7009540197
 20
4.9808321283
 30
0.0
 10
4.687246296
 20
4.9803846857
 30
0.0
 10
4.6773963355
 20
4.9800216811
 30
0.0
 10
4.6708864751
 20
4.9797600958
 30
0.0
 10
4.6649841424
 20
4.9794988031
 30
0.0
 10
4.6597029905
 20
4.9792379256
 30
0.0
 10
4.6550550435
 20
4.9789776704
 30
0.0
 10
4.6510509875
 20
4.9787181784
 30
0.0
 10
4.6481216917
 20
4.9784929541
 30
0.0
 10
4.6461075225
 20
4.9783089067
 30
0.0
 10
4.6448448974
 20
4.9781785248
 30
0.0
 10
4.6437490226
 20
4.9780484923
 30
0.0
 10
4.6428204263
 20
4.9779190267
 30
0.0
 10
4.6420596116
 20
4.9777902734
 30
0.0
 10
4.641610369
 20
4.9776941553
 30
0.0
 10
4.6414148717
 20
4.9776434617
 30
0.0
  0
SPLINE
  5
38B
100
AcDbEntity
  8
0
100
AcDbSpline
 62
7
  6
CONTINUOUS
 70
0
 71
3
 72
63
 73
59
 74
0
 42
0.0000001
 43
0.0000001
 44
0.0000000001
 40
0.0
 40
0.0
 40
0.0
 40
0.0
 40
0.0001173566
 40
0.0001890491
 40
0.0002731843
 40
0.0004848319
 40
0.0007601737
 40
0.001102467
 40
0.0015133276
 40
0.0019936223
 40
0.002543854
 40
0.0038551566
 40
0.0054485333
 40
0.007324299
 40
0.009482148
 40
0.0146397555
 40
0.0209114717
 40
0.0282843853
 40
0.0367415912
 40
0.0462647787
 40
0.0568317351
 40
0.0684188252
 40
0.080999382
 40
0.0945444884
 40
0.1090234381
 40
0.140647035
 40
0.1755799459
 40
0.21350136
 40
0.2540630065
 40
0.2968920785
 40
0.3415950198
 40
0.3877608786
 40
0.4349653493
 40
0.4827745777
 40
0.5307490837
 40
0.5784479155
 40
0.6254326045
 40
0.6712712282
 40
0.7155425386
 40
0.7578396276
 40
0.7977738248
 40
0.8349782253
 40
0.8691109578
 40
0.8998586214
 40
0.9269389971
 40
0.9390251118
 40
0.9501040872
 40
0.9601509633
 40
0.9691423156
 40
0.9770585199
 40
0.983881262
 40
0.9895962193
 40
0.9920345095
 40
0.9941915391
 40
0.9960666439
 40
0.9976595303
 40
0.9989703181
 40
1.0
 40
1.0
 40
1.0
 40
1.0
 10
5.2294543481
 20
5.028924301
 30
0.0
 10
5.2294543469
 20
5.0289012793
 30
0.0
 10
5.2294403604
 20
5.0288641642
 30
0.0
 10
5.2294059132
 20
5.0288231266
 30
0.0
 10
5.2293512579
 20
5.0287756245
 30
0.0
 10
5.2292539888
 20
5.0287186973
 30
0.0
 10
5.2291044305
 20
5.0286543167
 30
0.0
 10
5.2289131112
 20
5.0285896918
 30
0.0
 10
5.2286799479
 20
5.0285247766
 30
0.0
 10
5.2284047305
 20
5.0284596688
 30
0.0
 10
5.2279546933
 20
5.0283671856
 30
0.0
 10
5.2272862176
 20
5.0282543652
 30
0.0
 10
5.2263573718
 20
5.0281247894
 30
0.0
 10
5.2252611523
 20
5.027994759
 30
0.0
 10
5.2234675892
 20
5.0278097484
 30
0.0
 10
5.2208115671
 20
5.0275843644
 30
0.0
 10
5.2171321881
 20
5.0273254499
 30
0.0
 10
5.2128042251
 20
5.0270656269
 30
0.0
 10
5.2078374972
 20
5.0268049837
 30
0.0
 10
5.2022434595
 20
5.0265439042
 30
0.0
 10
5.196034858
 20
5.0262824463
 30
0.0
 10
5.1892260244
 20
5.0260207496
 30
0.0
 10
5.1818325835
 20
5.0257588588
 30
0.0
 10
5.1738715267
 20
5.0254968056
 30
0.0
 10
5.1621760524
 20
5.0251365831
 30
0.0
 10
5.1462856421
 20
5.0246907207
 30
0.0
 10
5.1257969453
 20
5.0241692227
 30
0.0
 10
5.1035543766
 20
5.0236471014
 30
0.0
 10
5.0797624434
 20
5.0231244923
 30
0.0
 10
5.0546398912
 20
5.0226015466
 30
0.0
 10
5.0284177454
 20
5.0220783554
 30
0.0
 10
5.0013371216
 20
5.0215549935
 30
0.0
 10
4.9736470325
 20
5.0210315198
 30
0.0
 10
4.9456020821
 20
5.0205079842
 30
0.0
 10
4.9174601369
 20
5.0199844322
 30
0.0
 10
4.8894799682
 20
5.019460908
 30
0.0
 10
4.8619188657
 20
5.0189374575
 30
0.0
 10
4.8350302572
 20
5.0184141324
 30
0.0
 10
4.8090613853
 20
5.0178909948
 30
0.0
 10
4.7842510166
 20
5.0173681224
 30
0.0
 10
4.7608272703
 20
5.0168456228
 30
0.0
 10
4.7390055283
 20
5.0163236308
 30
0.0
 10
4.7189864312
 20
5.0158023995
 30
0.0
 10
4.7009540665
 20
5.0152821342
 30
0.0
 10
4.6872463297
 20
5.0148346796
 30
0.0
 10
4.6773964045
 20
5.0144716911
 30
0.0
 10
4.6708864901
 20
5.0142100852
 30
0.0
 10
4.6649841908
 20
5.0139488179
 30
0.0
 10
4.6597029833
 20
5.0136879145
 30
0.0
 10
4.6550550681
 20
5.0134276787
 30
0.0
 10
4.651050995
 20
5.0131681816
 30
0.0
 10
4.6481216852
 20
5.0129429396
 30
0.0
 10
4.6461074845
 20
5.0127589152
 30
0.0
 10
4.6448448625
 20
5.0126285307
 30
0.0
 10
4.6437490515
 20
5.0124984903
 30
0.0
 10
4.6428204726
 20
5.0123690121
 30
0.0
 10
4.6420596046
 20
5.0122402705
 30
0.0
 10
4.6416102904
 20
5.0121441633
 30
0.0
 10
4.6414147656
 20
5.0120934617
 30
0.0
  0
SPLINE
  5
38C
100
AcDbEntity
  8
0
100
AcDbSpline
 62
7
  6
CONTINUOUS
 70
0
 71
3
 72
23
 73
19
 74
0
 42
0.0000001
 43
0.0000001
 44
0.0000000001
 40
0.0
 40
0.0
 40
0.0
 40
0.0
 40
0.1517232674
 40
0.2263387982
 40
0.2997211529
 40
0.3715800547
 40
0.4416275573
 40
0.5095916829
 40
0.5752193454
 40
0.6382809644
 40
0.6985809009
 40
0.7559706552
 40
0.8103648321
 40
0.861764767
 40
0.9102883652
 40
0.9562051717
 40
0.9783334883
 40
1.0
 40
1.0
 40
1.0
 40
1.0
 10
4.9212396968
 20
3.7186118012
 30
0.0
 10
4.9123804681
 20
3.7100971387
 30
0.0
 10
4.8992008153
 20
3.6973563376
 30
0.0
 10
4.8819802933
 20
3.6802484636
 30
0.0
 10
4.8695054799
 20
3.6675426578
 30
0.0
 10
4.8574915379
 20
3.654905496
 30
0.0
 10
4.8460309497
 20
3.6423518605
 30
0.0
 10
4.8352164926
 20
3.6298977104
 30
0.0
 10
4.8251410365
 20
3.6175596632
 30
0.0
 10
4.8158976503
 20
3.6053552179
 30
0.0
 10
4.8075792736
 20
3.5933029845
 30
0.0
 10
4.80027883
 20
3.58142232
 30
0.0
 10
4.7940889055
 20
3.5697336834
 30
0.0
 10
4.7891017858
 20
3.5582576711
 30
0.0
 10
4.7854104533
 20
3.5470180942
 30
0.0
 10
4.7834691391
 20
3.5377528879
 30
0.0
 10
4.7826879163
 20
3.5305248075
 30
0.0
 10
4.7825543519
 20
3.5269767378
 30
0.0
 10
4.7825543747
 20
3.5252220321
 30
0.0
  0
SPLINE
  5
38D
100
AcDbEntity
  8
0
100
AcDbSpline
 62
7
  6
CONTINUOUS
 70
0
 71
3
 72
30
 73
26
 74
0
 42
0.0000001
 43
0.0000001
 44
0.0000000001
 40
0.0
 40
0.0
 40
0.0
 40
0.0
 40
0.0019021902
 40
0.0043447472
 40
0.0073299527
 40
0.0108583799
 40
0.0149296114
 40
0.019541892
 40
0.0303802893
 40
0.0433534602
 40
0.0584337756
 40
0.0755889471
 40
0.0947822431
 40
0.1159708994
 40
0.1391096275
 40
0.1910273113
 40
0.2500787797
 40
0.3157440519
 40
0.3874445836
 40
0.4645480674
 40
0.5463747513
 40
0.6322024818
 40
0.7212754567
 40
0.8128047107
 40
1.0
 40
1.0
 40
1.0
 40
1.0
 10
5.2490927314
 20
4.9437184123
 30
0.0
 10
5.2488998804
 20
4.9436684312
 30
0.0
 10
5.248454345
 20
4.9435741035
 30
0.0
 10
5.2476969849
 20
4.9434481334
 30
0.0
 10
5.2467674559
 20
4.9433213974
 30
0.0
 10
5.2456661607
 20
4.9431940691
 30
0.0
 10
5.2443935128
 20
4.9430663968
 30
0.0
 10
5.2423568616
 20
4.9428859911
 30
0.0
 10
5.2393880009
 20
4.9426652985
 30
0.0
 10
5.2353226113
 20
4.9424111872
 30
0.0
 10
5.2305945822
 20
4.9421562889
 30
0.0
 10
5.2252143191
 20
4.9419007489
 30
0.0
 10
5.2191936879
 20
4.9416448273
 30
0.0
 10
5.2125458861
 20
4.9413885687
 30
0.0
 10
5.2024720959
 20
4.9410328258
 30
0.0
 10
5.1884333377
 20
4.9405943508
 30
0.0
 10
5.169940842
 20
4.9400847032
 30
0.0
 10
5.1493757467
 20
4.9395740936
 30
0.0
 10
5.1269194982
 20
4.9390627275
 30
0.0
 10
5.1027702194
 20
4.9385508552
 30
0.0
 10
5.077141051
 20
4.9380386097
 30
0.0
 10
5.0502580476
 20
4.9375260955
 30
0.0
 10
5.0223586896
 20
4.9370133896
 30
0.0
 10
4.9838442319
 20
4.9363244691
 30
0.0
 10
4.9546569389
 20
4.9358161427
 30
0.0
 10
4.9350543478
 20
4.9354746691
 30
0.0
  0
LINE
  5
38E
100
AcDbEntity
  8
0
100
AcDbLine
 62
7
  6
CONTINUOUS
 10
5.2286938813
 20
4.9384301406
 11
5.2284123554
 21
4.9383628808
  0
SPLINE
  5
38F
100
AcDbEntity
  8
0
100
AcDbSpline
 62
7
  6
CONTINUOUS
 70
0
 71
3
 72
62
 73
58
 74
0
 42
0.0000001
 43
0.0000001
 44
0.0000000001
 40
0.0
 40
0.0
 40
0.0
 40
0.0
 40
0.0011685153
 40
0.002616593
 40
0.0043449046
 40
0.0063534573
 40
0.0112077711
 40
0.0171705876
 40
0.0242301903
 40
0.0323705284
 40
0.0415741565
 40
0.0518199562
 40
0.0630849549
 40
0.0753437508
 40
0.1027286325
 40
0.1337256522
 40
0.1680526347
 40
0.205396931
 40
0.2454182419
 40
0.2877516929
 40
0.3320113524
 40
0.3777936162
 40
0.424681087
 40
0.4722462596
 40
0.5200553455
 40
0.5676724835
 40
0.6146633145
 40
0.6605994686
 40
0.7050620543
 40
0.7476457026
 40
0.7879622418
 40
0.8256440536
 40
0.8603477436
 40
0.891757087
 40
0.906135845
 40
0.9195862079
 40
0.9320779272
 40
0.9435820758
 40
0.954073224
 40
0.9635270546
 40
0.9719227537
 40
0.9792414289
 40
0.9854669314
 40
0.9905865754
 40
0.9927282706
 40
0.9945901853
 40
0.9961720014
 40
0.997473814
 40
0.9980200093
 40
0.998496722
 40
0.9989045073
 40
0.9992442962
 40
0.9995177342
 40
0.9997280542
 40
0.9998117267
 40
0.9998830757
 40
1.0
 40
1.0
 40
1.0
 40
1.0
 10
5.2284123554
 20
4.9383628808
 30
0.0
 10
5.2281886655
 20
4.9383133244
 30
0.0
 10
5.2276842778
 20
4.9382182547
 30
0.0
 10
5.226842065
 20
4.9380895585
 30
0.0
 10
5.2258336134
 20
4.9379602574
 30
0.0
 10
5.2241592327
 20
4.9377754464
 30
0.0
 10
5.221654288
 20
4.937550938
 30
0.0
 10
5.2181585622
 20
4.9372933734
 30
0.0
 10
5.2140171215
 20
4.9370348256
 30
0.0
 10
5.2092392609
 20
4.9367753656
 30
0.0
 10
5.2038358914
 20
4.9365154274
 30
0.0
 10
5.1978192529
 20
4.936255093
 30
0.0
 10
5.1912030861
 20
4.9359944777
 30
0.0
 10
5.1812278266
 20
4.9356332545
 30
0.0
 10
5.1673842527
 20
4.9351877361
 30
0.0
 10
5.1492139699
 20
4.9346693832
 30
0.0
 10
5.1290902328
 20
4.9341501131
 30
0.0
 10
5.107196566
 20
4.9336301206
 30
0.0
 10
5.0837326533
 20
4.9331096445
 30
0.0
 10
5.0589125242
 20
4.9325888117
 30
0.0
 10
5.0329626005
 20
4.9320677252
 30
0.0
 10
5.0061195901
 20
4.9315464591
 30
0.0
 10
4.9786283437
 20
4.9310250737
 30
0.0
 10
4.9507396247
 20
4.9305036191
 30
0.0
 10
4.9227078139
 20
4.9299821404
 30
0.0
 10
4.8947886347
 20
4.9294606809
 30
0.0
 10
4.867236749
 20
4.9289392848
 30
0.0
 10
4.8403034942
 20
4.9284180017
 30
0.0
 10
4.8142345287
 20
4.9278968896
 30
0.0
 10
4.7892676372
 20
4.927376023
 30
0.0
 10
4.7656305639
 20
4.9268554932
 30
0.0
 10
4.7435389169
 20
4.9263354505
 30
0.0
 10
4.7231942307
 20
4.9258160285
 30
0.0
 10
4.7074182356
 20
4.925371924
 30
0.0
 10
4.6958087462
 20
4.9250131199
 30
0.0
 10
4.6879072465
 20
4.9247521114
 30
0.0
 10
4.680569701
 20
4.9244912758
 30
0.0
 10
4.673812764
 20
4.9242306078
 30
0.0
 10
4.6676519429
 20
4.9239702153
 30
0.0
 10
4.6621011829
 20
4.9237101551
 30
0.0
 10
4.6571731933
 20
4.9234505726
 30
0.0
 10
4.6528791185
 20
4.9231917785
 30
0.0
 10
4.6492286937
 20
4.9229338872
 30
0.0
 10
4.6465936518
 20
4.9227094292
 30
0.0
 10
4.6448143045
 20
4.9225251331
 30
0.0
 10
4.6437267775
 20
4.9223956222
 30
0.0
 10
4.6428052339
 20
4.9222665732
 30
0.0
 10
4.6421420074
 20
4.9221542119
 30
0.0
 10
4.6416955497
 20
4.9220620977
 30
0.0
 10
4.6414225693
 20
4.9219972463
 30
0.0
 10
4.6411913239
 20
4.9219325832
 30
0.0
 10
4.6410015753
 20
4.9218682063
 30
0.0
 10
4.6408532213
 20
4.9218040749
 30
0.0
 10
4.6407567298
 20
4.9217473682
 30
0.0
 10
4.6407025068
 20
4.9217000651
 30
0.0
 10
4.6406683056
 20
4.9216591699
 30
0.0
 10
4.6406544284
 20
4.9216222269
 30
0.0
 10
4.6406544148
 20
4.9215993013
 30
0.0
  0
SPLINE
  5
390
100
AcDbEntity
  8
0
100
AcDbSpline
 62
7
  6
CONTINUOUS
 70
0
 71
3
 72
30
 73
26
 74
0
 42
0.0000001
 43
0.0000001
 44
0.0000000001
 40
0.0
 40
0.0
 40
0.0
 40
0.0
 40
0.0019021902
 40
0.0043447472
 40
0.0073299527
 40
0.0108583799
 40
0.0149296114
 40
0.019541892
 40
0.0303802893
 40
0.0433534602
 40
0.0584337756
 40
0.0755889471
 40
0.0947822431
 40
0.1159708994
 40
0.1391096275
 40
0.1910273113
 40
0.2500787797
 40
0.3157440519
 40
0.3874445836
 40
0.4645480674
 40
0.5463747513
 40
0.6322024818
 40
0.7212754567
 40
0.8128047107
 40
1.0
 40
1.0
 40
1.0
 40
1.0
 10
5.2490927314
 20
4.9781684123
 30
0.0
 10
5.2488998804
 20
4.9781184312
 30
0.0
 10
5.248454345
 20
4.9780241035
 30
0.0
 10
5.2476969849
 20
4.9778981334
 30
0.0
 10
5.2467674559
 20
4.9777713974
 30
0.0
 10
5.2456661607
 20
4.9776440691
 30
0.0
 10
5.2443935128
 20
4.9775163968
 30
0.0
 10
5.2423568616
 20
4.9773359911
 30
0.0
 10
5.2393880009
 20
4.9771152985
 30
0.0
 10
5.2353226113
 20
4.9768611872
 30
0.0
 10
5.2305945822
 20
4.9766062889
 30
0.0
 10
5.2252143191
 20
4.9763507489
 30
0.0
 10
5.2191936879
 20
4.9760948273
 30
0.0
 10
5.2125458861
 20
4.9758385687
 30
0.0
 10
5.2024720959
 20
4.9754828258
 30
0.0
 10
5.1884333377
 20
4.9750443508
 30
0.0
 10
5.169940842
 20
4.9745347032
 30
0.0
 10
5.1493757467
 20
4.9740240936
 30
0.0
 10
5.1269194982
 20
4.9735127275
 30
0.0
 10
5.1027702194
 20
4.9730008552
 30
0.0
 10
5.077141051
 20
4.9724886097
 30
0.0
 10
5.0502580476
 20
4.9719760955
 30
0.0
 10
5.0223586896
 20
4.9714633896
 30
0.0
 10
4.9838442319
 20
4.9707744691
 30
0.0
 10
4.9546569389
 20
4.9702661427
 30
0.0
 10
4.9350543478
 20
4.9699246691
 30
0.0
  0
LINE
  5
391
100
AcDbEntity
  8
0
100
AcDbLine
 62
7
  6
CONTINUOUS
 10
5.2286939144
 20
4.9728801407
 11
5.228371167
 21
4.9728038234
  0
SPLINE
  5
392
100
AcDbEntity
  8
0
100
AcDbSpline
 62
7
  6
CONTINUOUS
 70
0
 71
3
 72
62
 73
58
 74
0
 42
0.0000001
 43
0.0000001
 44
0.0000000001
 40
0.0
 40
0.0
 40
0.0
 40
0.0
 40
0.001187238
 40
0.0026539676
 40
0.0044005441
 40
0.0064267733
 40
0.0113157709
 40
0.0173120004
 40
0.0244030233
 40
0.0325737366
 40
0.0418054399
 40
0.0520780926
 40
0.0633678846
 40
0.0756497559
 40
0.1030752804
 40
0.1341056223
 40
0.1684586995
 40
0.2058217374
 40
0.2458546475
 40
0.2881928507
 40
0.3324507979
 40
0.3782254773
 40
0.4250998961
 40
0.4726471636
 40
0.5204340931
 40
0.5680254176
 40
0.6149876724
 40
0.6608930892
 40
0.7053235589
 40
0.7478744153
 40
0.7881580422
 40
0.8258077192
 40
0.8604806729
 40
0.8918614199
 40
0.9062268917
 40
0.9196646025
 40
0.9321442454
 40
0.943637581
 40
0.9541182605
 40
0.9635631617
 40
0.9719503771
 40
0.9792618939
 40
0.985481248
 40
0.990595599
 40
0.9927353904
 40
0.99459552
 40
0.9961755931
 40
0.9974759574
 40
0.9980216202
 40
0.9984979534
 40
0.9989054649
 40
0.9992450257
 40
0.9995182312
 40
0.999728325
 40
0.9998118998
 40
0.9998831683
 40
1.0
 40
1.0
 40
1.0
 40
1.0
 10
5.228371167
 20
4.9728038234
 30
0.0
 10
5.2281437078
 20
4.9727543948
 30
0.0
 10
5.2276318888
 20
4.9726594633
 30
0.0
 10
5.226778702
 20
4.9725307923
 30
0.0
 10
5.2257595324
 20
4.9724015291
 30
0.0
 10
5.2240713271
 20
4.9722168764
 30
0.0
 10
5.2215496731
 20
4.971992505
 30
0.0
 10
5.218034629
 20
4.9717350416
 30
0.0
 10
5.2138747802
 20
4.97147657
 30
0.0
 10
5.2090796096
 20
4.9712172583
 30
0.0
 10
5.2036598803
 20
4.9709574175
 30
0.0
 10
5.1976280227
 20
4.9706972316
 30
0.0
 10
5.1909976649
 20
4.9704367397
 30
0.0
 10
5.1810057478
 20
4.9700757572
 30
0.0
 10
5.1671441238
 20
4.9696304961
 30
0.0
 10
5.1489555113
 20
4.9691124024
 30
0.0
 10
5.1288178817
 20
4.9685933976
 30
0.0
 10
5.1069147104
 20
4.9680736751
 30
0.0
 10
5.083445592
 20
4.9675534712
 30
0.0
 10
5.0586243657
 20
4.9670329127
 30
0.0
 10
5.0326771878
 20
4.9665121022
 30
0.0
 10
5.0058404787
 20
4.9659911134
 30
0.0
 10
4.9783587553
 20
4.9654700063
 30
0.0
 10
4.9504824453
 20
4.9649488307
 30
0.0
 10
4.9224655562
 20
4.9644276311
 30
0.0
 10
4.8945633832
 20
4.9639064508
 30
0.0
 10
4.8670301599
 20
4.9633853343
 30
0.0
 10
4.8401167591
 20
4.9628643313
 30
0.0
 10
4.8140684125
 20
4.9623434995
 30
0.0
 10
4.7891224876
 20
4.9618229134
 30
0.0
 10
4.7655062894
 20
4.9613026631
 30
0.0
 10
4.7434350041
 20
4.9607828995
 30
0.0
 10
4.7231097083
 20
4.9602637568
 30
0.0
 10
4.707349081
 20
4.9598198886
 30
0.0
 10
4.6957511155
 20
4.9594612765
 30
0.0
 10
4.687857635
 20
4.9592004128
 30
0.0
 10
4.680527584
 20
4.9589397064
 30
0.0
 10
4.6737776706
 20
4.9586791981
 30
0.0
 10
4.6676232153
 20
4.9584189224
 30
0.0
 10
4.6620783186
 20
4.9581590264
 30
0.0
 10
4.6571555007
 20
4.9578995664
 30
0.0
 10
4.6528660062
 20
4.9576409164
 30
0.0
 10
4.6492194887
 20
4.9573831799
 30
0.0
 10
4.6465872558
 20
4.957158809
 30
0.0
 10
4.644809795
 20
4.9569746369
 30
0.0
 10
4.6437234104
 20
4.9568452017
 30
0.0
 10
4.6428029105
 20
4.9567162141
 30
0.0
 10
4.6421404646
 20
4.9566039048
 30
0.0
 10
4.6416945025
 20
4.9565118411
 30
0.0
 10
4.6414217731
 20
4.9564470267
 30
0.0
 10
4.6411907144
 20
4.9563824023
 30
0.0
 10
4.6410011189
 20
4.9563180663
 30
0.0
 10
4.6408529081
 20
4.9562539718
 30
0.0
 10
4.6407565352
 20
4.9561972909
 30
0.0
 10
4.640702405
 20
4.9561500102
 30
0.0
 10
4.6406682725
 20
4.9561091295
 30
0.0
 10
4.6406544532
 20
4.956072207
 30
0.0
 10
4.6406544598
 20
4.9560493012
 30
0.0
  0
SPLINE
  5
393
100
AcDbEntity
  8
0
100
AcDbSpline
 62
7
  6
CONTINUOUS
 70
0
 71
3
 72
30
 73
26
 74
0
 42
0.0000001
 43
0.0000001
 44
0.0000000001
 40
0.0
 40
0.0
 40
0.0
 40
0.0
 40
0.0019021902
 40
0.0043447472
 40
0.0073299527
 40
0.0108583799
 40
0.0149296114
 40
0.019541892
 40
0.0303802893
 40
0.0433534602
 40
0.0584337756
 40
0.0755889471
 40
0.0947822431
 40
0.1159708994
 40
0.1391096275
 40
0.1910273113
 40
0.2500787797
 40
0.3157440519
 40
0.3874445836
 40
0.4645480674
 40
0.5463747513
 40
0.6322024818
 40
0.7212754567
 40
0.8128047107
 40
1.0
 40
1.0
 40
1.0
 40
1.0
 10
5.2490927314
 20
5.0126184123
 30
0.0
 10
5.2488998804
 20
5.0125684312
 30
0.0
 10
5.248454345
 20
5.0124741035
 30
0.0
 10
5.2476969849
 20
5.0123481334
 30
0.0
 10
5.2467674559
 20
5.0122213974
 30
0.0
 10
5.2456661607
 20
5.0120940691
 30
0.0
 10
5.2443935128
 20
5.0119663968
 30
0.0
 10
5.2423568616
 20
5.0117859911
 30
0.0
 10
5.2393880009
 20
5.0115652985
 30
0.0
 10
5.2353226113
 20
5.0113111872
 30
0.0
 10
5.2305945822
 20
5.0110562889
 30
0.0
 10
5.2252143191
 20
5.0108007489
 30
0.0
 10
5.2191936879
 20
5.0105448273
 30
0.0
 10
5.2125458861
 20
5.0102885687
 30
0.0
 10
5.2024720959
 20
5.0099328258
 30
0.0
 10
5.1884333377
 20
5.0094943508
 30
0.0
 10
5.169940842
 20
5.0089847032
 30
0.0
 10
5.1493757467
 20
5.0084740936
 30
0.0
 10
5.1269194982
 20
5.0079627275
 30
0.0
 10
5.1027702194
 20
5.0074508552
 30
0.0
 10
5.077141051
 20
5.0069386097
 30
0.0
 10
5.0502580476
 20
5.0064260955
 30
0.0
 10
5.0223586896
 20
5.0059133896
 30
0.0
 10
4.9838442319
 20
5.0052244691
 30
0.0
 10
4.9546569389
 20
5.0047161427
 30
0.0
 10
4.9350543478
 20
5.0043746691
 30
0.0
  0
LINE
  5
394
100
AcDbEntity
  8
0
100
AcDbLine
 62
7
  6
CONTINUOUS
 10
5.2286938211
 20
5.0073301407
 11
5.2283280837
 21
5.0072445718
  0
SPLINE
  5
395
100
AcDbEntity
  8
0
100
AcDbSpline
 62
7
  6
CONTINUOUS
 70
0
 71
3
 72
62
 73
58
 74
0
 42
0.0000001
 43
0.0000001
 44
0.0000000001
 40
0.0
 40
0.0
 40
0.0
 40
0.0
 40
0.0012060892
 40
0.0026915476
 40
0.004456825
 40
0.0065014649
 40
0.0114256175
 40
0.0174559211
 40
0.0245792572
 40
0.0327805095
 40
0.0420414038
 40
0.0523409497
 40
0.0636564112
 40
0.075961596
 40
0.10342877
 40
0.1344932136
 40
0.1688726931
 40
0.2062547167
 40
0.2462993573
 40
0.2886424147
 40
0.3328987743
 40
0.3786656983
 40
0.4255268521
 40
0.4730557789
 40
0.5208200813
 40
0.5683852032
 40
0.6153182832
 40
0.6611923883
 40
0.7055899921
 40
0.7481072886
 40
0.7883574863
 40
0.8259745036
 40
0.8606163057
 40
0.8919679023
 40
0.9063194518
 40
0.9197444571
 40
0.9322118638
 40
0.9436939029
 40
0.954164345
 40
0.9635995569
 40
0.9719786795
 40
0.9792825212
 40
0.9854958163
 40
0.9906048435
 40
0.9927423039
 40
0.9946006472
 40
0.9961793329
 40
0.9974783383
 40
0.9980233589
 40
0.9984991184
 40
0.9989061569
 40
0.9992453761
 40
0.999518392
 40
0.9997284081
 40
0.999811964
 40
0.999883216
 40
1.0
 40
1.0
 40
1.0
 40
1.0
 10
5.2283280837
 20
5.0072445718
 30
0.0
 10
5.2280968323
 20
5.0071952811
 30
0.0
 10
5.2275775508
 20
5.0071004728
 30
0.0
 10
5.2267132712
 20
5.0069718188
 30
0.0
 10
5.2256831424
 20
5.0068426019
 30
0.0
 10
5.2239807931
 20
5.0066581532
 30
0.0
 10
5.2214420788
 20
5.006433871
 30
0.0
 10
5.217907331
 20
5.0061765262
 30
0.0
 10
5.2137287519
 20
5.0059181528
 30
0.0
 10
5.2089158646
 20
5.005658954
 30
0.0
 10
5.2034795337
 20
5.0053992589
 30
0.0
 10
5.1974320815
 20
5.0051391829
 30
0.0
 10
5.190787328
 20
5.0048788469
 30
0.0
 10
5.1807783719
 20
5.0045180874
 30
0.0
 10
5.1668983464
 20
5.0040731058
 30
0.0
 10
5.1486910538
 20
5.0035552725
 30
0.0
 10
5.1285393362
 20
5.0030365384
 30
0.0
 10
5.1066265971
 20
5.0025170907
 30
0.0
 10
5.0831522539
 20
5.001997165
 30
0.0
 10
5.0583299386
 20
5.0014768871
 30
0.0
 10
5.0323855771
 20
5.0009563591
 30
0.0
 10
5.0055553038
 20
5.0004356539
 30
0.0
 10
4.9780833495
 20
4.9999148309
 30
0.0
 10
4.9502197541
 20
4.9993939396
 30
0.0
 10
4.9222181269
 20
4.9988730251
 30
0.0
 10
4.8943333315
 20
4.9983521304
 30
0.0
 10
4.8668191611
 20
4.9978312999
 30
0.0
 10
4.8399260734
 20
4.997310583
 30
0.0
 10
4.8138988351
 20
4.9967900369
 30
0.0
 10
4.7889743514
 20
4.9962697362
 30
0.0
 10
4.7653794546
 20
4.9957497717
 30
0.0
 10
4.7433288832
 20
4.9952302948
 30
0.0
 10
4.7230233322
 20
4.9947114353
 30
0.0
 10
4.7072784347
 20
4.9942678181
 30
0.0
 10
4.6956922721
 20
4.9939093879
 30
0.0
 10
4.6878070008
 20
4.993648679
 30
0.0
 10
4.6804846027
 20
4.9933881108
 30
0.0
 10
4.673741815
 20
4.9931277428
 30
0.0
 10
4.6675939408
 20
4.9928676248
 30
0.0
 10
4.6620549534
 20
4.9926078481
 30
0.0
 10
4.6571374931
 20
4.9923485626
 30
0.0
 10
4.6528526007
 20
4.9920900228
 30
0.0
 10
4.6492100914
 20
4.9918324522
 30
0.0
 10
4.6465807442
 20
4.9916082052
 30
0.0
 10
4.6448052698
 20
4.9914241177
 30
0.0
 10
4.643720046
 20
4.9912947551
 30
0.0
 10
4.6428005009
 20
4.9911658579
 30
0.0
 10
4.6421387695
 20
4.9910536066
 30
0.0
 10
4.6416933485
 20
4.990961587
 30
0.0
 10
4.6414209729
 20
4.990896806
 30
0.0
 10
4.6411902064
 20
4.990832214
 30
0.0
 10
4.6410008248
 20
4.990767908
 30
0.0
 10
4.640852743
 20
4.9907038478
 30
0.0
 10
4.6407564249
 20
4.9906472048
 30
0.0
 10
4.6407023052
 20
4.9905999544
 30
0.0
 10
4.6406681726
 20
4.9905591013
 30
0.0
 10
4.6406543463
 20
4.990522196
 30
0.0
 10
4.6406543528
 20
4.9904993012
 30
0.0
  0
SPLINE
  5
396
100
AcDbEntity
  8
0
100
AcDbSpline
 62
7
  6
CONTINUOUS
 70
0
 71
3
 72
30
 73
26
 74
0
 42
0.0000001
 43
0.0000001
 44
0.0000000001
 40
0.0
 40
0.0
 40
0.0
 40
0.0
 40
0.0019022053
 40
0.0043446701
 40
0.0073297941
 40
0.0108582678
 40
0.0149295475
 40
0.019541789
 40
0.0303801543
 40
0.0433534687
 40
0.0584336933
 40
0.0755889774
 40
0.0947822019
 40
0.1159709164
 40
0.1391096666
 40
0.1910273922
 40
0.2500788586
 40
0.3157441441
 40
0.3874446294
 40
0.4645481165
 40
0.5463748051
 40
0.6322025231
 40
0.7212755229
 40
0.8128046808
 40
1.0
 40
1.0
 40
1.0
 40
1.0
 10
5.2490926708
 20
5.0470684124
 30
0.0
 10
5.2488998173
 20
5.0470184349
 30
0.0
 10
5.2484542907
 20
5.0469241067
 30
0.0
 10
5.247696948
 20
5.0467981327
 30
0.0
 10
5.2467674332
 20
5.0466713927
 30
0.0
 10
5.2456661365
 20
5.0465440666
 30
0.0
 10
5.2443934831
 20
5.0464163948
 30
0.0
 10
5.2423568348
 20
5.0462359868
 30
0.0
 10
5.239387967
 20
5.0460152942
 30
0.0
 10
5.2353225757
 20
5.0457611885
 30
0.0
 10
5.2305945305
 20
5.0455062839
 30
0.0
 10
5.2252142735
 20
5.0452507489
 30
0.0
 10
5.2191936331
 20
5.0449948238
 30
0.0
 10
5.2125458316
 20
5.0447385674
 30
0.0
 10
5.2024720305
 20
5.0443828235
 30
0.0
 10
5.1884332685
 20
5.0439443492
 30
0.0
 10
5.1699407708
 20
5.0434347017
 30
0.0
 10
5.1493756831
 20
5.0429240922
 30
0.0
 10
5.126919442
 20
5.0424127261
 30
0.0
 10
5.1027701718
 20
5.0419008542
 30
0.0
 10
5.0771410088
 20
5.0413886089
 30
0.0
 10
5.0502580087
 20
5.0408760948
 30
0.0
 10
5.0223586648
 20
5.0403633892
 30
0.0
 10
4.9838442188
 20
5.0396744689
 30
0.0
 10
4.9546569383
 20
5.0391661426
 30
0.0
 10
4.9350543478
 20
5.0388246691
 30
0.0
  0
LINE
  5
397
100
AcDbEntity
  8
0
100
AcDbLine
 62
7
  6
CONTINUOUS
 10
5.2286938583
 20
5.0417801407
 11
5.2282841485
 21
5.041685309
  0
SPLINE
  5
398
100
AcDbEntity
  8
0
100
AcDbSpline
 62
7
  6
CONTINUOUS
 70
0
 71
3
 72
62
 73
58
 74
0
 42
0.0000001
 43
0.0000001
 44
0.0000000001
 40
0.0
 40
0.0
 40
0.0
 40
0.0
 40
0.0012253258
 40
0.0027295398
 40
0.0045131333
 40
0.0065760177
 40
0.0115358961
 40
0.0175998141
 40
0.0247557781
 40
0.0329875213
 40
0.0422774163
 40
0.0526042389
 40
0.0639448983
 40
0.0762739191
 40
0.1037825413
 40
0.1348808695
 40
0.1692867541
 40
0.2066877756
 40
0.2467443253
 40
0.2890923238
 40
0.3333470036
 40
0.3791061516
 40
0.4259539119
 40
0.4734645715
 40
0.5212062815
 40
0.5687451333
 40
0.6156490495
 40
0.6614917134
 40
0.7058565637
 40
0.7483404315
 40
0.788557247
 40
0.8261416457
 40
0.8607520748
 40
0.8920743658
 40
0.9064124833
 40
0.9198242897
 40
0.9322798518
 40
0.9437503803
 40
0.954210592
 40
0.9636363838
 40
0.972006935
 40
0.9793036519
 40
0.9855103276
 40
0.9906144946
 40
0.9927497225
 40
0.9946059792
 40
0.9961829855
 40
0.9974808754
 40
0.9980254539
 40
0.9985007723
 40
0.9989073664
 40
0.9992461707
 40
0.9995188348
 40
0.9997285943
 40
0.9998120655
 40
0.9998832629
 40
1.0
 40
1.0
 40
1.0
 40
1.0
 10
5.2282841485
 20
5.041685309
 30
0.0
 10
5.2280490334
 20
5.0416361519
 30
0.0
 10
5.2275222089
 20
5.0415414891
 30
0.0
 10
5.2266468392
 20
5.0414128435
 30
0.0
 10
5.2256058633
 20
5.0412836459
 30
0.0
 10
5.2238893737
 20
5.0410993895
 30
0.0
 10
5.2213336121
 20
5.0408752593
 30
0.0
 10
5.2177790916
 20
5.0406179677
 30
0.0
 10
5.2135818273
 20
5.0403597351
 30
0.0
 10
5.2087512201
 20
5.0401006353
 30
0.0
 10
5.2032982712
 20
5.0398410761
 30
0.0
 10
5.1972352905
 20
5.039581137
 30
0.0
 10
5.1905760706
 20
5.0393209251
 30
0.0
 10
5.1805501232
 20
5.038960423
 30
0.0
 10
5.1666517025
 20
5.038515697
 30
0.0
 10
5.1484258441
 20
5.0379981311
 30
0.0
 10
5.1282601138
 20
5.0374796665
 30
0.0
 10
5.1063378067
 20
5.0369604949
 30
0.0
 10
5.0828582243
 20
5.0364408487
 30
0.0
 10
5.0580348275
 20
5.0359208523
 30
0.0
 10
5.0320933301
 20
5.0354006068
 30
0.0
 10
5.0052695835
 20
5.034880185
 30
0.0
 10
4.9778074573
 20
5.0343596463
 30
0.0
 10
4.9499566249
 20
5.0338390404
 30
0.0
 10
4.9219702958
 20
5.0333184117
 30
0.0
 10
4.894102926
 20
5.0327978031
 30
0.0
 10
4.8666078878
 20
5.0322772587
 30
0.0
 10
4.839735156
 20
5.0317568278
 30
0.0
 10
4.8137290437
 20
5.0312365681
 30
0.0
 10
4.7888259823
 20
5.0307165542
 30
0.0
 10
4.76525238
 20
5.0301968765
 30
0.0
 10
4.7432225822
 20
5.0296776857
 30
0.0
 10
4.7229368723
 20
5.0291591148
 30
0.0
 10
4.7072077067
 20
5.0287157293
 30
0.0
 10
4.6956333948
 20
5.0283575094
 30
0.0
 10
4.6877562693
 20
5.0280969286
 30
0.0
 10
4.6804415961
 20
5.0278365224
 30
0.0
 10
4.6737059084
 20
5.0275762832
 30
0.0
 10
4.6675646127
 20
5.0273163166
 30
0.0
 10
4.6620315811
 20
5.0270566872
 30
0.0
 10
4.6571194218
 20
5.026797527
 30
0.0
 10
4.65283923
 20
5.0265391628
 30
0.0
 10
4.6492006497
 20
5.0262816917
 30
0.0
 10
4.6465741894
 20
5.026057602
 30
0.0
 10
4.6448006511
 20
5.0258736114
 30
0.0
 10
4.643716688
 20
5.0257443122
 30
0.0
 10
4.6427981728
 20
5.025615474
 30
0.0
 10
4.642137125
 20
5.025503296
 30
0.0
 10
4.6416921273
 20
5.025411335
 30
0.0
 10
4.6414200323
 20
5.0253465916
 30
0.0
 10
4.6411895396
 20
5.0252820343
 30
0.0
 10
4.6410004133
 20
5.0252177618
 30
0.0
 10
4.640852549
 20
5.0251537339
 30
0.0
 10
4.6407563831
 20
5.0250971173
 30
0.0
 10
4.6407023498
 20
5.0250498953
 30
0.0
 10
4.6406682614
 20
5.0250090576
 30
0.0
 10
4.6406544426
 20
5.0249721851
 30
0.0
 10
4.6406544303
 20
5.0249493013
 30
0.0
  0
SPLINE
  5
399
100
AcDbEntity
  8
0
100
AcDbSpline
 62
7
  6
CONTINUOUS
 70
0
 71
3
 72
39
 73
35
 74
0
 42
0.0000001
 43
0.0000001
 44
0.0000000001
 40
0.0
 40
0.0
 40
0.0
 40
0.0
 40
0.000522443
 40
0.0007225193
 40
0.0009552567
 40
0.0015233136
 40
0.0022329777
 40
0.0030871452
 40
0.0040873247
 40
0.0052343691
 40
0.0079707117
 40
0.0112981435
 40
0.0152168847
 40
0.0197258015
 40
0.0305042131
 40
0.0436114798
 40
0.0590180463
 40
0.0766875226
 40
0.0965788924
 40
0.1186437664
 40
0.1428305587
 40
0.1690801068
 40
0.1973305283
 40
0.2275130044
 40
0.2595556403
 40
0.2933809986
 40
0.3660507836
 40
0.4448230863
 40
0.5289400226
 40
0.6175916474
 40
0.7099254491
 40
0.8050502783
 40
0.9020555645
 40
1.0
 40
1.0
 40
1.0
 40
1.0
 10
5.2498042364
 20
4.5413614334
 30
0.0
 10
5.2498042364
 20
4.5413065722
 30
0.0
 10
5.2497372975
 20
4.5412421762
 30
0.0
 10
5.249653979
 20
4.541190968
 30
0.0
 10
5.2495596833
 20
4.541142744
 30
0.0
 10
5.2494120562
 20
4.5410851001
 30
0.0
 10
5.2491979382
 20
4.5410188394
 30
0.0
 10
5.2489369612
 20
4.5409525004
 30
0.0
 10
5.2486288467
 20
4.5408858635
 30
0.0
 10
5.2481247989
 20
4.5407912041
 30
0.0
 10
5.2473762757
 20
4.5406757469
 30
0.0
 10
5.2463363804
 20
4.5405431586
 30
0.0
 10
5.245109123
 20
4.5404100989
 30
0.0
 10
5.2431011771
 20
4.5402207548
 30
0.0
 10
5.2401282502
 20
4.5399901004
 30
0.0
 10
5.2360106702
 20
4.5397251478
 30
0.0
 10
5.2311682477
 20
4.5394592389
 30
0.0
 10
5.2256125659
 20
4.5391925096
 30
0.0
 10
5.2193570137
 20
4.538925319
 30
0.0
 10
5.2124165454
 20
4.5386577429
 30
0.0
 10
5.2048079715
 20
4.5383899311
 30
0.0
 10
5.1965494995
 20
4.5381219013
 30
0.0
 10
5.1876611253
 20
4.5378537374
 30
0.0
 10
5.1781641713
 20
4.5375854429
 30
0.0
 10
5.1680815828
 20
4.5373170553
 30
0.0
 10
5.1535385008
 20
4.5369502779
 30
0.0
 10
5.1340890688
 20
4.5364954009
 30
0.0
 10
5.1093590331
 20
4.535961076
 30
0.0
 10
5.0829504064
 20
4.5354262992
 30
0.0
 10
5.0551174341
 20
4.534891169
 30
0.0
 10
5.0261283356
 20
4.5343558015
 30
0.0
 10
4.9962618871
 20
4.5338202616
 30
0.0
 10
4.9658061815
 20
4.533284622
 30
0.0
 10
4.945337827
 20
4.5329280697
 30
0.0
 10
4.9350543478
 20
4.5327489334
 30
0.0
  0
SPLINE
  5
39A
100
AcDbEntity
  8
0
100
AcDbSpline
 62
7
  6
CONTINUOUS
 70
0
 71
3
 72
22
 73
18
 74
0
 42
0.0000001
 43
0.0000001
 44
0.0000000001
 40
0.0
 40
0.0
 40
0.0
 40
0.0
 40
0.1643410082
 40
0.2419615004
 40
0.3164745658
 40
0.3878636073
 40
0.4561423181
 40
0.5213536247
 40
0.5835829204
 40
0.6429543764
 40
0.6996413794
 40
0.7538708999
 40
0.8059236916
 40
0.8561423062
 40
0.9049232932
 40
0.9527141853
 40
1.0
 40
1.0
 40
1.0
 40
1.0
 10
5.0875770786
 20
2.4373229089
 30
0.0
 10
5.0922320416
 20
2.4393313361
 30
0.0
 10
5.0989907055
 20
2.442521879
 30
0.0
 10
5.1075461862
 20
2.4472296892
 30
0.0
 10
5.1134371555
 20
2.4508183905
 30
0.0
 10
5.1189109118
 20
2.4545237824
 30
0.0
 10
5.1239551473
 20
2.4583371814
 30
0.0
 10
5.1285577093
 20
2.462250552
 30
0.0
 10
5.132708256
 20
2.4662546348
 30
0.0
 10
5.1363967749
 20
2.4703409186
 30
0.0
 10
5.1396142529
 20
2.4745004926
 30
0.0
 10
5.1423530871
 20
2.4787239459
 30
0.0
 10
5.1446052628
 20
2.4830024569
 30
0.0
 10
5.1463650468
 20
2.4873258008
 30
0.0
 10
5.1476264549
 20
2.4916841683
 30
0.0
 10
5.1483850355
 20
2.496065719
 30
0.0
 10
5.1485543478
 20
2.4990014571
 30
0.0
 10
5.1485543478
 20
2.5004601783
 30
0.0
  0
SPLINE
  5
39B
100
AcDbEntity
  8
0
100
AcDbSpline
 62
7
  6
CONTINUOUS
 70
0
 71
3
 72
22
 73
18
 74
0
 42
0.0000001
 43
0.0000001
 44
0.0000000001
 40
0.0
 40
0.0
 40
0.0
 40
0.0
 40
0.1637395266
 40
0.2410926011
 40
0.3153696423
 40
0.3865624907
 40
0.4546899298
 40
0.5198012054
 40
0.5819863185
 40
0.6413721286
 40
0.6981344603
 40
0.7524992544
 40
0.8047445923
 40
0.8552071596
 40
0.9042743584
 40
0.9523818082
 40
1.0
 40
1.0
 40
1.0
 40
1.0
 10
4.780300058
 20
2.8121523001
 30
0.0
 10
4.7758060123
 20
2.8141505762
 30
0.0
 10
4.7692837364
 20
2.817318975
 30
0.0
 10
4.7610342967
 20
2.8219798646
 30
0.0
 10
4.7553560675
 20
2.8255276687
 30
0.0
 10
4.7500819012
 20
2.829185614
 30
0.0
 10
4.7452233439
 20
2.832945744
 30
0.0
 10
4.7407916175
 20
2.8368003115
 30
0.0
 10
4.7367962402
 20
2.8407405111
 30
0.0
 10
4.7332466747
 20
2.8447584416
 30
0.0
 10
4.7301510858
 20
2.8488454638
 30
0.0
 10
4.7275166702
 20
2.8529928043
 30
0.0
 10
4.7253508356
 20
2.8571920334
 30
0.0
 10
4.7236588058
 20
2.8614334515
 30
0.0
 10
4.722446225
 20
2.8657078154
 30
0.0
 10
4.7217170682
 20
2.870003922
 30
0.0
 10
4.7215543478
 20
2.8728818201
 30
0.0
 10
4.7215543478
 20
2.8743121404
 30
0.0
  0
SPLINE
  5
39C
100
AcDbEntity
  8
0
100
AcDbSpline
 62
7
  6
CONTINUOUS
 70
0
 71
3
 72
21
 73
17
 74
0
 42
0.0000001
 43
0.0000001
 44
0.0000000001
 40
0.0
 40
0.0
 40
0.0
 40
0.0
 40
0.160837249
 40
0.2369300012
 40
0.3101181187
 40
0.4478295181
 40
0.5125165682
 40
0.574536905
 40
0.6340297053
 40
0.691175151
 40
0.7461914747
 40
0.7993425223
 40
0.8509356358
 40
0.9013168901
 40
0.9508691467
 40
1.0
 40
1.0
 40
1.0
 40
1.0
 10
4.7709093691
 20
2.6919975249
 30
0.0
 10
4.7670993782
 20
2.693933521
 30
0.0
 10
4.7615801938
 20
2.6969789712
 30
0.0
 10
4.7546263437
 20
2.7014043106
 30
0.0
 10
4.7483792379
 20
2.7057803338
 30
0.0
 10
4.7426785259
 20
2.7104017622
 30
0.0
 10
4.7376195399
 20
2.7152823987
 30
0.0
 10
4.734274548
 20
2.7189326205
 30
0.0
 10
4.7313062925
 20
2.7226422731
 30
0.0
 10
4.7287200929
 20
2.7264045502
 30
0.0
 10
4.7265216625
 20
2.7302130335
 30
0.0
 10
4.7247157094
 20
2.7340607552
 30
0.0
 10
4.7233059356
 20
2.737940351
 30
0.0
 10
4.7222965024
 20
2.7418447221
 30
0.0
 10
4.7216896799
 20
2.7457652567
 30
0.0
 10
4.7215543478
 20
2.7483893496
 30
0.0
 10
4.7215543478
 20
2.7496948197
 30
0.0
  0
SPLINE
  5
39D
100
AcDbEntity
  8
0
100
AcDbSpline
 62
7
  6
CONTINUOUS
 70
0
 71
3
 72
22
 73
18
 74
0
 42
0.0000001
 43
0.0000001
 44
0.0000000001
 40
0.0
 40
0.0
 40
0.0
 40
0.0
 40
0.1643410082
 40
0.2419615004
 40
0.3164745658
 40
0.3878636073
 40
0.4561423181
 40
0.5213536247
 40
0.5835829204
 40
0.6429543764
 40
0.6996413794
 40
0.7538708999
 40
0.8059236916
 40
0.8561423062
 40
0.9049232932
 40
0.9527141853
 40
1.0
 40
1.0
 40
1.0
 40
1.0
 10
4.782531617
 20
2.5619402296
 30
0.0
 10
4.7778766541
 20
2.5639486568
 30
0.0
 10
4.7711179902
 20
2.5671391997
 30
0.0
 10
4.7625625095
 20
2.5718470099
 30
0.0
 10
4.7566715401
 20
2.5754357112
 30
0.0
 10
4.7511977838
 20
2.5791411032
 30
0.0
 10
4.7461535484
 20
2.5829545021
 30
0.0
 10
4.7415509863
 20
2.5868678727
 30
0.0
 10
4.7374004397
 20
2.5908719555
 30
0.0
 10
4.7337119208
 20
2.5949582393
 30
0.0
 10
4.7304944427
 20
2.5991178133
 30
0.0
 10
4.7277556085
 20
2.6033412666
 30
0.0
 10
4.7255034328
 20
2.6076197776
 30
0.0
 10
4.7237436488
 20
2.6119431215
 30
0.0
 10
4.7224822407
 20
2.616301489
 30
0.0
 10
4.7217236601
 20
2.6206830397
 30
0.0
 10
4.7215543478
 20
2.6236187779
 30
0.0
 10
4.7215543478
 20
2.625077499
 30
0.0
  0
SPLINE
  5
39E
100
AcDbEntity
  8
0
100
AcDbSpline
 62
7
  6
CONTINUOUS
 70
0
 71
3
 72
11
 73
7
 74
0
 42
0.0000001
 43
0.0000001
 44
0.0000000001
 40
0.0
 40
0.0
 40
0.0
 40
0.0
 40
0.2756819972
 40
0.5344203071
 40
0.7758571359
 40
1.0
 40
1.0
 40
1.0
 40
1.0
 10
4.7825478801
 20
3.4875148035
 30
0.0
 10
4.7786405402
 20
3.4892002635
 30
0.0
 10
4.7711563124
 20
3.4926839607
 30
0.0
 10
4.7606471286
 20
3.4984471779
 30
0.0
 10
4.7512663022
 20
3.5045505727
 30
0.0
 10
4.7455956223
 20
3.5089861298
 30
0.0
 10
4.7429861943
 20
3.5112579565
 30
0.0
  0
SPLINE
  5
39F
100
AcDbEntity
  8
0
100
AcDbSpline
 62
7
  6
CONTINUOUS
 70
0
 71
3
 72
63
 73
59
 74
0
 42
0.0000001
 43
0.0000001
 44
0.0000000001
 40
0.0
 40
0.0
 40
0.0
 40
0.0
 40
0.0001173814
 40
0.0001890984
 40
0.0002732599
 40
0.0004849467
 40
0.0007602819
 40
0.0011024973
 40
0.001513233
 40
0.0019934143
 40
0.0025436028
 40
0.0038550559
 40
0.0054486779
 40
0.0073245055
 40
0.0094821618
 40
0.0146399067
 40
0.0209117143
 40
0.0282844783
 40
0.0367420091
 40
0.0462649212
 40
0.0568321998
 40
0.0684191082
 40
0.0809997795
 40
0.0945449608
 40
0.109023807
 40
0.1406474073
 40
0.1755803995
 40
0.2135019772
 40
0.2540636479
 40
0.296892737
 40
0.3415956055
 40
0.3877614161
 40
0.4349659141
 40
0.4827751054
 40
0.5307496378
 40
0.5784483904
 40
0.6254330168
 40
0.6712716426
 40
0.7155429362
 40
0.7578400773
 40
0.7977742373
 40
0.8349785112
 40
0.869111119
 40
0.8998586833
 40
0.9269391111
 40
0.9390253208
 40
0.9501042913
 40
0.9601509864
 40
0.9691425963
 40
0.9770584919
 40
0.9838815592
 40
0.9895962545
 40
0.9920344644
 40
0.9941916916
 40
0.9960669331
 40
0.997659684
 40
0.9989702895
 40
1.0
 40
1.0
 40
1.0
 40
1.0
 10
5.2294543059
 20
5.0633743012
 30
0.0
 10
5.2294542925
 20
5.0633512746
 30
0.0
 10
5.2294402792
 20
5.0633141593
 30
0.0
 10
5.2294058085
 20
5.0632731233
 30
0.0
 10
5.2293511294
 20
5.0632256221
 30
0.0
 10
5.2292538482
 20
5.063168695
 30
0.0
 10
5.2291043011
 20
5.0631043114
 30
0.0
 10
5.2289130277
 20
5.0630396799
 30
0.0
 10
5.2286799303
 20
5.0629747589
 30
0.0
 10
5.2284047705
 20
5.0629096475
 30
0.0
 10
5.2279547355
 20
5.0628171592
 30
0.0
 10
5.2272861877
 20
5.0627043497
 30
0.0
 10
5.2263572501
 20
5.0625747851
 30
0.0
 10
5.2252610082
 20
5.0624447564
 30
0.0
 10
5.223467447
 20
5.0622597199
 30
0.0
 10
5.220811416
 20
5.0620343606
 30
0.0
 10
5.2171320228
 20
5.0617754425
 30
0.0
 10
5.2128040092
 20
5.0615156048
 30
0.0
 10
5.2078373009
 20
5.0612549868
 30
0.0
 10
5.2022431929
 20
5.0609938805
 30
0.0
 10
5.1960346184
 20
5.0607324457
 30
0.0
 10
5.1892257371
 20
5.0604707333
 30
0.0
 10
5.1818322962
 20
5.0602088505
 30
0.0
 10
5.1738712245
 20
5.0599467977
 30
0.0
 10
5.1621757582
 20
5.059586571
 30
0.0
 10
5.1462853554
 20
5.0591407113
 30
0.0
 10
5.125796615
 20
5.0586192135
 30
0.0
 10
5.1035539989
 20
5.0580970936
 30
0.0
 10
5.0797620314
 20
5.0575744848
 30
0.0
 10
5.0546394915
 20
5.0570515392
 30
0.0
 10
5.0284173727
 20
5.056528348
 30
0.0
 10
5.001336774
 20
5.0560049865
 30
0.0
 10
4.9736467031
 20
5.0554815133
 30
0.0
 10
4.9456017563
 20
5.0549579782
 30
0.0
 10
4.9174598357
 20
5.0544344268
 30
0.0
 10
4.8894796965
 20
5.0539109027
 30
0.0
 10
4.8619186283
 20
5.0533874524
 30
0.0
 10
4.8350300417
 20
5.0528641276
 30
0.0
 10
4.8090611688
 20
5.0523409905
 30
0.0
 10
4.7842508066
 20
5.0518181189
 30
0.0
 10
4.760827088
 20
5.0512956202
 30
0.0
 10
4.739005408
 20
5.0507736282
 30
0.0
 10
4.7189863847
 20
5.0502523964
 30
0.0
 10
4.7009540581
 20
5.0497321313
 30
0.0
 10
4.6872463154
 20
5.0492846765
 30
0.0
 10
4.6773963647
 20
5.0489216896
 30
0.0
 10
4.6708864694
 20
5.0486600889
 30
0.0
 10
4.6649841583
 20
5.0483988064
 30
0.0
 10
4.6597029963
 20
5.048137929
 30
0.0
 10
4.6550550303
 20
5.0478776599
 30
0.0
 10
4.6510510044
 20
5.0476181967
 30
0.0
 10
4.6481216995
 20
5.0473929405
 30
0.0
 10
4.6461075288
 20
5.0472089058
 30
0.0
 10
4.6448448562
 20
5.0470785314
 30
0.0
 10
4.6437490047
 20
5.046948502
 30
0.0
 10
4.6428204628
 20
5.0468190169
 30
0.0
 10
4.6420596543
 20
5.0466902622
 30
0.0
 10
4.6416103722
 20
5.0465941539
 30
0.0
 10
4.6414148392
 20
5.0465434618
 30
0.0
  0
SPLINE
  5
3A0
100
AcDbEntity
  8
0
100
AcDbSpline
 62
7
  6
CONTINUOUS
 70
0
 71
3
 72
63
 73
59
 74
0
 42
0.0000001
 43
0.0000001
 44
0.0000000001
 40
0.0
 40
0.0
 40
0.0
 40
0.0
 40
0.0001173463
 40
0.000189041
 40
0.0002731933
 40
0.0004849102
 40
0.000760325
 40
0.0011026398
 40
0.0015134621
 40
0.0019936832
 40
0.0025438324
 40
0.003855051
 40
0.0054486069
 40
0.0073246042
 40
0.0094824139
 40
0.0146398406
 40
0.0209118927
 40
0.0282845585
 40
0.0367420521
 40
0.0462651233
 40
0.0568321454
 40
0.0684193606
 40
0.0809997501
 40
0.0945451274
 40
0.1090238647
 40
0.140647604
 40
0.1755806129
 40
0.2135021164
 40
0.2540637378
 40
0.2968927537
 40
0.341595655
 40
0.387761511
 40
0.434966009
 40
0.482775222
 40
0.5307496839
 40
0.5784484638
 40
0.625433122
 40
0.6712717566
 40
0.7155430769
 40
0.7578400929
 40
0.7977742101
 40
0.8349784743
 40
0.8691111459
 40
0.8998588376
 40
0.9269393056
 40
0.9390252361
 40
0.9501044523
 40
0.9601510133
 40
0.969142605
 40
0.9770586281
 40
0.9838814375
 40
0.9895964708
 40
0.9920345414
 40
0.9941915874
 40
0.9960668638
 40
0.9976598475
 40
0.9989704754
 40
1.0
 40
1.0
 40
1.0
 40
1.0
 10
5.2294543129
 20
5.0978243013
 30
0.0
 10
5.229454326
 20
5.0978012816
 30
0.0
 10
5.2294403536
 20
5.0977641584
 30
0.0
 10
5.2294059039
 20
5.0977231199
 30
0.0
 10
5.2293512276
 20
5.0976756152
 30
0.0
 10
5.2292539202
 20
5.0976186913
 30
0.0
 10
5.2291043275
 20
5.0975543115
 30
0.0
 10
5.2289129982
 20
5.0974896824
 30
0.0
 10
5.2286798546
 20
5.0974247627
 30
0.0
 10
5.2284046771
 20
5.0973596523
 30
0.0
 10
5.227954689
 20
5.0972671642
 30
0.0
 10
5.2272862117
 20
5.0971543373
 30
0.0
 10
5.2263572991
 20
5.0970247767
 30
0.0
 10
5.2252610051
 20
5.0968947583
 30
0.0
 10
5.2234674414
 20
5.0967097368
 30
0.0
 10
5.220811398
 20
5.0964843385
 30
0.0
 10
5.2171320357
 20
5.0962254558
 30
0.0
 10
5.2128040018
 20
5.0959656
 30
0.0
 10
5.2078372884
 20
5.0957049836
 30
0.0
 10
5.202243206
 20
5.0954438886
 30
0.0
 10
5.1960345908
 20
5.0951824355
 30
0.0
 10
5.1892257539
 20
5.0949207433
 30
0.0
 10
5.1818322698
 20
5.0946588418
 30
0.0
 10
5.1738712355
 20
5.0943968025
 30
0.0
 10
5.1621757244
 20
5.0940365661
 30
0.0
 10
5.1462853114
 20
5.0935907136
 30
0.0
 10
5.125796554
 20
5.0930692133
 30
0.0
 10
5.1035539577
 20
5.0925470936
 30
0.0
 10
5.0797620276
 20
5.0920244842
 30
0.0
 10
5.054639504
 20
5.0915015386
 30
0.0
 10
5.0284173828
 20
5.0909783475
 30
0.0
 10
5.0013367673
 20
5.0904549864
 30
0.0
 10
4.9736466817
 20
5.0899315132
 30
0.0
 10
4.945601743
 20
5.0894079781
 30
0.0
 10
4.9174598252
 20
5.0888844264
 30
0.0
 10
4.8894796868
 20
5.0883609023
 30
0.0
 10
4.8619186037
 20
5.0878374522
 30
0.0
 10
4.8350300025
 20
5.0873141277
 30
0.0
 10
4.8090611458
 20
5.0867909909
 30
0.0
 10
4.7842508101
 20
5.0862681187
 30
0.0
 10
4.7608271251
 20
5.0857456195
 30
0.0
 10
4.7390054417
 20
5.0852236272
 30
0.0
 10
4.7189863817
 20
5.0847023966
 30
0.0
 10
4.7009540089
 20
5.0841821284
 30
0.0
 10
4.6872462868
 20
5.0837346859
 30
0.0
 10
4.6773963349
 20
5.0833716811
 30
0.0
 10
4.6708864717
 20
5.0831100948
 30
0.0
 10
4.6649841422
 20
5.0828488047
 30
0.0
 10
4.6597029851
 20
5.0825879231
 30
0.0
 10
4.6550550469
 20
5.0823276732
 30
0.0
 10
4.6510509823
 20
5.0820681756
 30
0.0
 10
4.6481216862
 20
5.0818429546
 30
0.0
 10
4.646107513
 20
5.0816589076
 30
0.0
 10
4.6448448975
 20
5.0815285247
 30
0.0
 10
4.6437490296
 20
5.0813984908
 30
0.0
 10
4.6428204276
 20
5.0812690247
 30
0.0
 10
4.6420596038
 20
5.0811402762
 30
0.0
 10
4.6416103566
 20
5.0810441562
 30
0.0
 10
4.6414148619
 20
5.0809934617
 30
0.0
  0
SPLINE
  5
3A1
100
AcDbEntity
  8
0
100
AcDbSpline
 62
7
  6
CONTINUOUS
 70
0
 71
3
 72
63
 73
59
 74
0
 42
0.0000001
 43
0.0000001
 44
0.0000000001
 40
0.0
 40
0.0
 40
0.0
 40
0.0
 40
0.0001173574
 40
0.0001890451
 40
0.0002731716
 40
0.0004847909
 40
0.0007600928
 40
0.0011023417
 40
0.0015131802
 40
0.001993476
 40
0.0025437266
 40
0.0038550967
 40
0.0054485399
 40
0.0073243222
 40
0.0094821835
 40
0.0146398815
 40
0.0209115889
 40
0.0282845605
 40
0.0367418198
 40
0.0462650264
 40
0.0568320623
 40
0.0684191277
 40
0.0809997448
 40
0.094544847
 40
0.109023858
 40
0.1406474725
 40
0.1755804013
 40
0.213501875
 40
0.2540635037
 40
0.2968926399
 40
0.3415955313
 40
0.3877613913
 40
0.4349658491
 40
0.4827750265
 40
0.5307495475
 40
0.5784483118
 40
0.625432975
 40
0.6712715544
 40
0.7155428152
 40
0.7578398839
 40
0.7977740444
 40
0.8349784004
 40
0.8691111009
 40
0.8998586803
 40
0.9269390404
 40
0.9390251941
 40
0.9501041067
 40
0.9601509807
 40
0.9691423262
 40
0.9770585103
 40
0.9838812911
 40
0.9895961855
 40
0.9920344867
 40
0.9941915476
 40
0.9960666388
 40
0.9976594976
 40
0.9989702773
 40
1.0
 40
1.0
 40
1.0
 40
1.0
 10
5.2294542311
 20
5.1322743012
 30
0.0
 10
5.2294542303
 20
5.1322512794
 30
0.0
 10
5.2294402491
 20
5.1322141642
 30
0.0
 10
5.2294058094
 20
5.1321731233
 30
0.0
 10
5.2293511668
 20
5.1321256193
 30
0.0
 10
5.229253917
 20
5.1320686885
 30
0.0
 10
5.2291043842
 20
5.1320043044
 30
0.0
 10
5.2289130883
 20
5.131939675
 30
0.0
 10
5.2286799383
 20
5.1318747597
 30
0.0
 10
5.2284047214
 20
5.1318096518
 30
0.0
 10
5.2279546667
 20
5.1317171687
 30
0.0
 10
5.2272861602
 20
5.131604351
 30
0.0
 10
5.2263572842
 20
5.1314747787
 30
0.0
 10
5.2252610462
 20
5.1313447475
 30
0.0
 10
5.2234674599
 20
5.1311597364
 30
0.0
 10
5.2208114193
 20
5.130934357
 30
0.0
 10
5.2171320138
 20
5.1306754359
 30
0.0
 10
5.2128040311
 20
5.1304156163
 30
0.0
 10
5.2078372783
 20
5.1301549735
 30
0.0
 10
5.2022432117
 20
5.1298938923
 30
0.0
 10
5.1960345965
 20
5.1296324374
 30
0.0
 10
5.1892257415
 20
5.1293707376
 30
0.0
 10
5.1818322954
 20
5.1291088501
 30
0.0
 10
5.1738712168
 20
5.128846795
 30
0.0
 10
5.1621757295
 20
5.1284865744
 30
0.0
 10
5.1462853026
 20
5.1280407111
 30
0.0
 10
5.1257965902
 20
5.1275192139
 30
0.0
 10
5.1035540132
 20
5.126997093
 30
0.0
 10
5.0797620628
 20
5.1264744843
 30
0.0
 10
5.054639515
 20
5.1259515391
 30
0.0
 10
5.0284173701
 20
5.1254283481
 30
0.0
 10
5.0013367625
 20
5.1249049867
 30
0.0
 10
4.9736466898
 20
5.1243815133
 30
0.0
 10
4.9456017532
 20
5.1238579781
 30
0.0
 10
4.9174598326
 20
5.1233344266
 30
0.0
 10
4.8894796834
 20
5.1228109027
 30
0.0
 10
4.861918612
 20
5.1222874526
 30
0.0
 10
4.8350300311
 20
5.1217641278
 30
0.0
 10
4.8090611855
 20
5.1212409906
 30
0.0
 10
4.7842508414
 20
5.1207181186
 30
0.0
 10
4.7608271186
 20
5.1201956195
 30
0.0
 10
4.739005402
 20
5.119673628
 30
0.0
 10
4.7189863395
 20
5.119152397
 30
0.0
 10
4.7009540033
 20
5.1186321325
 30
0.0
 10
4.6872462805
 20
5.1181846761
 30
0.0
 10
4.6773963645
 20
5.1178216909
 30
0.0
 10
4.6708864562
 20
5.1175600831
 30
0.0
 10
4.6649841718
 20
5.1172988172
 30
0.0
 10
4.6597029707
 20
5.1170379144
 30
0.0
 10
4.6550550541
 20
5.1167776756
 30
0.0
 10
4.6510509901
 20
5.1165181842
 30
0.0
 10
4.6481216835
 20
5.1162929378
 30
0.0
 10
4.6461074872
 20
5.1161089145
 30
0.0
 10
4.6448448595
 20
5.1159785327
 30
0.0
 10
4.6437490507
 20
5.1158484911
 30
0.0
 10
4.6428204818
 20
5.1157190119
 30
0.0
 10
4.6420596134
 20
5.1155902673
 30
0.0
 10
4.6416102924
 20
5.1154941624
 30
0.0
 10
4.6414147591
 20
5.1154434618
 30
0.0
  0
SPLINE
  5
3A2
100
AcDbEntity
  8
0
100
AcDbSpline
 62
7
  6
CONTINUOUS
 70
0
 71
3
 72
22
 73
18
 74
0
 42
0.0000001
 43
0.0000001
 44
0.0000000001
 40
0.0
 40
0.0
 40
0.0
 40
0.0
 40
0.1643410082
 40
0.2419615004
 40
0.3164745658
 40
0.3878636073
 40
0.4561423181
 40
0.5213536247
 40
0.5835829204
 40
0.6429543764
 40
0.6996413794
 40
0.7538708999
 40
0.8059236916
 40
0.8561423062
 40
0.9049232932
 40
0.9527141853
 40
1.0
 40
1.0
 40
1.0
 40
1.0
 10
4.782531617
 20
2.9357921918
 30
0.0
 10
4.7778766541
 20
2.937800619
 30
0.0
 10
4.7711179902
 20
2.9409911618
 30
0.0
 10
4.7625625095
 20
2.9456989721
 30
0.0
 10
4.7566715401
 20
2.9492876733
 30
0.0
 10
4.7511977838
 20
2.9529930653
 30
0.0
 10
4.7461535484
 20
2.9568064643
 30
0.0
 10
4.7415509863
 20
2.9607198348
 30
0.0
 10
4.7374004397
 20
2.9647239177
 30
0.0
 10
4.7337119208
 20
2.9688102015
 30
0.0
 10
4.7304944427
 20
2.9729697755
 30
0.0
 10
4.7277556085
 20
2.9771932288
 30
0.0
 10
4.7255034328
 20
2.9814717398
 30
0.0
 10
4.7237436488
 20
2.9857950836
 30
0.0
 10
4.7224822407
 20
2.9901534512
 30
0.0
 10
4.7217236601
 20
2.9945350019
 30
0.0
 10
4.7215543478
 20
2.99747074
 30
0.0
 10
4.7215543478
 20
2.9989294611
 30
0.0
  0
SPLINE
  5
3A3
100
AcDbEntity
  8
0
100
AcDbSpline
 62
7
  6
CONTINUOUS
 70
0
 71
3
 72
63
 73
59
 74
0
 42
0.0000001
 43
0.0000001
 44
0.0000000001
 40
0.0
 40
0.0
 40
0.0
 40
0.0
 40
0.0001173818
 40
0.0001891014
 40
0.0002732674
 40
0.0004849671
 40
0.0007603165
 40
0.0011025428
 40
0.0015132815
 40
0.001993453
 40
0.0025436158
 40
0.0038550454
 40
0.005448688
 40
0.0073245447
 40
0.0094822028
 40
0.0146399024
 40
0.0209117668
 40
0.0282844704
 40
0.036742038
 40
0.0462649264
 40
0.0568322142
 40
0.0684191585
 40
0.0809997778
 40
0.0945450006
 40
0.1090237935
 40
0.1406474298
 40
0.1755804344
 40
0.2135020257
 40
0.2540636854
 40
0.296892755
 40
0.3415956296
 40
0.3877614338
 40
0.4349659444
 40
0.4827751481
 40
0.5307496578
 40
0.5784484265
 40
0.6254330419
 40
0.6712716814
 40
0.715543002
 40
0.7578401115
 40
0.7977742754
 40
0.8349785064
 40
0.8691111314
 40
0.899858727
 40
0.9269391752
 40
0.9390253229
 40
0.9501043946
 40
0.9601510001
 40
0.9691426796
 40
0.9770585315
 40
0.9838815887
 40
0.9895963429
 40
0.9920344953
 40
0.9941916943
 40
0.9960670007
 40
0.9976597893
 40
0.9989703479
 40
1.0
 40
1.0
 40
1.0
 40
1.0
 10
5.2294543209
 20
4.5466243012
 30
0.0
 10
5.2294543086
 20
4.5466012745
 30
0.0
 10
5.2294402938
 20
4.5465641583
 30
0.0
 10
5.2294058201
 20
4.546523123
 30
0.0
 10
5.2293511358
 20
4.5464756218
 30
0.0
 10
5.2292538472
 20
4.5464186954
 30
0.0
 10
5.2291042919
 20
4.546354312
 30
0.0
 10
5.2289130128
 20
4.5462896806
 30
0.0
 10
5.2286799145
 20
4.5462247596
 30
0.0
 10
5.2284047613
 20
4.5461596483
 30
0.0
 10
5.2279547387
 20
4.546067157
 30
0.0
 10
5.2272861964
 20
4.5459543479
 30
0.0
 10
5.2263572535
 20
4.5458247851
 30
0.0
 10
5.2252610013
 20
4.5456947576
 30
0.0
 10
5.223467443
 20
4.545509721
 30
0.0
 10
5.2208114099
 20
4.5452843572
 30
0.0
 10
5.217132026
 20
4.545025446
 30
0.0
 10
5.2128040065
 20
4.5447656018
 30
0.0
 10
5.2078373074
 20
4.5445049887
 30
0.0
 10
5.2022431953
 20
4.5442438799
 30
0.0
 10
5.1960346168
 20
4.5439824455
 30
0.0
 10
5.1892257371
 20
4.5437207345
 30
0.0
 10
5.1818322916
 20
4.543458849
 30
0.0
 10
5.1738712326
 20
4.5431967992
 30
0.0
 10
5.162175762
 20
4.5428365695
 30
0.0
 10
5.1462853607
 20
4.5423907118
 30
0.0
 10
5.1257966089
 20
4.5418692136
 30
0.0
 10
5.1035539908
 20
4.5413470938
 30
0.0
 10
5.0797620275
 20
4.5408244848
 30
0.0
 10
5.0546394934
 20
4.5403015392
 30
0.0
 10
5.0284173794
 20
4.539778348
 30
0.0
 10
5.0013367793
 20
4.5392549865
 30
0.0
 10
4.9736467058
 20
4.5387315133
 30
0.0
 10
4.9456017596
 20
4.5382079784
 30
0.0
 10
4.917459839
 20
4.5376844268
 30
0.0
 10
4.8894797044
 20
4.5371609027
 30
0.0
 10
4.8619186334
 20
4.5366374524
 30
0.0
 10
4.835030042
 20
4.5361141277
 30
0.0
 10
4.8090611684
 20
4.5355909908
 30
0.0
 10
4.7842508072
 20
4.5350681193
 30
0.0
 10
4.7608271034
 20
4.5345456203
 30
0.0
 10
4.7390054284
 20
4.5340236281
 30
0.0
 10
4.7189864048
 20
4.5335023967
 30
0.0
 10
4.7009540654
 20
4.5329821305
 30
0.0
 10
4.687246325
 20
4.5325346796
 30
0.0
 10
4.6773963632
 20
4.5321716867
 30
0.0
 10
4.6708864779
 20
4.5319100925
 30
0.0
 10
4.6649841513
 20
4.5316488031
 30
0.0
 10
4.6597030018
 20
4.5313879317
 30
0.0
 10
4.655055033
 20
4.53112766
 30
0.0
 10
4.6510510065
 20
4.5308681936
 30
0.0
 10
4.6481217028
 20
4.5306429449
 30
0.0
 10
4.6461075379
 20
4.5304589056
 30
0.0
 10
4.6448448698
 20
4.5303285279
 30
0.0
 10
4.6437490032
 20
4.5301985026
 30
0.0
 10
4.6428204497
 20
4.5300690212
 30
0.0
 10
4.642059655
 20
4.5299402639
 30
0.0
 10
4.6416103946
 20
4.5298441533
 30
0.0
 10
4.6414148733
 20
4.5297934618
 30
0.0
  0
SPLINE
  5
3A4
100
AcDbEntity
  8
0
100
AcDbSpline
 62
7
  6
CONTINUOUS
 70
0
 71
3
 72
30
 73
26
 74
0
 42
0.0000001
 43
0.0000001
 44
0.0000000001
 40
0.0
 40
0.0
 40
0.0
 40
0.0
 40
0.0019021902
 40
0.0043447472
 40
0.0073299527
 40
0.0108583799
 40
0.0149296114
 40
0.019541892
 40
0.0303802893
 40
0.0433534602
 40
0.0584337756
 40
0.0755889471
 40
0.0947822431
 40
0.1159708994
 40
0.1391096275
 40
0.1910273113
 40
0.2500787797
 40
0.3157440519
 40
0.3874445836
 40
0.4645480674
 40
0.5463747513
 40
0.6322024818
 40
0.7212754567
 40
0.8128047107
 40
1.0
 40
1.0
 40
1.0
 40
1.0
 10
5.2490927314
 20
5.0815184123
 30
0.0
 10
5.2488998804
 20
5.0814684312
 30
0.0
 10
5.248454345
 20
5.0813741035
 30
0.0
 10
5.2476969849
 20
5.0812481334
 30
0.0
 10
5.2467674559
 20
5.0811213974
 30
0.0
 10
5.2456661607
 20
5.0809940691
 30
0.0
 10
5.2443935128
 20
5.0808663968
 30
0.0
 10
5.2423568616
 20
5.0806859911
 30
0.0
 10
5.2393880009
 20
5.0804652985
 30
0.0
 10
5.2353226113
 20
5.0802111872
 30
0.0
 10
5.2305945822
 20
5.0799562889
 30
0.0
 10
5.2252143191
 20
5.0797007489
 30
0.0
 10
5.2191936879
 20
5.0794448273
 30
0.0
 10
5.2125458861
 20
5.0791885687
 30
0.0
 10
5.2024720959
 20
5.0788328258
 30
0.0
 10
5.1884333377
 20
5.0783943508
 30
0.0
 10
5.169940842
 20
5.0778847032
 30
0.0
 10
5.1493757467
 20
5.0773740936
 30
0.0
 10
5.1269194982
 20
5.0768627275
 30
0.0
 10
5.1027702194
 20
5.0763508552
 30
0.0
 10
5.077141051
 20
5.0758386097
 30
0.0
 10
5.0502580476
 20
5.0753260955
 30
0.0
 10
5.0223586896
 20
5.0748133896
 30
0.0
 10
4.9838442319
 20
5.0741244691
 30
0.0
 10
4.9546569389
 20
5.0736161427
 30
0.0
 10
4.9350543478
 20
5.0732746691
 30
0.0
  0
LINE
  5
3A5
100
AcDbEntity
  8
0
100
AcDbLine
 62
7
  6
CONTINUOUS
 10
5.2286939001
 20
5.0762301407
 11
5.2282402005
 21
5.0761261737
  0
SPLINE
  5
3A6
100
AcDbEntity
  8
0
100
AcDbSpline
 62
7
  6
CONTINUOUS
 70
0
 71
3
 72
62
 73
58
 74
0
 42
0.0000001
 43
0.0000001
 44
0.0000000001
 40
0.0
 40
0.0
 40
0.0
 40
0.0
 40
0.0012441788
 40
0.002767175
 40
0.0045691594
 40
0.0066498317
 40
0.0116445647
 40
0.0177420355
 40
0.0249295348
 40
0.0331917706
 40
0.0425098711
 40
0.0528636591
 40
0.0642292106
 40
0.0765813463
 40
0.1041307425
 40
0.1352625148
 40
0.169694492
 40
0.2071143338
 40
0.2471824173
 40
0.2895351442
 40
0.3337880874
 40
0.3795395265
 40
0.4263742182
 40
0.4738668283
 40
0.5215862794
 40
0.5690992426
 40
0.6159744161
 40
0.6617862823
 40
0.706118871
 40
0.7485698032
 40
0.7887536262
 40
0.8263057286
 40
0.8608853962
 40
0.8921789924
 40
0.9065036981
 40
0.9199028912
 40
0.9323463185
 40
0.943806038
 40
0.9542557301
 40
0.9636725082
 40
0.9720346229
 40
0.9793240954
 40
0.985524693
 40
0.9906234804
 40
0.9927567711
 40
0.9946112933
 40
0.9961865817
 40
0.9974829989
 40
0.9980270138
 40
0.9985019219
 40
0.9989082358
 40
0.9992468301
 40
0.9995192969
 40
0.9997288546
 40
0.9998122349
 40
0.9998833553
 40
1.0
 40
1.0
 40
1.0
 40
1.0
 10
5.2282402005
 20
5.0761261737
 30
0.0
 10
5.2280013057
 20
5.0760771345
 30
0.0
 10
5.2274670146
 20
5.0759826073
 30
0.0
 10
5.2265806118
 20
5.0758539945
 30
0.0
 10
5.225528859
 20
5.0757248408
 30
0.0
 10
5.2237984835
 20
5.0755407427
 30
0.0
 10
5.2212259514
 20
5.0753167505
 30
0.0
 10
5.2176520558
 20
5.0750595622
 30
0.0
 10
5.2134363387
 20
5.0748014088
 30
0.0
 10
5.208588381
 20
5.0745424594
 30
0.0
 10
5.2031190344
 20
5.0742830001
 30
0.0
 10
5.1970408027
 20
5.0740232098
 30
0.0
 10
5.1903673798
 20
5.0737631233
 30
0.0
 10
5.1803247758
 20
5.0734028622
 30
0.0
 10
5.1664083198
 20
5.0729583966
 30
0.0
 10
5.1481641749
 20
5.0724410922
 30
0.0
 10
5.1279846125
 20
5.0719228954
 30
0.0
 10
5.1060529042
 20
5.0714039964
 30
0.0
 10
5.0825682286
 20
5.0708846245
 30
0.0
 10
5.0577438718
 20
5.0703649049
 30
0.0
 10
5.0318052726
 20
5.0698449376
 30
0.0
 10
5.0049879807
 20
5.0693247955
 30
0.0
 10
4.9775355559
 20
5.0688045376
 30
0.0
 10
4.9496973071
 20
5.0682842127
 30
0.0
 10
4.9217260853
 20
5.0677638655
 30
0.0
 10
4.89387591
 20
5.0672435384
 30
0.0
 10
4.8663997121
 20
5.0667232759
 30
0.0
 10
4.8395470225
 20
5.0662031274
 30
0.0
 10
4.8135617085
 20
5.0656831503
 30
0.0
 10
4.7886797917
 20
5.065163419
 30
0.0
 10
4.7651272396
 20
5.0646440232
 30
0.0
 10
4.7431179483
 20
5.0641251138
 30
0.0
 10
4.7228517696
 20
5.0636068239
 30
0.0
 10
4.7071380864
 20
5.0631636794
 30
0.0
 10
4.695575383
 20
5.0628056495
 30
0.0
 10
4.6877063378
 20
5.0625452179
 30
0.0
 10
4.6803991927
 20
5.0622849388
 30
0.0
 10
4.6736705773
 20
5.0620248622
 30
0.0
 10
4.6675356985
 20
5.0617650148
 30
0.0
 10
4.6620085707
 20
5.0615055468
 30
0.0
 10
4.6571016272
 20
5.0612465168
 30
0.0
 10
4.6528260277
 20
5.0609882886
 30
0.0
 10
4.6491913894
 20
5.0607309828
 30
0.0
 10
4.6465677588
 20
5.0605069783
 30
0.0
 10
4.6447961285
 20
5.0603231083
 30
0.0
 10
4.6437133035
 20
5.0601938898
 30
0.0
 10
4.6427958254
 20
5.0600651145
 30
0.0
 10
4.642135567
 20
5.0599529889
 30
0.0
 10
4.6416910844
 20
5.0598610769
 30
0.0
 10
4.6414192558
 20
5.0597963686
 30
0.0
 10
4.6411889548
 20
5.0597318498
 30
0.0
 10
4.6409999733
 20
5.0596676176
 30
0.0
 10
4.640852235
 20
5.0596036301
 30
0.0
 10
4.6407561726
 20
5.0595470401
 30
0.0
 10
4.6407022235
 20
5.0594998403
 30
0.0
 10
4.6406681999
 20
5.0594590182
 30
0.0
 10
4.6406544375
 20
5.0594221651
 30
0.0
 10
4.6406544466
 20
5.0593993012
 30
0.0
  0
SPLINE
  5
3A7
100
AcDbEntity
  8
0
100
AcDbSpline
 62
7
  6
CONTINUOUS
 70
0
 71
3
 72
30
 73
26
 74
0
 42
0.0000001
 43
0.0000001
 44
0.0000000001
 40
0.0
 40
0.0
 40
0.0
 40
0.0
 40
0.0019021902
 40
0.0043447472
 40
0.0073299527
 40
0.0108583799
 40
0.0149296114
 40
0.019541892
 40
0.0303802893
 40
0.0433534602
 40
0.0584337756
 40
0.0755889471
 40
0.0947822431
 40
0.1159708994
 40
0.1391096275
 40
0.1910273113
 40
0.2500787797
 40
0.3157440519
 40
0.3874445836
 40
0.4645480674
 40
0.5463747513
 40
0.6322024818
 40
0.7212754567
 40
0.8128047107
 40
1.0
 40
1.0
 40
1.0
 40
1.0
 10
5.2490927314
 20
5.1159684123
 30
0.0
 10
5.2488998804
 20
5.1159184312
 30
0.0
 10
5.248454345
 20
5.1158241035
 30
0.0
 10
5.2476969849
 20
5.1156981334
 30
0.0
 10
5.2467674559
 20
5.1155713974
 30
0.0
 10
5.2456661607
 20
5.1154440691
 30
0.0
 10
5.2443935128
 20
5.1153163968
 30
0.0
 10
5.2423568616
 20
5.1151359911
 30
0.0
 10
5.2393880009
 20
5.1149152985
 30
0.0
 10
5.2353226113
 20
5.1146611872
 30
0.0
 10
5.2305945822
 20
5.1144062889
 30
0.0
 10
5.2252143191
 20
5.1141507489
 30
0.0
 10
5.2191936879
 20
5.1138948273
 30
0.0
 10
5.2125458861
 20
5.1136385687
 30
0.0
 10
5.2024720959
 20
5.1132828258
 30
0.0
 10
5.1884333377
 20
5.1128443508
 30
0.0
 10
5.169940842
 20
5.1123347032
 30
0.0
 10
5.1493757467
 20
5.1118240936
 30
0.0
 10
5.1269194982
 20
5.1113127275
 30
0.0
 10
5.1027702194
 20
5.1108008552
 30
0.0
 10
5.077141051
 20
5.1102886097
 30
0.0
 10
5.0502580476
 20
5.1097760955
 30
0.0
 10
5.0223586896
 20
5.1092633896
 30
0.0
 10
4.9838442319
 20
5.1085744691
 30
0.0
 10
4.9546569389
 20
5.1080661427
 30
0.0
 10
4.9350543478
 20
5.1077246691
 30
0.0
  0
LINE
  5
3A8
100
AcDbEntity
  8
0
100
AcDbLine
 62
7
  6
CONTINUOUS
 10
5.2286938171
 20
5.1106801407
 11
5.2281936286
 21
5.1105667226
  0
SPLINE
  5
3A9
100
AcDbEntity
  8
0
100
AcDbSpline
 62
7
  6
CONTINUOUS
 70
0
 71
3
 72
62
 73
58
 74
0
 42
0.0000001
 43
0.0000001
 44
0.0000000001
 40
0.0
 40
0.0
 40
0.0
 40
0.0
 40
0.0012634088
 40
0.0028054886
 40
0.0046265135
 40
0.006725927
 40
0.0117564569
 40
0.0178886128
 40
0.025109012
 40
0.03340231
 40
0.0427500903
 40
0.0531312273
 40
0.0645228874
 40
0.0768987587
 40
0.1044904708
 40
0.1356568821
 40
0.1701157001
 40
0.2075547595
 40
0.2476347757
 40
0.2899923869
 40
0.3342436544
 40
0.3799872267
 40
0.426808309
 40
0.4742823063
 40
0.5219786953
 40
0.5694649799
 40
0.6163105327
 40
0.6620904653
 40
0.7063896967
 40
0.748806486
 40
0.7889563379
 40
0.8264752906
 40
0.8610232495
 40
0.8922872391
 40
0.9065978262
 40
0.9199840372
 40
0.9324150806
 40
0.9438632557
 40
0.954302624
 40
0.9637095377
 40
0.9720634175
 40
0.9793451143
 40
0.9855394778
 40
0.9906329508
 40
0.9927638548
 40
0.9946165025
 40
0.996190393
 40
0.9974854891
 40
0.9980288632
 40
0.9985031868
 40
0.9989090046
 40
0.9992472226
 40
0.9995194605
 40
0.9997289235
 40
0.9998122852
 40
0.9998833934
 40
1.0
 40
1.0
 40
1.0
 40
1.0
 10
5.2281936286
 20
5.1105667226
 30
0.0
 10
5.2279508814
 20
5.1105178131
 30
0.0
 10
5.2274089986
 20
5.1104234089
 30
0.0
 10
5.2265113093
 20
5.1102948184
 30
0.0
 10
5.225448411
 20
5.110165715
 30
0.0
 10
5.2237036548
 20
5.1099818208
 30
0.0
 10
5.2211137759
 20
5.1097579245
 30
0.0
 10
5.2175198473
 20
5.109500858
 30
0.0
 10
5.2132850965
 20
5.1092428076
 30
0.0
 10
5.2084191457
 20
5.1089839739
 30
0.0
 10
5.20293295
 20
5.1087246642
 30
0.0
 10
5.1968388957
 20
5.1084649872
 30
0.0
 10
5.1901508653
 20
5.1082050593
 30
0.0
 10
5.1800909903
 20
5.1078450262
 30
0.0
 10
5.1661559052
 20
5.1074008454
 30
0.0
 10
5.1478928752
 20
5.1068838076
 30
0.0
 10
5.1276991144
 20
5.1063658876
 30
0.0
 10
5.1057578018
 20
5.1058472693
 30
0.0
 10
5.0822679526
 20
5.1053281819
 30
0.0
 10
5.0574426266
 20
5.104808749
 30
0.0
 10
5.0315070298
 20
5.1042890705
 30
0.0
 10
5.0046964368
 20
5.1037692181
 30
0.0
 10
4.9772540824
 20
5.1032492502
 30
0.0
 10
4.9494289141
 20
5.1027292161
 30
0.0
 10
4.9214733453
 20
5.10220916
 30
0.0
 10
4.8936409713
 20
5.1016891247
 30
0.0
 10
4.8661842835
 20
5.1011691546
 30
0.0
 10
4.839352363
 20
5.1006492982
 30
0.0
 10
4.8133886346
 20
5.100129613
 30
0.0
 10
4.7885286139
 20
5.0996101734
 30
0.0
 10
4.7649978101
 20
5.0990910694
 30
0.0
 10
4.7430096655
 20
5.0985724531
 30
0.0
 10
4.7227636378
 20
5.0980544528
 30
0.0
 10
4.7070660077
 20
5.0976115629
 30
0.0
 10
4.6955153528
 20
5.0972537213
 30
0.0
 10
4.6876546816
 20
5.0969934447
 30
0.0
 10
4.6803553609
 20
5.0967333113
 30
0.0
 10
4.6736340025
 20
5.0964733731
 30
0.0
 10
4.667505838
 20
5.0962136905
 30
0.0
 10
4.6619847289
 20
5.0959543427
 30
0.0
 10
4.6570832518
 20
5.0956954896
 30
0.0
 10
4.6528123594
 20
5.09543738
 30
0.0
 10
4.6491818018
 20
5.0951802335
 30
0.0
 10
4.6465611141
 20
5.0949563638
 30
0.0
 10
4.6447915063
 20
5.0947725794
 30
0.0
 10
4.6437098788
 20
5.0946434303
 30
0.0
 10
4.6427933727
 20
5.0945147469
 30
0.0
 10
4.6421338258
 20
5.0944026855
 30
0.0
 10
4.6416898809
 20
5.0943108181
 30
0.0
 10
4.641418414
 20
5.0942461444
 30
0.0
 10
4.6411884202
 20
5.0941816591
 30
0.0
 10
4.6409996734
 20
5.0941174582
 30
0.0
 10
4.6408520854
 20
5.094053502
 30
0.0
 10
4.6407560918
 20
5.0939969502
 30
0.0
 10
4.6407021554
 20
5.0939497825
 30
0.0
 10
4.6406681282
 20
5.0939089883
 30
0.0
 10
4.6406543466
 20
5.0938721559
 30
0.0
 10
4.640654348
 20
5.0938493012
 30
0.0
  0
SPLINE
  5
3AA
100
AcDbEntity
  8
0
100
AcDbSpline
 62
7
  6
CONTINUOUS
 70
0
 71
3
 72
50
 73
46
 74
0
 42
0.0000001
 43
0.0000001
 44
0.0000000001
 40
0.0
 40
0.0
 40
0.0
 40
0.0
 40
0.0009936336
 40
0.002250403
 40
0.0037715007
 40
0.0055572975
 40
0.0076074047
 40
0.0099209469
 40
0.0153341959
 40
0.0217876083
 40
0.0292675578
 40
0.0377588471
 40
0.0472435756
 40
0.0577013002
 40
0.0691102836
 40
0.0946812198
 40
0.1237376394
 40
0.1560305207
 40
0.1912829326
 40
0.2291921914
 40
0.2694328546
 40
0.3116594391
 40
0.3555093624
 40
0.4006061128
 40
0.4929834826
 40
0.5856248675
 40
0.6753547057
 40
0.7181597091
 40
0.7590971065
 40
0.7978153754
 40
0.8339821649
 40
0.8672870951
 40
0.8974442765
 40
0.9241951357
 40
0.9473105844
 40
0.9574422686
 40
0.966593408
 40
0.9747451874
 40
0.9818798128
 40
0.9879832042
 40
0.9930433066
 40
0.9951790016
 40
0.9970506835
 40
0.9986577719
 40
1.0
 40
1.0
 40
1.0
 40
1.0
 10
5.228693858
 20
5.3173801406
 30
0.0
 10
5.2285057192
 20
5.3173313651
 30
0.0
 10
5.2280750911
 20
5.3172386033
 30
0.0
 10
5.2273478808
 20
5.317114042
 30
0.0
 10
5.2264639303
 20
5.3169888094
 30
0.0
 10
5.2254236048
 20
5.3168630805
 30
0.0
 10
5.224227333
 20
5.3167370329
 30
0.0
 10
5.2223231836
 20
5.3165592289
 30
0.0
 10
5.2195579087
 20
5.3163415013
 30
0.0
 10
5.2157819062
 20
5.3160906474
 30
0.0
 10
5.2114027312
 20
5.3158390365
 30
0.0
 10
5.2064298078
 20
5.3155868398
 30
0.0
 10
5.2008737734
 20
5.3153342718
 30
0.0
 10
5.1947465111
 20
5.3150813876
 30
0.0
 10
5.185474145
 20
5.3147304743
 30
0.0
 10
5.1725643686
 20
5.3142978359
 30
0.0
 10
5.1555698431
 20
5.3137948646
 30
0.0
 10
5.1366808672
 20
5.3132909645
 30
0.0
 10
5.1160597039
 20
5.3127863333
 30
0.0
 10
5.0938835056
 20
5.31228121
 30
0.0
 10
5.0703428094
 20
5.3117757224
 30
0.0
 10
5.0456398479
 20
5.3112699741
 30
0.0
 10
5.0199868301
 20
5.310764031
 30
0.0
 10
4.9845256563
 20
5.3100838419
 30
0.0
 10
4.9395219825
 20
5.3092445739
 30
0.0
 10
4.8857893739
 20
5.3082451088
 30
0.0
 10
4.8417521089
 20
5.3074005313
 30
0.0
 10
4.8078271727
 20
5.3067153299
 30
0.0
 10
4.7838787165
 20
5.3062097363
 30
0.0
 10
4.761229017
 20
5.3057044797
 30
0.0
 10
4.7400726406
 20
5.3051996724
 30
0.0
 10
4.7205913432
 20
5.3046954794
 30
0.0
 10
4.7029524796
 20
5.3041922311
 30
0.0
 10
4.6873075884
 20
5.3036901721
 30
0.0
 10
4.6755796683
 20
5.3032567447
 30
0.0
 10
4.6672938827
 20
5.3029040141
 30
0.0
 10
4.6619334866
 20
5.3026515203
 30
0.0
 10
4.6571600247
 20
5.3023995046
 30
0.0
 10
4.6529835968
 20
5.3021481585
 30
0.0
 10
4.6494131309
 20
5.3018976474
 30
0.0
 10
4.6468207308
 20
5.3016798177
 30
0.0
 10
4.6450560553
 20
5.301501362
 30
0.0
 10
4.6439650275
 20
5.3013754977
 30
0.0
 10
4.6430303458
 20
5.3012500674
 30
0.0
 10
4.6424605932
 20
5.3011587754
 30
0.0
 10
4.6422022845
 20
5.3011118012
 30
0.0
  0
SPLINE
  5
3AB
100
AcDbEntity
  8
0
100
AcDbSpline
 62
7
  6
CONTINUOUS
 70
0
 71
3
 72
30
 73
26
 74
0
 42
0.0000001
 43
0.0000001
 44
0.0000000001
 40
0.0
 40
0.0
 40
0.0
 40
0.0
 40
0.0019020712
 40
0.004344757
 40
0.0073301253
 40
0.0108585303
 40
0.0149295252
 40
0.0195418185
 40
0.0303804808
 40
0.0433533614
 40
0.0584338983
 40
0.0755888967
 40
0.0947822792
 40
0.1159709752
 40
0.1391096032
 40
0.1910272497
 40
0.2500787382
 40
0.3157440881
 40
0.3874446239
 40
0.464548137
 40
0.5463747586
 40
0.6322024962
 40
0.7212754108
 40
0.812804836
 40
1.0
 40
1.0
 40
1.0
 40
1.0
 10
5.2490927494
 20
5.3226684124
 30
0.0
 10
5.2488999128
 20
5.3226184256
 30
0.0
 10
5.2484543758
 20
5.3225240977
 30
0.0
 10
5.2476969964
 20
5.3223981341
 30
0.0
 10
5.2467674383
 20
5.3222714019
 30
0.0
 10
5.2456661533
 20
5.3221440732
 30
0.0
 10
5.2443935322
 20
5.322016392
 30
0.0
 10
5.2423568761
 20
5.3218359904
 30
0.0
 10
5.2393880159
 20
5.3216153066
 30
0.0
 10
5.2353226066
 20
5.3213611795
 30
0.0
 10
5.2305946017
 20
5.3211062948
 30
0.0
 10
5.2252143247
 20
5.3208507457
 30
0.0
 10
5.2191936978
 20
5.3205948286
 30
0.0
 10
5.2125458929
 20
5.3203385695
 30
0.0
 10
5.2024721124
 20
5.3199828248
 30
0.0
 10
5.1884333656
 20
5.319544351
 30
0.0
 10
5.1699408626
 20
5.3190347031
 30
0.0
 10
5.1493757554
 20
5.3185240939
 30
0.0
 10
5.126919494
 20
5.3180127277
 30
0.0
 10
5.1027702168
 20
5.3175008554
 30
0.0
 10
5.0771410497
 20
5.3169886097
 30
0.0
 10
5.0502580568
 20
5.3164760956
 30
0.0
 10
5.0223586848
 20
5.3159633894
 30
0.0
 10
4.9838442264
 20
5.3152744691
 30
0.0
 10
4.9546569269
 20
5.3147661424
 30
0.0
 10
4.9350543478
 20
5.3144246691
 30
0.0
  0
SPLINE
  5
3AC
100
AcDbEntity
  8
0
100
AcDbSpline
 62
7
  6
CONTINUOUS
 70
0
 71
3
 72
51
 73
47
 74
0
 42
0.0000001
 43
0.0000001
 44
0.0000000001
 40
0.0
 40
0.0
 40
0.0
 40
0.0
 40
0.0211965548
 40
0.045562562
 40
0.0729276622
 40
0.1030998272
 40
0.135867214
 40
0.1709999348
 40
0.2473600945
 40
0.330038552
 40
0.4167166059
 40
0.5049628027
 40
0.5489002968
 40
0.5923018579
 40
0.6348627089
 40
0.6762839344
 40
0.7162743735
 40
0.7545532214
 40
0.7908517639
 40
0.8249150808
 40
0.8565038457
 40
0.8853964237
 40
0.9113903444
 40
0.9232425132
 40
0.9343034689
 40
0.9445535018
 40
0.9539753073
 40
0.962552048
 40
0.9702689473
 40
0.9771131377
 40
0.9830724253
 40
0.9881375555
 40
0.9903323601
 40
0.9923007601
 40
0.9940421732
 40
0.9955564277
 40
0.9968435984
 40
0.9979041891
 40
0.9983499434
 40
0.9987397203
 40
0.9990740783
 40
0.9993539786
 40
0.9995810879
 40
0.9997585725
 40
0.9998931552
 40
1.0
 40
1.0
 40
1.0
 40
1.0
 10
5.1990811711
 20
4.5573617998
 30
0.0
 10
5.1951364599
 20
4.5571957272
 30
0.0
 10
5.1866558594
 20
4.556870492
 30
0.0
 10
5.1730794666
 20
4.5564158714
 30
0.0
 10
5.1578304187
 20
4.5559602577
 30
0.0
 10
5.1410158745
 20
4.5555039119
 30
0.0
 10
5.1227540108
 20
4.5550470347
 30
0.0
 10
5.0958904842
 20
4.5544198539
 30
0.0
 10
5.059731102
 20
4.5536478304
 30
0.0
 10
5.0139712902
 20
4.5527427306
 30
0.0
 10
4.9659971224
 20
4.5518364855
 30
0.0
 10
4.9252375607
 20
4.5510798335
 30
0.0
 10
4.8925376526
 20
4.5504681275
 30
0.0
 10
4.8683460041
 20
4.5500100303
 30
0.0
 10
4.8446231358
 20
4.5495519999
 30
0.0
 10
4.821535764
 20
4.5490940662
 30
0.0
 10
4.7992461442
 20
4.5486362635
 30
0.0
 10
4.7779109132
 20
4.5481786368
 30
0.0
 10
4.7576799661
 20
4.5477212486
 30
0.0
 10
4.7386954857
 20
4.5472641754
 30
0.0
 10
4.721090902
 20
4.5468075441
 30
0.0
 10
4.7049899088
 20
4.5463514642
 30
0.0
 10
4.6925648387
 20
4.5459610798
 30
0.0
 10
4.6834605541
 20
4.5456456949
 30
0.0
 10
4.6772876148
 20
4.5454166098
 30
0.0
 10
4.6715676997
 20
4.5451876472
 30
0.0
 10
4.6663109026
 20
4.544958866
 30
0.0
 10
4.6615264181
 20
4.5447303035
 30
0.0
 10
4.6572226446
 20
4.5445020254
 30
0.0
 10
4.6534071433
 20
4.5442742247
 30
0.0
 10
4.6500865462
 20
4.5440469477
 30
0.0
 10
4.6476320248
 20
4.5438501787
 30
0.0
 10
4.6459205512
 20
4.5436899943
 30
0.0
 10
4.6448266356
 20
4.543575813
 30
0.0
 10
4.6438602321
 20
4.5434618305
 30
0.0
 10
4.64302166
 20
4.5433481623
 30
0.0
 10
4.642311206
 20
4.5432348703
 30
0.0
 10
4.6418001193
 20
4.5431362368
 30
0.0
 10
4.6414562544
 20
4.5430554219
 30
0.0
 10
4.6412458633
 20
4.5429984776
 30
0.0
 10
4.6410675854
 20
4.5429416893
 30
0.0
 10
4.6409213265
 20
4.5428850677
 30
0.0
 10
4.6408066684
 20
4.5428286785
 30
0.0
 10
4.6407232104
 20
4.5427720935
 30
0.0
 10
4.6406690669
 20
4.5427142346
 30
0.0
 10
4.6406544673
 20
4.5426692029
 30
0.0
 10
4.640654462
 20
4.5426493013
 30
0.0
  0
SPLINE
  5
3AD
100
AcDbEntity
  8
0
100
AcDbSpline
 62
7
  6
CONTINUOUS
 70
0
 71
3
 72
30
 73
26
 74
0
 42
0.0000001
 43
0.0000001
 44
0.0000000001
 40
0.0
 40
0.0
 40
0.0
 40
0.0
 40
0.0019021902
 40
0.0043447472
 40
0.0073299527
 40
0.0108583799
 40
0.0149296114
 40
0.019541892
 40
0.0303802893
 40
0.0433534602
 40
0.0584337756
 40
0.0755889471
 40
0.0947822431
 40
0.1159708994
 40
0.1391096275
 40
0.1910273113
 40
0.2500787797
 40
0.3157440519
 40
0.3874445836
 40
0.4645480674
 40
0.5463747513
 40
0.6322024818
 40
0.7212754567
 40
0.8128047107
 40
1.0
 40
1.0
 40
1.0
 40
1.0
 10
5.2490927314
 20
5.1504184123
 30
0.0
 10
5.2488998804
 20
5.1503684312
 30
0.0
 10
5.248454345
 20
5.1502741035
 30
0.0
 10
5.2476969849
 20
5.1501481334
 30
0.0
 10
5.2467674559
 20
5.1500213974
 30
0.0
 10
5.2456661607
 20
5.1498940691
 30
0.0
 10
5.2443935128
 20
5.1497663968
 30
0.0
 10
5.2423568616
 20
5.1495859911
 30
0.0
 10
5.2393880009
 20
5.1493652985
 30
0.0
 10
5.2353226113
 20
5.1491111872
 30
0.0
 10
5.2305945822
 20
5.1488562889
 30
0.0
 10
5.2252143191
 20
5.1486007489
 30
0.0
 10
5.2191936879
 20
5.1483448273
 30
0.0
 10
5.2125458861
 20
5.1480885687
 30
0.0
 10
5.2024720959
 20
5.1477328258
 30
0.0
 10
5.1884333377
 20
5.1472943508
 30
0.0
 10
5.169940842
 20
5.1467847032
 30
0.0
 10
5.1493757467
 20
5.1462740936
 30
0.0
 10
5.1269194982
 20
5.1457627275
 30
0.0
 10
5.1027702194
 20
5.1452508552
 30
0.0
 10
5.077141051
 20
5.1447386097
 30
0.0
 10
5.0502580476
 20
5.1442260955
 30
0.0
 10
5.0223586896
 20
5.1437133896
 30
0.0
 10
4.9838442319
 20
5.1430244691
 30
0.0
 10
4.9546569389
 20
5.1425161427
 30
0.0
 10
4.9350543478
 20
5.1421746691
 30
0.0
  0
SPLINE
  5
3AE
100
AcDbEntity
  8
0
100
AcDbSpline
 62
7
  6
CONTINUOUS
 70
0
 71
3
 72
63
 73
59
 74
0
 42
0.0000001
 43
0.0000001
 44
0.0000000001
 40
0.0
 40
0.0
 40
0.0
 40
0.0
 40
0.0001173497
 40
0.0001890504
 40
0.0002732087
 40
0.0004849311
 40
0.000760343
 40
0.0011026489
 40
0.0015134594
 40
0.0019936692
 40
0.0025438108
 40
0.0038550395
 40
0.0054486307
 40
0.0073246215
 40
0.009482406
 40
0.0146398486
 40
0.0209118971
 40
0.0282845282
 40
0.0367420753
 40
0.0462650978
 40
0.0568321785
 40
0.0684193355
 40
0.0809997466
 40
0.09454513
 40
0.1090238445
 40
0.1406475559
 40
0.1755805929
 40
0.2135021145
 40
0.2540637445
 40
0.2968927813
 40
0.3415956455
 40
0.3877615024
 40
0.4349659929
 40
0.4827752194
 40
0.5307496934
 40
0.5784484631
 40
0.6254331025
 40
0.6712717408
 40
0.7155430721
 40
0.7578401445
 40
0.7977742597
 40
0.8349785034
 40
0.8691111355
 40
0.8998587603
 40
0.9269392382
 40
0.9390252911
 40
0.9501044329
 40
0.9601509926
 40
0.9691426976
 40
0.9770585571
 40
0.9838815549
 40
0.9895963679
 40
0.9920344883
 40
0.9941916594
 40
0.9960669855
 40
0.9976598267
 40
0.99897038
 40
1.0
 40
1.0
 40
1.0
 40
1.0
 10
5.2294543235
 20
5.3389743013
 30
0.0
 10
5.2294543353
 20
5.338951281
 30
0.0
 10
5.2294403582
 20
5.3389141569
 30
0.0
 10
5.2294059018
 20
5.3388731203
 30
0.0
 10
5.2293512204
 20
5.3388256164
 30
0.0
 10
5.2292539115
 20
5.3387686924
 30
0.0
 10
5.2291043203
 20
5.338704312
 30
0.0
 10
5.228912996
 20
5.3386396826
 30
0.0
 10
5.228679859
 20
5.3385747627
 30
0.0
 10
5.2284046877
 20
5.3385096522
 30
0.0
 10
5.2279547016
 20
5.3384171632
 30
0.0
 10
5.2272862166
 20
5.3383043366
 30
0.0
 10
5.2263572959
 20
5.338174779
 30
0.0
 10
5.2252610015
 20
5.3380447588
 30
0.0
 10
5.2234674412
 20
5.3378597349
 30
0.0
 10
5.2208114001
 20
5.3376343396
 30
0.0
 10
5.2171320423
 20
5.3373754564
 30
0.0
 10
5.2128040055
 20
5.3371155983
 30
0.0
 10
5.2078372977
 20
5.3368549862
 30
0.0
 10
5.2022432032
 20
5.3365938862
 30
0.0
 10
5.1960345974
 20
5.3363324377
 30
0.0
 10
5.1892257562
 20
5.336070742
 30
0.0
 10
5.1818322782
 20
5.3358088427
 30
0.0
 10
5.1738712429
 20
5.3355468029
 30
0.0
 10
5.1621757407
 20
5.3351865657
 30
0.0
 10
5.1462853323
 20
5.3347407136
 30
0.0
 10
5.1257965714
 20
5.3342192135
 30
0.0
 10
5.1035539645
 20
5.3336970937
 30
0.0
 10
5.0797620252
 20
5.3331744845
 30
0.0
 10
5.0546395033
 20
5.3326515388
 30
0.0
 10
5.0284173853
 20
5.3321283477
 30
0.0
 10
5.0013367785
 20
5.3316049864
 30
0.0
 10
4.9736466919
 20
5.3310815133
 30
0.0
 10
4.9456017498
 20
5.3305579782
 30
0.0
 10
4.9174598291
 20
5.3300344265
 30
0.0
 10
4.8894796942
 20
5.3295109024
 30
0.0
 10
4.8619186163
 20
5.3289874522
 30
0.0
 10
4.8350300161
 20
5.3284641275
 30
0.0
 10
4.8090611457
 20
5.3279409908
 30
0.0
 10
4.7842507972
 20
5.327418119
 30
0.0
 10
4.7608271057
 20
5.3268956199
 30
0.0
 10
4.7390054347
 20
5.3263736275
 30
0.0
 10
4.7189863997
 20
5.3258523967
 30
0.0
 10
4.7009540459
 20
5.3253321292
 30
0.0
 10
4.6872463113
 20
5.3248846823
 30
0.0
 10
4.6773963479
 20
5.324521684
 30
0.0
 10
4.6708864757
 20
5.3242600947
 30
0.0
 10
4.664984139
 20
5.3239988014
 30
0.0
 10
4.6597029914
 20
5.3237379309
 30
0.0
 10
4.6550550273
 20
5.323477662
 30
0.0
 10
4.6510509995
 20
5.3232181895
 30
0.0
 10
4.6481217014
 20
5.3229929479
 30
0.0
 10
4.6461075368
 20
5.3228089052
 30
0.0
 10
4.6448448767
 20
5.3226785259
 30
0.0
 10
4.6437490014
 20
5.3225484998
 30
0.0
 10
4.6428204338
 20
5.3224190234
 30
0.0
 10
4.6420596361
 20
5.3222902655
 30
0.0
 10
4.6416103834
 20
5.3221941536
 30
0.0
 10
4.6414148686
 20
5.3221434618
 30
0.0
  0
SPLINE
  5
3AF
100
AcDbEntity
  8
0
100
AcDbSpline
 62
7
  6
CONTINUOUS
 70
0
 71
3
 72
63
 73
59
 74
0
 42
0.0000001
 43
0.0000001
 44
0.0000000001
 40
0.0
 40
0.0
 40
0.0
 40
0.0
 40
0.0010297648
 40
0.0023404666
 40
0.0039332399
 40
0.0058083525
 40
0.0079655455
 40
0.0104038364
 40
0.0161185819
 40
0.0229415365
 40
0.0308575783
 40
0.0398490203
 40
0.0498958577
 40
0.060974723
 40
0.0730609771
 40
0.1001413536
 40
0.1308889034
 40
0.1650215312
 40
0.2022258746
 40
0.2421600524
 40
0.2844571666
 40
0.3287284408
 40
0.374567032
 40
0.4215516742
 40
0.4692504284
 40
0.517224966
 40
0.5650341474
 40
0.6122386174
 40
0.6584044471
 40
0.7031073259
 40
0.745936449
 40
0.7864981262
 40
0.82441965
 40
0.8593525878
 40
0.8909761718
 40
0.9054551522
 40
0.9190002316
 40
0.931580947
 40
0.9431678715
 40
0.9537350539
 40
0.9632581075
 40
0.9717154821
 40
0.9790884135
 40
0.9853600982
 40
0.990517898
 40
0.9926756276
 40
0.9945513884
 40
0.9961449172
 40
0.9974563656
 40
0.9980066174
 40
0.9984868708
 40
0.9988976338
 40
0.9992398373
 40
0.9995151372
 40
0.9997267815
 40
0.9998109244
 40
0.9998826275
 40
1.0
 40
1.0
 40
1.0
 40
1.0
 10
5.2286939109
 20
5.1451301406
 30
0.0
 10
5.2284983676
 20
5.1450794456
 30
0.0
 10
5.2280490545
 20
5.1449833401
 30
0.0
 10
5.2272882111
 20
5.1448545897
 30
0.0
 10
5.2263596709
 20
5.1447251067
 30
0.0
 10
5.2252638485
 20
5.1445950661
 30
0.0
 10
5.2240011917
 20
5.1444646936
 30
0.0
 10
5.2219870012
 20
5.1442806656
 30
0.0
 10
5.2190576927
 20
5.1440554092
 30
0.0
 10
5.2150536507
 20
5.1437959359
 30
0.0
 10
5.2104057101
 20
5.1435356813
 30
0.0
 10
5.2051245249
 20
5.1432747889
 30
0.0
 10
5.1992222386
 20
5.1430135189
 30
0.0
 10
5.1927123275
 20
5.1427519096
 30
0.0
 10
5.1828623981
 20
5.1423889289
 30
0.0
 10
5.1691546591
 20
5.1419414698
 30
0.0
 10
5.1511223406
 20
5.141421206
 30
0.0
 10
5.1311033017
 20
5.1408999739
 30
0.0
 10
5.1092815996
 20
5.1403779827
 30
0.0
 10
5.0858578681
 20
5.1398554838
 30
0.0
 10
5.0610475103
 20
5.139332612
 30
0.0
 10
5.0350786521
 20
5.1388094748
 30
0.0
 10
5.0081900718
 20
5.13828615
 30
0.0
 10
4.9806290056
 20
5.1377626997
 30
0.0
 10
4.9526488607
 20
5.1372391757
 30
0.0
 10
4.9245069395
 20
5.1367156244
 30
0.0
 10
4.8964619978
 20
5.1361920892
 30
0.0
 10
4.8687719293
 20
5.1356686158
 30
0.0
 10
4.8416913291
 20
5.1351452544
 30
0.0
 10
4.8154691966
 20
5.1346220633
 30
0.0
 10
4.7903466456
 20
5.1340991178
 30
0.0
 10
4.7665546796
 20
5.1335765094
 30
0.0
 10
4.7443120825
 20
5.1330543889
 30
0.0
 10
4.7238233656
 20
5.1325328918
 30
0.0
 10
4.7079329497
 20
5.132087028
 30
0.0
 10
4.6962374795
 20
5.131726808
 30
0.0
 10
4.6882763926
 20
5.1314647501
 30
0.0
 10
4.6808829595
 20
5.1312028692
 30
0.0
 10
4.6740740848
 20
5.1309411594
 30
0.0
 10
4.6678654984
 20
5.1306797165
 30
0.0
 10
4.6622714112
 20
5.1304186233
 30
0.0
 10
4.6573046735
 20
5.1301579891
 30
0.0
 10
4.6529766807
 20
5.129898168
 30
0.0
 10
4.6492972686
 20
5.129639238
 30
0.0
 10
4.6466412367
 20
5.1294138779
 30
0.0
 10
4.6448476622
 20
5.1292288515
 30
0.0
 10
4.6437514378
 20
5.1290988191
 30
0.0
 10
4.6428225333
 20
5.1289692504
 30
0.0
 10
4.6421539932
 20
5.1288564366
 30
0.0
 10
4.6417039311
 20
5.1287639534
 30
0.0
 10
4.6414287374
 20
5.1286988465
 30
0.0
 10
4.6411956219
 20
5.1286339259
 30
0.0
 10
4.6410043526
 20
5.128569294
 30
0.0
 10
4.6408548247
 20
5.12850491
 30
0.0
 10
4.6407575659
 20
5.128447981
 30
0.0
 10
4.640702907
 20
5.1284004789
 30
0.0
 10
4.6406684513
 20
5.1283594401
 30
0.0
 10
4.6406544512
 20
5.1283223261
 30
0.0
 10
4.640654441
 20
5.1282993013
 30
0.0
  0
SPLINE
  5
3B0
100
AcDbEntity
  8
0
100
AcDbSpline
 62
7
  6
CONTINUOUS
 70
0
 71
3
 72
44
 73
40
 74
0
 42
0.0000001
 43
0.0000001
 44
0.0000000001
 40
0.0
 40
0.0
 40
0.0
 40
0.0
 40
0.0929363953
 40
0.1863242347
 40
0.279082043
 40
0.3701344167
 40
0.4584264612
 40
0.5429350265
 40
0.6226809769
 40
0.6967404362
 40
0.7313666752
 40
0.7642556028
 40
0.795311413
 40
0.8244447316
 40
0.8515706925
 40
0.8766113835
 40
0.8994939204
 40
0.9201528156
 40
0.9385281371
 40
0.9545677611
 40
0.9682257577
 40
0.9741498487
 40
0.9794647265
 40
0.9841671939
 40
0.9882547957
 40
0.9917254211
 40
0.9932289136
 40
0.9945778415
 40
0.99577246
 40
0.9968132138
 40
0.9977008644
 40
0.9984367519
 40
0.9990233873
 40
0.9992623191
 40
0.9994663727
 40
0.9996374621
 40
0.9997788718
 40
0.9998964159
 40
1.0
 40
1.0
 40
1.0
 40
1.0
 10
4.9829241633
 20
4.5573618012
 30
0.0
 10
4.9716834011
 20
4.5571636845
 30
0.0
 10
4.9491472161
 20
4.556769776
 30
0.0
 10
4.9153917915
 20
4.5561825855
 30
0.0
 10
4.8818643105
 20
4.5555954422
 30
0.0
 10
4.8489533606
 20
4.5550084274
 30
0.0
 10
4.8170404792
 20
4.5544216344
 30
0.0
 10
4.7864955671
 20
4.5538351925
 30
0.0
 10
4.757672694
 20
4.5532492214
 30
0.0
 10
4.7348835636
 20
4.5527510289
 30
0.0
 10
4.7177620025
 20
4.5523492658
 30
0.0
 10
4.7058415121
 20
4.5520548224
 30
0.0
 10
4.6945857106
 20
4.551760481
 30
0.0
 10
4.6840273035
 20
4.5514662768
 30
0.0
 10
4.6741968414
 20
4.5511722291
 30
0.0
 10
4.6651228922
 20
4.5508784059
 30
0.0
 10
4.6568316975
 20
4.5505848605
 30
0.0
 10
4.649347351
 20
4.5502917078
 30
0.0
 10
4.6426914654
 20
4.5499991255
 30
0.0
 10
4.6368833722
 20
4.5497072769
 30
0.0
 10
4.6325815367
 20
4.549454657
 30
0.0
 10
4.6295767593
 20
4.5492489895
 30
0.0
 10
4.6276538872
 20
4.5491023261
 30
0.0
 10
4.6259538649
 20
4.5489559585
 30
0.0
 10
4.6244778519
 20
4.5488099386
 30
0.0
 10
4.6233888797
 20
4.5486834947
 30
0.0
 10
4.6226309124
 20
4.548580579
 30
0.0
 10
4.6221468468
 20
4.5485072167
 30
0.0
 10
4.6217194471
 20
4.5484339836
 30
0.0
 10
4.6213487445
 20
4.5483609097
 30
0.0
 10
4.6210346773
 20
4.5482881018
 30
0.0
 10
4.6207772413
 20
4.5482155932
 30
0.0
 10
4.6205990171
 20
4.5481520623
 30
0.0
 10
4.6204859373
 20
4.548099622
 30
0.0
 10
4.6204211641
 20
4.5480630406
 30
0.0
 10
4.6203703184
 20
4.5480264171
 30
0.0
 10
4.6203332502
 20
4.5479894724
 30
0.0
 10
4.6203099708
 20
4.5479516237
 30
0.0
 10
4.6203043898
 20
4.5479246996
 30
0.0
 10
4.6203043967
 20
4.547912169
 30
0.0
  0
SPLINE
  5
3B1
100
AcDbEntity
  8
0
100
AcDbSpline
 62
7
  6
CONTINUOUS
 70
0
 71
3
 72
61
 73
57
 74
0
 42
0.0000001
 43
0.0000001
 44
0.0000000001
 40
0.0
 40
0.0
 40
0.0
 40
0.0
 40
0.0001162264
 40
0.00018701
 40
0.0002699393
 40
0.0004782199
 40
0.0007488894
 40
0.0010851932
 40
0.0014887322
 40
0.0019603767
 40
0.0025006346
 40
0.0037880398
 40
0.0053522875
 40
0.0071937302
 40
0.0093120327
 40
0.0143751005
 40
0.020532218
 40
0.0277709163
 40
0.03607503
 40
0.0454269513
 40
0.0558052486
 40
0.0671872349
 40
0.0795471697
 40
0.0928573224
 40
0.1070880666
 40
0.1381804542
 40
0.1725446956
 40
0.2098715477
 40
0.2498249118
 40
0.2920450306
 40
0.3361515418
 40
0.3817471029
 40
0.428420994
 40
0.4757527286
 40
0.5233159071
 40
0.570682068
 40
0.6174243729
 40
0.6631218121
 40
0.7073626442
 40
0.7497484166
 40
0.7898973723
 40
0.8274478634
 40
0.8620618265
 40
0.8934275488
 40
0.9212629838
 40
0.9453180256
 40
0.955859338
 40
0.9653772208
 40
0.9738511025
 40
0.981261707
 40
0.9875934022
 40
0.9928331869
 40
0.9950401766
 40
0.9969706765
 40
0.9986240511
 40
1.0
 40
1.0
 40
1.0
 40
1.0
 10
5.2294542352
 20
5.3045243013
 30
0.0
 10
5.2294542403
 20
5.3045015325
 30
0.0
 10
5.2294405983
 20
5.3044648447
 30
0.0
 10
5.2294068247
 20
5.3044241588
 30
0.0
 10
5.2293533044
 20
5.30437715
 30
0.0
 10
5.2292579958
 20
5.3043207721
 30
0.0
 10
5.2291114012
 20
5.3042570218
 30
0.0
 10
5.2289238786
 20
5.3041930342
 30
0.0
 10
5.2286953463
 20
5.3041287632
 30
0.0
 10
5.2284255972
 20
5.3040643037
 30
0.0
 10
5.2279845164
 20
5.303972747
 30
0.0
 10
5.2273293084
 20
5.3038610542
 30
0.0
 10
5.226418856
 20
5.3037327742
 30
0.0
 10
5.2253443229
 20
5.3036040473
 30
0.0
 10
5.2235862174
 20
5.3034208857
 30
0.0
 10
5.2209825593
 20
5.3031977464
 30
0.0
 10
5.2173754889
 20
5.302941421
 30
0.0
 10
5.2131321908
 20
5.302684192
 30
0.0
 10
5.2082621014
 20
5.3024261549
 30
0.0
 10
5.202776225
 20
5.3021676849
 30
0.0
 10
5.1966868138
 20
5.3019088384
 30
0.0
 10
5.1900076597
 20
5.3016497585
 30
0.0
 10
5.1827537666
 20
5.3013904838
 30
0.0
 10
5.1749414771
 20
5.3011310507
 30
0.0
 10
5.1634607251
 20
5.3007743831
 30
0.0
 10
5.147856151
 20
5.3003329183
 30
0.0
 10
5.127727431
 20
5.2998166156
 30
0.0
 10
5.1058623349
 20
5.2992996945
 30
0.0
 10
5.0824578831
 20
5.2987822885
 30
0.0
 10
5.0577249958
 20
5.2982645473
 30
0.0
 10
5.0318865749
 20
5.2977465603
 30
0.0
 10
5.0051754931
 20
5.2972284012
 30
0.0
 10
4.9778324755
 20
5.2967101272
 30
0.0
 10
4.9501039343
 20
5.296191787
 30
0.0
 10
4.9222397541
 20
5.2956734241
 30
0.0
 10
4.8944910631
 20
5.2951550808
 30
0.0
 10
4.8671079341
 20
5.2946367999
 30
0.0
 10
4.8403371676
 20
5.2941186296
 30
0.0
 10
4.8144200082
 20
5.2936006262
 30
0.0
 10
4.7895900189
 20
5.293082861
 30
0.0
 10
4.766070961
 20
5.2925654259
 30
0.0
 10
4.7440747824
 20
5.2920484542
 30
0.0
 10
4.7237997372
 20
5.2915321131
 30
0.0
 10
4.7054285154
 20
5.2910167458
 30
0.0
 10
4.6891266624
 20
5.290502609
 30
0.0
 10
4.6769042224
 20
5.2900587548
 30
0.0
 10
4.6682697587
 20
5.2896974804
 30
0.0
 10
4.6626860782
 20
5.2894388952
 30
0.0
 10
4.6577164108
 20
5.2891808019
 30
0.0
 10
4.6533718115
 20
5.2889234207
 30
0.0
 10
4.6496620112
 20
5.2886669053
 30
0.0
 10
4.6469718711
 20
5.2884438017
 30
0.0
 10
4.645143942
 20
5.2882609235
 30
0.0
 10
4.644016798
 20
5.2881320485
 30
0.0
 10
4.643053633
 20
5.288003637
 30
0.0
 10
4.642467484
 20
5.2879100286
 30
0.0
 10
4.6422022845
 20
5.2878618012
 30
0.0
  0
SPLINE
  5
3B2
100
AcDbEntity
  8
0
100
AcDbSpline
 62
7
  6
CONTINUOUS
 70
0
 71
3
 72
39
 73
35
 74
0
 42
0.0000001
 43
0.0000001
 44
0.0000000001
 40
0.0
 40
0.0
 40
0.0
 40
0.0
 40
0.000522443
 40
0.0007225193
 40
0.0009552567
 40
0.0015233136
 40
0.0022329777
 40
0.0030871452
 40
0.0040873247
 40
0.0052343691
 40
0.0079707117
 40
0.0112981435
 40
0.0152168847
 40
0.0197258015
 40
0.0305042131
 40
0.0436114798
 40
0.0590180463
 40
0.0766875226
 40
0.0965788924
 40
0.1186437664
 40
0.1428305587
 40
0.1690801068
 40
0.1973305283
 40
0.2275130044
 40
0.2595556403
 40
0.2933809986
 40
0.3660507836
 40
0.4448230863
 40
0.5289400226
 40
0.6175916474
 40
0.7099254491
 40
0.8050502783
 40
0.9020555645
 40
1.0
 40
1.0
 40
1.0
 40
1.0
 10
5.2498042364
 20
5.2992614334
 30
0.0
 10
5.2498042364
 20
5.2992065722
 30
0.0
 10
5.2497372975
 20
5.2991421762
 30
0.0
 10
5.249653979
 20
5.299090968
 30
0.0
 10
5.2495596833
 20
5.299042744
 30
0.0
 10
5.2494120562
 20
5.2989851001
 30
0.0
 10
5.2491979382
 20
5.2989188394
 30
0.0
 10
5.2489369612
 20
5.2988525004
 30
0.0
 10
5.2486288467
 20
5.2987858635
 30
0.0
 10
5.2481247989
 20
5.2986912041
 30
0.0
 10
5.2473762757
 20
5.2985757469
 30
0.0
 10
5.2463363804
 20
5.2984431586
 30
0.0
 10
5.245109123
 20
5.2983100989
 30
0.0
 10
5.2431011771
 20
5.2981207548
 30
0.0
 10
5.2401282502
 20
5.2978901004
 30
0.0
 10
5.2360106702
 20
5.2976251478
 30
0.0
 10
5.2311682477
 20
5.2973592389
 30
0.0
 10
5.2256125659
 20
5.2970925096
 30
0.0
 10
5.2193570137
 20
5.296825319
 30
0.0
 10
5.2124165454
 20
5.2965577429
 30
0.0
 10
5.2048079715
 20
5.2962899311
 30
0.0
 10
5.1965494995
 20
5.2960219013
 30
0.0
 10
5.1876611253
 20
5.2957537374
 30
0.0
 10
5.1781641713
 20
5.2954854429
 30
0.0
 10
5.1680815828
 20
5.2952170553
 30
0.0
 10
5.1535385008
 20
5.2948502779
 30
0.0
 10
5.1340890688
 20
5.2943954009
 30
0.0
 10
5.1093590331
 20
5.293861076
 30
0.0
 10
5.0829504064
 20
5.2933262992
 30
0.0
 10
5.0551174341
 20
5.292791169
 30
0.0
 10
5.0261283356
 20
5.2922558015
 30
0.0
 10
4.9962618871
 20
5.2917202616
 30
0.0
 10
4.9658061815
 20
5.291184622
 30
0.0
 10
4.945337827
 20
5.2908280697
 30
0.0
 10
4.9350543478
 20
5.2906489334
 30
0.0
  0
SPLINE
  5
3B3
100
AcDbEntity
  8
0
100
AcDbSpline
 62
7
  6
CONTINUOUS
 70
0
 71
3
 72
39
 73
35
 74
0
 42
0.0000001
 43
0.0000001
 44
0.0000000001
 40
0.0
 40
0.0
 40
0.0
 40
0.0
 40
0.000522443
 40
0.0007225193
 40
0.0009552567
 40
0.0015233136
 40
0.0022329777
 40
0.0030871452
 40
0.0040873247
 40
0.0052343691
 40
0.0079707117
 40
0.0112981435
 40
0.0152168847
 40
0.0197258015
 40
0.0305042131
 40
0.0436114798
 40
0.0590180463
 40
0.0766875226
 40
0.0965788924
 40
0.1186437664
 40
0.1428305587
 40
0.1690801068
 40
0.1973305283
 40
0.2275130044
 40
0.2595556403
 40
0.2933809986
 40
0.3660507836
 40
0.4448230863
 40
0.5289400226
 40
0.6175916474
 40
0.7099254491
 40
0.8050502783
 40
0.9020555645
 40
1.0
 40
1.0
 40
1.0
 40
1.0
 10
5.2498042364
 20
5.2648114334
 30
0.0
 10
5.2498042364
 20
5.2647565722
 30
0.0
 10
5.2497372975
 20
5.2646921762
 30
0.0
 10
5.249653979
 20
5.264640968
 30
0.0
 10
5.2495596833
 20
5.264592744
 30
0.0
 10
5.2494120562
 20
5.2645351001
 30
0.0
 10
5.2491979382
 20
5.2644688394
 30
0.0
 10
5.2489369612
 20
5.2644025004
 30
0.0
 10
5.2486288467
 20
5.2643358635
 30
0.0
 10
5.2481247989
 20
5.2642412041
 30
0.0
 10
5.2473762757
 20
5.2641257469
 30
0.0
 10
5.2463363804
 20
5.2639931586
 30
0.0
 10
5.245109123
 20
5.2638600989
 30
0.0
 10
5.2431011771
 20
5.2636707548
 30
0.0
 10
5.2401282502
 20
5.2634401004
 30
0.0
 10
5.2360106702
 20
5.2631751478
 30
0.0
 10
5.2311682477
 20
5.2629092389
 30
0.0
 10
5.2256125659
 20
5.2626425096
 30
0.0
 10
5.2193570137
 20
5.262375319
 30
0.0
 10
5.2124165454
 20
5.2621077429
 30
0.0
 10
5.2048079715
 20
5.2618399311
 30
0.0
 10
5.1965494995
 20
5.2615719013
 30
0.0
 10
5.1876611253
 20
5.2613037374
 30
0.0
 10
5.1781641713
 20
5.2610354429
 30
0.0
 10
5.1680815828
 20
5.2607670553
 30
0.0
 10
5.1535385008
 20
5.2604002779
 30
0.0
 10
5.1340890688
 20
5.2599454009
 30
0.0
 10
5.1093590331
 20
5.259411076
 30
0.0
 10
5.0829504064
 20
5.2588762992
 30
0.0
 10
5.0551174341
 20
5.258341169
 30
0.0
 10
5.0261283356
 20
5.2578058015
 30
0.0
 10
4.9962618871
 20
5.2572702616
 30
0.0
 10
4.9658061815
 20
5.256734622
 30
0.0
 10
4.945337827
 20
5.2563780697
 30
0.0
 10
4.9350543478
 20
5.2561989334
 30
0.0
  0
SPLINE
  5
3B4
100
AcDbEntity
  8
0
100
AcDbSpline
 62
7
  6
CONTINUOUS
 70
0
 71
3
 72
39
 73
35
 74
0
 42
0.0000001
 43
0.0000001
 44
0.0000000001
 40
0.0
 40
0.0
 40
0.0
 40
0.0
 40
0.000522443
 40
0.0007225193
 40
0.0009552567
 40
0.0015233136
 40
0.0022329777
 40
0.0030871452
 40
0.0040873247
 40
0.0052343691
 40
0.0079707117
 40
0.0112981435
 40
0.0152168847
 40
0.0197258015
 40
0.0305042131
 40
0.0436114798
 40
0.0590180463
 40
0.0766875226
 40
0.0965788924
 40
0.1186437664
 40
0.1428305587
 40
0.1690801068
 40
0.1973305283
 40
0.2275130044
 40
0.2595556403
 40
0.2933809986
 40
0.3660507836
 40
0.4448230863
 40
0.5289400226
 40
0.6175916474
 40
0.7099254491
 40
0.8050502783
 40
0.9020555645
 40
1.0
 40
1.0
 40
1.0
 40
1.0
 10
5.2498042364
 20
5.2303614334
 30
0.0
 10
5.2498042364
 20
5.2303065722
 30
0.0
 10
5.2497372975
 20
5.2302421762
 30
0.0
 10
5.249653979
 20
5.230190968
 30
0.0
 10
5.2495596833
 20
5.230142744
 30
0.0
 10
5.2494120562
 20
5.2300851001
 30
0.0
 10
5.2491979382
 20
5.2300188394
 30
0.0
 10
5.2489369612
 20
5.2299525004
 30
0.0
 10
5.2486288467
 20
5.2298858635
 30
0.0
 10
5.2481247989
 20
5.2297912041
 30
0.0
 10
5.2473762757
 20
5.2296757469
 30
0.0
 10
5.2463363804
 20
5.2295431586
 30
0.0
 10
5.245109123
 20
5.2294100989
 30
0.0
 10
5.2431011771
 20
5.2292207548
 30
0.0
 10
5.2401282502
 20
5.2289901004
 30
0.0
 10
5.2360106702
 20
5.2287251478
 30
0.0
 10
5.2311682477
 20
5.2284592389
 30
0.0
 10
5.2256125659
 20
5.2281925096
 30
0.0
 10
5.2193570137
 20
5.227925319
 30
0.0
 10
5.2124165454
 20
5.2276577429
 30
0.0
 10
5.2048079715
 20
5.2273899311
 30
0.0
 10
5.1965494995
 20
5.2271219013
 30
0.0
 10
5.1876611253
 20
5.2268537374
 30
0.0
 10
5.1781641713
 20
5.2265854429
 30
0.0
 10
5.1680815828
 20
5.2263170553
 30
0.0
 10
5.1535385008
 20
5.2259502779
 30
0.0
 10
5.1340890688
 20
5.2254954009
 30
0.0
 10
5.1093590331
 20
5.224961076
 30
0.0
 10
5.0829504064
 20
5.2244262992
 30
0.0
 10
5.0551174341
 20
5.223891169
 30
0.0
 10
5.0261283356
 20
5.2233558015
 30
0.0
 10
4.9962618871
 20
5.2228202616
 30
0.0
 10
4.9658061815
 20
5.222284622
 30
0.0
 10
4.945337827
 20
5.2219280697
 30
0.0
 10
4.9350543478
 20
5.2217489334
 30
0.0
  0
SPLINE
  5
3B5
100
AcDbEntity
  8
0
100
AcDbSpline
 62
7
  6
CONTINUOUS
 70
0
 71
3
 72
63
 73
59
 74
0
 42
0.0000001
 43
0.0000001
 44
0.0000000001
 40
0.0
 40
0.0
 40
0.0
 40
0.0
 40
0.0010295306
 40
0.0023402559
 40
0.0039332394
 40
0.005808453
 40
0.0079654525
 40
0.0104035712
 40
0.0161186437
 40
0.0229413611
 40
0.0308575055
 40
0.0398489979
 40
0.0498956549
 40
0.0609747942
 40
0.0730607257
 40
0.1001411834
 40
0.1308888476
 40
0.1650215755
 40
0.2022258598
 40
0.242159976
 40
0.2844570227
 40
0.3287282655
 40
0.3745669391
 40
0.4215515689
 40
0.4692503764
 40
0.5172248466
 40
0.5650340357
 40
0.6122385396
 40
0.6584043937
 40
0.7031073168
 40
0.7459363582
 40
0.7864979561
 40
0.8244194359
 40
0.8593524214
 40
0.890976117
 40
0.905454956
 40
0.9190002858
 40
0.9315806881
 40
0.9431679225
 40
0.9537348672
 40
0.9632580546
 40
0.9717154352
 40
0.9790881921
 40
0.9853601561
 40
0.9905176176
 40
0.9926754894
 40
0.9945514713
 40
0.9961449365
 40
0.9974561689
 40
0.9980063487
 40
0.998486603
 40
0.9988974513
 40
0.9992397756
 40
0.9995151747
 40
0.9997268473
 40
0.9998109771
 40
0.9998826585
 40
1.0
 40
1.0
 40
1.0
 40
1.0
 10
5.2286938653
 20
5.2829301408
 30
0.0
 10
5.22849837
 20
5.2828794437
 30
0.0
 10
5.2280491022
 20
5.2827833217
 30
0.0
 10
5.2272882562
 20
5.2826545843
 30
0.0
 10
5.2263596482
 20
5.2825251129
 30
0.0
 10
5.2252638021
 20
5.282395077
 30
0.0
 10
5.2240011989
 20
5.2822646916
 30
0.0
 10
5.2219870171
 20
5.2820806504
 30
0.0
 10
5.2190577219
 20
5.2818554297
 30
0.0
 10
5.2150536442
 20
5.2815959239
 30
0.0
 10
5.2104057191
 20
5.2813356851
 30
0.0
 10
5.2051245392
 20
5.2810747929
 30
0.0
 10
5.199222225
 20
5.2808135111
 30
0.0
 10
5.1927123579
 20
5.2805519197
 30
0.0
 10
5.1828624227
 20
5.2801889179
 30
0.0
 10
5.1691547077
 20
5.2797414732
 30
0.0
 10
5.1511223309
 20
5.2792212056
 30
0.0
 10
5.1311032609
 20
5.2786999754
 30
0.0
 10
5.1092815624
 20
5.278177983
 30
0.0
 10
5.0858578673
 20
5.2776554839
 30
0.0
 10
5.0610475404
 20
5.2771326117
 30
0.0
 10
5.0350786848
 20
5.2766094746
 30
0.0
 10
5.0081900963
 20
5.2760861502
 30
0.0
 10
4.9806290052
 20
5.2755627
 30
0.0
 10
4.9526488649
 20
5.2750391761
 30
0.0
 10
4.9245069442
 20
5.2745156243
 30
0.0
 10
4.8964620069
 20
5.2739920891
 30
0.0
 10
4.8687719248
 20
5.2734686158
 30
0.0
 10
4.8416913038
 20
5.2729452546
 30
0.0
 10
4.8154691732
 20
5.2724220638
 30
0.0
 10
4.7903466445
 20
5.2718991181
 30
0.0
 10
4.7665547183
 20
5.271376509
 30
0.0
 10
4.7443121355
 20
5.2708543887
 30
0.0
 10
4.7238233955
 20
5.2703328894
 30
0.0
 10
4.7079329755
 20
5.269887034
 30
0.0
 10
4.696237462
 20
5.2695268015
 30
0.0
 10
4.6882764145
 20
5.2692647592
 30
0.0
 10
4.6808829333
 20
5.2690028585
 30
0.0
 10
4.674074105
 20
5.2687411696
 30
0.0
 10
4.6678654787
 20
5.2684797096
 30
0.0
 10
4.6622714103
 20
5.2682186239
 30
0.0
 10
4.6573046789
 20
5.2679579963
 30
0.0
 10
4.6529766658
 20
5.2676981517
 30
0.0
 10
4.6492972965
 20
5.2674392615
 30
0.0
 10
4.6466412515
 20
5.2672138624
 30
0.0
 10
4.6448476712
 20
5.2670288458
 30
0.0
 10
4.6437513856
 20
5.2668988297
 30
0.0
 10
4.6428224925
 20
5.2667692596
 30
0.0
 10
4.6421540241
 20
5.2666564352
 30
0.0
 10
4.6417040201
 20
5.2665639494
 30
0.0
 10
4.6414288243
 20
5.2664988396
 30
0.0
 10
4.6411956664
 20
5.2664339211
 30
0.0
 10
4.6410043325
 20
5.2663692932
 30
0.0
 10
4.6408547492
 20
5.2663049164
 30
0.0
 10
4.640757461
 20
5.2662479896
 30
0.0
 10
4.6407028085
 20
5.2662004813
 30
0.0
 10
4.6406683739
 20
5.2661594402
 30
0.0
 10
4.6406544098
 20
5.2661223199
 30
0.0
 10
4.640654423
 20
5.2660993012
 30
0.0
  0
SPLINE
  5
3B6
100
AcDbEntity
  8
0
100
AcDbSpline
 62
7
  6
CONTINUOUS
 70
0
 71
3
 72
30
 73
26
 74
0
 42
0.0000001
 43
0.0000001
 44
0.0000000001
 40
0.0
 40
0.0
 40
0.0
 40
0.0
 40
0.0019021902
 40
0.0043447472
 40
0.0073299527
 40
0.0108583799
 40
0.0149296114
 40
0.019541892
 40
0.0303802893
 40
0.0433534602
 40
0.0584337756
 40
0.0755889471
 40
0.0947822431
 40
0.1159708994
 40
0.1391096275
 40
0.1910273113
 40
0.2500787797
 40
0.3157440519
 40
0.3874445836
 40
0.4645480674
 40
0.5463747513
 40
0.6322024818
 40
0.7212754567
 40
0.8128047107
 40
1.0
 40
1.0
 40
1.0
 40
1.0
 10
5.2490927314
 20
5.2882184123
 30
0.0
 10
5.2488998804
 20
5.2881684312
 30
0.0
 10
5.248454345
 20
5.2880741035
 30
0.0
 10
5.2476969849
 20
5.2879481334
 30
0.0
 10
5.2467674559
 20
5.2878213974
 30
0.0
 10
5.2456661607
 20
5.2876940691
 30
0.0
 10
5.2443935128
 20
5.2875663968
 30
0.0
 10
5.2423568616
 20
5.2873859911
 30
0.0
 10
5.2393880009
 20
5.2871652985
 30
0.0
 10
5.2353226113
 20
5.2869111872
 30
0.0
 10
5.2305945822
 20
5.2866562889
 30
0.0
 10
5.2252143191
 20
5.2864007489
 30
0.0
 10
5.2191936879
 20
5.2861448273
 30
0.0
 10
5.2125458861
 20
5.2858885687
 30
0.0
 10
5.2024720959
 20
5.2855328258
 30
0.0
 10
5.1884333377
 20
5.2850943508
 30
0.0
 10
5.169940842
 20
5.2845847032
 30
0.0
 10
5.1493757467
 20
5.2840740936
 30
0.0
 10
5.1269194982
 20
5.2835627275
 30
0.0
 10
5.1027702194
 20
5.2830508552
 30
0.0
 10
5.077141051
 20
5.2825386097
 30
0.0
 10
5.0502580476
 20
5.2820260955
 30
0.0
 10
5.0223586896
 20
5.2815133896
 30
0.0
 10
4.9838442319
 20
5.2808244691
 30
0.0
 10
4.9546569389
 20
5.2803161427
 30
0.0
 10
4.9350543478
 20
5.2799746691
 30
0.0
  0
SPLINE
  5
3B7
100
AcDbEntity
  8
0
100
AcDbSpline
 62
7
  6
CONTINUOUS
 70
0
 71
3
 72
63
 73
59
 74
0
 42
0.0000001
 43
0.0000001
 44
0.0000000001
 40
0.0
 40
0.0
 40
0.0
 40
0.0
 40
0.00102976
 40
0.0023404859
 40
0.0039332791
 40
0.0058083736
 40
0.0079655354
 40
0.0104038436
 40
0.0161186338
 40
0.0229415284
 40
0.0308576058
 40
0.0398490038
 40
0.0498958789
 40
0.0609747502
 40
0.0730609788
 40
0.1001413339
 40
0.1308889027
 40
0.165021537
 40
0.2022258949
 40
0.2421600774
 40
0.2844571628
 40
0.3287284423
 40
0.3745670268
 40
0.4215516509
 40
0.469250449
 40
0.5172249309
 40
0.565034155
 40
0.6122385951
 40
0.6584044313
 40
0.703107344
 40
0.7459364312
 40
0.7864981495
 40
0.824419619
 40
0.8593525693
 40
0.8909761616
 40
0.9054551558
 40
0.919000228
 40
0.9315809342
 40
0.9431678974
 40
0.9537350336
 40
0.9632581353
 40
0.9717154662
 40
0.9790884304
 40
0.9853601043
 40
0.9905178873
 40
0.9926756593
 40
0.9945514152
 40
0.9961449146
 40
0.9974563439
 40
0.9980066004
 40
0.9984868736
 40
0.9988976578
 40
0.9992398674
 40
0.9995151624
 40
0.9997267961
 40
0.9998109334
 40
0.9998826316
 40
1.0
 40
1.0
 40
1.0
 40
1.0
 10
5.2286939253
 20
5.2484801406
 30
0.0
 10
5.2284983834
 20
5.2484294442
 30
0.0
 10
5.2280490662
 20
5.2483333392
 30
0.0
 10
5.2272882147
 20
5.2482045906
 30
0.0
 10
5.2263596692
 20
5.2480751089
 30
0.0
 10
5.2252638527
 20
5.247945067
 30
0.0
 10
5.2240012024
 20
5.2478146925
 30
0.0
 10
5.2219870057
 20
5.2476306664
 30
0.0
 10
5.2190576966
 20
5.2474054119
 30
0.0
 10
5.2150536509
 20
5.2471459331
 30
0.0
 10
5.2104057234
 20
5.246885684
 30
0.0
 10
5.2051245325
 20
5.2466247877
 30
0.0
 10
5.1992222461
 20
5.24636352
 30
0.0
 10
5.1927123313
 20
5.2461019098
 30
0.0
 10
5.1828624097
 20
5.2457389287
 30
0.0
 10
5.1691546759
 20
5.24529147
 30
0.0
 10
5.1511223564
 20
5.244771206
 30
0.0
 10
5.1311033092
 20
5.2442499742
 30
0.0
 10
5.1092816017
 20
5.243727983
 30
0.0
 10
5.0858578716
 20
5.243205484
 30
0.0
 10
5.0610475171
 20
5.2426826121
 30
0.0
 10
5.0350786644
 20
5.2421594749
 30
0.0
 10
5.0081900874
 20
5.2416361502
 30
0.0
 10
4.980629017
 20
5.2411126999
 30
0.0
 10
4.9526488775
 20
5.2405891761
 30
0.0
 10
4.9245069497
 20
5.2400656246
 30
0.0
 10
4.8964620159
 20
5.2395420895
 30
0.0
 10
4.8687719432
 20
5.2390186161
 30
0.0
 10
4.8416913404
 20
5.2384952546
 30
0.0
 10
4.8154692065
 20
5.2379720636
 30
0.0
 10
4.7903466475
 20
5.237449118
 30
0.0
 10
4.7665546907
 20
5.2369265098
 30
0.0
 10
4.7443120934
 20
5.2364043889
 30
0.0
 10
4.7238233827
 20
5.2358828919
 30
0.0
 10
4.7079329598
 20
5.2354370278
 30
0.0
 10
4.6962374863
 20
5.2350768085
 30
0.0
 10
4.6882763998
 20
5.2348147505
 30
0.0
 10
4.6808829623
 20
5.2345528683
 30
0.0
 10
4.6740740907
 20
5.2342911611
 30
0.0
 10
4.6678654963
 20
5.2340297146
 30
0.0
 10
4.662271417
 20
5.2337686256
 30
0.0
 10
4.6573046722
 20
5.2335079876
 30
0.0
 10
4.6529766835
 20
5.2332481688
 30
0.0
 10
4.6492972702
 20
5.2329892393
 30
0.0
 10
4.6466412358
 20
5.2327638743
 30
0.0
 10
4.6448476566
 20
5.2325788532
 30
0.0
 10
4.6437514306
 20
5.2324488203
 30
0.0
 10
4.6428225368
 20
5.2323192506
 30
0.0
 10
4.6421540056
 20
5.2322064358
 30
0.0
 10
4.6417039424
 20
5.2321139526
 30
0.0
 10
4.6414287394
 20
5.2320488463
 30
0.0
 10
4.6411956139
 20
5.2319839273
 30
0.0
 10
4.6410043398
 20
5.2319192954
 30
0.0
 10
4.640854814
 20
5.2318549112
 30
0.0
 10
4.64075756
 20
5.2317979816
 30
0.0
 10
4.6407029071
 20
5.231750479
 30
0.0
 10
4.6406684565
 20
5.2317094394
 30
0.0
 10
4.6406544619
 20
5.2316723253
 30
0.0
 10
4.640654454
 20
5.2316493013
 30
0.0
  0
SPLINE
  5
3B8
100
AcDbEntity
  8
0
100
AcDbSpline
 62
7
  6
CONTINUOUS
 70
0
 71
3
 72
30
 73
26
 74
0
 42
0.0000001
 43
0.0000001
 44
0.0000000001
 40
0.0
 40
0.0
 40
0.0
 40
0.0
 40
0.0019021902
 40
0.0043447472
 40
0.0073299527
 40
0.0108583799
 40
0.0149296114
 40
0.019541892
 40
0.0303802893
 40
0.0433534602
 40
0.0584337756
 40
0.0755889471
 40
0.0947822431
 40
0.1159708994
 40
0.1391096275
 40
0.1910273113
 40
0.2500787797
 40
0.3157440519
 40
0.3874445836
 40
0.4645480674
 40
0.5463747513
 40
0.6322024818
 40
0.7212754567
 40
0.8128047107
 40
1.0
 40
1.0
 40
1.0
 40
1.0
 10
5.2490927314
 20
5.2537684123
 30
0.0
 10
5.2488998804
 20
5.2537184312
 30
0.0
 10
5.248454345
 20
5.2536241035
 30
0.0
 10
5.2476969849
 20
5.2534981334
 30
0.0
 10
5.2467674559
 20
5.2533713974
 30
0.0
 10
5.2456661607
 20
5.2532440691
 30
0.0
 10
5.2443935128
 20
5.2531163968
 30
0.0
 10
5.2423568616
 20
5.2529359911
 30
0.0
 10
5.2393880009
 20
5.2527152985
 30
0.0
 10
5.2353226113
 20
5.2524611872
 30
0.0
 10
5.2305945822
 20
5.2522062889
 30
0.0
 10
5.2252143191
 20
5.2519507489
 30
0.0
 10
5.2191936879
 20
5.2516948273
 30
0.0
 10
5.2125458861
 20
5.2514385687
 30
0.0
 10
5.2024720959
 20
5.2510828258
 30
0.0
 10
5.1884333377
 20
5.2506443508
 30
0.0
 10
5.169940842
 20
5.2501347032
 30
0.0
 10
5.1493757467
 20
5.2496240936
 30
0.0
 10
5.1269194982
 20
5.2491127275
 30
0.0
 10
5.1027702194
 20
5.2486008552
 30
0.0
 10
5.077141051
 20
5.2480886097
 30
0.0
 10
5.0502580476
 20
5.2475760955
 30
0.0
 10
5.0223586896
 20
5.2470633896
 30
0.0
 10
4.9838442319
 20
5.2463744691
 30
0.0
 10
4.9546569389
 20
5.2458661427
 30
0.0
 10
4.9350543478
 20
5.2455246691
 30
0.0
  0
SPLINE
  5
3B9
100
AcDbEntity
  8
0
100
AcDbSpline
 62
7
  6
CONTINUOUS
 70
0
 71
3
 72
63
 73
59
 74
0
 42
0.0000001
 43
0.0000001
 44
0.0000000001
 40
0.0
 40
0.0
 40
0.0
 40
0.0
 40
0.0010296161
 40
0.0023401661
 40
0.0039330088
 40
0.0058083355
 40
0.0079655053
 40
0.0104036232
 40
0.0161184343
 40
0.0229414435
 40
0.0308572985
 40
0.0398490052
 40
0.0498955669
 40
0.0609746959
 40
0.0730607671
 40
0.10014125
 40
0.130888858
 40
0.1650214863
 40
0.202225735
 40
0.2421598387
 40
0.2844569653
 40
0.3287282663
 40
0.3745669286
 40
0.4215515527
 40
0.4692503125
 40
0.5172248221
 40
0.5650340193
 40
0.6122385398
 40
0.6584043563
 40
0.7031072223
 40
0.7459362734
 40
0.786497917
 40
0.8244194772
 40
0.8593525224
 40
0.890976185
 40
0.9054549102
 40
0.9190002306
 40
0.9315807548
 40
0.9431677737
 40
0.9537349969
 40
0.9632579074
 40
0.9717155281
 40
0.9790881485
 40
0.9853601113
 40
0.9905176866
 40
0.9926753793
 40
0.9945513031
 40
0.9961449675
 40
0.9974563111
 40
0.9980064439
 40
0.9984866158
 40
0.9988973753
 40
0.9992396325
 40
0.9995150131
 40
0.9997267344
 40
0.9998109051
 40
0.999882625
 40
1.0
 40
1.0
 40
1.0
 40
1.0
 10
5.2286938205
 20
5.2140301406
 30
0.0
 10
5.2284983066
 20
5.2139794489
 30
0.0
 10
5.2280490554
 20
5.2138833366
 30
0.0
 10
5.2272882588
 20
5.2137545785
 30
0.0
 10
5.2263596915
 20
5.2136251024
 30
0.0
 10
5.2252638161
 20
5.2134950763
 30
0.0
 10
5.2240011566
 20
5.2133646972
 30
0.0
 10
5.2219869933
 20
5.2131806546
 30
0.0
 10
5.219057694
 20
5.2129554128
 30
0.0
 10
5.2150536653
 20
5.2126959408
 30
0.0
 10
5.2104056996
 20
5.2124356711
 30
0.0
 10
5.2051245524
 20
5.2121748009
 30
0.0
 10
5.1992222177
 20
5.211913508
 30
0.0
 10
5.1927123443
 20
5.2116519181
 30
0.0
 10
5.1828623792
 20
5.2112889206
 30
0.0
 10
5.1691546438
 20
5.2108414731
 30
0.0
 10
5.1511222938
 20
5.2103212058
 30
0.0
 10
5.1311032627
 20
5.2097999749
 30
0.0
 10
5.1092815945
 20
5.2092779825
 30
0.0
 10
5.0858578945
 20
5.2087554833
 30
0.0
 10
5.0610475446
 20
5.2082326117
 30
0.0
 10
5.0350786658
 20
5.2077094748
 30
0.0
 10
5.0081900708
 20
5.2071861502
 30
0.0
 10
4.9806289942
 20
5.2066626999
 30
0.0
 10
4.9526488583
 20
5.2061391757
 30
0.0
 10
4.9245069395
 20
5.2056156241
 30
0.0
 10
4.8964619914
 20
5.2050920891
 30
0.0
 10
4.8687719135
 20
5.204568616
 30
0.0
 10
4.8416913095
 20
5.2040452546
 30
0.0
 10
4.8154691972
 20
5.2035220634
 30
0.0
 10
4.7903466705
 20
5.2029991177
 30
0.0
 10
4.7665547191
 20
5.2024765086
 30
0.0
 10
4.7443121012
 20
5.2019543889
 30
0.0
 10
4.7238233415
 20
5.2014328897
 30
0.0
 10
4.7079329395
 20
5.2009870356
 30
0.0
 10
4.6962374575
 20
5.200626801
 30
0.0
 10
4.6882764108
 20
5.2003647564
 30
0.0
 10
4.68088295
 20
5.2001028649
 30
0.0
 10
4.6740740865
 20
5.1998411595
 30
0.0
 10
4.6678655016
 20
5.1995797216
 30
0.0
 10
4.6622713872
 20
5.1993186124
 30
0.0
 10
4.6573046891
 20
5.1990580048
 30
0.0
 10
4.6529766567
 20
5.1987981499
 30
0.0
 10
4.6492972929
 20
5.1985392537
 30
0.0
 10
4.6466412591
 20
5.1983138766
 30
0.0
 10
4.6448477049
 20
5.1981288435
 30
0.0
 10
4.6437514281
 20
5.1979988179
 30
0.0
 10
4.6428224836
 20
5.1978692607
 30
0.0
 10
4.642153961
 20
5.1977564451
 30
0.0
 10
4.641703962
 20
5.197663952
 30
0.0
 10
4.6414288105
 20
5.1975988411
 30
0.0
 10
4.6411957016
 20
5.1975339204
 30
0.0
 10
4.641004405
 20
5.1974692896
 30
0.0
 10
4.6408548317
 20
5.1974049071
 30
0.0
 10
4.6407575293
 20
5.1973479819
 30
0.0
 10
4.6407028383
 20
5.1973004801
 30
0.0
 10
4.6406683638
 20
5.1972594462
 30
0.0
 10
4.6406543538
 20
5.1972223266
 30
0.0
 10
4.6406543497
 20
5.1971993013
 30
0.0
  0
SPLINE
  5
3BA
100
AcDbEntity
  8
0
100
AcDbSpline
 62
7
  6
CONTINUOUS
 70
0
 71
3
 72
30
 73
26
 74
0
 42
0.0000001
 43
0.0000001
 44
0.0000000001
 40
0.0
 40
0.0
 40
0.0
 40
0.0
 40
0.0019021902
 40
0.0043447472
 40
0.0073299527
 40
0.0108583799
 40
0.0149296114
 40
0.019541892
 40
0.0303802893
 40
0.0433534602
 40
0.0584337756
 40
0.0755889471
 40
0.0947822431
 40
0.1159708994
 40
0.1391096275
 40
0.1910273113
 40
0.2500787797
 40
0.3157440519
 40
0.3874445836
 40
0.4645480674
 40
0.5463747513
 40
0.6322024818
 40
0.7212754567
 40
0.8128047107
 40
1.0
 40
1.0
 40
1.0
 40
1.0
 10
5.2490927314
 20
5.2193184123
 30
0.0
 10
5.2488998804
 20
5.2192684312
 30
0.0
 10
5.248454345
 20
5.2191741035
 30
0.0
 10
5.2476969849
 20
5.2190481334
 30
0.0
 10
5.2467674559
 20
5.2189213974
 30
0.0
 10
5.2456661607
 20
5.2187940691
 30
0.0
 10
5.2443935128
 20
5.2186663968
 30
0.0
 10
5.2423568616
 20
5.2184859911
 30
0.0
 10
5.2393880009
 20
5.2182652985
 30
0.0
 10
5.2353226113
 20
5.2180111872
 30
0.0
 10
5.2305945822
 20
5.2177562889
 30
0.0
 10
5.2252143191
 20
5.2175007489
 30
0.0
 10
5.2191936879
 20
5.2172448273
 30
0.0
 10
5.2125458861
 20
5.2169885687
 30
0.0
 10
5.2024720959
 20
5.2166328258
 30
0.0
 10
5.1884333377
 20
5.2161943508
 30
0.0
 10
5.169940842
 20
5.2156847032
 30
0.0
 10
5.1493757467
 20
5.2151740936
 30
0.0
 10
5.1269194982
 20
5.2146627275
 30
0.0
 10
5.1027702194
 20
5.2141508552
 30
0.0
 10
5.077141051
 20
5.2136386097
 30
0.0
 10
5.0502580476
 20
5.2131260955
 30
0.0
 10
5.0223586896
 20
5.2126133896
 30
0.0
 10
4.9838442319
 20
5.2119244691
 30
0.0
 10
4.9546569389
 20
5.2114161427
 30
0.0
 10
4.9350543478
 20
5.2110746691
 30
0.0
  0
SPLINE
  5
3BB
100
AcDbEntity
  8
0
100
AcDbSpline
 62
7
  6
CONTINUOUS
 70
0
 71
3
 72
29
 73
25
 74
0
 42
0.0000001
 43
0.0000001
 44
0.0000000001
 40
0.0
 40
0.0
 40
0.0
 40
0.0
 40
0.0020874099
 40
0.0046882779
 40
0.0078046602
 40
0.0114368422
 40
0.0202461939
 40
0.0311079945
 40
0.0440045695
 40
0.0589143331
 40
0.0758124167
 40
0.0946676271
 40
0.1154474372
 40
0.1381143885
 40
0.1889423748
 40
0.2467854988
 40
0.3112265974
 40
0.3817995968
 40
0.4579938305
 40
0.5392576887
 40
0.6250035469
 40
0.7146116086
 40
0.8074276193
 40
1.0
 40
1.0
 40
1.0
 40
1.0
 10
5.2286938814
 20
5.1795801408
 30
0.0
 10
5.2285230378
 20
5.1795358362
 30
0.0
 10
5.2281355662
 20
5.1794509778
 30
0.0
 10
5.2274856132
 20
5.1793363873
 30
0.0
 10
5.2267034407
 20
5.179221233
 30
0.0
 10
5.2253982965
 20
5.1790563832
 30
0.0
 10
5.2234379012
 20
5.1788562695
 30
0.0
 10
5.2206937328
 20
5.1786268706
 30
0.0
 10
5.2174323104
 20
5.1783965161
 30
0.0
 10
5.2136594963
 20
5.178165356
 30
0.0
 10
5.209382065
 20
5.1779337562
 30
0.0
 10
5.2046076856
 20
5.1777017864
 30
0.0
 10
5.1993450296
 20
5.177469571
 30
0.0
 10
5.1913804068
 20
5.1771472647
 30
0.0
 10
5.1802825579
 20
5.1767497817
 30
0.0
 10
5.1656528234
 20
5.1762877754
 30
0.0
 10
5.1493528885
 20
5.1758249382
 30
0.0
 10
5.1315007841
 20
5.1753614371
 30
0.0
 10
5.1122258508
 20
5.1748974852
 30
0.0
 10
5.091667683
 20
5.1744331934
 30
0.0
 10
5.0699750812
 20
5.1739686542
 30
0.0
 10
5.0473055115
 20
5.1735039305
 30
0.0
 10
5.0156049832
 20
5.172876416
 30
0.0
 10
4.9914791505
 20
5.1724178489
 30
0.0
 10
4.9751996283
 20
5.1721118012
 30
0.0
  0
SPLINE
  5
3BC
100
AcDbEntity
  8
0
100
AcDbSpline
 62
7
  6
CONTINUOUS
 70
0
 71
3
 72
29
 73
25
 74
0
 42
0.0000001
 43
0.0000001
 44
0.0000000001
 40
0.0
 40
0.0
 40
0.0
 40
0.0
 40
0.0019769101
 40
0.0044705894
 40
0.0074834882
 40
0.0110165053
 40
0.0196405264
 40
0.030331488
 40
0.0430737885
 40
0.0578454196
 40
0.0746201237
 40
0.0933690797
 40
0.1140573376
 40
0.1366484743
 40
0.1873708915
 40
0.2451685058
 40
0.3096207365
 40
0.3802580776
 40
0.4565661675
 40
0.5379890986
 40
0.6239334763
 40
0.7137739664
 40
0.8068507574
 40
1.0
 40
1.0
 40
1.0
 40
1.0
 10
5.2490926873
 20
5.1848684123
 30
0.0
 10
5.2489196437
 20
5.1848235651
 30
0.0
 10
5.2485242268
 20
5.1847381599
 30
0.0
 10
5.24785727
 20
5.1846233648
 30
0.0
 10
5.2470479636
 20
5.1845079408
 30
0.0
 10
5.2456862153
 20
5.1843422574
 30
0.0
 10
5.2436297331
 20
5.1841415158
 30
0.0
 10
5.2407400528
 20
5.1839114622
 30
0.0
 10
5.2372930599
 20
5.183680458
 30
0.0
 10
5.2332949754
 20
5.1834485921
 30
0.0
 10
5.2287529721
 20
5.1832162313
 30
0.0
 10
5.2236753621
 20
5.1829835302
 30
0.0
 10
5.2180713217
 20
5.1827505378
 30
0.0
 10
5.2095774226
 20
5.1824270218
 30
0.0
 10
5.19772845
 20
5.1820281344
 30
0.0
 10
5.1820944039
 20
5.1815646288
 30
0.0
 10
5.1646588839
 20
5.1811002673
 30
0.0
 10
5.1455490516
 20
5.1806352244
 30
0.0
 10
5.1249042497
 20
5.180169722
 30
0.0
 10
5.102875001
 20
5.1797038745
 30
0.0
 10
5.0796218428
 20
5.1792377745
 30
0.0
 10
5.0553146954
 20
5.1787714844
 30
0.0
 10
5.0213149859
 20
5.1781418129
 30
0.0
 10
4.9954372946
 20
5.1776817341
 30
0.0
 10
4.9779746163
 20
5.1773746691
 30
0.0
  0
SPLINE
  5
3BD
100
AcDbEntity
  8
0
100
AcDbSpline
 62
7
  6
CONTINUOUS
 70
0
 71
3
 72
39
 73
35
 74
0
 42
0.0000001
 43
0.0000001
 44
0.0000000001
 40
0.0
 40
0.0
 40
0.0
 40
0.0
 40
0.000522443
 40
0.0007225193
 40
0.0009552567
 40
0.0015233136
 40
0.0022329777
 40
0.0030871452
 40
0.0040873247
 40
0.0052343691
 40
0.0079707117
 40
0.0112981435
 40
0.0152168847
 40
0.0197258015
 40
0.0305042131
 40
0.0436114798
 40
0.0590180463
 40
0.0766875226
 40
0.0965788924
 40
0.1186437664
 40
0.1428305587
 40
0.1690801068
 40
0.1973305283
 40
0.2275130044
 40
0.2595556403
 40
0.2933809986
 40
0.3660507836
 40
0.4448230863
 40
0.5289400226
 40
0.6175916474
 40
0.7099254491
 40
0.8050502783
 40
0.9020555645
 40
1.0
 40
1.0
 40
1.0
 40
1.0
 10
5.2498042364
 20
5.1959114334
 30
0.0
 10
5.2498042364
 20
5.1958565722
 30
0.0
 10
5.2497372975
 20
5.1957921762
 30
0.0
 10
5.249653979
 20
5.195740968
 30
0.0
 10
5.2495596833
 20
5.195692744
 30
0.0
 10
5.2494120562
 20
5.1956351001
 30
0.0
 10
5.2491979382
 20
5.1955688394
 30
0.0
 10
5.2489369612
 20
5.1955025004
 30
0.0
 10
5.2486288467
 20
5.1954358635
 30
0.0
 10
5.2481247989
 20
5.1953412041
 30
0.0
 10
5.2473762757
 20
5.1952257469
 30
0.0
 10
5.2463363804
 20
5.1950931586
 30
0.0
 10
5.245109123
 20
5.1949600989
 30
0.0
 10
5.2431011771
 20
5.1947707548
 30
0.0
 10
5.2401282502
 20
5.1945401004
 30
0.0
 10
5.2360106702
 20
5.1942751478
 30
0.0
 10
5.2311682477
 20
5.1940092389
 30
0.0
 10
5.2256125659
 20
5.1937425096
 30
0.0
 10
5.2193570137
 20
5.193475319
 30
0.0
 10
5.2124165454
 20
5.1932077429
 30
0.0
 10
5.2048079715
 20
5.1929399311
 30
0.0
 10
5.1965494995
 20
5.1926719013
 30
0.0
 10
5.1876611253
 20
5.1924037374
 30
0.0
 10
5.1781641713
 20
5.1921354429
 30
0.0
 10
5.1680815828
 20
5.1918670553
 30
0.0
 10
5.1535385008
 20
5.1915002779
 30
0.0
 10
5.1340890688
 20
5.1910454009
 30
0.0
 10
5.1093590331
 20
5.190511076
 30
0.0
 10
5.0829504064
 20
5.1899762992
 30
0.0
 10
5.0551174341
 20
5.189441169
 30
0.0
 10
5.0261283356
 20
5.1889058015
 30
0.0
 10
4.9962618871
 20
5.1883702616
 30
0.0
 10
4.9658061815
 20
5.187834622
 30
0.0
 10
4.945337827
 20
5.1874780697
 30
0.0
 10
4.9350543478
 20
5.1872989334
 30
0.0
  0
SPLINE
  5
3BE
100
AcDbEntity
  8
0
100
AcDbSpline
 62
7
  6
CONTINUOUS
 70
0
 71
3
 72
39
 73
35
 74
0
 42
0.0000001
 43
0.0000001
 44
0.0000000001
 40
0.0
 40
0.0
 40
0.0
 40
0.0
 40
0.093478408
 40
0.1872588741
 40
0.2802720036
 40
0.3714615877
 40
0.459789576
 40
0.5442515972
 40
0.6238869438
 40
0.6977901002
 40
0.7323268159
 40
0.7651208381
 40
0.7960794439
 40
0.8251140443
 40
0.8521429194
 40
0.877088468
 40
0.8998810075
 40
0.9204549637
 40
0.9387535073
 40
0.954724058
 40
0.9683236629
 40
0.9795142738
 40
0.984197572
 40
0.9882691275
 40
0.9917267195
 40
0.99456994
 40
0.9957616921
 40
0.9968007621
 40
0.9976880084
 40
0.9984249482
 40
0.9990144208
 40
0.9992556423
 40
0.9994627417
 40
1.0
 40
1.0
 40
1.0
 40
1.0
 10
4.9751996284
 20
5.3443618012
 30
0.0
 10
4.9647678932
 20
5.3441656893
 30
0.0
 10
4.9438706606
 20
5.3437757118
 30
0.0
 10
4.9125935545
 20
5.3431938754
 30
0.0
 10
4.8815719585
 20
5.3426120926
 30
0.0
 10
4.8511590456
 20
5.3420304463
 30
0.0
 10
4.8217007377
 20
5.3414490239
 30
0.0
 10
4.7935323069
 20
5.3408679536
 30
0.0
 10
4.7669742519
 20
5.3402873542
 30
0.0
 10
4.7459880555
 20
5.3397936536
 30
0.0
 10
4.7302292801
 20
5.3393955299
 30
0.0
 10
4.7192626058
 20
5.3391037904
 30
0.0
 10
4.708910275
 20
5.3388121691
 30
0.0
 10
4.6992016872
 20
5.3385206629
 30
0.0
 10
4.6901645629
 20
5.3382293361
 30
0.0
 10
4.6818245274
 20
5.3379382042
 30
0.0
 10
4.6742054212
 20
5.337647376
 30
0.0
 10
4.6673287943
 20
5.3373569138
 30
0.0
 10
4.6612143326
 20
5.3370670079
 30
0.0
 10
4.6558792385
 20
5.3367779407
 30
0.0
 10
4.6513387923
 20
5.3364899597
 30
0.0
 10
4.6480584892
 20
5.3362392646
 30
0.0
 10
4.6458417649
 20
5.3360334559
 30
0.0
 10
4.6444863049
 20
5.3358888239
 30
0.0
 10
4.6433375351
 20
5.3357447031
 30
0.0
 10
4.6425105359
 20
5.335619192
 30
0.0
 10
4.6419535806
 20
5.3355162883
 30
0.0
 10
4.6416131072
 20
5.3354438502
 30
0.0
 10
4.641324696
 20
5.3353717398
 30
0.0
 10
4.6410880351
 20
5.3352997167
 30
0.0
 10
4.6409248417
 20
5.3352370755
 30
0.0
 10
4.6408205325
 20
5.3351846283
 30
0.0
 10
4.6407288362
 20
5.3351291912
 30
0.0
 10
4.6406544286
 20
5.3350592672
 30
0.0
 10
4.6406544513
 20
5.3349993012
 30
0.0
  0
SPLINE
  5
3BF
100
AcDbEntity
  8
0
100
AcDbSpline
 62
7
  6
CONTINUOUS
 70
0
 71
3
 72
39
 73
35
 74
0
 42
0.0000001
 43
0.0000001
 44
0.0000000001
 40
0.0
 40
0.0
 40
0.0
 40
0.0
 40
0.0002370941
 40
0.0003818743
 40
0.000551755
 40
0.0009790612
 40
0.0015349645
 40
0.0022260091
 40
0.0030554346
 40
0.0040250252
 40
0.0051358315
 40
0.0077833055
 40
0.0110007521
 40
0.0147890556
 40
0.0191476293
 40
0.0295683055
 40
0.0422463059
 40
0.0571589784
 40
0.0742766607
 40
0.0935672274
 40
0.1149913333
 40
0.138507154
 40
0.1640676769
 40
0.1916213738
 40
0.2211141119
 40
0.2856742595
 40
0.3572309961
 40
0.4352108423
 40
0.5189885967
 40
0.6078916293
 40
0.7012080827
 40
0.7981848251
 40
0.8980543519
 40
1.0
 40
1.0
 40
1.0
 40
1.0
 10
5.2498042543
 20
5.1614614334
 30
0.0
 10
5.2498042624
 20
5.1614399286
 30
0.0
 10
5.2497912324
 20
5.1614052555
 30
0.0
 10
5.2497590953
 20
5.1613669047
 30
0.0
 10
5.2497081035
 20
5.1613225218
 30
0.0
 10
5.2496173299
 20
5.1612693288
 30
0.0
 10
5.2494777429
 20
5.1612091783
 30
0.0
 10
5.2492991762
 20
5.1611487974
 30
0.0
 10
5.249081555
 20
5.1610881445
 30
0.0
 10
5.248824679
 20
5.161027313
 30
0.0
 10
5.2484046038
 20
5.1609409026
 30
0.0
 10
5.2477805622
 20
5.1608354914
 30
0.0
 10
5.2469133461
 20
5.1607144296
 30
0.0
 10
5.2458897062
 20
5.1605929473
 30
0.0
 10
5.244214449
 20
5.16042007
 30
0.0
 10
5.2417327748
 20
5.1602094629
 30
0.0
 10
5.2382935187
 20
5.1599675503
 30
0.0
 10
5.2342456096
 20
5.159724784
 30
0.0
 10
5.2295970594
 20
5.1594812551
 30
0.0
 10
5.2243572184
 20
5.1592373159
 30
0.0
 10
5.2185365123
 20
5.1589930247
 30
0.0
 10
5.2121466671
 20
5.1587485073
 30
0.0
 10
5.2052004927
 20
5.1585038127
 30
0.0
 10
5.1977118969
 20
5.1582589617
 30
0.0
 10
5.1866871119
 20
5.1579221234
 30
0.0
 10
5.1716717984
 20
5.1575051804
 30
0.0
 10
5.1522589641
 20
5.1570178223
 30
0.0
 10
5.1311025736
 20
5.1565298745
 30
0.0
 10
5.10837247
 20
5.1560414618
 30
0.0
 10
5.0842510166
 20
5.1555527195
 30
0.0
 10
5.0589321649
 20
5.1550637392
 30
0.0
 10
5.03261846
 20
5.1545745701
 30
0.0
 10
5.005521944
 20
5.1540852843
 30
0.0
 10
4.9872198298
 20
5.1537615019
 30
0.0
 10
4.9779746163
 20
5.1535989334
 30
0.0
  0
SPLINE
  5
3C0
100
AcDbEntity
  8
0
100
AcDbSpline
 62
7
  6
CONTINUOUS
 70
0
 71
3
 72
63
 73
59
 74
0
 42
0.0000001
 43
0.0000001
 44
0.0000000001
 40
0.0
 40
0.0
 40
0.0
 40
0.0
 40
0.0001173806
 40
0.0001891017
 40
0.0002732711
 40
0.0004849822
 40
0.0007603459
 40
0.0011025851
 40
0.0015133309
 40
0.0019934994
 40
0.0025436448
 40
0.0038550405
 40
0.0054486951
 40
0.0073245792
 40
0.0094822478
 40
0.0146398998
 40
0.0209118105
 40
0.028284478
 40
0.0367420741
 40
0.0462649612
 40
0.0568322267
 40
0.0684191964
 40
0.0809997887
 40
0.0945450587
 40
0.1090238189
 40
0.1406474436
 40
0.1755805028
 40
0.213502044
 40
0.2540637305
 40
0.2968927855
 40
0.3415956358
 40
0.3877614919
 40
0.4349659406
 40
0.4827752035
 40
0.5307496713
 40
0.5784484489
 40
0.6254330783
 40
0.6712716937
 40
0.7155430341
 40
0.757840134
 40
0.7977742763
 40
0.8349785252
 40
0.8691111308
 40
0.8998587284
 40
0.9269391882
 40
0.9390253106
 40
0.9501043772
 40
0.9601509929
 40
0.9691426852
 40
0.9770585313
 40
0.9838815709
 40
0.9895963185
 40
0.9920344735
 40
0.9941916773
 40
0.9960669892
 40
0.9976597838
 40
0.9989703474
 40
1.0
 40
1.0
 40
1.0
 40
1.0
 10
5.2294543335
 20
5.2700743012
 30
0.0
 10
5.2294543234
 20
5.2700512748
 30
0.0
 10
5.2294403088
 20
5.2700141574
 30
0.0
 10
5.2294058334
 20
5.2699731227
 30
0.0
 10
5.2293511448
 20
5.2699256214
 30
0.0
 10
5.2292538495
 20
5.2698686954
 30
0.0
 10
5.2291042859
 20
5.2698043122
 30
0.0
 10
5.2289129996
 20
5.269739681
 30
0.0
 10
5.2286798979
 20
5.26967476
 30
0.0
 10
5.2284047473
 20
5.2696096488
 30
0.0
 10
5.227954736
 20
5.2695171559
 30
0.0
 10
5.2272862017
 20
5.2694043449
 30
0.0
 10
5.2263572573
 20
5.2692747845
 30
0.0
 10
5.2252609951
 20
5.269144758
 30
0.0
 10
5.2234674385
 20
5.2689597225
 30
0.0
 10
5.2208114039
 20
5.2687343537
 30
0.0
 10
5.2171320267
 20
5.2684754486
 30
0.0
 10
5.2128039998
 20
5.2682155994
 30
0.0
 10
5.2078373021
 20
5.2679549892
 30
0.0
 10
5.2022431888
 20
5.2676938797
 30
0.0
 10
5.1960346098
 20
5.2674324445
 30
0.0
 10
5.1892257345
 20
5.2671707353
 30
0.0
 10
5.1818322798
 20
5.2669088476
 30
0.0
 10
5.1738712229
 20
5.2666467998
 30
0.0
 10
5.1621757513
 20
5.2662865681
 30
0.0
 10
5.1462853474
 20
5.2658407118
 30
0.0
 10
5.1257965962
 20
5.2653192135
 30
0.0
 10
5.103553971
 20
5.2647970934
 30
0.0
 10
5.0797620142
 20
5.2642744846
 30
0.0
 10
5.0546394815
 20
5.2637515388
 30
0.0
 10
5.0284173639
 20
5.2632283477
 30
0.0
 10
5.0013367695
 20
5.2627049863
 30
0.0
 10
4.9736466853
 20
5.262181513
 30
0.0
 10
4.9456017467
 20
5.2616579781
 30
0.0
 10
4.9174598198
 20
5.2611344265
 30
0.0
 10
4.8894796878
 20
5.2606109024
 30
0.0
 10
4.861918616
 20
5.2600874521
 30
0.0
 10
4.8350300216
 20
5.2595641273
 30
0.0
 10
4.8090611497
 20
5.2590409905
 30
0.0
 10
4.7842507898
 20
5.2585181189
 30
0.0
 10
4.7608270877
 20
5.2579956199
 30
0.0
 10
4.7390054164
 20
5.2574736277
 30
0.0
 10
4.7189863919
 20
5.2569523965
 30
0.0
 10
4.700954053
 20
5.2564321299
 30
0.0
 10
4.6872463143
 20
5.2559846796
 30
0.0
 10
4.6773963558
 20
5.2556216865
 30
0.0
 10
4.6708864742
 20
5.2553600924
 30
0.0
 10
4.6649841439
 20
5.2550988025
 30
0.0
 10
4.6597029908
 20
5.2548379311
 30
0.0
 10
4.6550550239
 20
5.2545776599
 30
0.0
 10
4.651051003
 20
5.2543181936
 30
0.0
 10
4.6481217036
 20
5.2540929446
 30
0.0
 10
4.6461075384
 20
5.253908905
 30
0.0
 10
4.6448448677
 20
5.2537785271
 30
0.0
 10
4.6437489979
 20
5.2536485017
 30
0.0
 10
4.642820441
 20
5.2535190206
 30
0.0
 10
4.642059644
 20
5.2533902638
 30
0.0
 10
4.6416103824
 20
5.2532941534
 30
0.0
 10
4.641414861
 20
5.2532434618
 30
0.0
  0
SPLINE
  5
3C1
100
AcDbEntity
  8
0
100
AcDbSpline
 62
7
  6
CONTINUOUS
 70
0
 71
3
 72
40
 73
36
 74
0
 42
0.0000001
 43
0.0000001
 44
0.0000000001
 40
0.0
 40
0.0
 40
0.0
 40
0.0
 40
0.0002520354
 40
0.0005771464
 40
0.0010129853
 40
0.0015753378
 40
0.0022713941
 40
0.0031048572
 40
0.0051913424
 40
0.0064467546
 40
0.0078442796
 40
0.0093841304
 40
0.0110663986
 40
0.0148581354
 40
0.019219055
 40
0.0241481401
 40
0.0296439788
 40
0.0423254238
 40
0.0572393604
 40
0.0743589083
 40
0.0936494933
 40
0.1150735805
 40
0.1385890812
 40
0.1641480462
 40
0.191700829
 40
0.2211912273
 40
0.2857467946
 40
0.3572974954
 40
0.435270016
 40
0.5190393664
 40
0.6079334417
 40
0.7012403685
 40
0.7982061103
 40
0.898066573
 40
1.0
 40
1.0
 40
1.0
 40
1.0
 10
5.2294543197
 20
5.1667243012
 30
0.0
 10
5.229454308
 20
5.1667029163
 30
0.0
 10
5.2294370806
 20
5.1666540323
 30
0.0
 10
5.2293750581
 20
5.1665926559
 30
0.0
 10
5.2292798859
 20
5.1665323379
 30
0.0
 10
5.2291489895
 20
5.1664721981
 30
0.0
 10
5.2289819994
 20
5.1664117102
 30
0.0
 10
5.2286878167
 20
5.1663241446
 30
0.0
 10
5.2283421573
 20
5.1662451184
 30
0.0
 10
5.227947469
 20
5.1661681712
 30
0.0
 10
5.2275969695
 20
5.1661070888
 30
0.0
 10
5.2272097937
 20
5.1660459079
 30
0.0
 10
5.2266207701
 20
5.1659608665
 30
0.0
 10
5.2257928659
 20
5.1658558566
 30
0.0
 10
5.2246895727
 20
5.1657340298
 30
0.0
 10
5.2234409381
 20
5.1656119907
 30
0.0
 10
5.2214878605
 20
5.1654407944
 30
0.0
 10
5.2186879042
 20
5.1652305239
 30
0.0
 10
5.2149016473
 20
5.1649876155
 30
0.0
 10
5.2105536474
 20
5.1647441495
 30
0.0
 10
5.205652544
 20
5.1645001779
 30
0.0
 10
5.2002081679
 20
5.1642558955
 30
0.0
 10
5.1942314561
 20
5.164011382
 30
0.0
 10
5.1877343438
 20
5.1637666743
 30
0.0
 10
5.1807299434
 20
5.1635218371
 30
0.0
 10
5.1704179609
 20
5.1631849863
 30
0.0
 10
5.1563734835
 20
5.1627680535
 30
0.0
 10
5.1382157352
 20
5.1622806916
 30
0.0
 10
5.118427205
 20
5.1617927439
 30
0.0
 10
5.0971667143
 20
5.1613043296
 30
0.0
 10
5.0746048079
 20
5.1608155877
 30
0.0
 10
5.0509229636
 20
5.1603266085
 30
0.0
 10
5.0263104516
 20
5.1598374369
 30
0.0
 10
5.0009658564
 20
5.1593481516
 30
0.0
 10
4.9838470022
 20
5.159024368
 30
0.0
 10
4.9751996283
 20
5.1588618012
 30
0.0
  0
SPLINE
  5
3C2
100
AcDbEntity
  8
0
100
AcDbSpline
 62
7
  6
CONTINUOUS
 70
0
 71
3
 72
63
 73
59
 74
0
 42
0.0000001
 43
0.0000001
 44
0.0000000001
 40
0.0
 40
0.0
 40
0.0
 40
0.0
 40
0.0001173623
 40
0.0001890543
 40
0.0002731848
 40
0.0004848079
 40
0.0007601027
 40
0.0011023288
 40
0.0015131447
 40
0.001993433
 40
0.0025436873
 40
0.0038550824
 40
0.0054485462
 40
0.0073243113
 40
0.0094821423
 40
0.0146398919
 40
0.0209115739
 40
0.0282845418
 40
0.0367418177
 40
0.0462649937
 40
0.0568320867
 40
0.068419104
 40
0.0809997483
 40
0.094544821
 40
0.1090238478
 40
0.1406474613
 40
0.1755803764
 40
0.2135018701
 40
0.2540635215
 40
0.2968926428
 40
0.3415955528
 40
0.3877613835
 40
0.4349658444
 40
0.4827750426
 40
0.5307495245
 40
0.5784483426
 40
0.625432946
 40
0.6712715597
 40
0.7155428164
 40
0.7578398805
 40
0.797774085
 40
0.8349784047
 40
0.8691111157
 40
0.8998586644
 40
0.9269390252
 40
0.9390252281
 40
0.9501041107
 40
0.9601509847
 40
0.9691423413
 40
0.9770584895
 40
0.9838813215
 40
0.9895961672
 40
0.9920344758
 40
0.9941915785
 40
0.9960666641
 40
0.9976594931
 40
0.9989702531
 40
1.0
 40
1.0
 40
1.0
 40
1.0
 10
5.2294542302
 20
5.2356243012
 30
0.0
 10
5.2294542261
 20
5.2356012784
 30
0.0
 10
5.2294402393
 20
5.2355641638
 30
0.0
 10
5.2294057952
 20
5.2355231233
 30
0.0
 10
5.2293511491
 20
5.2354756199
 30
0.0
 10
5.2292538992
 20
5.2354186895
 30
0.0
 10
5.2291043721
 20
5.2353543054
 30
0.0
 10
5.2289130878
 20
5.235289674
 30
0.0
 10
5.2286799486
 20
5.2352247579
 30
0.0
 10
5.2284047368
 20
5.2351596508
 30
0.0
 10
5.2279546778
 20
5.2350671679
 30
0.0
 10
5.2272861613
 20
5.2349543515
 30
0.0
 10
5.2263572796
 20
5.2348247806
 30
0.0
 10
5.225261047
 20
5.234694748
 30
0.0
 10
5.2234674604
 20
5.2345097334
 30
0.0
 10
5.2208114201
 20
5.2342843601
 30
0.0
 10
5.2171320106
 20
5.2340254341
 30
0.0
 10
5.2128040303
 20
5.2337656161
 30
0.0
 10
5.207837281
 20
5.2335049747
 30
0.0
 10
5.2022432061
 20
5.2332438907
 30
0.0
 10
5.1960345951
 20
5.232982439
 30
0.0
 10
5.1892257332
 20
5.2327207358
 30
0.0
 10
5.1818322971
 20
5.232458851
 30
0.0
 10
5.173871216
 20
5.2321967944
 30
0.0
 10
5.1621757317
 20
5.2318365749
 30
0.0
 10
5.1462853049
 20
5.2313907106
 30
0.0
 10
5.1257965918
 20
5.2308692137
 30
0.0
 10
5.1035540093
 20
5.2303470927
 30
0.0
 10
5.0797620539
 20
5.2298244843
 30
0.0
 10
5.0546395013
 20
5.229301539
 30
0.0
 10
5.0284173619
 20
5.228778348
 30
0.0
 10
5.0013367562
 20
5.2282549866
 30
0.0
 10
4.973646685
 20
5.2277315132
 30
0.0
 10
4.9456017518
 20
5.227207978
 30
0.0
 10
4.9174598246
 20
5.2266844265
 30
0.0
 10
4.8894796847
 20
5.2261609027
 30
0.0
 10
4.8619186082
 20
5.2256374525
 30
0.0
 10
4.8350300336
 20
5.2251141277
 30
0.0
 10
4.8090611833
 20
5.2245909906
 30
0.0
 10
4.7842508327
 20
5.2240681184
 30
0.0
 10
4.7608271096
 20
5.2235456196
 30
0.0
 10
4.7390053899
 20
5.223023628
 30
0.0
 10
4.7189863387
 20
5.2225023968
 30
0.0
 10
4.7009540066
 20
5.2219821326
 30
0.0
 10
4.6872462804
 20
5.2215346746
 30
0.0
 10
4.6773963605
 20
5.2211716918
 30
0.0
 10
4.6708864486
 20
5.2209100824
 30
0.0
 10
4.664984168
 20
5.2206488166
 30
0.0
 10
4.6597029718
 20
5.2203879158
 30
0.0
 10
4.6550550503
 20
5.2201276729
 30
0.0
 10
4.6510509925
 20
5.219868187
 30
0.0
 10
4.6481216844
 20
5.2196429366
 30
0.0
 10
4.646107488
 20
5.2194589127
 30
0.0
 10
4.6448448514
 20
5.2193285342
 30
0.0
 10
4.6437490414
 20
5.219198492
 30
0.0
 10
4.6428204836
 20
5.2190690118
 30
0.0
 10
4.6420596205
 20
5.2189402652
 30
0.0
 10
4.6416102988
 20
5.2188441605
 30
0.0
 10
4.6414147601
 20
5.2187934618
 30
0.0
  0
SPLINE
  5
3C3
100
AcDbEntity
  8
0
100
AcDbSpline
 62
7
  6
CONTINUOUS
 70
0
 71
3
 72
63
 73
59
 74
0
 42
0.0000001
 43
0.0000001
 44
0.0000000001
 40
0.0
 40
0.0
 40
0.0
 40
0.0
 40
0.0001173432
 40
0.000189031
 40
0.0002731728
 40
0.000484875
 40
0.0007602873
 40
0.0011026094
 40
0.0015134449
 40
0.001993681
 40
0.0025438427
 40
0.0038550617
 40
0.0054485752
 40
0.0073245718
 40
0.0094824096
 40
0.0146398399
 40
0.0209118628
 40
0.0282845666
 40
0.0367420147
 40
0.0462651393
 40
0.0568321164
 40
0.0684193415
 40
0.0809997275
 40
0.0945451014
 40
0.1090238855
 40
0.1406475838
 40
0.1755806041
 40
0.2135020864
 40
0.2540636843
 40
0.2968927429
 40
0.3415956032
 40
0.3877615121
 40
0.4349659757
 40
0.4827751923
 40
0.5307496682
 40
0.5784484305
 40
0.6254331127
 40
0.6712717353
 40
0.7155430352
 40
0.7578400617
 40
0.797774164
 40
0.8349784476
 40
0.8691111385
 40
0.899858814
 40
0.9269392996
 40
0.9390252127
 40
0.9501043921
 40
0.9601509912
 40
0.9691425525
 40
0.9770586364
 40
0.9838813949
 40
0.9895964477
 40
0.9920345304
 40
0.9941915549
 40
0.9960668092
 40
0.9976598033
 40
0.9989704774
 40
1.0
 40
1.0
 40
1.0
 40
1.0
 10
5.2294542971
 20
5.2011743013
 30
0.0
 10
5.2294543107
 20
5.2011512822
 30
0.0
 10
5.229440343
 20
5.2011141604
 30
0.0
 10
5.2294059011
 20
5.2010731204
 30
0.0
 10
5.2293512351
 20
5.2010256133
 30
0.0
 10
5.2292539331
 20
5.2009686897
 30
0.0
 10
5.2291043422
 20
5.2009043107
 30
0.0
 10
5.2289130089
 20
5.2008396823
 30
0.0
 10
5.2286798581
 20
5.2007747629
 30
0.0
 10
5.2284046722
 20
5.2007096527
 30
0.0
 10
5.2279546784
 20
5.2006171656
 30
0.0
 10
5.2272862069
 20
5.2005043394
 30
0.0
 10
5.2263573033
 20
5.2003747744
 30
0.0
 10
5.2252610121
 20
5.2002447576
 30
0.0
 10
5.223467442
 20
5.2000597384
 30
0.0
 10
5.2208113982
 20
5.199834339
 30
0.0
 10
5.2171320336
 20
5.1995754541
 30
0.0
 10
5.2128040066
 20
5.1993156025
 30
0.0
 10
5.2078372843
 20
5.1990549813
 30
0.0
 10
5.2022432089
 20
5.1987938905
 30
0.0
 10
5.1960345902
 20
5.1985324341
 30
0.0
 10
5.1892257606
 20
5.1982707439
 30
0.0
 10
5.1818322759
 20
5.1980088422
 30
0.0
 10
5.1738712337
 20
5.197746802
 30
0.0
 10
5.1621757219
 20
5.197386567
 30
0.0
 10
5.1462853053
 20
5.1969407134
 30
0.0
 10
5.1257965576
 20
5.1964192137
 30
0.0
 10
5.1035539675
 20
5.1958970935
 30
0.0
 10
5.0797620374
 20
5.1953744844
 30
0.0
 10
5.0546395178
 20
5.1948515387
 30
0.0
 10
5.0284173854
 20
5.1943283476
 30
0.0
 10
5.001336774
 20
5.1938049866
 30
0.0
 10
4.9736466837
 20
5.1932815133
 30
0.0
 10
4.9456017479
 20
5.1927579782
 30
0.0
 10
4.9174598297
 20
5.1922344264
 30
0.0
 10
4.8894796869
 20
5.1917109023
 30
0.0
 10
4.8619186045
 20
5.1911874523
 30
0.0
 10
4.8350300046
 20
5.1906641278
 30
0.0
 10
4.8090611518
 20
5.1901409909
 30
0.0
 10
4.7842508205
 20
5.1896181187
 30
0.0
 10
4.7608271323
 20
5.1890956195
 30
0.0
 10
4.7390054439
 20
5.1885736272
 30
0.0
 10
4.7189863792
 20
5.1880523969
 30
0.0
 10
4.7009540021
 20
5.1875321287
 30
0.0
 10
4.687246283
 20
5.1870846858
 30
0.0
 10
4.6773963382
 20
5.1867216818
 30
0.0
 10
4.6708864781
 20
5.1864600938
 30
0.0
 10
4.664984154
 20
5.1861988069
 30
0.0
 10
4.6597029836
 20
5.1859379205
 30
0.0
 10
4.6550550491
 20
5.1856776759
 30
0.0
 10
4.6510509789
 20
5.1854181741
 30
0.0
 10
4.6481216865
 20
5.1851929546
 30
0.0
 10
4.6461075111
 20
5.1850089091
 30
0.0
 10
4.6448449019
 20
5.184878525
 30
0.0
 10
4.6437490406
 20
5.1847484899
 30
0.0
 10
4.6428204321
 20
5.1846190219
 30
0.0
 10
4.6420595967
 20
5.1844902786
 30
0.0
 10
4.6416103408
 20
5.1843941572
 30
0.0
 10
4.6414148468
 20
5.1843434617
 30
0.0
  0
ELLIPSE
  5
3C4
100
AcDbEntity
  8
0
100
AcDbEllipse
 62
7
  6
CONTINUOUS
 10
4.9919760646
 20
4.5773618012
 30
0.0
 11
0.0344217168
 21
-0.0
 31
0.0
 40
0.5810285439
 41
-3.1415926536
 42
-1.5707963268
  0
ELLIPSE
  5
3C5
100
AcDbEntity
  8
0
100
AcDbEllipse
 62
7
  6
CONTINUOUS
 10
5.2325275934
 20
4.5773618012
 30
0.0
 11
0.0349195013
 21
0.0
 31
0.0
 40
0.5727458664
 41
-1.5707963268
 42
0.0
  0
ELLIPSE
  5
3C6
100
AcDbEntity
  8
0
100
AcDbEllipse
 62
7
  6
CONTINUOUS
 10
4.878132631
 20
4.5773618012
 30
0.0
 11
0.0344217168
 21
-0.0
 31
0.0
 40
0.5810285439
 41
-1.5707963268
 42
0.0
  0
ELLIPSE
  5
3C7
100
AcDbEntity
  8
0
100
AcDbEllipse
 62
7
  6
CONTINUOUS
 10
4.6375811023
 20
4.5773618012
 30
0.0
 11
0.0349195013
 21
0.0
 31
0.0
 40
0.5727458664
 41
-3.1415926536
 42
-1.5707963268
  0
ENDSEC
  0
SECTION
  2
OBJECTS
  0
DICTIONARY
  5
C
100
AcDbDictionary
280
0
281
1
  3
ACAD_GROUP
350
D
  3
ACAD_MLINESTYLE
350
17
  3
ACAD_LAYOUT
350
1A
  3
ACAD_PLOTSETTINGS
350
19
  3
ACAD_PLOTSTYLENAME
350
E
  0
DICTIONARY
  5
D
102
{ACAD_REACTORS
330
C
102
}
100
AcDbDictionary
280
0
281
1
  0
ACDBDICTIONARYWDFLT
  5
E
102
{ACAD_REACTORS
330
C
102
}
100
AcDbDictionary
281
1
  3
Normal
350
F
100
AcDbDictionaryWithDefault
340
F
  0
DICTIONARY
  5
17
102
{ACAD_REACTORS
330
C
102
}
100
AcDbDictionary
280
0
281
1
  3
Standard
350
18
  0
DICTIONARY
  5
19
102
{ACAD_REACTORS
330
C
102
}
100
AcDbDictionary
281
1
  0
DICTIONARY
  5
1A
102
{ACAD_REACTORS
330
C
102
}
100
AcDbDictionary
281
1
  3
Model
350
3C8
  3
Layout1
350
3C9
  0
ACDBPLACEHOLDER
  5
F
102
{ACAD_REACTORS
330
E
102
}
  0
MLINESTYLE
  5
18
102
{ACAD_REACTORS
330
17
102
}
100
AcDbMlineStyle
  2
STANDARD
 70
0
  3

 62
256
 51
90.0
 52
90.0
 71
2
 49
0.5
 62
256
  6
BYLAYER
 49
-0.5
 62
256
  6
BYLAYER
  0
LAYOUT
  5
3C8
102
{ACAD_REACTORS
330
1A
102
}
100
AcDbPlotSettings
  1

  2
none_device
  4
ANSI_A_(11.00_x_8.50_Inches)
  6

 40
0.0
 41
0.0
 42
0.0
 43
0.0
 44
279.4
 45
215.9
 46
0.0
 47
0.0
 48
0.0
 49
0.0
140
0.0
141
0.0
142
1.0
143
1.0
 70
1024
 72
0
 73
0
 74
0
  7

 75
0
147
1.0
148
0.0
149
0.0
100
AcDbLayout
  1
Model
 70
0
 71
0
 10
0.0
 20
0.0
 11
11.0
 21
8.5
 12
0.0
 22
0.0
 32
0.0
 14
0.0
 24
0.0
 34
0.0
 15
0.0
 25
0.0
 35
0.0
146
0.0
 13
0.0
 23
0.0
 33
0.0
 16
1.0
 26
0.0
 36
0.0
 17
0.0
 27
1.0
 37
0.0
 76
0
330
202
345
0
346
0
  0
LAYOUT
  5
3C9
102
{ACAD_REACTORS
330
1A
102
}
100
AcDbPlotSettings
  1

  2
none_device
  4
ANSI_A_(11.00_x_8.50_Inches)
  6

 40
0.0
 41
0.0
 42
0.0
 43
0.0
 44
279.4
 45
215.9
 46
0.0
 47
0.0
 48
0.0
 49
0.0
140
0.0
141
0.0
142
1.0
143
1.0
 70
0
 72
0
 73
0
 74
0
  7

 75
0
147
1.0
148
0.0
149
0.0
100
AcDbLayout
  1
Layout1
 70
0
 71
1
 10
0.0
 20
0.0
 11
11.0
 21
8.5
 12
0.0
 22
0.0
 32
0.0
 14
0.0
 24
0.0
 34
0.0
 15
0.0
 25
0.0
 35
0.0
146
0.0
 13
0.0
 23
0.0
 33
0.0
 16
1.0
 26
0.0
 36
0.0
 17
0.0
 27
1.0
 37
0.0
 76
0
330
203
345
0
346
0
  0
ENDSEC
  0
EOF
