999
DXF file: 1500-5721_front.dxf
999
Pro/ENGINEER 2018400 by Parametric Technology Corporation
  0
SECTION
  2
HEADER
  9
$ACADVER
  1
AC1027
  9
$DWGCODEPAGE
  3
ANSI_1252
  9
$EXTMAX
 10
11.0
 20
8.5
 30
0.0
  9
$EXTMIN
 10
0.0
 20
0.0
 30
0.0
  9
$LIMMIN
 10
0.0
 20
0.0
  9
$LIMMAX
 10
11.0
 20
8.5
  9
$VIEWCTR
 10
5.5
 20
4.25
  9
$VIEWSIZE
 40
8.5
  9
$CLAYER
  8
0
  9
$LTSCALE
 40
0.605
  9
$CELTYPE
  6
BYLAYER
  9
$DIMSCALE
 40
1.0
  9
$DIMASZ
 40
0.1
  9
$DIMEXO
 40
0.0625
  9
$DIMDLI
 40
0.418
  9
$DIMEXE
 40
0.125
  9
$DIMCEN
 40
0.099
  9
$DIMLFAC
 40
1.0
  9
$DIMBLK
  1
_FILLED
  9
$DIMALT
 70
1
  9
$DIMALTD
 70
2
  9
$DIMALTTD
 70
2
  9
$DIMALTF
 40
25.4
  9
$DIMTXT
 40
0.08
  9
$DIMTOL
 70
1
  9
$DIMLIM
 70
0
  9
$DIMTFAC
 40
1.0
  9
$DIMTP
 40
0.001
  9
$DIMTM
 40
0.001
  9
$DIMGAP
 40
0.09
  9
$DIMDSEP
 70
46
  9
$AUNITS
 70
0
  9
$PDMODE
 70
3
  9
$PDSIZE
 40
0.3125
  9
$HANDSEED
  5
233
  9
$TILEMODE
 70
1
  9
$MEASUREMENT
 70
0
  9
$INSUNITS
 70
1
  0
ENDSEC
  0
SECTION
  2
CLASSES
  0
CLASS
  1
ACDBDICTIONARYWDFLT
  2
AcDbDictionaryWithDefault
  3
AutoCAD 2000
 90
0
 91
1
280
0
281
0
  0
CLASS
  1
ACDBPLACEHOLDER
  2
AcDbPlaceHolder
  3
AutoCAD 2000
 90
0
 91
1
280
0
281
0
  0
CLASS
  1
LAYOUT
  2
AcDbLayout
  3
AutoCAD 2000
 90
0
 91
0
280
0
281
0
  0
ENDSEC
  0
SECTION
  2
TABLES
  0
TABLE
  2
VPORT
  5
8
100
AcDbSymbolTable
 70
2
  0
VPORT
  5
1F4
100
AcDbSymbolTableRecord
100
AcDbViewportTableRecord
  2
*ACTIVE
 70
0
 10
0.0
 20
0.0
 11
1.0
 21
1.0
 12
5.5
 22
4.25
 13
0.0
 23
0.0
 14
1.0
 24
1.0
 15
0.0
 25
0.0
 16
0.0
 26
0.0
 36
1.0
 17
0.0
 27
0.0
 37
0.0
 40
8.5
 41
1.2941176471
 42
50.0
 43
0.0
 44
0.0
 50
0.0
 51
0.0
 71
0
 72
100
 73
1
 74
1
 75
0
 76
0
 77
0
 78
0
  0
ENDTAB
  0
TABLE
  2
LTYPE
  5
5
100
AcDbSymbolTable
 70
6
  0
LTYPE
  5
14
100
AcDbSymbolTableRecord
100
AcDbLinetypeTableRecord
  2
BYBLOCK
 70
0
  3

 72
65
 73
0
 40
0.0
  0
LTYPE
  5
15
100
AcDbSymbolTableRecord
100
AcDbLinetypeTableRecord
  2
BYLAYER
 70
0
  3

 72
65
 73
0
 40
0.0
  0
LTYPE
  5
16
100
AcDbSymbolTableRecord
100
AcDbLinetypeTableRecord
  2
CONTINUOUS
 70
64
  3
Solid line
 72
65
 73
0
 40
0.0
  0
LTYPE
  5
1F5
100
AcDbSymbolTableRecord
100
AcDbLinetypeTableRecord
  2
CENTER
 70
64
  3
____ _ ____ _ ____ _ ____ _ ____ _ ____ _ ____
 72
65
 73
4
 40
0.6
 49
0.375
 74
0
 49
-0.075
 74
0
 49
0.075
 74
0
 49
-0.075
 74
0
  0
LTYPE
  5
1F6
100
AcDbSymbolTableRecord
100
AcDbLinetypeTableRecord
  2
HIDDEN
 70
64
  3
- - - - - - - - - - - - - - - - - - - -
 72
65
 73
2
 40
0.2
 49
0.1
 74
0
 49
-0.1
 74
0
  0
LTYPE
  5
1F7
100
AcDbSymbolTableRecord
100
AcDbLinetypeTableRecord
  2
PHANTOM
 70
64
  3
_____ _ _ _____ _ _ _____ _ _ _____
 72
65
 73
6
 40
0.8
 49
0.45
 74
0
 49
-0.05
 74
0
 49
0.1
 74
0
 49
-0.05
 74
0
 49
0.1
 74
0
 49
-0.05
 74
0
  0
LTYPE
  5
1F8
100
AcDbSymbolTableRecord
100
AcDbLinetypeTableRecord
  2
DOT
 70
64
  3
. . . . . . . . . . . . . . . . . . . .
 72
65
 73
2
 40
0.2
 49
0.1
 74
0
 49
-0.1
 74
0
  0
LTYPE
  5
1F9
100
AcDbSymbolTableRecord
100
AcDbLinetypeTableRecord
  2
DASHED
 70
64
  3
- - - - - - - - - - - - - - - - - - - -
 72
65
 73
2
 40
0.2
 49
0.1
 74
0
 49
-0.1
 74
0
  0
ENDTAB
  0
TABLE
  2
LAYER
  5
2
100
AcDbSymbolTable
 70
36
  0
LAYER
  5
10
100
AcDbSymbolTableRecord
100
AcDbLayerTableRecord
  2
0
 70
0
 62
7
  6
CONTINUOUS
370
-3
390
F
  0
LAYER
  5
1FA
100
AcDbSymbolTableRecord
100
AcDbLayerTableRecord
  2
DEFAULT_1
 70
0
 62
7
  6
CENTER
370
-3
390
F
  0
LAYER
  5
1FB
100
AcDbSymbolTableRecord
100
AcDbLayerTableRecord
  2
DEFAULT_2
 70
0
 62
8
  6
HIDDEN
370
-3
390
F
  0
LAYER
  5
1FC
100
AcDbSymbolTableRecord
100
AcDbLayerTableRecord
  2
DEFAULT_3
 70
0
 62
7
  6
PHANTOM
370
-3
390
F
  0
LAYER
  5
1FD
100
AcDbSymbolTableRecord
100
AcDbLayerTableRecord
  2
DEFAULT_COORDINATE_SYSTEM
 70
0
 62
7
  6
CONTINUOUS
370
-3
390
F
  0
LAYER
  5
1FE
100
AcDbSymbolTableRecord
100
AcDbLayerTableRecord
  2
DEFAULT_DATUM_AXES
 70
0
 62
7
  6
CONTINUOUS
370
-3
390
F
  0
LAYER
  5
1FF
100
AcDbSymbolTableRecord
100
AcDbLayerTableRecord
  2
DEFAULT_DATUM_PLANES
 70
0
 62
7
  6
CONTINUOUS
370
-3
390
F
  0
ENDTAB
  0
TABLE
  2
STYLE
  5
3
100
AcDbSymbolTable
 70
1
  0
STYLE
  5
11
100
AcDbSymbolTableRecord
100
AcDbTextStyleTableRecord
  2
STANDARD
 70
0
 40
0.0
 41
0.8
 50
0.0
 71
0
 42
0.2
  3
txt
  4

  0
STYLE
  5
200
100
AcDbSymbolTableRecord
100
AcDbTextStyleTableRecord
  2
TEXTSTYLE_1
 70
0
 40
0.0
 41
0.8
 50
0.0
 71
0
 42
0.2
  3
gdt
  4

  0
ENDTAB
  0
TABLE
  2
VIEW
  5
6
100
AcDbSymbolTable
 70
0
  0
ENDTAB
  0
TABLE
  2
UCS
  5
7
100
AcDbSymbolTable
 70
0
  0
ENDTAB
  0
TABLE
  2
APPID
  5
9
100
AcDbSymbolTable
 70
1
  0
APPID
  5
201
100
AcDbSymbolTableRecord
100
AcDbRegAppTableRecord
  2
ACAD
 70
0
  0
ENDTAB
  0
TABLE
  2
BLOCK_RECORD
  5
1
100
AcDbSymbolTable
 70
0
  0
BLOCK_RECORD
  5
202
100
AcDbSymbolTableRecord
100
AcDbBlockTableRecord
  2
*Model_Space
  0
BLOCK_RECORD
  5
203
100
AcDbSymbolTableRecord
100
AcDbBlockTableRecord
  2
*Paper_Space
  0
BLOCK_RECORD
  5
204
100
AcDbSymbolTableRecord
100
AcDbBlockTableRecord
  2
_FILLED
  0
ENDTAB
  0
TABLE
  2
DIMSTYLE
  5
A
100
AcDbSymbolTable
 70
1
100
AcDbDimStyleTable
 71
0
  0
DIMSTYLE
105
205
100
AcDbSymbolTableRecord
100
AcDbDimStyleTableRecord
  2
STANDARD
 70
0
  3

  4

 40
1.0
 41
0.1
 42
0.0625
 43
0.38
 44
0.125
 45
0.0
 46
0.0
 47
0.001
 48
0.001
140
0.08
141
0.09
142
0.0
143
25.4
144
1.0
145
0.0
146
1.0
147
0.09
 71
1.0
 72
0.0
 73
1
 74
1
 75
0
 76
0
 77
0
 78
4
 79
1
170
1
171
2
172
0
173
0
174
0
175
0
176
0
177
0
178
0
270
2
179
3
271
3
272
3
273
2
274
2
275
0
280
0
281
0
282
0
283
1
284
4
285
0
286
0
287
3
288
0
340
11
278
46
341
204
342
204
343
204
344
204
  0
ENDTAB
  0
ENDSEC
  0
SECTION
  2
BLOCKS
  0
BLOCK
  5
20
100
AcDbEntity
  8
0
100
AcDbBlockBegin
  2
*Model_Space
 70
0
 10
0.0
 20
0.0
 30
0.0
  3
*Model_Space
  1

  0
ENDBLK
  5
21
100
AcDbEntity
  8
0
100
AcDbBlockEnd
  0
BLOCK
  5
1C
100
AcDbEntity
  8
0
100
AcDbBlockBegin
  2
*Paper_Space
 70
0
 10
0.0
 20
0.0
 30
0.0
  3
*Paper_Space
  1

  0
ENDBLK
  5
1D
100
AcDbEntity
  8
0
100
AcDbBlockEnd
  0
BLOCK
  5
206
100
AcDbEntity
  8
0
100
AcDbBlockBegin
  2
_FILLED
 70
64
 10
0.0
 20
0.0
  3
_FILLED
  1

  0
SOLID
  5
207
100
AcDbEntity
  8
0
  6
BYBLOCK
 62
0
100
AcDbTrace
 10
0.0
 20
0.0
 11
-1.0
 21
0.2
 12
-1.0
 22
-0.2
 13
-1.0
 23
-0.2
  0
ENDBLK
  5
208
100
AcDbEntity
  8
0
  6
BYBLOCK
 62
0
100
AcDbBlockEnd
  0
ENDSEC
  0
SECTION
  2
ENTITIES
  0
MTEXT
  5
209
100
AcDbEntity
  8
0
100
AcDbMText
 62
2
  6
CONTINUOUS
  7
STANDARD
 71
3
 72
1
 10
5.3731754658
 20
1.5115768634
 30
0.0
 11
1.0
 21
0.0
 31
0.0
 73
2
 44
0.9
  1
SCALE  1.000
 40
0.08
 41
0.768
  0
LINE
  5
20A
100
AcDbEntity
  8
0
100
AcDbLine
 62
7
  6
CONTINUOUS
 10
0.0
 20
0.0
 11
0.0
 21
8.5
  0
LINE
  5
20B
100
AcDbEntity
  8
0
100
AcDbLine
 62
7
  6
CONTINUOUS
 10
0.0
 20
0.0
 11
11.0
 21
0.0
  0
LINE
  5
20C
100
AcDbEntity
  8
0
100
AcDbLine
 62
7
  6
CONTINUOUS
 10
0.0
 20
8.5
 11
11.0
 21
8.5
  0
LINE
  5
20D
100
AcDbEntity
  8
0
100
AcDbLine
 62
7
  6
CONTINUOUS
 10
11.0
 20
0.0
 11
11.0
 21
8.5
  0
LINE
  5
20E
100
AcDbEntity
  8
0
100
AcDbLine
 62
7
  6
CONTINUOUS
 10
3.8989363354
 20
2.8402336957
 11
5.8789363354
 21
2.8402336957
  0
LINE
  5
20F
100
AcDbEntity
  8
0
100
AcDbLine
 62
7
  6
CONTINUOUS
 10
3.8989363354
 20
2.8402336957
 11
3.8989363354
 21
3.2352336957
  0
LINE
  5
210
100
AcDbEntity
  8
0
100
AcDbLine
 62
7
  6
CONTINUOUS
 10
4.1739363354
 20
3.8612336957
 11
4.1739363354
 21
5.1793724142
  0
LINE
  5
211
100
AcDbEntity
  8
0
100
AcDbLine
 62
7
  6
CONTINUOUS
 10
3.8989363354
 20
3.2352336957
 11
5.8789363354
 21
3.2352336957
  0
LINE
  5
212
100
AcDbEntity
  8
0
100
AcDbLine
 62
7
  6
CONTINUOUS
 10
3.9289363354
 20
3.2652336957
 11
5.8489363354
 21
3.2652336957
  0
LINE
  5
213
100
AcDbEntity
  8
0
100
AcDbLine
 62
7
  6
CONTINUOUS
 10
4.2839363354
 20
3.8612336957
 11
4.2839363354
 21
3.2652336957
  0
LINE
  5
214
100
AcDbEntity
  8
0
100
AcDbLine
 62
7
  6
CONTINUOUS
 10
4.6389363354
 20
4.9112336957
 11
4.6389363354
 21
4.385036107
  0
LINE
  5
215
100
AcDbEntity
  8
0
100
AcDbLine
 62
7
  6
CONTINUOUS
 10
4.1739363354
 20
3.8612336957
 11
5.6039363354
 21
3.8612336957
  0
LINE
  5
216
100
AcDbEntity
  8
0
100
AcDbLine
 62
7
  6
CONTINUOUS
 10
5.1389363354
 20
4.9112336957
 11
5.1389363354
 21
4.385036107
  0
LINE
  5
217
100
AcDbEntity
  8
0
100
AcDbLine
 62
7
  6
CONTINUOUS
 10
5.4939363354
 20
3.8612336957
 11
5.4939363354
 21
3.2652336957
  0
LINE
  5
218
100
AcDbEntity
  8
0
100
AcDbLine
 62
7
  6
CONTINUOUS
 10
5.6039363354
 20
3.8612336957
 11
5.6039363354
 21
5.1793724142
  0
LINE
  5
219
100
AcDbEntity
  8
0
100
AcDbLine
 62
7
  6
CONTINUOUS
 10
5.8789363354
 20
2.8402336957
 11
5.8789363354
 21
3.2352336957
  0
LINE
  5
21A
100
AcDbEntity
  8
0
100
AcDbLine
 62
7
  6
CONTINUOUS
 10
5.6039363354
 20
5.1793724142
 11
5.0324610284
 21
5.1793724142
  0
LINE
  5
21B
100
AcDbEntity
  8
0
100
AcDbLine
 62
7
  6
CONTINUOUS
 10
4.7454116424
 20
5.1793724142
 11
4.1739363354
 21
5.1793724142
  0
LINE
  5
21C
100
AcDbEntity
  8
0
100
AcDbLine
 62
7
  6
CONTINUOUS
 10
5.5470233794
 20
5.2392929462
 11
4.2308492914
 21
5.2392929462
  0
ARC
  5
21D
100
AcDbEntity
  8
0
100
AcDbCircle
 62
7
  6
CONTINUOUS
 10
4.8889363354
 20
-7.5343913043
 40
12.790625
100
AcDbArc
 50
87.0507879325
 51
92.9492120675
  0
ARC
  5
21E
100
AcDbEntity
  8
0
100
AcDbCircle
 62
7
  6
CONTINUOUS
 10
4.8889363354
 20
4.9112336957
 40
0.25
100
AcDbArc
 50
0.0
 51
180.0
  0
ARC
  5
21F
100
AcDbEntity
  8
0
100
AcDbCircle
 62
7
  6
CONTINUOUS
 10
4.2339363354
 20
5.1793724142
 40
0.06
100
AcDbArc
 50
92.9492120674
 51
180.0
  0
ARC
  5
220
100
AcDbEntity
  8
0
100
AcDbCircle
 62
7
  6
CONTINUOUS
 10
5.5439363354
 20
5.1793724142
 40
0.06
100
AcDbArc
 50
0.0
 51
87.0507879326
  0
ARC
  5
221
100
AcDbEntity
  8
0
100
AcDbCircle
 62
7
  6
CONTINUOUS
 10
5.8489363354
 20
3.2352336957
 40
0.03
100
AcDbArc
 50
0.0
 51
90.0
  0
ARC
  5
222
100
AcDbEntity
  8
0
100
AcDbCircle
 62
7
  6
CONTINUOUS
 10
3.9289363354
 20
3.2352336957
 40
0.03
100
AcDbArc
 50
90.0
 51
180.0
  0
SPLINE
  5
223
100
AcDbEntity
  8
0
100
AcDbSpline
 62
7
  6
CONTINUOUS
 70
0
 71
3
 72
28
 73
24
 74
0
 42
0.0000001
 43
0.0000001
 44
0.0000000001
 40
0.0
 40
0.0
 40
0.0
 40
0.0
 40
0.0263738024
 40
0.0527437065
 40
0.0791844199
 40
0.1057552712
 40
0.1324918225
 40
0.1594219587
 40
0.1865883639
 40
0.2140383173
 40
0.2699210575
 40
0.3274051628
 40
0.356833032
 40
0.3867431793
 40
0.4480523539
 40
0.5114124413
 40
0.576789765
 40
0.6440651344
 40
0.7130415059
 40
0.7834544344
 40
0.8549879472
 40
0.9273100163
 40
1.0
 40
1.0
 40
1.0
 40
1.0
 10
4.6389363354
 20
4.385036107
 30
0.0
 10
4.6389363354
 20
4.3821426544
 30
0.0
 10
4.6391620277
 20
4.376353669
 30
0.0
 10
4.6401727147
 20
4.3677171269
 30
0.0
 10
4.6418477413
 20
4.3591620955
 30
0.0
 10
4.6441742922
 20
4.350719632
 30
0.0
 10
4.6471317241
 20
4.34242026
 30
0.0
 10
4.6507029835
 20
4.3342949591
 30
0.0
 10
4.6548659562
 20
4.3263680922
 30
0.0
 10
4.6612088018
 20
4.3160281588
 30
0.0
 10
4.6705465248
 20
4.3036674039
 30
0.0
 10
4.6814098968
 20
4.2923332858
 30
0.0
 10
4.6909874296
 20
4.2838095962
 30
0.0
 10
4.7013136226
 20
4.2755211009
 30
0.0
 10
4.7153037769
 20
4.2658883961
 30
0.0
 10
4.7334770934
 20
4.2556192362
 30
0.0
 10
4.75301871
 20
4.2465901392
 30
0.0
 10
4.7737619332
 20
4.2388500035
 30
0.0
 10
4.7955300209
 20
4.2324442394
 30
0.0
 10
4.8181338785
 20
4.2274139844
 30
0.0
 10
4.8413768997
 20
4.2237940131
 30
0.0
 10
4.8650480805
 20
4.2216122781
 30
0.0
 10
4.8809615654
 20
4.2211259037
 30
0.0
 10
4.8889363359
 20
4.2211259037
 30
0.0
  0
SPLINE
  5
224
100
AcDbEntity
  8
0
100
AcDbSpline
 62
7
  6
CONTINUOUS
 70
0
 71
3
 72
28
 73
24
 74
0
 42
0.0000001
 43
0.0000001
 44
0.0000000001
 40
0.0
 40
0.0
 40
0.0
 40
0.0
 40
0.0726903694
 40
0.1450133169
 40
0.2165472712
 40
0.2869603948
 40
0.3559369913
 40
0.4232123974
 40
0.4885896045
 40
0.5519495071
 40
0.6132583399
 40
0.6431683075
 40
0.6725959798
 40
0.7300795727
 40
0.7859618997
 40
0.8134116484
 40
0.8405778848
 40
0.8675078704
 40
0.894244203
 40
0.9208149591
 40
0.9472559884
 40
0.9736263833
 40
1.0
 40
1.0
 40
1.0
 40
1.0
 10
4.8889363359
 20
4.2211259037
 30
0.0
 10
4.8969111488
 20
4.2211259037
 30
0.0
 10
4.9128247716
 20
4.221612303
 30
0.0
 10
4.9364961392
 20
4.2237940476
 30
0.0
 10
4.9597393214
 20
4.2274140736
 30
0.0
 10
4.9823432572
 20
4.2324444101
 30
0.0
 10
5.0041113872
 20
4.2388502079
 30
0.0
 10
5.024854604
 20
4.2465904082
 30
0.0
 10
5.0443961701
 20
4.2556195439
 30
0.0
 10
5.0625694023
 20
4.2658887098
 30
0.0
 10
5.0765594646
 20
4.2755214114
 30
0.0
 10
5.0868855749
 20
4.2838098834
 30
0.0
 10
5.096463017
 20
4.2923335278
 30
0.0
 10
5.1073262887
 20
4.3036675707
 30
0.0
 10
5.1166639203
 20
4.3160282383
 30
0.0
 10
5.1230067164
 20
4.3263681005
 30
0.0
 10
5.1271696604
 20
4.3342949176
 30
0.0
 10
5.1307408976
 20
4.3424201628
 30
0.0
 10
5.1336983554
 20
4.3507194708
 30
0.0
 10
5.1360249259
 20
4.359161931
 30
0.0
 10
5.1376999175
 20
4.3677170491
 30
0.0
 10
5.1387106183
 20
4.3763536564
 30
0.0
 10
5.1389363354
 20
4.3821426748
 30
0.0
 10
5.1389363354
 20
4.385036107
 30
0.0
  0
SPLINE
  5
225
100
AcDbEntity
  8
0
100
AcDbSpline
 62
7
  6
CONTINUOUS
 70
0
 71
3
 72
26
 73
22
 74
0
 42
0.0000001
 43
0.0000001
 44
0.0000000001
 40
0.0
 40
0.0
 40
0.0
 40
0.0
 40
0.0620755362
 40
0.1240280464
 40
0.1859103728
 40
0.2478300908
 40
0.3098675482
 40
0.3720875132
 40
0.4345326276
 40
0.4658516948
 40
0.4972275639
 40
0.5601136827
 40
0.6231498612
 40
0.6547070837
 40
0.686270155
 40
0.7178268556
 40
0.7493655862
 40
0.8123330478
 40
0.8751165137
 40
0.9376746712
 40
1.0
 40
1.0
 40
1.0
 40
1.0
 10
4.7454116424
 20
5.1793724142
 30
0.0
 10
4.7371306022
 20
5.1741644686
 30
0.0
 10
4.7211177488
 20
5.1628847065
 30
0.0
 10
4.6989656236
 20
5.143639449
 30
0.0
 10
4.678847351
 20
5.1223091405
 30
0.0
 10
4.6608860799
 20
5.0991203719
 30
0.0
 10
4.6451723376
 20
5.0742919245
 30
0.0
 10
4.631797441
 20
5.0480390469
 30
0.0
 10
4.6226775541
 20
5.0251719412
 30
0.0
 10
4.6166296406
 20
5.0063952543
 30
0.0
 10
4.611415036
 20
4.9872980301
 30
0.0
 10
4.6065013339
 20
4.9629653562
 30
0.0
 10
4.6037688799
 20
4.9382637831
 30
0.0
 10
4.6029032311
 20
4.9183960258
 30
0.0
 10
4.6029159864
 20
4.9034707268
 30
0.0
 10
4.6035911462
 20
4.8885635647
 30
0.0
 10
4.6053735809
 20
4.8687718859
 30
0.0
 10
4.6092420941
 20
4.8442520924
 30
0.0
 10
4.6164738179
 20
4.8154302835
 30
0.0
 10
4.6262341209
 20
4.7874717117
 30
0.0
 10
4.6343980559
 20
4.7695284527
 30
0.0
 10
4.6388749089
 20
4.7607861507
 30
0.0
  0
SPLINE
  5
226
100
AcDbEntity
  8
0
100
AcDbSpline
 62
7
  6
CONTINUOUS
 70
0
 71
3
 72
29
 73
25
 74
0
 42
0.0000001
 43
0.0000001
 44
0.0000000001
 40
0.0
 40
0.0
 40
0.0
 40
0.0
 40
0.0233171563
 40
0.0467292395
 40
0.0703293894
 40
0.0942062066
 40
0.1184431851
 40
0.1431168695
 40
0.1682948441
 40
0.1940369739
 40
0.2203940859
 40
0.2474066197
 40
0.3034983487
 40
0.3624923827
 40
0.3931006697
 40
0.4244360174
 40
0.4892172108
 40
0.5566796338
 40
0.6265745729
 40
0.6985894301
 40
0.7723555928
 40
0.8474681169
 40
0.9235178291
 40
1.0
 40
1.0
 40
1.0
 40
1.0
 10
5.1389360075
 20
4.5199164381
 30
0.0
 10
5.1389360075
 20
4.5224073475
 30
0.0
 10
5.1387345001
 20
4.5274016394
 30
0.0
 10
5.1378278614
 20
4.5348675424
 30
0.0
 10
5.136319022
 20
4.5422966831
 30
0.0
 10
5.1342132847
 20
4.549670428
 30
0.0
 10
5.1315150142
 20
4.5569706661
 30
0.0
 10
5.1282310509
 20
4.5641794118
 30
0.0
 10
5.1243709589
 20
4.5712798995
 30
0.0
 10
5.1199435359
 20
4.5782546518
 30
0.0
 10
5.1149594112
 20
4.5850869227
 30
0.0
 10
5.1074970014
 20
4.5940977952
 30
0.0
 10
5.0967910906
 20
4.6049080533
 30
0.0
 10
5.0847149569
 20
4.6147691906
 30
0.0
 10
5.0741514556
 20
4.6222137813
 30
0.0
 10
5.0627383906
 20
4.6295024079
 30
0.0
 10
5.0474027245
 20
4.6379264584
 30
0.0
 10
5.0276899339
 20
4.6467912223
 30
0.0
 10
5.006650839
 20
4.6544388634
 30
0.0
 10
4.9844874421
 20
4.6607972439
 30
0.0
 10
4.9614113741
 20
4.6658070662
 30
0.0
 10
4.9376403355
 20
4.669420164
 30
0.0
 10
4.9134054961
 20
4.6716005948
 30
0.0
 10
4.8971067209
 20
4.6720871237
 30
0.0
 10
4.8889363354
 20
4.6720871237
 30
0.0
  0
SPLINE
  5
227
100
AcDbEntity
  8
0
100
AcDbSpline
 62
7
  6
CONTINUOUS
 70
0
 71
3
 72
51
 73
47
 74
0
 42
0.0000001
 43
0.0000001
 44
0.0000000001
 40
0.0
 40
0.0
 40
0.0
 40
0.0
 40
0.0382405597
 40
0.0762645959
 40
0.1138209071
 40
0.1507042755
 40
0.1867118349
 40
0.221659373
 40
0.255390656
 40
0.2877813455
 40
0.3034490887
 40
0.3187532963
 40
0.3482504146
 40
0.3762963563
 40
0.3898026642
 40
0.4029812586
 40
0.4158523568
 40
0.4284413814
 40
0.4407782591
 40
0.4528967795
 40
0.4648352193
 40
0.476635324
 40
0.4883413938
 40
0.5
 40
0.5116586062
 40
0.523364676
 40
0.5351647806
 40
0.5471032204
 40
0.5592217409
 40
0.5715586186
 40
0.5841476432
 40
0.5970187414
 40
0.6101973358
 40
0.6237036437
 40
0.6517495853
 40
0.6812467037
 40
0.6965509112
 40
0.7122186544
 40
0.744609344
 40
0.7783406269
 40
0.8132881651
 40
0.8492957244
 40
0.8861790929
 40
0.9237354041
 40
0.9617594403
 40
1.0
 40
1.0
 40
1.0
 40
1.0
 10
4.8889363354
 20
4.495143899
 30
0.0
 10
4.881746495
 20
4.495143899
 30
0.0
 10
4.8674038236
 20
4.4947158178
 30
0.0
 10
4.846077412
 20
4.4927970129
 30
0.0
 10
4.8251589786
 20
4.489617574
 30
0.0
 10
4.8048519406
 20
4.4852089614
 30
0.0
 10
4.7853480588
 20
4.4796135784
 30
0.0
 10
4.7668335917
 20
4.4728836815
 30
0.0
 10
4.7494862801
 20
4.4650827045
 30
0.0
 10
4.7359908511
 20
4.4576695276
 30
0.0
 10
4.7259473006
 20
4.4512555407
 30
0.0
 10
4.7166513707
 20
4.4447042933
 30
0.0
 10
4.7060243247
 20
4.4360264789
 30
0.0
 10
4.6966030858
 20
4.4265134307
 30
0.0
 10
4.6900361313
 20
4.4185838532
 30
0.0
 10
4.6856500764
 20
4.4125714466
 30
0.0
 10
4.6817539344
 20
4.4064336462
 30
0.0
 10
4.6783570332
 20
4.4001852062
 30
0.0
 10
4.6754671272
 20
4.3938414946
 30
0.0
 10
4.6730926435
 20
4.3874172745
 30
0.0
 10
4.6712395839
 20
4.3809283384
 30
0.0
 10
4.6699117962
 20
4.374390774
 30
0.0
 10
4.6691139524
 20
4.367820413
 30
0.0
 10
4.6688481421
 20
4.3612336957
 30
0.0
 10
4.6691139524
 20
4.3546469783
 30
0.0
 10
4.6699117962
 20
4.3480766173
 30
0.0
 10
4.6712395839
 20
4.3415390529
 30
0.0
 10
4.6730926435
 20
4.3350501168
 30
0.0
 10
4.6754671272
 20
4.3286258967
 30
0.0
 10
4.6783570332
 20
4.3222821851
 30
0.0
 10
4.6817539344
 20
4.3160337451
 30
0.0
 10
4.6856500764
 20
4.3098959448
 30
0.0
 10
4.6900361313
 20
4.3038835381
 30
0.0
 10
4.6966030858
 20
4.2959539606
 30
0.0
 10
4.7060243247
 20
4.2864409125
 30
0.0
 10
4.7166513707
 20
4.277763098
 30
0.0
 10
4.7259473006
 20
4.2712118506
 30
0.0
 10
4.7359908511
 20
4.2647978637
 30
0.0
 10
4.7494862801
 20
4.2573846868
 30
0.0
 10
4.7668335917
 20
4.2495837098
 30
0.0
 10
4.7853480588
 20
4.2428538129
 30
0.0
 10
4.8048519406
 20
4.2372584299
 30
0.0
 10
4.8251589786
 20
4.2328498173
 30
0.0
 10
4.8460774119
 20
4.2296703784
 30
0.0
 10
4.8674038236
 20
4.2277515735
 30
0.0
 10
4.881746495
 20
4.2273234923
 30
0.0
 10
4.8889363354
 20
4.2273234923
 30
0.0
  0
SPLINE
  5
228
100
AcDbEntity
  8
0
100
AcDbSpline
 62
7
  6
CONTINUOUS
 70
0
 71
3
 72
51
 73
47
 74
0
 42
0.0000001
 43
0.0000001
 44
0.0000000001
 40
0.0
 40
0.0
 40
0.0
 40
0.0
 40
0.0382405597
 40
0.0762645959
 40
0.1138209071
 40
0.1507042755
 40
0.1867118349
 40
0.221659373
 40
0.255390656
 40
0.2877813455
 40
0.3034490887
 40
0.3187532963
 40
0.3482504146
 40
0.3762963563
 40
0.3898026642
 40
0.4029812586
 40
0.4158523568
 40
0.4284413814
 40
0.4407782591
 40
0.4528967795
 40
0.4648352193
 40
0.476635324
 40
0.4883413938
 40
0.5
 40
0.5116586062
 40
0.523364676
 40
0.5351647806
 40
0.5471032204
 40
0.5592217409
 40
0.5715586186
 40
0.5841476432
 40
0.5970187414
 40
0.6101973358
 40
0.6237036437
 40
0.6517495853
 40
0.6812467037
 40
0.6965509112
 40
0.7122186544
 40
0.744609344
 40
0.7783406269
 40
0.8132881651
 40
0.8492957244
 40
0.8861790929
 40
0.9237354041
 40
0.9617594403
 40
1.0
 40
1.0
 40
1.0
 40
1.0
 10
4.8889363354
 20
4.2273234923
 30
0.0
 10
4.8961261758
 20
4.2273234923
 30
0.0
 10
4.9104688472
 20
4.2277515735
 30
0.0
 10
4.9317952589
 20
4.2296703784
 30
0.0
 10
4.9527136922
 20
4.2328498173
 30
0.0
 10
4.9730207302
 20
4.2372584299
 30
0.0
 10
4.992524612
 20
4.2428538129
 30
0.0
 10
5.0110390791
 20
4.2495837098
 30
0.0
 10
5.0283863907
 20
4.2573846868
 30
0.0
 10
5.0418818197
 20
4.2647978637
 30
0.0
 10
5.0519253702
 20
4.2712118506
 30
0.0
 10
5.0612213001
 20
4.277763098
 30
0.0
 10
5.0718483461
 20
4.2864409124
 30
0.0
 10
5.081269585
 20
4.2959539606
 30
0.0
 10
5.0878365395
 20
4.3038835381
 30
0.0
 10
5.0922225944
 20
4.3098959447
 30
0.0
 10
5.0961187364
 20
4.3160337451
 30
0.0
 10
5.0995156376
 20
4.3222821851
 30
0.0
 10
5.1024055436
 20
4.3286258967
 30
0.0
 10
5.1047800273
 20
4.3350501168
 30
0.0
 10
5.1066330869
 20
4.3415390529
 30
0.0
 10
5.1079608746
 20
4.3480766173
 30
0.0
 10
5.1087587184
 20
4.3546469783
 30
0.0
 10
5.1090245287
 20
4.3612336956
 30
0.0
 10
5.1087587184
 20
4.367820413
 30
0.0
 10
5.1079608746
 20
4.374390774
 30
0.0
 10
5.1066330869
 20
4.3809283384
 30
0.0
 10
5.1047800273
 20
4.3874172745
 30
0.0
 10
5.1024055437
 20
4.3938414946
 30
0.0
 10
5.0995156376
 20
4.4001852062
 30
0.0
 10
5.0961187364
 20
4.4064336462
 30
0.0
 10
5.0922225944
 20
4.4125714465
 30
0.0
 10
5.0878365395
 20
4.4185838532
 30
0.0
 10
5.081269585
 20
4.4265134307
 30
0.0
 10
5.0718483462
 20
4.4360264789
 30
0.0
 10
5.0612213001
 20
4.4447042933
 30
0.0
 10
5.0519253702
 20
4.4512555407
 30
0.0
 10
5.0418818197
 20
4.4576695276
 30
0.0
 10
5.0283863907
 20
4.4650827045
 30
0.0
 10
5.0110390791
 20
4.4728836815
 30
0.0
 10
4.9925246121
 20
4.4796135784
 30
0.0
 10
4.9730207302
 20
4.4852089614
 30
0.0
 10
4.9527136922
 20
4.489617574
 30
0.0
 10
4.9317952589
 20
4.4927970129
 30
0.0
 10
4.9104688472
 20
4.4947158178
 30
0.0
 10
4.8961261758
 20
4.495143899
 30
0.0
 10
4.8889363354
 20
4.495143899
 30
0.0
  0
SPLINE
  5
229
100
AcDbEntity
  8
0
100
AcDbSpline
 62
7
  6
CONTINUOUS
 70
0
 71
3
 72
29
 73
25
 74
0
 42
0.0000001
 43
0.0000001
 44
0.0000000001
 40
0.0
 40
0.0
 40
0.0
 40
0.0
 40
0.0233171563
 40
0.0467292395
 40
0.0703293894
 40
0.0942062066
 40
0.1184431851
 40
0.1431168695
 40
0.1682948441
 40
0.1940369739
 40
0.2203940859
 40
0.2474066197
 40
0.3034983487
 40
0.3624923827
 40
0.3931006697
 40
0.4244360174
 40
0.4892172108
 40
0.5566796338
 40
0.6265745729
 40
0.6985894301
 40
0.7723555928
 40
0.8474681169
 40
0.9235178291
 40
1.0
 40
1.0
 40
1.0
 40
1.0
 10
5.1389360075
 20
4.385036107
 30
0.0
 10
5.1389360075
 20
4.3875270164
 30
0.0
 10
5.1387345001
 20
4.3925213083
 30
0.0
 10
5.1378278614
 20
4.3999872113
 30
0.0
 10
5.136319022
 20
4.407416352
 30
0.0
 10
5.1342132847
 20
4.4147900969
 30
0.0
 10
5.1315150142
 20
4.422090335
 30
0.0
 10
5.1282310509
 20
4.4292990807
 30
0.0
 10
5.1243709589
 20
4.4363995684
 30
0.0
 10
5.1199435359
 20
4.4433743207
 30
0.0
 10
5.1149594112
 20
4.4502065916
 30
0.0
 10
5.1074970014
 20
4.4592174641
 30
0.0
 10
5.0967910906
 20
4.4700277222
 30
0.0
 10
5.0847149569
 20
4.4798888595
 30
0.0
 10
5.0741514556
 20
4.4873334502
 30
0.0
 10
5.0627383906
 20
4.4946220768
 30
0.0
 10
5.0474027245
 20
4.5030461273
 30
0.0
 10
5.0276899339
 20
4.5119108912
 30
0.0
 10
5.006650839
 20
4.5195585322
 30
0.0
 10
4.9844874421
 20
4.5259169128
 30
0.0
 10
4.9614113741
 20
4.5309267351
 30
0.0
 10
4.9376403355
 20
4.5345398329
 30
0.0
 10
4.9134054961
 20
4.5367202637
 30
0.0
 10
4.8971067209
 20
4.5372067926
 30
0.0
 10
4.8889363354
 20
4.5372067926
 30
0.0
  0
SPLINE
  5
22A
100
AcDbEntity
  8
0
100
AcDbSpline
 62
7
  6
CONTINUOUS
 70
0
 71
3
 72
26
 73
22
 74
0
 42
0.0000001
 43
0.0000001
 44
0.0000000001
 40
0.0
 40
0.0
 40
0.0
 40
0.0
 40
0.1917564316
 40
0.373812193
 40
0.4593091239
 40
0.540221264
 40
0.6159061191
 40
0.6857631865
 40
0.7492873351
 40
0.8060232201
 40
0.855636336
 40
0.8776978882
 40
0.8979032396
 40
0.9162595759
 40
0.9327908356
 40
0.9475432807
 40
0.9605980001
 40
0.9720952852
 40
0.9822563469
 40
0.9914076794
 40
1.0
 40
1.0
 40
1.0
 40
1.0
 10
4.7454116424
 20
5.1793724142
 30
0.0
 10
4.7471645801
 20
5.1762241584
 30
0.0
 10
4.7504847799
 20
5.1700323058
 30
0.0
 10
4.7543031374
 20
5.1622894509
 30
0.0
 10
4.7570209266
 20
5.1563314667
 30
0.0
 10
4.7588177521
 20
5.1521516146
 30
0.0
 10
4.7604017219
 20
5.1482014691
 30
0.0
 10
4.7617590345
 20
5.1445140913
 30
0.0
 10
4.7628794912
 20
5.1411208583
 30
0.0
 10
4.7637534305
 20
5.1380496197
 30
0.0
 10
4.7642915304
 20
5.135695548
 30
0.0
 10
4.7645828172
 20
5.1339933163
 30
0.0
 10
4.764726899
 20
5.1328628539
 30
0.0
 10
4.7648054062
 20
5.1318300224
 30
0.0
 10
4.7648182392
 20
5.1308965716
 30
0.0
 10
4.7647653478
 20
5.1300640372
 30
0.0
 10
4.7646462525
 20
5.1293335914
 30
0.0
 10
4.7644605231
 20
5.1287060153
 30
0.0
 10
4.7642070756
 20
5.12818182
 30
0.0
 10
4.7638839686
 20
5.1277632785
 30
0.0
 10
4.7636173464
 20
5.1275556249
 30
0.0
 10
4.7634776878
 20
5.1274745977
 30
0.0
  0
SPLINE
  5
22B
100
AcDbEntity
  8
0
100
AcDbSpline
 62
7
  6
CONTINUOUS
 70
0
 71
3
 72
29
 73
25
 74
0
 42
0.0000001
 43
0.0000001
 44
0.0000000001
 40
0.0
 40
0.0
 40
0.0
 40
0.0
 40
0.0764821709
 40
0.1525318831
 40
0.2276444072
 40
0.3014105699
 40
0.3734254271
 40
0.4433203662
 40
0.5107827892
 40
0.5755639826
 40
0.6068993303
 40
0.6375076173
 40
0.6965016513
 40
0.7525933803
 40
0.7796059141
 40
0.8059630261
 40
0.8317051559
 40
0.8568831305
 40
0.8815568149
 40
0.9057937934
 40
0.9296706106
 40
0.9532707605
 40
0.9766828437
 40
1.0
 40
1.0
 40
1.0
 40
1.0
 10
4.8889363354
 20
4.5372067926
 30
0.0
 10
4.8807659499
 20
4.5372067926
 30
0.0
 10
4.8644671747
 20
4.5367202637
 30
0.0
 10
4.8402323353
 20
4.5345398329
 30
0.0
 10
4.8164612967
 20
4.5309267351
 30
0.0
 10
4.7933852287
 20
4.5259169128
 30
0.0
 10
4.7712218318
 20
4.5195585322
 30
0.0
 10
4.7501827369
 20
4.5119108912
 30
0.0
 10
4.7304699463
 20
4.5030461273
 30
0.0
 10
4.7151342802
 20
4.4946220768
 30
0.0
 10
4.7037212152
 20
4.4873334502
 30
0.0
 10
4.6931577139
 20
4.4798888595
 30
0.0
 10
4.6810815802
 20
4.4700277222
 30
0.0
 10
4.6703756694
 20
4.4592174641
 30
0.0
 10
4.6629132597
 20
4.4502065916
 30
0.0
 10
4.6579291349
 20
4.4433743207
 30
0.0
 10
4.6535017119
 20
4.4363995684
 30
0.0
 10
4.6496416199
 20
4.4292990807
 30
0.0
 10
4.6463576566
 20
4.422090335
 30
0.0
 10
4.6436593861
 20
4.4147900969
 30
0.0
 10
4.6415536488
 20
4.407416352
 30
0.0
 10
4.6400448094
 20
4.3999872113
 30
0.0
 10
4.6391381707
 20
4.3925213083
 30
0.0
 10
4.6389366633
 20
4.3875270164
 30
0.0
 10
4.6389366633
 20
4.385036107
 30
0.0
  0
SPLINE
  5
22C
100
AcDbEntity
  8
0
100
AcDbSpline
 62
7
  6
CONTINUOUS
 70
0
 71
3
 72
29
 73
25
 74
0
 42
0.0000001
 43
0.0000001
 44
0.0000000001
 40
0.0
 40
0.0
 40
0.0
 40
0.0
 40
0.0764821709
 40
0.1525318831
 40
0.2276444072
 40
0.3014105699
 40
0.3734254271
 40
0.4433203662
 40
0.5107827892
 40
0.5755639826
 40
0.6068993303
 40
0.6375076173
 40
0.6965016513
 40
0.7525933803
 40
0.7796059141
 40
0.8059630261
 40
0.8317051559
 40
0.8568831305
 40
0.8815568149
 40
0.9057937934
 40
0.9296706106
 40
0.9532707605
 40
0.9766828437
 40
1.0
 40
1.0
 40
1.0
 40
1.0
 10
4.8889363354
 20
4.6720871237
 30
0.0
 10
4.8807659499
 20
4.6720871237
 30
0.0
 10
4.8644671747
 20
4.6716005948
 30
0.0
 10
4.8402323353
 20
4.669420164
 30
0.0
 10
4.8164612967
 20
4.6658070662
 30
0.0
 10
4.7933852287
 20
4.6607972439
 30
0.0
 10
4.7712218318
 20
4.6544388634
 30
0.0
 10
4.7501827369
 20
4.6467912223
 30
0.0
 10
4.7304699463
 20
4.6379264584
 30
0.0
 10
4.7151342802
 20
4.6295024079
 30
0.0
 10
4.7037212152
 20
4.6222137813
 30
0.0
 10
4.6931577139
 20
4.6147691906
 30
0.0
 10
4.6810815802
 20
4.6049080533
 30
0.0
 10
4.6703756694
 20
4.5940977952
 30
0.0
 10
4.6629132597
 20
4.5850869227
 30
0.0
 10
4.6579291349
 20
4.5782546518
 30
0.0
 10
4.6535017119
 20
4.5712798995
 30
0.0
 10
4.6496416199
 20
4.5641794118
 30
0.0
 10
4.6463576566
 20
4.5569706661
 30
0.0
 10
4.6436593861
 20
4.549670428
 30
0.0
 10
4.6415536488
 20
4.5422966831
 30
0.0
 10
4.6400448094
 20
4.5348675424
 30
0.0
 10
4.6391381707
 20
4.5274016394
 30
0.0
 10
4.6389366633
 20
4.5224073475
 30
0.0
 10
4.6389366633
 20
4.5199164381
 30
0.0
  0
SPLINE
  5
22D
100
AcDbEntity
  8
0
100
AcDbSpline
 62
7
  6
CONTINUOUS
 70
0
 71
3
 72
24
 73
20
 74
0
 42
0.0000001
 43
0.0000001
 44
0.0000000001
 40
0.0
 40
0.0
 40
0.0
 40
0.0
 40
0.0623272002
 40
0.1248874163
 40
0.187672738
 40
0.2506420829
 40
0.3137243811
 40
0.3768308203
 40
0.43986914
 40
0.4713441455
 40
0.5027726978
 40
0.5654536955
 40
0.6279009003
 40
0.6901226777
 40
0.7521621855
 40
0.8140838092
 40
0.8759679646
 40
0.93792252
 40
1.0
 40
1.0
 40
1.0
 40
1.0
 10
5.1389976321
 20
4.7607873762
 30
0.0
 10
5.1434742335
 20
4.7695297604
 30
0.0
 10
5.1516379684
 20
4.7874730678
 30
0.0
 10
5.161400024
 20
4.8154305716
 30
0.0
 10
5.168633824
 20
4.8442528928
 30
0.0
 10
5.1732722666
 20
4.8736869794
 30
0.0
 10
5.1752839005
 20
4.9034670513
 30
0.0
 10
5.1746516914
 20
4.9333181174
 30
0.0
 10
5.1719174931
 20
4.9580417447
 30
0.0
 10
5.1684210886
 20
4.9775837897
 30
0.0
 10
5.1640658973
 20
4.9968947785
 30
0.0
 10
5.157025139
 20
5.0205775749
 30
0.0
 10
5.1460751703
 20
5.0480385403
 30
0.0
 10
5.1327004573
 20
5.0742928127
 30
0.0
 10
5.116986473
 20
5.0991206165
 30
0.0
 10
5.0990255941
 20
5.1223096774
 30
0.0
 10
5.0789068185
 20
5.1436393978
 30
0.0
 10
5.0567545498
 20
5.1628843005
 30
0.0
 10
5.0407420049
 20
5.1741644212
 30
0.0
 10
5.0324610284
 20
5.1793724142
 30
0.0
  0
SPLINE
  5
22E
100
AcDbEntity
  8
0
100
AcDbSpline
 62
7
  6
CONTINUOUS
 70
0
 71
3
 72
26
 73
22
 74
0
 42
0.0000001
 43
0.0000001
 44
0.0000000001
 40
0.0
 40
0.0
 40
0.0
 40
0.0
 40
0.1917556989
 40
0.3738107322
 40
0.4593073318
 40
0.5402191768
 40
0.6159037846
 40
0.6857606649
 40
0.7492846976
 40
0.8060205502
 40
0.8556337326
 40
0.8776953617
 40
0.8979008228
 40
0.9162573041
 40
0.9327887472
 40
0.9475414171
 40
0.960596406
 40
0.9720940104
 40
0.982255447
 40
0.9914072093
 40
1.0
 40
1.0
 40
1.0
 40
1.0
 10
5.0324610284
 20
5.1793724142
 30
0.0
 10
5.030708021
 20
5.1762241998
 30
0.0
 10
5.0273877083
 20
5.1700324128
 30
0.0
 10
5.0235692616
 20
5.162289608
 30
0.0
 10
5.0208514324
 20
5.1563316471
 30
0.0
 10
5.0190545912
 20
5.1521518036
 30
0.0
 10
5.0174706189
 20
5.1482016591
 30
0.0
 10
5.0161133158
 20
5.1445142754
 30
0.0
 10
5.014992879
 20
5.1411210303
 30
0.0
 10
5.0141189681
 20
5.1380497745
 30
0.0
 10
5.0135808994
 20
5.1356956854
 30
0.0
 10
5.013289641
 20
5.1339934384
 30
0.0
 10
5.0131455809
 20
5.1328629632
 30
0.0
 10
5.0130670963
 20
5.1318301184
 30
0.0
 10
5.0130542868
 20
5.1308966539
 30
0.0
 10
5.0131072019
 20
5.1300641055
 30
0.0
 10
5.0132263212
 20
5.1293336457
 30
0.0
 10
5.0134120747
 20
5.1287060556
 30
0.0
 10
5.0136655467
 20
5.1281818465
 30
0.0
 10
5.0139886783
 20
5.1277632919
 30
0.0
 10
5.0142553162
 20
5.1275556296
 30
0.0
 10
5.0143949829
 20
5.1274745978
 30
0.0
  0
SPLINE
  5
22F
100
AcDbEntity
  8
0
100
AcDbSpline
 62
7
  6
CONTINUOUS
 70
0
 71
3
 72
15
 73
11
 74
0
 42
0.0000001
 43
0.0000001
 44
0.0000000001
 40
0.0
 40
0.0
 40
0.0
 40
0.0
 40
0.1236543624
 40
0.2481280756
 40
0.3730384618
 40
0.4982021504
 40
0.6235523578
 40
0.7490111342
 40
0.8745154139
 40
1.0
 40
1.0
 40
1.0
 40
1.0
 10
5.0324610284
 20
5.1793724142
 30
0.0
 10
5.0267365024
 20
5.1811725174
 30
0.0
 10
5.015167186
 20
5.1845277888
 30
0.0
 10
4.9975776783
 20
5.1888310421
 30
0.0
 10
4.9797558246
 20
5.1924295133
 30
0.0
 10
4.9617653955
 20
5.1953351856
 30
0.0
 10
4.9436528299
 20
5.1975691541
 30
0.0
 10
4.9254554514
 20
5.199152801
 30
0.0
 10
4.9072074416
 20
5.2000954022
 30
0.0
 10
4.8950260359
 20
5.2003029795
 30
0.0
 10
4.8889363354
 20
5.2003030549
 30
0.0
  0
SPLINE
  5
230
100
AcDbEntity
  8
0
100
AcDbSpline
 62
7
  6
CONTINUOUS
 70
0
 71
3
 72
15
 73
11
 74
0
 42
0.0000001
 43
0.0000001
 44
0.0000000001
 40
0.0
 40
0.0
 40
0.0
 40
0.0
 40
0.1254846073
 40
0.2509890148
 40
0.3764479995
 40
0.5017983689
 40
0.6269620119
 40
0.7518720769
 40
0.876345643
 40
1.0
 40
1.0
 40
1.0
 40
1.0
 10
4.8889363354
 20
5.2003030549
 30
0.0
 10
4.8828466355
 20
5.200303043
 30
0.0
 10
4.8706652229
 20
5.200095457
 30
0.0
 10
4.8524172101
 20
5.1991526495
 30
0.0
 10
4.8342198308
 20
5.1975688092
 30
0.0
 10
4.8161072505
 20
5.1953348911
 30
0.0
 10
4.7981168096
 20
5.1924293843
 30
0.0
 10
4.7802949672
 20
5.1888309954
 30
0.0
 10
4.762705503
 20
5.1845276773
 30
0.0
 10
4.7511361895
 20
5.1811724442
 30
0.0
 10
4.7454116424
 20
5.1793724142
 30
0.0
  0
ENDSEC
  0
SECTION
  2
OBJECTS
  0
DICTIONARY
  5
C
100
AcDbDictionary
280
0
281
1
  3
ACAD_GROUP
350
D
  3
ACAD_MLINESTYLE
350
17
  3
ACAD_LAYOUT
350
1A
  3
ACAD_PLOTSETTINGS
350
19
  3
ACAD_PLOTSTYLENAME
350
E
  0
DICTIONARY
  5
D
102
{ACAD_REACTORS
330
C
102
}
100
AcDbDictionary
280
0
281
1
  0
ACDBDICTIONARYWDFLT
  5
E
102
{ACAD_REACTORS
330
C
102
}
100
AcDbDictionary
281
1
  3
Normal
350
F
100
AcDbDictionaryWithDefault
340
F
  0
DICTIONARY
  5
17
102
{ACAD_REACTORS
330
C
102
}
100
AcDbDictionary
280
0
281
1
  3
Standard
350
18
  0
DICTIONARY
  5
19
102
{ACAD_REACTORS
330
C
102
}
100
AcDbDictionary
281
1
  0
DICTIONARY
  5
1A
102
{ACAD_REACTORS
330
C
102
}
100
AcDbDictionary
281
1
  3
Model
350
231
  3
Layout1
350
232
  0
ACDBPLACEHOLDER
  5
F
102
{ACAD_REACTORS
330
E
102
}
  0
MLINESTYLE
  5
18
102
{ACAD_REACTORS
330
17
102
}
100
AcDbMlineStyle
  2
STANDARD
 70
0
  3

 62
256
 51
90.0
 52
90.0
 71
2
 49
0.5
 62
256
  6
BYLAYER
 49
-0.5
 62
256
  6
BYLAYER
  0
LAYOUT
  5
231
102
{ACAD_REACTORS
330
1A
102
}
100
AcDbPlotSettings
  1

  2
none_device
  4
ANSI_A_(11.00_x_8.50_Inches)
  6

 40
0.0
 41
0.0
 42
0.0
 43
0.0
 44
279.4
 45
215.9
 46
0.0
 47
0.0
 48
0.0
 49
0.0
140
0.0
141
0.0
142
1.0
143
1.0
 70
1024
 72
0
 73
0
 74
0
  7

 75
0
147
1.0
148
0.0
149
0.0
100
AcDbLayout
  1
Model
 70
0
 71
0
 10
0.0
 20
0.0
 11
11.0
 21
8.5
 12
0.0
 22
0.0
 32
0.0
 14
0.0
 24
0.0
 34
0.0
 15
0.0
 25
0.0
 35
0.0
146
0.0
 13
0.0
 23
0.0
 33
0.0
 16
1.0
 26
0.0
 36
0.0
 17
0.0
 27
1.0
 37
0.0
 76
0
330
202
345
0
346
0
  0
LAYOUT
  5
232
102
{ACAD_REACTORS
330
1A
102
}
100
AcDbPlotSettings
  1

  2
none_device
  4
ANSI_A_(11.00_x_8.50_Inches)
  6

 40
0.0
 41
0.0
 42
0.0
 43
0.0
 44
279.4
 45
215.9
 46
0.0
 47
0.0
 48
0.0
 49
0.0
140
0.0
141
0.0
142
1.0
143
1.0
 70
0
 72
0
 73
0
 74
0
  7

 75
0
147
1.0
148
0.0
149
0.0
100
AcDbLayout
  1
Layout1
 70
0
 71
1
 10
0.0
 20
0.0
 11
11.0
 21
8.5
 12
0.0
 22
0.0
 32
0.0
 14
0.0
 24
0.0
 34
0.0
 15
0.0
 25
0.0
 35
0.0
146
0.0
 13
0.0
 23
0.0
 33
0.0
 16
1.0
 26
0.0
 36
0.0
 17
0.0
 27
1.0
 37
0.0
 76
0
330
203
345
0
346
0
  0
ENDSEC
  0
EOF
