999
DXF file: 1500-5721_top.dxf
999
Pro/ENGINEER 2018400 by Parametric Technology Corporation
  0
SECTION
  2
HEADER
  9
$ACADVER
  1
AC1027
  9
$DWGCODEPAGE
  3
ANSI_1252
  9
$EXTMAX
 10
11.0
 20
8.5
 30
0.0
  9
$EXTMIN
 10
0.0
 20
0.0
 30
0.0
  9
$LIMMIN
 10
0.0
 20
0.0
  9
$LIMMAX
 10
11.0
 20
8.5
  9
$VIEWCTR
 10
5.5
 20
4.25
  9
$VIEWSIZE
 40
8.5
  9
$CLAYER
  8
0
  9
$LTSCALE
 40
0.605
  9
$CELTYPE
  6
BYLAYER
  9
$DIMSCALE
 40
1.0
  9
$DIMASZ
 40
0.1
  9
$DIMEXO
 40
0.0625
  9
$DIMDLI
 40
0.418
  9
$DIMEXE
 40
0.125
  9
$DIMCEN
 40
0.099
  9
$DIMLFAC
 40
1.0
  9
$DIMBLK
  1
_FILLED
  9
$DIMALT
 70
1
  9
$DIMALTD
 70
2
  9
$DIMALTTD
 70
2
  9
$DIMALTF
 40
25.4
  9
$DIMTXT
 40
0.08
  9
$DIMTOL
 70
1
  9
$DIMLIM
 70
0
  9
$DIMTFAC
 40
1.0
  9
$DIMTP
 40
0.001
  9
$DIMTM
 40
0.001
  9
$DIMGAP
 40
0.09
  9
$DIMDSEP
 70
46
  9
$AUNITS
 70
0
  9
$PDMODE
 70
3
  9
$PDSIZE
 40
0.3125
  9
$HANDSEED
  5
22A
  9
$TILEMODE
 70
1
  9
$MEASUREMENT
 70
0
  9
$INSUNITS
 70
1
  0
ENDSEC
  0
SECTION
  2
CLASSES
  0
CLASS
  1
ACDBDICTIONARYWDFLT
  2
AcDbDictionaryWithDefault
  3
AutoCAD 2000
 90
0
 91
1
280
0
281
0
  0
CLASS
  1
ACDBPLACEHOLDER
  2
AcDbPlaceHolder
  3
AutoCAD 2000
 90
0
 91
1
280
0
281
0
  0
CLASS
  1
LAYOUT
  2
AcDbLayout
  3
AutoCAD 2000
 90
0
 91
0
280
0
281
0
  0
ENDSEC
  0
SECTION
  2
TABLES
  0
TABLE
  2
VPORT
  5
8
100
AcDbSymbolTable
 70
2
  0
VPORT
  5
1F4
100
AcDbSymbolTableRecord
100
AcDbViewportTableRecord
  2
*ACTIVE
 70
0
 10
0.0
 20
0.0
 11
1.0
 21
1.0
 12
5.5
 22
4.25
 13
0.0
 23
0.0
 14
1.0
 24
1.0
 15
0.0
 25
0.0
 16
0.0
 26
0.0
 36
1.0
 17
0.0
 27
0.0
 37
0.0
 40
8.5
 41
1.2941176471
 42
50.0
 43
0.0
 44
0.0
 50
0.0
 51
0.0
 71
0
 72
100
 73
1
 74
1
 75
0
 76
0
 77
0
 78
0
  0
ENDTAB
  0
TABLE
  2
LTYPE
  5
5
100
AcDbSymbolTable
 70
6
  0
LTYPE
  5
14
100
AcDbSymbolTableRecord
100
AcDbLinetypeTableRecord
  2
BYBLOCK
 70
0
  3

 72
65
 73
0
 40
0.0
  0
LTYPE
  5
15
100
AcDbSymbolTableRecord
100
AcDbLinetypeTableRecord
  2
BYLAYER
 70
0
  3

 72
65
 73
0
 40
0.0
  0
LTYPE
  5
16
100
AcDbSymbolTableRecord
100
AcDbLinetypeTableRecord
  2
CONTINUOUS
 70
64
  3
Solid line
 72
65
 73
0
 40
0.0
  0
LTYPE
  5
1F5
100
AcDbSymbolTableRecord
100
AcDbLinetypeTableRecord
  2
CENTER
 70
64
  3
____ _ ____ _ ____ _ ____ _ ____ _ ____ _ ____
 72
65
 73
4
 40
0.6
 49
0.375
 74
0
 49
-0.075
 74
0
 49
0.075
 74
0
 49
-0.075
 74
0
  0
LTYPE
  5
1F6
100
AcDbSymbolTableRecord
100
AcDbLinetypeTableRecord
  2
HIDDEN
 70
64
  3
- - - - - - - - - - - - - - - - - - - -
 72
65
 73
2
 40
0.2
 49
0.1
 74
0
 49
-0.1
 74
0
  0
LTYPE
  5
1F7
100
AcDbSymbolTableRecord
100
AcDbLinetypeTableRecord
  2
PHANTOM
 70
64
  3
_____ _ _ _____ _ _ _____ _ _ _____
 72
65
 73
6
 40
0.8
 49
0.45
 74
0
 49
-0.05
 74
0
 49
0.1
 74
0
 49
-0.05
 74
0
 49
0.1
 74
0
 49
-0.05
 74
0
  0
LTYPE
  5
1F8
100
AcDbSymbolTableRecord
100
AcDbLinetypeTableRecord
  2
DOT
 70
64
  3
. . . . . . . . . . . . . . . . . . . .
 72
65
 73
2
 40
0.2
 49
0.1
 74
0
 49
-0.1
 74
0
  0
LTYPE
  5
1F9
100
AcDbSymbolTableRecord
100
AcDbLinetypeTableRecord
  2
DASHED
 70
64
  3
- - - - - - - - - - - - - - - - - - - -
 72
65
 73
2
 40
0.2
 49
0.1
 74
0
 49
-0.1
 74
0
  0
ENDTAB
  0
TABLE
  2
LAYER
  5
2
100
AcDbSymbolTable
 70
36
  0
LAYER
  5
10
100
AcDbSymbolTableRecord
100
AcDbLayerTableRecord
  2
0
 70
0
 62
7
  6
CONTINUOUS
370
-3
390
F
  0
LAYER
  5
1FA
100
AcDbSymbolTableRecord
100
AcDbLayerTableRecord
  2
DEFAULT_1
 70
0
 62
7
  6
CENTER
370
-3
390
F
  0
LAYER
  5
1FB
100
AcDbSymbolTableRecord
100
AcDbLayerTableRecord
  2
DEFAULT_2
 70
0
 62
8
  6
HIDDEN
370
-3
390
F
  0
LAYER
  5
1FC
100
AcDbSymbolTableRecord
100
AcDbLayerTableRecord
  2
DEFAULT_3
 70
0
 62
7
  6
PHANTOM
370
-3
390
F
  0
LAYER
  5
1FD
100
AcDbSymbolTableRecord
100
AcDbLayerTableRecord
  2
DEFAULT_COORDINATE_SYSTEM
 70
0
 62
7
  6
CONTINUOUS
370
-3
390
F
  0
LAYER
  5
1FE
100
AcDbSymbolTableRecord
100
AcDbLayerTableRecord
  2
DEFAULT_DATUM_AXES
 70
0
 62
7
  6
CONTINUOUS
370
-3
390
F
  0
LAYER
  5
1FF
100
AcDbSymbolTableRecord
100
AcDbLayerTableRecord
  2
DEFAULT_DATUM_PLANES
 70
0
 62
7
  6
CONTINUOUS
370
-3
390
F
  0
ENDTAB
  0
TABLE
  2
STYLE
  5
3
100
AcDbSymbolTable
 70
1
  0
STYLE
  5
11
100
AcDbSymbolTableRecord
100
AcDbTextStyleTableRecord
  2
STANDARD
 70
0
 40
0.0
 41
0.8
 50
0.0
 71
0
 42
0.2
  3
txt
  4

  0
STYLE
  5
200
100
AcDbSymbolTableRecord
100
AcDbTextStyleTableRecord
  2
TEXTSTYLE_1
 70
0
 40
0.0
 41
0.8
 50
0.0
 71
0
 42
0.2
  3
gdt
  4

  0
ENDTAB
  0
TABLE
  2
VIEW
  5
6
100
AcDbSymbolTable
 70
0
  0
ENDTAB
  0
TABLE
  2
UCS
  5
7
100
AcDbSymbolTable
 70
0
  0
ENDTAB
  0
TABLE
  2
APPID
  5
9
100
AcDbSymbolTable
 70
1
  0
APPID
  5
201
100
AcDbSymbolTableRecord
100
AcDbRegAppTableRecord
  2
ACAD
 70
0
  0
ENDTAB
  0
TABLE
  2
BLOCK_RECORD
  5
1
100
AcDbSymbolTable
 70
0
  0
BLOCK_RECORD
  5
202
100
AcDbSymbolTableRecord
100
AcDbBlockTableRecord
  2
*Model_Space
  0
BLOCK_RECORD
  5
203
100
AcDbSymbolTableRecord
100
AcDbBlockTableRecord
  2
*Paper_Space
  0
BLOCK_RECORD
  5
204
100
AcDbSymbolTableRecord
100
AcDbBlockTableRecord
  2
_FILLED
  0
ENDTAB
  0
TABLE
  2
DIMSTYLE
  5
A
100
AcDbSymbolTable
 70
1
100
AcDbDimStyleTable
 71
0
  0
DIMSTYLE
105
205
100
AcDbSymbolTableRecord
100
AcDbDimStyleTableRecord
  2
STANDARD
 70
0
  3

  4

 40
1.0
 41
0.1
 42
0.0625
 43
0.38
 44
0.125
 45
0.0
 46
0.0
 47
0.001
 48
0.001
140
0.08
141
0.09
142
0.0
143
25.4
144
1.0
145
0.0
146
1.0
147
0.09
 71
1.0
 72
0.0
 73
1
 74
1
 75
0
 76
0
 77
0
 78
4
 79
1
170
1
171
2
172
0
173
0
174
0
175
0
176
0
177
0
178
0
270
2
179
3
271
3
272
3
273
2
274
2
275
0
280
0
281
0
282
0
283
1
284
4
285
0
286
0
287
3
288
0
340
11
278
46
341
204
342
204
343
204
344
204
  0
ENDTAB
  0
ENDSEC
  0
SECTION
  2
BLOCKS
  0
BLOCK
  5
20
100
AcDbEntity
  8
0
100
AcDbBlockBegin
  2
*Model_Space
 70
0
 10
0.0
 20
0.0
 30
0.0
  3
*Model_Space
  1

  0
ENDBLK
  5
21
100
AcDbEntity
  8
0
100
AcDbBlockEnd
  0
BLOCK
  5
1C
100
AcDbEntity
  8
0
100
AcDbBlockBegin
  2
*Paper_Space
 70
0
 10
0.0
 20
0.0
 30
0.0
  3
*Paper_Space
  1

  0
ENDBLK
  5
1D
100
AcDbEntity
  8
0
100
AcDbBlockEnd
  0
BLOCK
  5
206
100
AcDbEntity
  8
0
100
AcDbBlockBegin
  2
_FILLED
 70
64
 10
0.0
 20
0.0
  3
_FILLED
  1

  0
SOLID
  5
207
100
AcDbEntity
  8
0
  6
BYBLOCK
 62
0
100
AcDbTrace
 10
0.0
 20
0.0
 11
-1.0
 21
0.2
 12
-1.0
 22
-0.2
 13
-1.0
 23
-0.2
  0
ENDBLK
  5
208
100
AcDbEntity
  8
0
  6
BYBLOCK
 62
0
100
AcDbBlockEnd
  0
ENDSEC
  0
SECTION
  2
ENTITIES
  0
MTEXT
  5
209
100
AcDbEntity
  8
0
100
AcDbMText
 62
2
  6
CONTINUOUS
  7
STANDARD
 71
3
 72
1
 10
5.3731754658
 20
0.382411016
 30
0.0
 11
1.0
 21
0.0
 31
0.0
 73
2
 44
0.9
  1
SCALE  1.000
 40
0.08
 41
0.768
  0
LINE
  5
20A
100
AcDbEntity
  8
0
100
AcDbLine
 62
7
  6
CONTINUOUS
 10
0.0
 20
0.0
 11
0.0
 21
8.5
  0
LINE
  5
20B
100
AcDbEntity
  8
0
100
AcDbLine
 62
7
  6
CONTINUOUS
 10
0.0
 20
0.0
 11
11.0
 21
0.0
  0
LINE
  5
20C
100
AcDbEntity
  8
0
100
AcDbLine
 62
7
  6
CONTINUOUS
 10
0.0
 20
8.5
 11
11.0
 21
8.5
  0
LINE
  5
20D
100
AcDbEntity
  8
0
100
AcDbLine
 62
7
  6
CONTINUOUS
 10
11.0
 20
0.0
 11
11.0
 21
8.5
  0
LINE
  5
20E
100
AcDbEntity
  8
0
100
AcDbLine
 62
7
  6
CONTINUOUS
 10
5.1389363354
 20
2.8125033427
 11
4.6389363354
 21
2.8125033427
  0
LWPOLYLINE
  5
20F
100
AcDbEntity
  8
0
100
AcDbPolyline
 62
7
  6
CONTINUOUS
 90
7
 70
0
 10
5.1706494046
 20
4.7399668958
 10
5.1712966688
 20
4.7403078454
 10
5.1719248228
 20
4.7406291756
 10
5.1725766278
 20
4.740952829
 10
5.1732669279
 20
4.7412849579
 10
5.1739813468
 20
4.7416174052
 10
5.1747195445
 20
4.7419490847
  0
LINE
  5
210
100
AcDbEntity
  8
0
100
AcDbLine
 62
7
  6
CONTINUOUS
 10
4.6389363354
 20
4.6870517857
 11
4.6389363354
 21
1.9156135641
  0
LWPOLYLINE
  5
211
100
AcDbEntity
  8
0
100
AcDbPolyline
 62
7
  6
CONTINUOUS
 90
65
 70
0
 10
5.1389363354
 20
1.9156135641
 10
5.1389363368
 20
4.6872178893
 10
5.1389523683
 20
4.6884500789
 10
5.1389934287
 20
4.689675432
 10
5.139059115
 20
4.6908934044
 10
5.1391490163
 20
4.6921035134
 10
5.1392627148
 20
4.6933052925
 10
5.1393997806
 20
4.6944982457
 10
5.1395597802
 20
4.6956819389
 10
5.1397422749
 20
4.6968559536
 10
5.1399468124
 20
4.6980198426
 10
5.1401729416
 20
4.6991732198
 10
5.1404202073
 20
4.7003157148
 10
5.1406881397
 20
4.7014469289
 10
5.1409762744
 20
4.7025665235
 10
5.1412841442
 20
4.7036741758
 10
5.1416112662
 20
4.7047695346
 10
5.141957167
 20
4.7058523084
 10
5.1423213714
 20
4.7069222205
 10
5.1427033879
 20
4.7079789668
 10
5.1431027377
 20
4.7090223013
 10
5.1435189418
 20
4.7100519924
 10
5.1439515036
 20
4.7110677816
 10
5.144399943
 20
4.712069467
 10
5.1448637807
 20
4.7130568607
 10
5.1453425186
 20
4.7140297482
 10
5.1458356786
 20
4.7149879701
 10
5.1463427845
 20
4.7159313802
 10
5.1468633402
 20
4.7168598065
 10
5.1473968726
 20
4.7177731301
 10
5.1479429117
 20
4.7186712448
 10
5.1485009661
 20
4.7195540185
 10
5.1490705706
 20
4.7204213709
 10
5.149651264
 20
4.7212732336
 10
5.1502425626
 20
4.7221095127
 10
5.1508440117
 20
4.7229301642
 10
5.1514551612
 20
4.7237351551
 10
5.1520755374
 20
4.7245244277
 10
5.1527046985
 20
4.725297972
 10
5.1533422076
 20
4.7260557881
 10
5.1539876034
 20
4.7267978521
 10
5.1546404533
 20
4.7275241798
 10
5.1553003407
 20
4.728234808
 10
5.1559668341
 20
4.7289297604
 10
5.1566395639
 20
4.7296091272
 10
5.1573180867
 20
4.7302729252
 10
5.1580018623
 20
4.7309210884
 10
5.1586905692
 20
4.7315537669
 10
5.1593837429
 20
4.7321709792
 10
5.160080618
 20
4.732772498
 10
5.1607808029
 20
4.7333584451
 10
5.1614839139
 20
4.7339289496
 10
5.1621891784
 20
4.73448384
 10
5.1628962067
 20
4.7350232704
 10
5.1636046339
 20
4.7355474136
 10
5.1643137108
 20
4.7360561703
 10
5.1650230485
 20
4.7365497204
 10
5.1657323102
 20
4.7370282795
 10
5.1664408169
 20
4.7374918401
 10
5.1671483579
 20
4.737940712
 10
5.1678544583
 20
4.7383750328
 10
5.1685580275
 20
4.7387945874
 10
5.1692630981
 20
4.7392021293
 10
5.1699650331
 20
4.7395953208
 10
5.1706494046
 20
4.7399668958
  0
LWPOLYLINE
  5
212
100
AcDbEntity
  8
0
100
AcDbPolyline
 62
7
  6
CONTINUOUS
 90
33
 70
0
 10
4.6029378102
 20
4.7420411311
 10
4.6043833404
 20
4.7413873728
 10
4.6060342856
 20
4.7405832339
 10
4.6076882339
 20
4.7397134652
 10
4.6093428394
 20
4.7387758446
 10
4.6109942297
 20
4.7377689909
 10
4.6126371231
 20
4.7366925987
 10
4.6142680753
 20
4.7355454105
 10
4.6158836335
 20
4.7343262066
 10
4.6174785198
 20
4.7330353049
 10
4.6190490869
 20
4.731671978
 10
4.6205915294
 20
4.7302356903
 10
4.6221004339
 20
4.7287276276
 10
4.6235719562
 20
4.7271477566
 10
4.6250021591
 20
4.7254962345
 10
4.6263856913
 20
4.7237751359
 10
4.6277186509
 20
4.7219851708
 10
4.6289970923
 20
4.720127244
 10
4.6302159028
 20
4.7182043233
 10
4.6313712631
 20
4.7162178951
 10
4.6324593686
 20
4.7141696217
 10
4.6334755326
 20
4.7120633062
 10
4.6344161853
 20
4.7099011619
 10
4.6352777871
 20
4.7076856304
 10
4.6360562017
 20
4.7054213795
 10
4.6367482487
 20
4.7031113466
 10
4.6373508293
 20
4.7007586718
 10
4.6378605385
 20
4.698368781
 10
4.6382747358
 20
4.6959452559
 10
4.6385909056
 20
4.6934918554
 10
4.6388065275
 20
4.6910146337
 10
4.6389196166
 20
4.6885184152
 10
4.6389375452
 20
4.6870517863
  0
ARC
  5
213
100
AcDbEntity
  8
0
100
AcDbCircle
 62
7
  6
CONTINUOUS
 10
4.8889363354
 20
5.3973530818
 40
0.99
100
AcDbArc
 50
284.6301212398
 51
255.3698787602
  0
ARC
  5
214
100
AcDbEntity
  8
0
100
AcDbCircle
 62
7
  6
CONTINUOUS
 10
4.8889363354
 20
5.3973530818
 40
0.96
100
AcDbArc
 50
285.0971292678
 51
254.9028707332
  0
ARC
  5
215
100
AcDbEntity
  8
0
100
AcDbCircle
 62
7
  6
CONTINUOUS
 10
4.8889363354
 20
5.3973530818
 40
0.715
100
AcDbArc
 50
281.5798750557
 51
258.4201249443
  0
CIRCLE
  5
216
100
AcDbEntity
  8
0
100
AcDbCircle
 62
7
  6
CONTINUOUS
 10
4.8889363354
 20
5.3973530818
 40
0.658087044
  0
ARC
  5
217
100
AcDbEntity
  8
0
100
AcDbCircle
 62
7
  6
CONTINUOUS
 10
4.981076326
 20
1.9156347353
 40
0.1578604303
100
AcDbArc
 50
354.40886777
 51
354.9546684756
  0
ARC
  5
218
100
AcDbEntity
  8
0
100
AcDbCircle
 62
7
  6
CONTINUOUS
 10
4.9812656333
 20
1.9156192328
 40
0.1576704932
100
AcDbArc
 50
354.9542302117
 51
357.5365121434
  0
ARC
  5
219
100
AcDbEntity
  8
0
100
AcDbCircle
 62
7
  6
CONTINUOUS
 10
4.9813853649
 20
1.9156138895
 40
0.1575506426
100
AcDbArc
 50
357.5365819806
 51
359.9998816712
  0
SPLINE
  5
21A
100
AcDbEntity
  8
0
100
AcDbSpline
 62
7
  6
CONTINUOUS
 70
0
 71
3
 72
27
 73
23
 74
0
 42
0.0000001
 43
0.0000001
 44
0.0000000001
 40
0.0
 40
0.0
 40
0.0
 40
0.0
 40
0.1351342308
 40
0.2022543479
 40
0.2688052162
 40
0.3346277478
 40
0.3995904502
 40
0.4635983901
 40
0.5265932347
 40
0.5885567736
 40
0.6495123767
 40
0.6796408519
 40
0.7095445804
 40
0.7392366058
 40
0.7687330345
 40
0.8271857847
 40
0.8562052464
 40
0.885107483
 40
0.9139147657
 40
0.9426511084
 40
0.9713389815
 40
1.0
 40
1.0
 40
1.0
 40
1.0
 10
4.8889363349
 20
1.7110625474
 30
0.0
 10
4.8728151222
 20
1.7110625474
 30
0.0
 10
4.8486274417
 20
1.7129651438
 30
0.0
 10
4.8171658844
 20
1.7192930918
 30
0.0
 10
4.7942639965
 20
1.7258718929
 30
0.0
 10
4.7722302843
 20
1.7342396665
 30
0.0
 10
4.751264641
 20
1.7443312106
 30
0.0
 10
4.7315634694
 20
1.756067697
 30
0.0
 10
4.7133126048
 20
1.7693573554
 30
0.0
 10
4.6966906518
 20
1.7840936054
 30
0.0
 10
4.6842855464
 20
1.7975383005
 30
0.0
 10
4.675358627
 20
1.8088874558
 30
0.0
 10
4.6691966947
 20
1.8176462851
 30
0.0
 10
4.6635598455
 20
1.8266636289
 30
0.0
 10
4.6567900937
 20
1.8389632846
 30
0.0
 10
4.6511030053
 20
1.8517461869
 30
0.0
 10
4.6465911749
 20
1.8648823612
 30
0.0
 10
4.6438117942
 20
1.8748553092
 30
0.0
 10
4.6416387832
 20
1.8849427856
 30
0.0
 10
4.6400819056
 20
1.8951179812
 30
0.0
 10
4.6391452872
 20
1.9053509573
 30
0.0
 10
4.6389363354
 20
1.9121943684
 30
0.0
 10
4.6389363354
 20
1.9156135641
 30
0.0
  0
SPLINE
  5
21B
100
AcDbEntity
  8
0
100
AcDbSpline
 62
7
  6
CONTINUOUS
 70
0
 71
3
 72
27
 73
23
 74
0
 42
0.0000001
 43
0.0000001
 44
0.0000000001
 40
0.0
 40
0.0
 40
0.0
 40
0.0
 40
0.0286609723
 40
0.0573486849
 40
0.0860848676
 40
0.114892083
 40
0.1437943176
 40
0.1728138016
 40
0.2312666504
 40
0.2607631476
 40
0.2904552645
 40
0.3203590985
 40
0.3504876836
 40
0.4114435122
 40
0.4734072678
 40
0.5364022975
 40
0.6004103756
 40
0.6653731453
 40
0.7311956539
 40
0.7977464772
 40
0.8648664183
 40
1.0
 40
1.0
 40
1.0
 40
1.0
 10
5.1389363354
 20
1.9156135641
 30
0.0
 10
5.1389363354
 20
1.912194374
 30
0.0
 10
5.1387273903
 20
1.9053509875
 30
0.0
 10
5.1377907853
 20
1.8951180537
 30
0.0
 10
5.1362339041
 20
1.8849429054
 30
0.0
 10
5.1340609059
 20
1.8748554548
 30
0.0
 10
5.1312815466
 20
1.8648825063
 30
0.0
 10
5.1267697107
 20
1.8517463189
 30
0.0
 10
5.1210826353
 20
1.838963386
 30
0.0
 10
5.114312866
 20
1.8266637043
 30
0.0
 10
5.1086760039
 20
1.8176463313
 30
0.0
 10
5.1025140548
 20
1.808887469
 30
0.0
 10
5.0935871019
 20
1.7975382729
 30
0.0
 10
5.0811819475
 20
1.7840935326
 30
0.0
 10
5.0645599265
 20
1.7693572462
 30
0.0
 10
5.0463090032
 20
1.7560675585
 30
0.0
 10
5.0266077745
 20
1.7443310756
 30
0.0
 10
5.0056420992
 20
1.734239549
 30
0.0
 10
4.9836083828
 20
1.7258717855
 30
0.0
 10
4.9607065111
 20
1.7192930327
 30
0.0
 10
4.929245052
 20
1.7129651265
 30
0.0
 10
4.9050574701
 20
1.7110625473
 30
0.0
 10
4.8889363349
 20
1.7110625474
 30
0.0
  0
SPLINE
  5
21C
100
AcDbEntity
  8
0
100
AcDbSpline
 62
7
  6
CONTINUOUS
 70
0
 71
3
 72
25
 73
21
 74
0
 42
0.0000001
 43
0.0000001
 44
0.0000000001
 40
0.0
 40
0.0
 40
0.0
 40
0.0
 40
0.0274790942
 40
0.0550502444
 40
0.0827462034
 40
0.1105986091
 40
0.1668665006
 40
0.2240853673
 40
0.2824211947
 40
0.3419939578
 40
0.402873687
 40
0.4650825646
 40
0.5285971206
 40
0.5933497401
 40
0.659236772
 40
0.726121383
 40
0.7938328373
 40
0.8621862498
 40
0.9309974133
 40
1.0
 40
1.0
 40
1.0
 40
1.0
 10
5.1381857339
 20
1.9002545727
 30
0.0
 10
5.1378842608
 20
1.8971749862
 30
0.0
 10
5.1370987304
 20
1.8910217441
 30
0.0
 10
5.1353815671
 20
1.8818586363
 30
0.0
 10
5.1331276511
 20
1.8727686927
 30
0.0
 10
5.1294001812
 20
1.8607359627
 30
0.0
 10
5.1234019027
 20
1.845954778
 30
0.0
 10
5.1141856654
 20
1.8289010186
 30
0.0
 10
5.1030103489
 20
1.8126095228
 30
0.0
 10
5.0899744258
 20
1.7972237064
 30
0.0
 10
5.0751939564
 20
1.7828748468
 30
0.0
 10
5.0587992335
 20
1.7696851866
 30
0.0
 10
5.0409322908
 20
1.7577690746
 30
0.0
 10
5.0217497544
 20
1.7472266148
 30
0.0
 10
5.0014174667
 20
1.7381485017
 30
0.0
 10
4.9801116247
 20
1.7306136221
 30
0.0
 10
4.9580178007
 20
1.7246838724
 30
0.0
 10
4.9353239713
 20
1.7204115985
 30
0.0
 10
4.9122311806
 20
1.7178352695
 30
0.0
 10
4.896706432
 20
1.717260136
 30
0.0
 10
4.8889363354
 20
1.717260136
 30
0.0
  0
SPLINE
  5
21D
100
AcDbEntity
  8
0
100
AcDbSpline
 62
7
  6
CONTINUOUS
 70
0
 71
3
 72
16
 73
12
 74
0
 42
0.0000001
 43
0.0000001
 44
0.0000000001
 40
0.0
 40
0.0
 40
0.0
 40
0.0
 40
0.1218530077
 40
0.2450913319
 40
0.307130616
 40
0.3693967043
 40
0.4945377245
 40
0.6203587078
 40
0.7466690698
 40
0.8732804895
 40
1.0
 40
1.0
 40
1.0
 40
1.0
 10
5.0324610284
 20
4.6969063226
 30
0.0
 10
5.0267251048
 20
4.6957310441
 30
0.0
 10
5.0151257224
 20
4.6936651942
 30
0.0
 10
5.0004975223
 20
4.691689448
 30
0.0
 10
4.9886736472
 20
4.6903909785
 30
0.0
 10
4.976740814
 20
4.6892590345
 30
0.0
 10
4.9617297973
 20
4.6881429475
 30
0.0
 10
4.9436254014
 20
4.6871959643
 30
0.0
 10
4.9254370945
 20
4.6865564113
 30
0.0
 10
4.9071980959
 20
4.6861960319
 30
0.0
 10
4.8950252648
 20
4.6861222917
 30
0.0
 10
4.8889363354
 20
4.6861222337
 30
0.0
  0
SPLINE
  5
21E
100
AcDbEntity
  8
0
100
AcDbSpline
 62
7
  6
CONTINUOUS
 70
0
 71
3
 72
16
 73
12
 74
0
 42
0.0000001
 43
0.0000001
 44
0.0000000001
 40
0.0
 40
0.0
 40
0.0
 40
0.0
 40
0.1267194902
 40
0.2533309337
 40
0.3796413838
 40
0.5054625355
 40
0.6306036283
 40
0.6928696348
 40
0.7549087495
 40
0.8781468433
 40
1.0
 40
1.0
 40
1.0
 40
1.0
 10
4.8889363354
 20
4.6861222337
 30
0.0
 10
4.8828474067
 20
4.6861222394
 30
0.0
 10
4.8706745739
 20
4.6861959064
 30
0.0
 10
4.8524355689
 20
4.6865562539
 30
0.0
 10
4.8342472492
 20
4.687195864
 30
0.0
 10
4.81614284
 20
4.6881429101
 30
0.0
 10
4.8011318156
 20
4.6892590066
 30
0.0
 10
4.7891989914
 20
4.6903909619
 30
0.0
 10
4.7773751406
 20
4.6916894461
 30
0.0
 10
4.7627469505
 20
4.6936651799
 30
0.0
 10
4.7511475711
 20
4.6957310315
 30
0.0
 10
4.7454116424
 20
4.6969063226
 30
0.0
  0
SPLINE
  5
21F
100
AcDbEntity
  8
0
100
AcDbSpline
 62
7
  6
CONTINUOUS
 70
0
 71
3
 72
41
 73
37
 74
0
 42
0.0000001
 43
0.0000001
 44
0.0000000001
 40
0.0
 40
0.0
 40
0.0
 40
0.0
 40
0.106285314
 40
0.2085753294
 40
0.3064405681
 40
0.399515925
 40
0.4874686654
 40
0.5699366302
 40
0.6465205806
 40
0.7168029094
 40
0.7803441023
 40
0.8094457875
 40
0.8366920938
 40
0.8620263538
 40
0.8853915089
 40
0.9067300786
 40
0.9259862124
 40
0.9431125388
 40
0.958063868
 40
0.9707948244
 40
0.9763134957
 40
0.9812615837
 40
0.9856364854
 40
0.9894356709
 40
0.9926566082
 40
0.9952967632
 40
0.996398255
 40
0.9973536
 40
0.9981624809
 40
0.9988245805
 40
0.9993395811
 40
0.9997071722
 40
0.9998356447
 40
0.9999272591
 40
0.999982037
 40
1.0
 40
1.0
 40
1.0
 40
1.0
 10
4.7634776877
 20
4.6381275736
 30
0.0
 10
4.7588714496
 20
4.6392978055
 30
0.0
 10
4.7498633629
 20
4.6417192639
 30
0.0
 10
4.7367285086
 20
4.6456275968
 30
0.0
 10
4.7242588535
 20
4.6496851912
 30
0.0
 10
4.7124952097
 20
4.6538282112
 30
0.0
 10
4.7014724571
 20
4.657992709
 30
0.0
 10
4.6912246459
 20
4.6621143619
 30
0.0
 10
4.6817866806
 20
4.6661263922
 30
0.0
 10
4.6731950024
 20
4.6699617042
 30
0.0
 10
4.6665914328
 20
4.673039352
 30
0.0
 10
4.6617579009
 20
4.675358016
 30
0.0
 10
4.6584754619
 20
4.6769599138
 30
0.0
 10
4.6554330557
 20
4.678468626
 30
0.0
 10
4.6526355203
 20
4.6798763966
 30
0.0
 10
4.6500876373
 20
4.6811755568
 30
0.0
 10
4.6477937184
 20
4.6823585895
 30
0.0
 10
4.6457581634
 20
4.6834194383
 30
0.0
 10
4.6439849626
 20
4.68435233
 30
0.0
 10
4.6426734317
 20
4.6850479513
 30
0.0
 10
4.6417579891
 20
4.6855357369
 30
0.0
 10
4.6411726128
 20
4.6858484069
 30
0.0
 10
4.6406553409
 20
4.6861253853
 30
0.0
 10
4.6402063927
 20
4.6863663576
 30
0.0
 10
4.6398259935
 20
4.6865710147
 30
0.0
 10
4.6395519546
 20
4.6867187805
 30
0.0
 10
4.639367167
 20
4.6868185835
 30
0.0
 10
4.6392544254
 20
4.686879537
 30
0.0
 10
4.6391590605
 20
4.6869311301
 30
0.0
 10
4.6390808157
 20
4.6869735186
 30
0.0
 10
4.6390204775
 20
4.6870061474
 30
0.0
 10
4.638979905
 20
4.687028235
 30
0.0
 10
4.6389578894
 20
4.6870399884
 30
0.0
 10
4.638945278
 20
4.6870470594
 30
0.0
 10
4.638941971
 20
4.6870483921
 30
0.0
 10
4.6389358641
 20
4.6870521456
 30
0.0
 10
4.6389364719
 20
4.6870516205
 30
0.0
  0
SPLINE
  5
220
100
AcDbEntity
  8
0
100
AcDbSpline
 62
7
  6
CONTINUOUS
 70
0
 71
3
 72
17
 73
13
 74
0
 42
0.0000001
 43
0.0000001
 44
0.0000000001
 40
0.0
 40
0.0
 40
0.0
 40
0.0
 40
0.1307321399
 40
0.2609698531
 40
0.3256960712
 40
0.3900586246
 40
0.5174220596
 40
0.5802986959
 40
0.6425545885
 40
0.7649545334
 40
0.8842294775
 40
1.0
 40
1.0
 40
1.0
 40
1.0
 10
4.8889363354
 20
4.6298913856
 30
0.0
 10
4.8834445283
 20
4.6298913941
 30
0.0
 10
4.8724816735
 20
4.6298991373
 30
0.0
 10
4.8587999065
 20
4.6299715024
 30
0.0
 10
4.8479067062
 20
4.6300916221
 30
0.0
 10
4.8371351088
 20
4.63026989
 30
0.0
 10
4.8264431298
 20
4.6305705025
 30
0.0
 10
4.8158473294
 20
4.6310628962
 30
0.0
 10
4.8054683108
 20
4.6317007622
 30
0.0
 10
4.792746517
 20
4.6328305019
 30
0.0
 10
4.7778685285
 20
4.6349124492
 30
0.0
 10
4.7681912802
 20
4.6369301954
 30
0.0
 10
4.7634776877
 20
4.6381275736
 30
0.0
  0
SPLINE
  5
221
100
AcDbEntity
  8
0
100
AcDbSpline
 62
7
  6
CONTINUOUS
 70
0
 71
3
 72
17
 73
13
 74
0
 42
0.0000001
 43
0.0000001
 44
0.0000000001
 40
0.0
 40
0.0
 40
0.0
 40
0.0
 40
0.1157704922
 40
0.2350453853
 40
0.357445604
 40
0.4197017115
 40
0.4825785267
 40
0.6099419702
 40
0.6743043971
 40
0.7390304524
 40
0.8692679298
 40
1.0
 40
1.0
 40
1.0
 40
1.0
 10
5.0143949831
 20
4.6381275736
 30
0.0
 10
5.0096813405
 20
4.6369304078
 30
0.0
 10
5.0000041067
 20
4.6349127087
 30
0.0
 10
4.9851261315
 20
4.6328306154
 30
0.0
 10
4.9724043046
 20
4.6317010813
 30
0.0
 10
4.9620252542
 20
4.6310633719
 30
0.0
 10
4.9514294374
 20
4.6305710928
 30
0.0
 10
4.9407374632
 20
4.6302704527
 30
0.0
 10
4.9299658841
 20
4.6300921172
 30
0.0
 10
4.9190727122
 20
4.6299719419
 30
0.0
 10
4.9053909728
 20
4.6298994468
 30
0.0
 10
4.8944281367
 20
4.6298915132
 30
0.0
 10
4.8889363354
 20
4.6298913856
 30
0.0
  0
SPLINE
  5
222
100
AcDbEntity
  8
0
100
AcDbSpline
 62
7
  6
CONTINUOUS
 70
0
 71
3
 72
49
 73
45
 74
0
 42
0.0000001
 43
0.0000001
 44
0.0000000001
 40
0.0
 40
0.0
 40
0.0
 40
0.0
 40
0.0000046254
 40
0.0000184548
 40
0.000041495
 40
0.0000737494
 40
0.0001659133
 40
0.0002949709
 40
0.000460946
 40
0.0006638471
 40
0.0009036401
 40
0.0011802829
 40
0.0018439512
 40
0.0026545173
 40
0.0036116464
 40
0.0047150041
 40
0.0059642558
 40
0.0073590674
 40
0.0105840339
 40
0.0143872329
 40
0.0187659966
 40
0.0237176598
 40
0.0292394909
 40
0.035327283
 40
0.0419754252
 40
0.0491782598
 40
0.0569301398
 40
0.0740584948
 40
0.0933155509
 40
0.1146542088
 40
0.1380189308
 40
0.1633525339
 40
0.1905982429
 40
0.2196996379
 40
0.2505997037
 40
0.2832412466
 40
0.3535226132
 40
0.4301034133
 40
0.5125665527
 40
0.6005135658
 40
0.6935825771
 40
0.7914408596
 40
0.8937232146
 40
1.0
 40
1.0
 40
1.0
 40
1.0
 10
5.1389361972
 20
4.6870535641
 30
0.0
 10
5.1389360877
 20
4.6870537396
 30
0.0
 10
5.1389351515
 20
4.6870527492
 30
0.0
 10
5.1389337006
 20
4.6870524834
 30
0.0
 10
5.1389308612
 20
4.6870506978
 30
0.0
 10
5.1389251119
 20
4.6870477956
 30
0.0
 10
5.1389150795
 20
4.687042276
 30
0.0
 10
5.1388998656
 20
4.6870341291
 30
0.0
 10
5.1388802715
 20
4.6870235089
 30
0.0
 10
5.1388563432
 20
4.6870105562
 30
0.0
 10
5.138828065
 20
4.686995222
 30
0.0
 10
5.1387816808
 20
4.6869700637
 30
0.0
 10
5.1387128655
 20
4.6869327261
 30
0.0
 10
5.1386172982
 20
4.6868808919
 30
0.0
 10
5.1385044312
 20
4.6868197148
 30
0.0
 10
5.1383742925
 20
4.6867492385
 30
0.0
 10
5.1382269097
 20
4.6866695059
 30
0.0
 10
5.1379960269
 20
4.6865447419
 30
0.0
 10
5.1376645318
 20
4.686365949
 30
0.0
 10
5.1372153364
 20
4.6861243057
 30
0.0
 10
5.1366978282
 20
4.6858466744
 30
0.0
 10
5.136112229
 20
4.6855334057
 30
0.0
 10
5.1354588323
 20
4.6851848637
 30
0.0
 10
5.134737988
 20
4.6848015869
 30
0.0
 10
5.1339501124
 20
4.6843842702
 30
0.0
 10
5.1330956919
 20
4.6839336165
 30
0.0
 10
5.1318255059
 20
4.683266731
 30
0.0
 10
5.1300752437
 20
4.6823547078
 30
0.0
 10
5.1277810238
 20
4.68117192
 30
0.0
 10
5.1252328636
 20
4.6798731993
 30
0.0
 10
5.1224350877
 20
4.6784659545
 30
0.0
 10
5.1193924859
 20
4.6769577492
 30
0.0
 10
5.1161099076
 20
4.6753562364
 30
0.0
 10
5.1125922904
 20
4.6736690049
 30
0.0
 10
5.1088443902
 20
4.6719042022
 30
0.0
 10
5.1034111515
 20
4.6693965542
 30
0.0
 10
5.0960814665
 20
4.6661241248
 30
0.0
 10
5.086643772
 20
4.6621123088
 30
0.0
 10
5.0763963269
 20
4.657991155
 30
0.0
 10
5.0653741042
 20
4.6538271496
 30
0.0
 10
5.0536111302
 20
4.6496845104
 30
0.0
 10
5.0411422665
 20
4.6456271996
 30
0.0
 10
5.0280083258
 20
4.6417190673
 30
0.0
 10
5.019000883
 20
4.6392977323
 30
0.0
 10
5.0143949831
 20
4.6381275736
 30
0.0
  0
SPLINE
  5
223
100
AcDbEntity
  8
0
100
AcDbSpline
 62
7
  6
CONTINUOUS
 70
0
 71
3
 72
23
 73
19
 74
0
 42
0.0000001
 43
0.0000001
 44
0.0000000001
 40
0.0
 40
0.0
 40
0.0
 40
0.0
 40
0.0411287275
 40
0.083353751
 40
0.1275590916
 40
0.1744944483
 40
0.2247261097
 40
0.2786123622
 40
0.3363171063
 40
0.3978711603
 40
0.4631703822
 40
0.5320262219
 40
0.6041473862
 40
0.6791817745
 40
0.756743403
 40
0.8364181613
 40
0.9177114232
 40
1.0
 40
1.0
 40
1.0
 40
1.0
 10
4.7454116424
 20
4.6969063226
 30
0.0
 10
4.7463030286
 20
4.6967236736
 30
0.0
 10
4.7480785781
 20
4.6961811851
 30
0.0
 10
4.7505958076
 20
4.6948749552
 30
0.0
 10
4.7529578277
 20
4.6930852766
 30
0.0
 10
4.7551442005
 20
4.69083427
 30
0.0
 10
4.7571402791
 20
4.6881435035
 30
0.0
 10
4.7589322796
 20
4.685036356
 30
0.0
 10
4.7605082367
 20
4.6815389082
 30
0.0
 10
4.761854347
 20
4.6776792822
 30
0.0
 10
4.7629621116
 20
4.673489683
 30
0.0
 10
4.7638207033
 20
4.6690043043
 30
0.0
 10
4.764424877
 20
4.6642608861
 30
0.0
 10
4.7647687147
 20
4.6592987349
 30
0.0
 10
4.7648494469
 20
4.6541584623
 30
0.0
 10
4.7646661885
 20
4.6488823998
 30
0.0
 10
4.7642201998
 20
4.6435173437
 30
0.0
 10
4.7637535469
 20
4.6399270535
 30
0.0
 10
4.7634776878
 20
4.6381275736
 30
0.0
  0
SPLINE
  5
224
100
AcDbEntity
  8
0
100
AcDbSpline
 62
7
  6
CONTINUOUS
 70
0
 71
3
 72
30
 73
26
 74
0
 42
0.0000001
 43
0.0000001
 44
0.0000000001
 40
0.0
 40
0.0
 40
0.0
 40
0.0
 40
0.0694155937
 40
0.1386117936
 40
0.2073020752
 40
0.2414010237
 40
0.2752970148
 40
0.3423628043
 40
0.4083324574
 40
0.4730635357
 40
0.5364537514
 40
0.5676354574
 40
0.5984652535
 40
0.6590561771
 40
0.6888503799
 40
0.7183178179
 40
0.7763157633
 40
0.8049097568
 40
0.8332593777
 40
0.8613933423
 40
0.8893427332
 40
0.9171415717
 40
0.9448256994
 40
0.9724323006
 40
1.0
 40
1.0
 40
1.0
 40
1.0
 10
4.8889363354
 20
1.717260136
 30
0.0
 10
4.8807633969
 20
1.717260136
 30
0.0
 10
4.8644360828
 20
1.7178961928
 30
0.0
 10
4.8401720685
 20
1.7207454309
 30
0.0
 10
4.8202865152
 20
1.724690405
 30
0.0
 10
4.8047151632
 20
1.7287705382
 30
0.0
 10
4.7895052268
 20
1.7334232984
 30
0.0
 10
4.7710763075
 20
1.7403253076
 30
0.0
 10
4.7500145767
 20
1.7503212729
 30
0.0
 10
4.7302833328
 20
1.7619084624
 30
0.0
 10
4.7150199876
 20
1.7728604954
 30
0.0
 10
4.7036712213
 20
1.7823134704
 30
0.0
 10
4.6930402612
 20
1.7920849243
 30
0.0
 10
4.6832626162
 20
1.8025217367
 30
0.0
 10
4.674452808
 20
1.8135525516
 30
0.0
 10
4.6664240872
 20
1.8247903247
 30
0.0
 10
4.6593964203
 20
1.8365490032
 30
0.0
 10
4.6534737199
 20
1.8487238492
 30
0.0
 10
4.6496191305
 20
1.8579760008
 30
0.0
 10
4.6463408648
 20
1.8673670854
 30
0.0
 10
4.6436479921
 20
1.8768753448
 30
0.0
 10
4.6415469865
 20
1.8864774625
 30
0.0
 10
4.6400418265
 20
1.8961501719
 30
0.0
 10
4.639137544
 20
1.9058697902
 30
0.0
 10
4.6389366633
 20
1.9123677644
 30
0.0
 10
4.6389366633
 20
1.9156135641
 30
0.0
  0
SPLINE
  5
225
100
AcDbEntity
  8
0
100
AcDbSpline
 62
7
  6
CONTINUOUS
 70
0
 71
3
 72
30
 73
26
 74
0
 42
0.0000001
 43
0.0000001
 44
0.0000000001
 40
0.0
 40
0.0
 40
0.0
 40
0.0
 40
0.0694155937
 40
0.1386117936
 40
0.2073020752
 40
0.2414010237
 40
0.2752970148
 40
0.3423628043
 40
0.4083324574
 40
0.4730635357
 40
0.5364537514
 40
0.5676354574
 40
0.5984652535
 40
0.6590561771
 40
0.6888503799
 40
0.7183178179
 40
0.7763157633
 40
0.8049097568
 40
0.8332593777
 40
0.8613933423
 40
0.8893427332
 40
0.9171415717
 40
0.9448256994
 40
0.9724323006
 40
1.0
 40
1.0
 40
1.0
 40
1.0
 10
4.8889363354
 20
1.8207362022
 30
0.0
 10
4.8807633969
 20
1.8207362022
 30
0.0
 10
4.8644360828
 20
1.821372259
 30
0.0
 10
4.8401720685
 20
1.8242214971
 30
0.0
 10
4.8202865152
 20
1.8281664713
 30
0.0
 10
4.8047151632
 20
1.8322466044
 30
0.0
 10
4.7895052268
 20
1.8368993646
 30
0.0
 10
4.7710763075
 20
1.8438013738
 30
0.0
 10
4.7500145767
 20
1.8537973391
 30
0.0
 10
4.7302833328
 20
1.8653845286
 30
0.0
 10
4.7150199876
 20
1.8763365616
 30
0.0
 10
4.7036712213
 20
1.8857895366
 30
0.0
 10
4.6930402612
 20
1.8955609905
 30
0.0
 10
4.6832626162
 20
1.9059978029
 30
0.0
 10
4.674452808
 20
1.9170286179
 30
0.0
 10
4.6664240872
 20
1.9282663909
 30
0.0
 10
4.6593964203
 20
1.9400250695
 30
0.0
 10
4.6534737199
 20
1.9521999154
 30
0.0
 10
4.6496191305
 20
1.961452067
 30
0.0
 10
4.6463408648
 20
1.9708431517
 30
0.0
 10
4.6436479921
 20
1.980351411
 30
0.0
 10
4.6415469865
 20
1.9899535287
 30
0.0
 10
4.6400418265
 20
1.9996262381
 30
0.0
 10
4.639137544
 20
2.0093458565
 30
0.0
 10
4.6389366633
 20
2.0158438307
 30
0.0
 10
4.6389366633
 20
2.0190896303
 30
0.0
  0
SPLINE
  5
226
100
AcDbEntity
  8
0
100
AcDbSpline
 62
7
  6
CONTINUOUS
 70
0
 71
3
 72
30
 73
26
 74
0
 42
0.0000001
 43
0.0000001
 44
0.0000000001
 40
0.0
 40
0.0
 40
0.0
 40
0.0
 40
0.0275676994
 40
0.0551743006
 40
0.0828584283
 40
0.1106572668
 40
0.1386066577
 40
0.1667406223
 40
0.1950902432
 40
0.2236842367
 40
0.2816821821
 40
0.3111496201
 40
0.3409438229
 40
0.4015347465
 40
0.4323645426
 40
0.4635462486
 40
0.5269364643
 40
0.5916675426
 40
0.6576371957
 40
0.7247029852
 40
0.7585989763
 40
0.7926979248
 40
0.8613882064
 40
0.9305844063
 40
1.0
 40
1.0
 40
1.0
 40
1.0
 10
5.1389360075
 20
2.0190896303
 30
0.0
 10
5.1389360075
 20
2.0158438307
 30
0.0
 10
5.1387351268
 20
2.0093458565
 30
0.0
 10
5.1378308443
 20
1.9996262381
 30
0.0
 10
5.1363256843
 20
1.9899535287
 30
0.0
 10
5.1342246787
 20
1.980351411
 30
0.0
 10
5.131531806
 20
1.9708431517
 30
0.0
 10
5.1282535403
 20
1.961452067
 30
0.0
 10
5.1243989509
 20
1.9521999154
 30
0.0
 10
5.1184762505
 20
1.9400250695
 30
0.0
 10
5.1114485836
 20
1.9282663909
 30
0.0
 10
5.1034198628
 20
1.9170286179
 30
0.0
 10
5.0946100546
 20
1.9059978029
 30
0.0
 10
5.0848324096
 20
1.8955609905
 30
0.0
 10
5.0742014495
 20
1.8857895366
 30
0.0
 10
5.0628526832
 20
1.8763365616
 30
0.0
 10
5.047589338
 20
1.8653845286
 30
0.0
 10
5.0278580942
 20
1.8537973391
 30
0.0
 10
5.0067963633
 20
1.8438013738
 30
0.0
 10
4.988367444
 20
1.8368993646
 30
0.0
 10
4.9731575076
 20
1.8322466044
 30
0.0
 10
4.9575861556
 20
1.8281664713
 30
0.0
 10
4.9377006023
 20
1.8242214971
 30
0.0
 10
4.913436588
 20
1.821372259
 30
0.0
 10
4.8971092739
 20
1.8207362022
 30
0.0
 10
4.8889363354
 20
1.8207362022
 30
0.0
  0
SPLINE
  5
227
100
AcDbEntity
  8
0
100
AcDbSpline
 62
7
  6
CONTINUOUS
 70
0
 71
3
 72
23
 73
19
 74
0
 42
0.0000001
 43
0.0000001
 44
0.0000000001
 40
0.0
 40
0.0
 40
0.0
 40
0.0
 40
0.0411300707
 40
0.0833561101
 40
0.127562146
 40
0.1744979105
 40
0.2247297384
 40
0.2786159638
 40
0.3363205305
 40
0.3978742966
 40
0.4631731564
 40
0.5320285901
 40
0.6041493272
 40
0.6791832851
 40
0.7567444957
 40
0.8364188606
 40
0.9177117582
 40
1.0
 40
1.0
 40
1.0
 40
1.0
 10
5.0324610284
 20
4.6969063226
 30
0.0
 10
5.03156961
 20
4.696723667
 30
0.0
 10
5.0297940028
 20
4.6961811689
 30
0.0
 10
5.0272766936
 20
4.6948749249
 30
0.0
 10
5.0249146107
 20
4.6930852345
 30
0.0
 10
5.0227281915
 20
4.6908342184
 30
0.0
 10
5.0207320821
 20
4.6881434448
 30
0.0
 10
5.0189400656
 20
4.685036293
 30
0.0
 10
5.017364106
 20
4.6815388437
 30
0.0
 10
5.0160180055
 20
4.6776792186
 30
0.0
 10
5.0149102614
 20
4.6734896226
 30
0.0
 10
5.014051699
 20
4.6690042493
 30
0.0
 10
5.0134475618
 20
4.6642608381
 30
0.0
 10
5.0131037666
 20
4.6592986952
 30
0.0
 10
5.0130230809
 20
4.6541584318
 30
0.0
 10
5.0132063867
 20
4.648882379
 30
0.0
 10
5.0136524225
 20
4.6435173326
 30
0.0
 10
5.0141191074
 20
4.6399270498
 30
0.0
 10
5.0143949829
 20
4.6381275735
 30
0.0
  0
ENDSEC
  0
SECTION
  2
OBJECTS
  0
DICTIONARY
  5
C
100
AcDbDictionary
280
0
281
1
  3
ACAD_GROUP
350
D
  3
ACAD_MLINESTYLE
350
17
  3
ACAD_LAYOUT
350
1A
  3
ACAD_PLOTSETTINGS
350
19
  3
ACAD_PLOTSTYLENAME
350
E
  0
DICTIONARY
  5
D
102
{ACAD_REACTORS
330
C
102
}
100
AcDbDictionary
280
0
281
1
  0
ACDBDICTIONARYWDFLT
  5
E
102
{ACAD_REACTORS
330
C
102
}
100
AcDbDictionary
281
1
  3
Normal
350
F
100
AcDbDictionaryWithDefault
340
F
  0
DICTIONARY
  5
17
102
{ACAD_REACTORS
330
C
102
}
100
AcDbDictionary
280
0
281
1
  3
Standard
350
18
  0
DICTIONARY
  5
19
102
{ACAD_REACTORS
330
C
102
}
100
AcDbDictionary
281
1
  0
DICTIONARY
  5
1A
102
{ACAD_REACTORS
330
C
102
}
100
AcDbDictionary
281
1
  3
Model
350
228
  3
Layout1
350
229
  0
ACDBPLACEHOLDER
  5
F
102
{ACAD_REACTORS
330
E
102
}
  0
MLINESTYLE
  5
18
102
{ACAD_REACTORS
330
17
102
}
100
AcDbMlineStyle
  2
STANDARD
 70
0
  3

 62
256
 51
90.0
 52
90.0
 71
2
 49
0.5
 62
256
  6
BYLAYER
 49
-0.5
 62
256
  6
BYLAYER
  0
LAYOUT
  5
228
102
{ACAD_REACTORS
330
1A
102
}
100
AcDbPlotSettings
  1

  2
none_device
  4
ANSI_A_(11.00_x_8.50_Inches)
  6

 40
0.0
 41
0.0
 42
0.0
 43
0.0
 44
279.4
 45
215.9
 46
0.0
 47
0.0
 48
0.0
 49
0.0
140
0.0
141
0.0
142
1.0
143
1.0
 70
1024
 72
0
 73
0
 74
0
  7

 75
0
147
1.0
148
0.0
149
0.0
100
AcDbLayout
  1
Model
 70
0
 71
0
 10
0.0
 20
0.0
 11
11.0
 21
8.5
 12
0.0
 22
0.0
 32
0.0
 14
0.0
 24
0.0
 34
0.0
 15
0.0
 25
0.0
 35
0.0
146
0.0
 13
0.0
 23
0.0
 33
0.0
 16
1.0
 26
0.0
 36
0.0
 17
0.0
 27
1.0
 37
0.0
 76
0
330
202
345
0
346
0
  0
LAYOUT
  5
229
102
{ACAD_REACTORS
330
1A
102
}
100
AcDbPlotSettings
  1

  2
none_device
  4
ANSI_A_(11.00_x_8.50_Inches)
  6

 40
0.0
 41
0.0
 42
0.0
 43
0.0
 44
279.4
 45
215.9
 46
0.0
 47
0.0
 48
0.0
 49
0.0
140
0.0
141
0.0
142
1.0
143
1.0
 70
0
 72
0
 73
0
 74
0
  7

 75
0
147
1.0
148
0.0
149
0.0
100
AcDbLayout
  1
Layout1
 70
0
 71
1
 10
0.0
 20
0.0
 11
11.0
 21
8.5
 12
0.0
 22
0.0
 32
0.0
 14
0.0
 24
0.0
 34
0.0
 15
0.0
 25
0.0
 35
0.0
146
0.0
 13
0.0
 23
0.0
 33
0.0
 16
1.0
 26
0.0
 36
0.0
 17
0.0
 27
1.0
 37
0.0
 76
0
330
203
345
0
346
0
  0
ENDSEC
  0
EOF
