999
DXF file: 1500-7173_RIGHT.dxf
999
Pro/ENGINEER 2025093 by Parametric Technology Corporation
  0
SECTION
  2
HEADER
  9
$ACADVER
  1
AC1032
  9
$DWGCODEPAGE
  3
ANSI_1252
  9
$EXTMAX
 10
22.0
 20
17.0
 30
0.0
  9
$EXTMIN
 10
0.0
 20
0.0
 30
0.0
  9
$LIMMIN
 10
0.0
 20
0.0
  9
$LIMMAX
 10
22.0
 20
17.0
  9
$VIEWCTR
 10
11.0
 20
8.5
  9
$VIEWSIZE
 40
17.0
  9
$CLAYER
  8
0
  9
$LTSCALE
 40
1.21
  9
$CELTYPE
  6
BYLAYER
  9
$DIMSCALE
 40
1.0
  9
$DIMASZ
 40
0.1875
  9
$DIMEXO
 40
0.0625
  9
$DIMDLI
 40
0.836
  9
$DIMEXE
 40
0.125
  9
$DIMCEN
 40
0.198
  9
$DIMLFAC
 40
1.0
  9
$DIMBLK
  1
_FILLED
  9
$DIMALT
 70
0
  9
$DIMALTF
 40
25.4
  9
$DIMTXT
 40
0.15625
  9
$DIMTOL
 70
0
  9
$DIMLIM
 70
0
  9
$DIMTFAC
 40
1.0
  9
$DIMGAP
 40
0.09
  9
$DIMDSEP
 70
46
  9
$AUNITS
 70
0
  9
$PDMODE
 70
3
  9
$PDSIZE
 40
0.3125
  9
$HANDSEED
  5
31C
  9
$TILEMODE
 70
1
  9
$MEASUREMENT
 70
0
  9
$INSUNITS
 70
1
  0
ENDSEC
  0
SECTION
  2
CLASSES
  0
CLASS
  1
ACDBDICTIONARYWDFLT
  2
AcDbDictionaryWithDefault
  3
AutoCAD 2000
 90
0
 91
1
280
0
281
0
  0
CLASS
  1
ACDBPLACEHOLDER
  2
AcDbPlaceHolder
  3
AutoCAD 2000
 90
0
 91
1
280
0
281
0
  0
CLASS
  1
LAYOUT
  2
AcDbLayout
  3
AutoCAD 2000
 90
0
 91
0
280
0
281
0
  0
ENDSEC
  0
SECTION
  2
TABLES
  0
TABLE
  2
VPORT
  5
8
100
AcDbSymbolTable
 70
2
  0
VPORT
  5
1F4
100
AcDbSymbolTableRecord
100
AcDbViewportTableRecord
  2
*ACTIVE
 70
0
 10
0.0
 20
0.0
 11
1.0
 21
1.0
 12
11.0
 22
8.5
 13
0.0
 23
0.0
 14
1.0
 24
1.0
 15
0.0
 25
0.0
 16
0.0
 26
0.0
 36
1.0
 17
0.0
 27
0.0
 37
0.0
 40
17.0
 41
1.2941176471
 42
50.0
 43
0.0
 44
0.0
 50
0.0
 51
0.0
 71
0
 72
100
 73
1
 74
1
 75
0
 76
0
 77
0
 78
0
  0
ENDTAB
  0
TABLE
  2
LTYPE
  5
5
100
AcDbSymbolTable
 70
6
  0
LTYPE
  5
14
100
AcDbSymbolTableRecord
100
AcDbLinetypeTableRecord
  2
BYBLOCK
 70
0
  3

 72
65
 73
0
 40
0.0
  0
LTYPE
  5
15
100
AcDbSymbolTableRecord
100
AcDbLinetypeTableRecord
  2
BYLAYER
 70
0
  3

 72
65
 73
0
 40
0.0
  0
LTYPE
  5
16
100
AcDbSymbolTableRecord
100
AcDbLinetypeTableRecord
  2
CONTINUOUS
 70
64
  3
Solid line
 72
65
 73
0
 40
0.0
  0
LTYPE
  5
1F5
100
AcDbSymbolTableRecord
100
AcDbLinetypeTableRecord
  2
CENTER
 70
64
  3
____ _ ____ _ ____ _ ____ _ ____ _ ____ _ ____
 72
65
 73
4
 40
0.6
 49
0.375
 74
0
 49
-0.075
 74
0
 49
0.075
 74
0
 49
-0.075
 74
0
  0
LTYPE
  5
1F6
100
AcDbSymbolTableRecord
100
AcDbLinetypeTableRecord
  2
HIDDEN
 70
64
  3
- - - - - - - - - - - - - - - - - - - -
 72
65
 73
2
 40
0.2
 49
0.1
 74
0
 49
-0.1
 74
0
  0
LTYPE
  5
1F7
100
AcDbSymbolTableRecord
100
AcDbLinetypeTableRecord
  2
PHANTOM
 70
64
  3
_____ _ _ _____ _ _ _____ _ _ _____
 72
65
 73
6
 40
0.8
 49
0.45
 74
0
 49
-0.05
 74
0
 49
0.1
 74
0
 49
-0.05
 74
0
 49
0.1
 74
0
 49
-0.05
 74
0
  0
LTYPE
  5
1F8
100
AcDbSymbolTableRecord
100
AcDbLinetypeTableRecord
  2
DOT
 70
64
  3
. . . . . . . . . . . . . . . . . . . .
 72
65
 73
2
 40
0.2
 49
0.1
 74
0
 49
-0.1
 74
0
  0
LTYPE
  5
1F9
100
AcDbSymbolTableRecord
100
AcDbLinetypeTableRecord
  2
DASHED
 70
64
  3
- - - - - - - - - - - - - - - - - - - -
 72
65
 73
2
 40
0.2
 49
0.1
 74
0
 49
-0.1
 74
0
  0
ENDTAB
  0
TABLE
  2
LAYER
  5
2
100
AcDbSymbolTable
 70
36
  0
LAYER
  5
10
100
AcDbSymbolTableRecord
100
AcDbLayerTableRecord
  2
0
 70
0
 62
7
  6
CONTINUOUS
370
-3
390
F
  0
LAYER
  5
1FA
100
AcDbSymbolTableRecord
100
AcDbLayerTableRecord
  2
DEFAULT_1
 70
0
 62
7
  6
CENTER
370
-3
390
F
  0
LAYER
  5
1FB
100
AcDbSymbolTableRecord
100
AcDbLayerTableRecord
  2
DEFAULT_2
 70
0
 62
8
  6
HIDDEN
370
-3
390
F
  0
LAYER
  5
1FC
100
AcDbSymbolTableRecord
100
AcDbLayerTableRecord
  2
DEFAULT_3
 70
0
 62
7
  6
PHANTOM
370
-3
390
F
  0
LAYER
  5
1FD
100
AcDbSymbolTableRecord
100
AcDbLayerTableRecord
  2
DEFAULT_COORDINATE_SYSTEM
 70
0
 62
7
  6
CONTINUOUS
370
-3
390
F
  0
LAYER
  5
1FE
100
AcDbSymbolTableRecord
100
AcDbLayerTableRecord
  2
DEFAULT_DATUM_AXES
 70
0
 62
7
  6
CONTINUOUS
370
-3
390
F
  0
LAYER
  5
1FF
100
AcDbSymbolTableRecord
100
AcDbLayerTableRecord
  2
DEFAULT_DATUM_CURVES
 70
0
 62
7
  6
CONTINUOUS
370
-3
390
F
  0
LAYER
  5
200
100
AcDbSymbolTableRecord
100
AcDbLayerTableRecord
  2
DEFAULT_DATUM_PLANES
 70
0
 62
7
  6
CONTINUOUS
370
-3
390
F
  0
ENDTAB
  0
TABLE
  2
STYLE
  5
3
100
AcDbSymbolTable
 70
1
  0
STYLE
  5
11
100
AcDbSymbolTableRecord
100
AcDbTextStyleTableRecord
  2
STANDARD
 70
0
 40
0.0
 41
0.8
 50
0.0
 71
0
 42
0.2
  3
txt
  4

  0
STYLE
  5
201
100
AcDbSymbolTableRecord
100
AcDbTextStyleTableRecord
  2
TEXTSTYLE_1
 70
0
 40
0.0
 41
0.8
 50
0.0
 71
0
 42
0.2
  3
gdt
  4

  0
ENDTAB
  0
TABLE
  2
VIEW
  5
6
100
AcDbSymbolTable
 70
0
  0
ENDTAB
  0
TABLE
  2
UCS
  5
7
100
AcDbSymbolTable
 70
0
  0
ENDTAB
  0
TABLE
  2
APPID
  5
9
100
AcDbSymbolTable
 70
1
  0
APPID
  5
202
100
AcDbSymbolTableRecord
100
AcDbRegAppTableRecord
  2
ACAD
 70
0
  0
ENDTAB
  0
TABLE
  2
BLOCK_RECORD
  5
1
100
AcDbSymbolTable
 70
0
  0
BLOCK_RECORD
  5
203
100
AcDbSymbolTableRecord
100
AcDbBlockTableRecord
  2
*Model_Space
  0
BLOCK_RECORD
  5
204
100
AcDbSymbolTableRecord
100
AcDbBlockTableRecord
  2
*Paper_Space
  0
BLOCK_RECORD
  5
205
100
AcDbSymbolTableRecord
100
AcDbBlockTableRecord
  2
_FILLED
  0
ENDTAB
  0
TABLE
  2
DIMSTYLE
  5
A
100
AcDbSymbolTable
 70
1
100
AcDbDimStyleTable
 71
0
  0
DIMSTYLE
105
206
100
AcDbSymbolTableRecord
100
AcDbDimStyleTableRecord
  2
STANDARD
 70
0
  3

  4

 40
1.0
 41
0.1875
 42
0.0625
 43
0.38
 44
0.125
 45
0.0
 46
0.0
 47
0.001
 48
0.001
140
0.15625
141
0.0
142
0.0
143
25.4
144
1.0
145
0.0
146
1.0
147
0.09
 71
0
 72
0
 73
1
 74
1
 75
0
 76
0
 77
0
 78
4
 79
1
170
0
171
2
172
0
173
0
174
0
175
0
176
0
177
0
178
0
270
2
179
1
271
3
272
3
273
2
274
2
275
0
280
0
281
0
282
0
283
1
284
4
285
0
286
0
287
3
288
0
340
11
278
46
341
205
342
205
343
205
344
205
  0
ENDTAB
  0
ENDSEC
  0
SECTION
  2
BLOCKS
  0
BLOCK
  5
20
100
AcDbEntity
  8
0
100
AcDbBlockBegin
  2
*Model_Space
 70
0
 10
0.0
 20
0.0
 30
0.0
  3
*Model_Space
  1

  0
ENDBLK
  5
21
100
AcDbEntity
  8
0
100
AcDbBlockEnd
  0
BLOCK
  5
1C
100
AcDbEntity
  8
0
100
AcDbBlockBegin
  2
*Paper_Space
 70
0
 10
0.0
 20
0.0
 30
0.0
  3
*Paper_Space
  1

  0
ENDBLK
  5
1D
100
AcDbEntity
  8
0
100
AcDbBlockEnd
  0
BLOCK
  5
207
100
AcDbEntity
  8
0
100
AcDbBlockBegin
  2
_FILLED
 70
64
 10
0.0
 20
0.0
 30
0.0
  3
_FILLED
  1

  0
SOLID
  5
208
100
AcDbEntity
  8
0
  6
BYBLOCK
 62
0
100
AcDbTrace
 10
0.0
 20
0.0
 30
0.0
 11
-1.0
 21
0.1666666667
 31
0.0
 12
-1.0
 22
-0.1666666667
 32
0.0
 13
-1.0
 23
-0.1666666667
 33
0.0
  0
ENDBLK
  5
209
100
AcDbEntity
  8
0
  6
BYBLOCK
 62
0
100
AcDbBlockEnd
  0
ENDSEC
  0
SECTION
  2
ENTITIES
  0
LINE
  5
20A
100
AcDbEntity
  8
0
100
AcDbLine
 62
7
  6
CONTINUOUS
 10
0.0
 20
0.0
 30
0.0
 11
0.0
 21
17.0
 31
0.0
  0
LINE
  5
20B
100
AcDbEntity
  8
0
100
AcDbLine
 62
7
  6
CONTINUOUS
 10
0.0
 20
0.0
 30
0.0
 11
22.0
 21
0.0
 31
0.0
  0
LINE
  5
20C
100
AcDbEntity
  8
0
100
AcDbLine
 62
7
  6
CONTINUOUS
 10
0.0
 20
17.0
 30
0.0
 11
22.0
 21
17.0
 31
0.0
  0
LINE
  5
20D
100
AcDbEntity
  8
0
100
AcDbLine
 62
7
  6
CONTINUOUS
 10
22.0
 20
0.0
 30
0.0
 11
22.0
 21
17.0
 31
0.0
  0
LINE
  5
20E
100
AcDbEntity
  8
0
100
AcDbLine
 62
7
  6
CONTINUOUS
 10
13.7067552479
 20
3.4820464827
 30
0.0
 11
14.7957552479
 21
3.4820464827
 31
0.0
  0
LINE
  5
20F
100
AcDbEntity
  8
0
100
AcDbLine
 62
7
  6
CONTINUOUS
 10
14.7957552479
 20
3.6992964827
 30
0.0
 11
13.7067552479
 21
3.6992964827
 31
0.0
  0
LINE
  5
210
100
AcDbEntity
  8
0
100
AcDbLine
 62
7
  6
CONTINUOUS
 10
14.7792552479
 20
3.7157964827
 30
0.0
 11
13.7232552479
 21
3.7157964827
 31
0.0
  0
LINE
  5
211
100
AcDbEntity
  8
0
100
AcDbLine
 62
7
  6
CONTINUOUS
 10
7.5954660315
 20
10.2336882247
 30
0.0
 11
7.5953905319
 21
10.231526199
 31
0.0
  0
LINE
  5
212
100
AcDbEntity
  8
0
100
AcDbLine
 62
7
  6
CONTINUOUS
 10
7.5907812398
 20
10.0995333416
 30
0.0
 11
7.5907057402
 21
10.0973713159
 31
0.0
  0
LINE
  5
213
100
AcDbEntity
  8
0
100
AcDbLine
 62
7
  6
CONTINUOUS
 10
7.8018251279
 20
10.5247637114
 30
0.0
 11
7.8254346374
 21
11.2008516059
 31
0.0
  0
LINE
  5
214
100
AcDbEntity
  8
0
100
AcDbLine
 62
7
  6
CONTINUOUS
 10
7.871897809
 20
12.5156232162
 30
0.0
 11
7.8626462237
 21
12.250692475
 31
0.0
  0
LINE
  5
215
100
AcDbEntity
  8
0
100
AcDbLine
 62
7
  6
CONTINUOUS
 10
7.8012231095
 20
10.4917646194
 30
0.0
 11
7.7931229363
 21
10.2598060084
 31
0.0
  0
LINE
  5
216
100
AcDbEntity
  8
0
100
AcDbLine
 62
7
  6
CONTINUOUS
 10
7.8269440386
 20
11.2283156589
 30
0.0
 11
7.8617824611
 21
12.225957552
 31
0.0
  0
LINE
  5
217
100
AcDbEntity
  8
0
100
AcDbLine
 62
7
  6
CONTINUOUS
 10
7.8694743894
 20
10.0711264427
 30
0.0
 11
7.869407888
 21
10.0692220916
 31
0.0
  0
LINE
  5
218
100
AcDbEntity
  8
0
100
AcDbLine
 62
7
  6
CONTINUOUS
 10
7.8724818462
 20
10.0691147467
 30
0.0
 11
7.8715750089
 21
10.0431463236
 31
0.0
  0
LINE
  5
219
100
AcDbEntity
  8
0
100
AcDbLine
 62
7
  6
CONTINUOUS
 10
7.8965159456
 20
10.0682754574
 30
0.0
 11
7.8956091083
 21
10.0423070343
 31
0.0
  0
LINE
  5
21A
100
AcDbEntity
  8
0
100
AcDbLine
 62
7
  6
CONTINUOUS
 10
7.9416852773
 20
10.0666981096
 30
0.0
 11
7.94077844
 21
10.0407296865
 31
0.0
  0
LINE
  5
21B
100
AcDbEntity
  8
0
100
AcDbLine
 62
7
  6
CONTINUOUS
 10
7.997950194
 20
10.0647332954
 30
0.0
 11
7.9970433566
 21
10.0387648723
 31
0.0
  0
LINE
  5
21C
100
AcDbEntity
  8
0
100
AcDbLine
 62
7
  6
CONTINUOUS
 10
8.0025417533
 20
10.0645729546
 30
0.0
 11
8.001634916
 21
10.0386045316
 31
0.0
  0
LINE
  5
21D
100
AcDbEntity
  8
0
100
AcDbLine
 62
7
  6
CONTINUOUS
 10
8.0588066699
 20
10.0626081404
 30
0.0
 11
8.0578998326
 21
10.0366397174
 31
0.0
  0
LINE
  5
21E
100
AcDbEntity
  8
0
100
AcDbLine
 62
7
  6
CONTINUOUS
 10
8.0717451844
 20
10.0621563176
 30
0.0
 11
8.0708383471
 21
10.0361878945
 31
0.0
  0
LINE
  5
21F
100
AcDbEntity
  8
0
100
AcDbLine
 62
7
  6
CONTINUOUS
 10
8.128010101
 20
10.0601915034
 30
0.0
 11
8.1271032637
 21
10.0342230803
 31
0.0
  0
LINE
  5
220
100
AcDbEntity
  8
0
100
AcDbLine
 62
7
  6
CONTINUOUS
 10
8.1409486155
 20
10.0597396805
 30
0.0
 11
8.1400417782
 21
10.0337712574
 31
0.0
  0
LINE
  5
221
100
AcDbEntity
  8
0
100
AcDbLine
 62
7
  6
CONTINUOUS
 10
8.1972135322
 20
10.0577748663
 30
0.0
 11
8.1963066948
 21
10.0318064432
 31
0.0
  0
LINE
  5
222
100
AcDbEntity
  8
0
100
AcDbLine
 62
7
  6
CONTINUOUS
 10
8.2018050915
 20
10.0576145255
 30
0.0
 11
8.2008982542
 21
10.0316461025
 31
0.0
  0
LINE
  5
223
100
AcDbEntity
  8
0
100
AcDbLine
 62
7
  6
CONTINUOUS
 10
8.4984950278
 20
12.4937419592
 30
0.0
 11
8.4985197122
 21
12.4938514827
 31
0.0
  0
LINE
  5
224
100
AcDbEntity
  8
0
100
AcDbLine
 62
7
  6
CONTINUOUS
 10
8.4758934507
 20
10.522298215
 30
0.0
 11
8.4714771992
 21
10.5122236568
 31
0.0
  0
LINE
  5
225
100
AcDbEntity
  8
0
100
AcDbLine
 62
7
  6
CONTINUOUS
 10
8.5222744977
 20
10.5019667656
 30
0.0
 11
8.5178582461
 21
10.4918922074
 31
0.0
  0
LINE
  5
226
100
AcDbEntity
  8
0
100
AcDbLine
 62
7
  6
CONTINUOUS
 10
8.5276244759
 20
10.7268691587
 30
0.0
 11
8.4768870542
 21
10.6449266173
 31
0.0
  0
LINE
  5
227
100
AcDbEntity
  8
0
100
AcDbLine
 62
7
  6
CONTINUOUS
 10
8.5369768262
 20
10.7210783432
 30
0.0
 11
8.4862394045
 21
10.6391358018
 31
0.0
  0
LINE
  5
228
100
AcDbEntity
  8
0
100
AcDbLine
 62
7
  6
CONTINUOUS
 10
7.9359700804
 20
10.019230856
 30
0.0
 11
7.9460494708
 21
10.0326105355
 31
0.0
  0
LINE
  5
229
100
AcDbEntity
  8
0
100
AcDbLine
 62
7
  6
CONTINUOUS
 10
7.9811394121
 20
10.0176535082
 30
0.0
 11
7.9970433566
 21
10.0387648723
 31
0.0
  0
LINE
  5
22A
100
AcDbEntity
  8
0
100
AcDbLine
 62
7
  6
CONTINUOUS
 10
8.0419958881
 20
10.0155283533
 30
0.0
 11
8.0578998326
 21
10.0366397174
 31
0.0
  0
LINE
  5
22B
100
AcDbEntity
  8
0
100
AcDbLine
 62
7
  6
CONTINUOUS
 10
8.1111993192
 20
10.0131117162
 30
0.0
 11
8.1271032637
 21
10.0342230803
 31
0.0
  0
LINE
  5
22C
100
AcDbEntity
  8
0
100
AcDbLine
 62
7
  6
CONTINUOUS
 10
8.1804027503
 20
10.0106950791
 30
0.0
 11
8.1963066948
 21
10.0318064432
 31
0.0
  0
LINE
  5
22D
100
AcDbEntity
  8
0
100
AcDbLine
 62
7
  6
CONTINUOUS
 10
14.0794147586
 20
5.712506363
 30
0.0
 11
14.0684147586
 21
5.712506363
 31
0.0
  0
LINE
  5
22E
100
AcDbEntity
  8
0
100
AcDbLine
 62
7
  6
CONTINUOUS
 10
14.4231647586
 20
5.712506363
 30
0.0
 11
14.4341647586
 21
5.712506363
 31
0.0
  0
LINE
  5
22F
100
AcDbEntity
  8
0
100
AcDbLine
 62
7
  6
CONTINUOUS
 10
8.4604331654
 20
10.58478836
 30
0.0
 11
8.4616049678
 21
10.5270009788
 31
0.0
  0
LINE
  5
230
100
AcDbEntity
  8
0
100
AcDbLine
 62
7
  6
CONTINUOUS
 10
8.4714309046
 20
10.5850113703
 30
0.0
 11
8.4726027069
 21
10.527223989
 31
0.0
  0
LINE
  5
231
100
AcDbEntity
  8
0
100
AcDbLine
 62
7
  6
CONTINUOUS
 10
8.2580700081
 20
10.0556497113
 30
0.0
 11
8.2571631708
 21
10.0296812883
 31
0.0
  0
LINE
  5
232
100
AcDbEntity
  8
0
100
AcDbLine
 62
7
  6
CONTINUOUS
 10
8.3032393398
 20
10.0540723635
 30
0.0
 11
8.3023325025
 21
10.0281039405
 31
0.0
  0
LINE
  5
233
100
AcDbEntity
  8
0
100
AcDbLine
 62
7
  6
CONTINUOUS
 10
8.3272734392
 20
10.0532330743
 30
0.0
 11
8.3263666019
 21
10.0272646512
 31
0.0
  0
LINE
  5
234
100
AcDbEntity
  8
0
100
AcDbLine
 62
7
  6
CONTINUOUS
 10
8.3304138988
 20
10.0550300803
 30
0.0
 11
8.3303473974
 21
10.0531257293
 31
0.0
  0
LINE
  5
235
100
AcDbEntity
  8
0
100
AcDbLine
 62
7
  6
CONTINUOUS
 10
8.4005218768
 20
10.9232122203
 30
0.0
 11
8.3858954977
 21
10.5043675247
 31
0.0
  0
LINE
  5
236
100
AcDbEntity
  8
0
100
AcDbLine
 62
7
  6
CONTINUOUS
 10
8.4289153984
 20
10.9222206966
 30
0.0
 11
8.4137131776
 21
10.4868860524
 31
0.0
  0
LINE
  5
237
100
AcDbEntity
  8
0
100
AcDbLine
 62
7
  6
CONTINUOUS
 10
8.4944863587
 20
12.3783514827
 30
0.0
 11
8.4892642722
 21
12.2288104905
 31
0.0
  0
LINE
  5
238
100
AcDbEntity
  8
0
100
AcDbLine
 62
7
  6
CONTINUOUS
 10
8.427841158
 20
10.469882635
 30
0.0
 11
8.4197409848
 21
10.237924024
 31
0.0
  0
LINE
  5
239
100
AcDbEntity
  8
0
100
AcDbLine
 62
7
  6
CONTINUOUS
 10
8.4535620871
 20
11.2064336745
 30
0.0
 11
8.4884005097
 21
12.2040755676
 31
0.0
  0
LINE
  5
23A
100
AcDbEntity
  8
0
100
AcDbLine
 62
7
  6
CONTINUOUS
 10
8.4455922748
 20
10.9624485712
 30
0.0
 11
8.4531520159
 21
11.178931232
 31
0.0
  0
LINE
  5
23B
100
AcDbEntity
  8
0
100
AcDbLine
 62
7
  6
CONTINUOUS
 10
8.4496806986
 20
10.9376898547
 30
0.0
 11
8.4339136493
 21
10.4861806364
 31
0.0
  0
LINE
  5
23C
100
AcDbEntity
  8
0
100
AcDbLine
 62
7
  6
CONTINUOUS
 10
8.4656058187
 20
10.9209394389
 30
0.0
 11
8.4509794396
 21
10.5020947433
 31
0.0
  0
LINE
  5
23D
100
AcDbEntity
  8
0
100
AcDbLine
 62
7
  6
CONTINUOUS
 10
8.4805601895
 20
10.8763904009
 30
0.0
 11
8.4721803764
 21
10.6364239502
 31
0.0
  0
LINE
  5
23E
100
AcDbEntity
  8
0
100
AcDbLine
 62
7
  6
CONTINUOUS
 10
8.4679182881
 20
10.5143737125
 30
0.0
 11
8.4668935466
 21
10.485028953
 31
0.0
  0
LINE
  5
23F
100
AcDbEntity
  8
0
100
AcDbLine
 62
7
  6
CONTINUOUS
 10
8.5135400868
 20
10.8752387175
 30
0.0
 11
8.5072074237
 21
10.6938949733
 31
0.0
  0
LINE
  5
240
100
AcDbEntity
  8
0
100
AcDbLine
 62
7
  6
CONTINUOUS
 10
8.500420268
 20
10.4995362645
 30
0.0
 11
8.4998734438
 21
10.4838772696
 31
0.0
  0
LINE
  5
241
100
AcDbEntity
  8
0
100
AcDbLine
 62
7
  6
CONTINUOUS
 10
8.5420242807
 20
10.7453469344
 30
0.0
 11
8.5453683007
 21
10.8411071368
 31
0.0
  0
LINE
  5
242
100
AcDbEntity
  8
0
100
AcDbLine
 62
7
  6
CONTINUOUS
 10
8.5650431494
 20
10.5377464105
 30
0.0
 11
8.5647323595
 21
10.5288465541
 31
0.0
  0
LINE
  5
243
100
AcDbEntity
  8
0
100
AcDbLine
 62
7
  6
CONTINUOUS
 10
8.5686893989
 20
10.6421613346
 30
0.0
 11
8.5690007938
 21
10.6510785189
 31
0.0
  0
LINE
  5
244
100
AcDbEntity
  8
0
100
AcDbLine
 62
7
  6
CONTINUOUS
 10
8.6150945228
 20
10.1980820132
 30
0.0
 11
8.6150190232
 21
10.1959199875
 31
0.0
  0
LINE
  5
245
100
AcDbEntity
  8
0
100
AcDbLine
 62
7
  6
CONTINUOUS
 10
8.6104097311
 20
10.06392713
 30
0.0
 11
8.6103342315
 21
10.0617651044
 31
0.0
  0
LINE
  5
246
100
AcDbEntity
  8
0
100
AcDbLine
 62
7
  6
CONTINUOUS
 10
8.5230591187
 20
10.5016914527
 30
0.0
 11
8.5202121092
 21
10.4910662686
 31
0.0
  0
LINE
  5
247
100
AcDbEntity
  8
0
100
AcDbLine
 62
7
  6
CONTINUOUS
 10
8.5811798664
 20
10.4861180452
 30
0.0
 11
8.5783328569
 21
10.4754928611
 31
0.0
  0
LINE
  5
248
100
AcDbEntity
  8
0
100
AcDbLine
 62
7
  6
CONTINUOUS
 10
9.0976990297
 20
11.7235006572
 30
0.0
 11
8.8221511963
 21
11.0716954218
 31
0.0
  0
LINE
  5
249
100
AcDbEntity
  8
0
100
AcDbLine
 62
7
  6
CONTINUOUS
 10
9.1121140664
 20
11.729349308
 30
0.0
 11
8.83228304
 21
11.0674122288
 31
0.0
  0
LINE
  5
24A
100
AcDbEntity
  8
0
100
AcDbLine
 62
7
  6
CONTINUOUS
 10
8.6330952795
 20
10.5114860097
 30
0.0
 11
9.1425095977
 21
11.7164997291
 31
0.0
  0
LINE
  5
24B
100
AcDbEntity
  8
0
100
AcDbLine
 62
7
  6
CONTINUOUS
 10
8.6432271232
 20
10.5072028168
 30
0.0
 11
9.1483582485
 21
11.7020846924
 31
0.0
  0
LINE
  5
24C
100
AcDbEntity
  8
0
100
AcDbLine
 62
7
  6
CONTINUOUS
 10
8.2412592263
 20
10.0085699242
 30
0.0
 11
8.2571631708
 21
10.0296812883
 31
0.0
  0
LINE
  5
24D
100
AcDbEntity
  8
0
100
AcDbLine
 62
7
  6
CONTINUOUS
 10
8.286428558
 20
10.0069925763
 30
0.0
 11
8.3023325025
 21
10.0281039405
 31
0.0
  0
LINE
  5
24E
100
AcDbEntity
  8
0
100
AcDbLine
 62
7
  6
CONTINUOUS
 10
8.3104626574
 20
10.0061532871
 30
0.0
 11
8.3263666019
 21
10.0272646512
 31
0.0
  0
LINE
  5
24F
100
AcDbEntity
  8
0
100
AcDbLine
 62
7
  6
CONTINUOUS
 10
14.4228535492
 20
6.1395260603
 30
0.0
 11
14.4338336318
 21
6.1398617085
 31
0.0
  0
LINE
  5
250
100
AcDbEntity
  8
0
100
AcDbLine
 62
7
  6
CONTINUOUS
 10
14.0794147586
 20
6.1288617085
 30
0.0
 11
14.0684147586
 21
6.1288617085
 31
0.0
  0
LINE
  5
251
100
AcDbEntity
  8
0
100
AcDbLine
 62
7
  6
CONTINUOUS
 10
14.4231647586
 20
6.1288617085
 30
0.0
 11
14.4341647586
 21
6.1288617085
 31
0.0
  0
LINE
  5
252
100
AcDbEntity
  8
0
100
AcDbLine
 62
7
  6
CONTINUOUS
 10
14.0795317451
 20
6.1395320892
 30
0.0
 11
14.0687458855
 21
6.1398617085
 31
0.0
  0
LINE
  5
253
100
AcDbEntity
  8
0
100
AcDbLine
 62
7
  6
CONTINUOUS
 10
14.0797259681
 20
6.1395260603
 30
0.0
 11
14.0795317451
 21
6.1395320892
 31
0.0
  0
LINE
  5
254
100
AcDbEntity
  8
0
100
AcDbLine
 62
7
  6
CONTINUOUS
 10
14.0797259668
 20
6.4766255103
 30
0.0
 11
14.0687459222
 21
6.476625511
 31
0.0
  0
LINE
  5
255
100
AcDbEntity
  8
0
100
AcDbLine
 62
7
  6
CONTINUOUS
 10
14.4228535458
 20
6.476625735
 30
0.0
 11
14.4338335153
 21
6.4766257335
 31
0.0
  0
LINE
  5
256
100
AcDbEntity
  8
0
100
AcDbLine
 62
7
  6
CONTINUOUS
 10
7.8859675579
 20
10.0209769826
 30
0.0
 11
7.8715750089
 21
10.0431463236
 31
0.0
  0
LINE
  5
257
100
AcDbEntity
  8
0
100
AcDbLine
 62
7
  6
CONTINUOUS
 10
7.9100016573
 20
10.0201376934
 30
0.0
 11
7.8956091083
 21
10.0423070343
 31
0.0
  0
LINE
  5
258
100
AcDbEntity
  8
0
100
AcDbLine
 62
7
  6
CONTINUOUS
 10
14.6912552479
 20
7.1697964827
 30
0.0
 11
14.4062099503
 21
7.1697964827
 31
0.0
  0
LINE
  5
259
100
AcDbEntity
  8
0
100
AcDbLine
 62
7
  6
CONTINUOUS
 10
14.0982098373
 20
7.1697964827
 30
0.0
 11
13.8112552479
 21
7.1697964827
 31
0.0
  0
LINE
  5
25A
100
AcDbEntity
  8
0
100
AcDbLine
 62
7
  6
CONTINUOUS
 10
14.6747552479
 20
7.1862964827
 30
0.0
 11
14.4062240833
 21
7.1862964827
 31
0.0
  0
LINE
  5
25B
100
AcDbEntity
  8
0
100
AcDbLine
 62
7
  6
CONTINUOUS
 10
14.0982239703
 20
7.1862964827
 30
0.0
 11
13.8277552479
 21
7.1862964827
 31
0.0
  0
LINE
  5
25C
100
AcDbEntity
  8
0
100
AcDbLine
 62
7
  6
CONTINUOUS
 10
13.9377552479
 20
7.1972964827
 30
0.0
 11
14.0982333924
 21
7.1972964827
 31
0.0
  0
LINE
  5
25D
100
AcDbEntity
  8
0
100
AcDbLine
 62
7
  6
CONTINUOUS
 10
14.4062335054
 20
7.1972964827
 30
0.0
 11
14.5647552479
 21
7.1972964827
 31
0.0
  0
LINE
  5
25E
100
AcDbEntity
  8
0
100
AcDbLine
 62
7
  6
CONTINUOUS
 10
7.955170989
 20
10.0185603455
 30
0.0
 11
7.94077844
 21
10.0407296865
 31
0.0
  0
LINE
  5
25F
100
AcDbEntity
  8
0
100
AcDbLine
 62
7
  6
CONTINUOUS
 10
8.016027465
 20
10.0164351906
 30
0.0
 11
8.001634916
 21
10.0386045316
 31
0.0
  0
LINE
  5
260
100
AcDbEntity
  8
0
100
AcDbLine
 62
7
  6
CONTINUOUS
 10
8.0852308961
 20
10.0140185535
 30
0.0
 11
8.0708383471
 21
10.0361878945
 31
0.0
  0
LINE
  5
261
100
AcDbEntity
  8
0
100
AcDbLine
 62
7
  6
CONTINUOUS
 10
8.1544343272
 20
10.0116019164
 30
0.0
 11
8.1400417782
 21
10.0337712574
 31
0.0
  0
LINE
  5
262
100
AcDbEntity
  8
0
100
AcDbLine
 62
7
  6
CONTINUOUS
 10
8.2152908032
 20
10.0094767615
 30
0.0
 11
8.2008982542
 21
10.0316461025
 31
0.0
  0
LINE
  5
263
100
AcDbEntity
  8
0
100
AcDbLine
 62
7
  6
CONTINUOUS
 10
8.2604601349
 20
10.0078994136
 30
0.0
 11
8.2513386167
 21
10.0219496036
 31
0.0
  0
LINE
  5
264
100
AcDbEntity
  8
0
100
AcDbLine
 62
7
  6
CONTINUOUS
 10
9.8342052479
 20
13.7836014827
 30
0.0
 11
9.8342052479
 21
14.4106014827
 31
0.0
  0
LINE
  5
265
100
AcDbEntity
  8
0
100
AcDbLine
 62
7
  6
CONTINUOUS
 10
14.0987398894
 20
7.7886195868
 30
0.0
 11
14.4067397764
 21
7.7883557699
 31
0.0
  0
LINE
  5
266
100
AcDbEntity
  8
0
100
AcDbLine
 62
7
  6
CONTINUOUS
 10
14.1097493074
 20
7.7996101608
 30
0.0
 11
14.3957492025
 21
7.7993651879
 31
0.0
  0
LINE
  5
267
100
AcDbEntity
  8
0
100
AcDbLine
 62
7
  6
CONTINUOUS
 10
8.567439276
 20
10.7521257512
 30
0.0
 11
8.5614716423
 21
10.7613662787
 31
0.0
  0
LINE
  5
268
100
AcDbEntity
  8
0
100
AcDbLine
 62
7
  6
CONTINUOUS
 10
8.4862394045
 20
10.6391358018
 30
0.0
 11
8.4768870542
 21
10.6449266173
 31
0.0
  0
LINE
  5
269
100
AcDbEntity
  8
0
100
AcDbLine
 62
7
  6
CONTINUOUS
 10
8.4588085066
 20
10.934869676
 30
0.0
 11
8.4589346374
 21
10.9347758164
 31
0.0
  0
LINE
  5
26A
100
AcDbEntity
  8
0
100
AcDbLine
 62
7
  6
CONTINUOUS
 10
8.6330952795
 20
10.5114860097
 30
0.0
 11
8.6432271232
 21
10.5072028168
 31
0.0
  0
LINE
  5
26B
100
AcDbEntity
  8
0
100
AcDbLine
 62
7
  6
CONTINUOUS
 10
8.4714771992
 20
10.5122236568
 30
0.0
 11
8.5178582461
 21
10.4918922074
 31
0.0
  0
LINE
  5
26C
100
AcDbEntity
  8
0
100
AcDbLine
 62
7
  6
CONTINUOUS
 10
8.4758934507
 20
10.522298215
 30
0.0
 11
8.5222744977
 21
10.5019667656
 31
0.0
  0
LINE
  5
26D
100
AcDbEntity
  8
0
100
AcDbLine
 62
7
  6
CONTINUOUS
 10
8.5369768262
 20
10.7210783432
 30
0.0
 11
8.5276244759
 21
10.7268691587
 31
0.0
  0
LINE
  5
26E
100
AcDbEntity
  8
0
100
AcDbLine
 62
7
  6
CONTINUOUS
 10
7.6063953102
 20
10.222290225
 30
0.0
 11
7.6023277021
 21
10.2230925954
 31
0.0
  0
LINE
  5
26F
100
AcDbEntity
  8
0
100
AcDbLine
 62
7
  6
CONTINUOUS
 10
8.5202121092
 20
10.4910662686
 30
0.0
 11
8.5783328569
 21
10.4754928611
 31
0.0
  0
LINE
  5
270
100
AcDbEntity
  8
0
100
AcDbLine
 62
7
  6
CONTINUOUS
 10
8.5230591187
 20
10.5016914527
 30
0.0
 11
8.5811798664
 21
10.4861180452
 31
0.0
  0
LINE
  5
271
100
AcDbEntity
  8
0
100
AcDbLine
 62
7
  6
CONTINUOUS
 10
7.8859675579
 20
10.0209769826
 30
0.0
 11
7.909962254
 21
10.0201390694
 31
0.0
  0
LINE
  5
272
100
AcDbEntity
  8
0
100
AcDbLine
 62
7
  6
CONTINUOUS
 10
7.9100016573
 20
10.0201376934
 30
0.0
 11
7.9359700804
 21
10.019230856
 31
0.0
  0
LINE
  5
273
100
AcDbEntity
  8
0
100
AcDbLine
 62
7
  6
CONTINUOUS
 10
7.955170989
 20
10.0185603455
 30
0.0
 11
7.9811394121
 21
10.0176535082
 31
0.0
  0
LINE
  5
274
100
AcDbEntity
  8
0
100
AcDbLine
 62
7
  6
CONTINUOUS
 10
8.016027465
 20
10.0164351906
 30
0.0
 11
8.0419958881
 21
10.0155283533
 31
0.0
  0
LINE
  5
275
100
AcDbEntity
  8
0
100
AcDbLine
 62
7
  6
CONTINUOUS
 10
8.0852308961
 20
10.0140185535
 30
0.0
 11
8.1111993192
 21
10.0131117162
 31
0.0
  0
LINE
  5
276
100
AcDbEntity
  8
0
100
AcDbLine
 62
7
  6
CONTINUOUS
 10
8.1544343272
 20
10.0116019164
 30
0.0
 11
8.1804027503
 21
10.0106950791
 31
0.0
  0
LINE
  5
277
100
AcDbEntity
  8
0
100
AcDbLine
 62
7
  6
CONTINUOUS
 10
8.2152908032
 20
10.0094767615
 30
0.0
 11
8.2412592263
 21
10.0085699242
 31
0.0
  0
LINE
  5
278
100
AcDbEntity
  8
0
100
AcDbLine
 62
7
  6
CONTINUOUS
 10
8.2604601349
 20
10.0078994136
 30
0.0
 11
8.286428558
 21
10.0069925763
 31
0.0
  0
LINE
  5
279
100
AcDbEntity
  8
0
100
AcDbLine
 62
7
  6
CONTINUOUS
 10
8.2864677229
 20
10.0069912087
 30
0.0
 11
8.3104626574
 21
10.0061532871
 31
0.0
  0
LINE
  5
27A
100
AcDbEntity
  8
0
100
AcDbLine
 62
7
  6
CONTINUOUS
 10
7.8715750089
 20
10.0431463236
 30
0.0
 11
7.9970433566
 21
10.0387648723
 31
0.0
  0
LINE
  5
27B
100
AcDbEntity
  8
0
100
AcDbLine
 62
7
  6
CONTINUOUS
 10
8.001634916
 20
10.0386045316
 30
0.0
 11
8.0578998326
 21
10.0366397174
 31
0.0
  0
LINE
  5
27C
100
AcDbEntity
  8
0
100
AcDbLine
 62
7
  6
CONTINUOUS
 10
8.0708383471
 20
10.0361878945
 30
0.0
 11
8.1271032637
 21
10.0342230803
 31
0.0
  0
LINE
  5
27D
100
AcDbEntity
  8
0
100
AcDbLine
 62
7
  6
CONTINUOUS
 10
8.1400417782
 20
10.0337712574
 30
0.0
 11
8.1963066948
 21
10.0318064432
 31
0.0
  0
LINE
  5
27E
100
AcDbEntity
  8
0
100
AcDbLine
 62
7
  6
CONTINUOUS
 10
8.2008982542
 20
10.0316461025
 30
0.0
 11
8.3263666019
 21
10.0272646512
 31
0.0
  0
LINE
  5
27F
100
AcDbEntity
  8
0
100
AcDbLine
 62
7
  6
CONTINUOUS
 10
8.3303473974
 20
10.0531257293
 30
0.0
 11
7.869407888
 21
10.0692220916
 31
0.0
  0
LINE
  5
280
100
AcDbEntity
  8
0
100
AcDbLine
 62
7
  6
CONTINUOUS
 10
8.5932684411
 20
10.0458509974
 30
0.0
 11
7.6066198471
 21
10.0803055255
 31
0.0
  0
LINE
  5
281
100
AcDbEntity
  8
0
100
AcDbLine
 62
7
  6
CONTINUOUS
 10
7.5907057402
 20
10.0973713159
 30
0.0
 11
8.6103342315
 21
10.0617651044
 31
0.0
  0
LINE
  5
282
100
AcDbEntity
  8
0
100
AcDbLine
 62
7
  6
CONTINUOUS
 10
7.5907812398
 20
10.0995333416
 30
0.0
 11
8.6104097311
 21
10.06392713
 31
0.0
  0
LINE
  5
283
100
AcDbEntity
  8
0
100
AcDbLine
 62
7
  6
CONTINUOUS
 10
7.5974781719
 20
10.1073488808
 30
0.0
 11
8.6042742968
 21
10.0721907854
 31
0.0
  0
LINE
  5
284
100
AcDbEntity
  8
0
100
AcDbLine
 62
7
  6
CONTINUOUS
 10
7.6063953102
 20
10.222290225
 30
0.0
 11
8.603396783
 21
10.1874741664
 31
0.0
  0
LINE
  5
285
100
AcDbEntity
  8
0
100
AcDbLine
 62
7
  6
CONTINUOUS
 10
7.6023277021
 20
10.2230925954
 30
0.0
 11
8.6075104532
 21
10.1879908402
 31
0.0
  0
LINE
  5
286
100
AcDbEntity
  8
0
100
AcDbLine
 62
7
  6
CONTINUOUS
 10
7.5953905319
 20
10.231526199
 30
0.0
 11
8.6150190232
 21
10.1959199875
 31
0.0
  0
LINE
  5
287
100
AcDbEntity
  8
0
100
AcDbLine
 62
7
  6
CONTINUOUS
 10
7.5954660315
 20
10.2336882247
 30
0.0
 11
8.6150945228
 21
10.1980820132
 31
0.0
  0
LINE
  5
288
100
AcDbEntity
  8
0
100
AcDbLine
 62
7
  6
CONTINUOUS
 10
7.6125318219
 20
10.2496023316
 30
0.0
 11
8.5991804159
 21
10.2151478035
 31
0.0
  0
LINE
  5
289
100
AcDbEntity
  8
0
100
AcDbLine
 62
7
  6
CONTINUOUS
 10
8.4197409848
 20
10.237924024
 30
0.0
 11
7.7931229363
 21
10.2598060084
 31
0.0
  0
LINE
  5
28A
100
AcDbEntity
  8
0
100
AcDbLine
 62
7
  6
CONTINUOUS
 10
8.83228304
 20
11.0674122288
 30
0.0
 11
8.8221511963
 21
11.0716954218
 31
0.0
  0
LINE
  5
28B
100
AcDbEntity
  8
0
100
AcDbLine
 62
7
  6
CONTINUOUS
 10
12.6012552479
 20
13.7836014827
 30
0.0
 11
12.6012552479
 21
14.4106014827
 31
0.0
  0
LINE
  5
28C
100
AcDbEntity
  8
0
100
AcDbLine
 62
7
  6
CONTINUOUS
 10
8.603396783
 20
10.1874741664
 30
0.0
 11
8.6075104532
 21
10.1879908402
 31
0.0
  0
LINE
  5
28D
100
AcDbEntity
  8
0
100
AcDbLine
 62
7
  6
CONTINUOUS
 10
8.4726027069
 20
10.527223989
 30
0.0
 11
8.4616049678
 21
10.5270009788
 31
0.0
  0
LINE
  5
28E
100
AcDbEntity
  8
0
100
AcDbLine
 62
7
  6
CONTINUOUS
 10
8.4714309046
 20
10.5850113703
 30
0.0
 11
8.4604331654
 21
10.58478836
 31
0.0
  0
LINE
  5
28F
100
AcDbEntity
  8
0
100
AcDbLine
 62
7
  6
CONTINUOUS
 10
7.8012231095
 20
10.4917646194
 30
0.0
 11
8.427841158
 21
10.469882635
 31
0.0
  0
LINE
  5
290
100
AcDbEntity
  8
0
100
AcDbLine
 62
7
  6
CONTINUOUS
 10
7.8177392349
 20
10.5076979211
 30
0.0
 11
8.5163633925
 21
10.4833014279
 31
0.0
  0
LINE
  5
291
100
AcDbEntity
  8
0
100
AcDbLine
 62
7
  6
CONTINUOUS
 10
7.8018251279
 20
10.5247637114
 30
0.0
 11
8.4983580651
 21
10.5004402453
 31
0.0
  0
LINE
  5
292
100
AcDbEntity
  8
0
100
AcDbLine
 62
7
  6
CONTINUOUS
 10
8.5069677496
 20
10.5480187552
 30
0.0
 11
8.5810367554
 21
10.5454322085
 31
0.0
  0
LINE
  5
293
100
AcDbEntity
  8
0
100
AcDbLine
 62
7
  6
CONTINUOUS
 10
8.5841058103
 20
10.6333786746
 30
0.0
 11
8.5100703372
 21
10.6359640503
 31
0.0
  0
LINE
  5
294
100
AcDbEntity
  8
0
100
AcDbLine
 62
7
  6
CONTINUOUS
 10
8.4604232434
 20
10.7725299011
 30
0.0
 11
8.5428729866
 21
10.7696506926
 31
0.0
  0
LINE
  5
295
100
AcDbEntity
  8
0
100
AcDbLine
 62
7
  6
CONTINUOUS
 10
9.0805662579
 20
11.6829732822
 30
0.0
 11
9.1312254767
 21
11.6615573173
 31
0.0
  0
LINE
  5
296
100
AcDbEntity
  8
0
100
AcDbLine
 62
7
  6
CONTINUOUS
 10
9.1425095977
 20
11.7164997291
 30
0.0
 11
9.1121140664
 21
11.729349308
 31
0.0
  0
LINE
  5
297
100
AcDbEntity
  8
0
100
AcDbLine
 62
7
  6
CONTINUOUS
 10
14.4389147586
 20
5.7025847955
 30
0.0
 11
14.4341647586
 21
5.712506363
 31
0.0
  0
LINE
  5
298
100
AcDbEntity
  8
0
100
AcDbLine
 62
7
  6
CONTINUOUS
 10
14.0640045607
 20
6.4865511673
 30
0.0
 11
14.0687459474
 21
6.4766255116
 31
0.0
  0
LINE
  5
299
100
AcDbEntity
  8
0
100
AcDbLine
 62
7
  6
CONTINUOUS
 10
8.4805601895
 20
10.8763904009
 30
0.0
 11
8.5135400868
 21
10.8752387175
 31
0.0
  0
LINE
  5
29A
100
AcDbEntity
  8
0
100
AcDbLine
 62
7
  6
CONTINUOUS
 10
8.4005218768
 20
10.9232122203
 30
0.0
 11
8.4656058187
 21
10.9209394389
 31
0.0
  0
LINE
  5
29B
100
AcDbEntity
  8
0
100
AcDbLine
 62
7
  6
CONTINUOUS
 10
7.8254346374
 20
11.2008516059
 30
0.0
 11
8.4531520159
 21
11.178931232
 31
0.0
  0
LINE
  5
29C
100
AcDbEntity
  8
0
100
AcDbLine
 62
7
  6
CONTINUOUS
 10
8.4421848935
 20
11.1958242698
 30
0.0
 11
7.8375534432
 21
11.2169384654
 31
0.0
  0
LINE
  5
29D
100
AcDbEntity
  8
0
100
AcDbLine
 62
7
  6
CONTINUOUS
 10
8.4535620871
 20
11.2064336745
 30
0.0
 11
7.8269440386
 21
11.2283156589
 31
0.0
  0
LINE
  5
29E
100
AcDbEntity
  8
0
100
AcDbLine
 62
7
  6
CONTINUOUS
 10
13.7067552479
 20
3.6992964827
 30
0.0
 11
13.7067552479
 21
3.4820464827
 31
0.0
  0
LINE
  5
29F
100
AcDbEntity
  8
0
100
AcDbLine
 62
7
  6
CONTINUOUS
 10
13.8112552479
 20
3.7157964827
 30
0.0
 11
13.8112552479
 21
7.1697964827
 31
0.0
  0
LINE
  5
2A0
100
AcDbEntity
  8
0
100
AcDbLine
 62
7
  6
CONTINUOUS
 10
13.9377552479
 20
7.1972964827
 30
0.0
 11
13.9377552479
 21
12.4471014827
 31
0.0
  0
LINE
  5
2A1
100
AcDbEntity
  8
0
100
AcDbLine
 62
7
  6
CONTINUOUS
 10
14.0684147586
 20
6.1288617085
 30
0.0
 11
14.0684147586
 21
5.712506363
 31
0.0
  0
LINE
  5
2A2
100
AcDbEntity
  8
0
100
AcDbLine
 62
7
  6
CONTINUOUS
 10
14.0687459222
 20
6.4766254423
 30
0.0
 11
14.0687458855
 21
6.1398617085
 31
0.0
  0
LINE
  5
2A3
100
AcDbEntity
  8
0
100
AcDbLine
 62
7
  6
CONTINUOUS
 10
14.0794147586
 20
6.1288617085
 30
0.0
 11
14.0794147586
 21
5.712506363
 31
0.0
  0
LINE
  5
2A4
100
AcDbEntity
  8
0
100
AcDbLine
 62
7
  6
CONTINUOUS
 10
14.0797259668
 20
6.4766255105
 30
0.0
 11
14.0797259681
 21
6.1395260603
 31
0.0
  0
LINE
  5
2A5
100
AcDbEntity
  8
0
100
AcDbLine
 62
7
  6
CONTINUOUS
 10
14.0968928347
 20
5.6322276876
 30
0.0
 11
14.0987398894
 21
7.7886195868
 31
0.0
  0
LINE
  5
2A6
100
AcDbEntity
  8
0
100
AcDbLine
 62
7
  6
CONTINUOUS
 10
14.4228535492
 20
6.1395260603
 30
0.0
 11
14.4228535458
 21
6.4766257343
 31
0.0
  0
LINE
  5
2A7
100
AcDbEntity
  8
0
100
AcDbLine
 62
7
  6
CONTINUOUS
 10
14.4231647586
 20
5.712506363
 30
0.0
 11
14.4231647586
 21
6.1288617085
 31
0.0
  0
LINE
  5
2A8
100
AcDbEntity
  8
0
100
AcDbLine
 62
7
  6
CONTINUOUS
 10
14.4338336318
 20
6.1398617085
 30
0.0
 11
14.4338335153
 21
6.4766255166
 31
0.0
  0
LINE
  5
2A9
100
AcDbEntity
  8
0
100
AcDbLine
 62
7
  6
CONTINUOUS
 10
14.4341647586
 20
5.712506363
 30
0.0
 11
14.4341647586
 21
6.1288617085
 31
0.0
  0
LINE
  5
2AA
100
AcDbEntity
  8
0
100
AcDbLine
 62
7
  6
CONTINUOUS
 10
14.5647552479
 20
7.1972964827
 30
0.0
 11
14.5647552479
 21
12.4471014827
 31
0.0
  0
LINE
  5
2AB
100
AcDbEntity
  8
0
100
AcDbLine
 62
7
  6
CONTINUOUS
 10
14.6912552479
 20
3.7157964827
 30
0.0
 11
14.6912552479
 21
7.1697964827
 31
0.0
  0
LINE
  5
2AC
100
AcDbEntity
  8
0
100
AcDbLine
 62
7
  6
CONTINUOUS
 10
14.4048927217
 20
5.6319638707
 30
0.0
 11
14.4067397764
 21
7.7883557699
 31
0.0
  0
LINE
  5
2AD
100
AcDbEntity
  8
0
100
AcDbLine
 62
7
  6
CONTINUOUS
 10
13.9377552479
 20
12.4471014827
 30
0.0
 11
14.5647552479
 21
12.4471014827
 31
0.0
  0
LINE
  5
2AE
100
AcDbEntity
  8
0
100
AcDbLine
 62
7
  6
CONTINUOUS
 10
7.8617824611
 20
12.225957552
 30
0.0
 11
8.4884005097
 21
12.2040755676
 31
0.0
  0
LINE
  5
2AF
100
AcDbEntity
  8
0
100
AcDbLine
 62
7
  6
CONTINUOUS
 10
7.8731596547
 20
12.2365669566
 30
0.0
 11
8.477791105
 21
12.2154527611
 31
0.0
  0
LINE
  5
2B0
100
AcDbEntity
  8
0
100
AcDbLine
 62
7
  6
CONTINUOUS
 10
8.4892642722
 20
12.2288104905
 30
0.0
 11
7.8626462237
 21
12.250692475
 31
0.0
  0
LINE
  5
2B1
100
AcDbEntity
  8
0
100
AcDbLine
 62
7
  6
CONTINUOUS
 10
8.4984950278
 20
12.4937419592
 30
0.0
 11
7.871897809
 21
12.5156232162
 31
0.0
  0
LINE
  5
2B2
100
AcDbEntity
  8
0
100
AcDbLine
 62
7
  6
CONTINUOUS
 10
14.7957552479
 20
3.6992964827
 30
0.0
 11
14.7957552479
 21
3.4820464827
 31
0.0
  0
LINE
  5
2B3
100
AcDbEntity
  8
0
100
AcDbLine
 62
7
  6
CONTINUOUS
 10
14.4385747376
 20
6.486551227
 30
0.0
 11
14.4338333737
 21
6.4766255969
 31
0.0
  0
LINE
  5
2B4
100
AcDbEntity
  8
0
100
AcDbLine
 62
7
  6
CONTINUOUS
 10
14.0636647586
 20
5.7025847956
 30
0.0
 11
14.0684147586
 21
5.712506363
 31
0.0
  0
LINE
  5
2B5
100
AcDbEntity
  8
0
100
AcDbLine
 62
7
  6
CONTINUOUS
 10
12.6012552479
 20
13.7836014827
 30
0.0
 11
9.8342052479
 21
13.7836014827
 31
0.0
  0
LINE
  5
2B6
100
AcDbEntity
  8
0
100
AcDbLine
 62
7
  6
CONTINUOUS
 10
12.6012552479
 20
14.4106014827
 30
0.0
 11
9.8342052479
 21
14.4106014827
 31
0.0
  0
ARC
  5
2B7
100
AcDbEntity
  8
0
100
AcDbCircle
 62
7
  6
CONTINUOUS
 10
7.6054341526
 20
10.1645482241
 30
0.0
 40
0.05775
100
AcDbArc
 50
89.0463581348
 51
262.0814109611
  0
ARC
  5
2B8
100
AcDbEntity
  8
0
100
AcDbCircle
 62
7
  6
CONTINUOUS
 10
7.8177130581
 20
10.4911887777
 30
0.0
 40
0.0165
100
AcDbArc
 50
89.6235459262
 51
178.0
  0
ARC
  5
2B9
100
AcDbEntity
  8
0
100
AcDbCircle
 62
7
  6
CONTINUOUS
 10
7.7766329877
 20
10.2603818501
 30
0.0
 40
0.0165
100
AcDbArc
 50
268.0
 51
358.0
  0
ARC
  5
2BA
100
AcDbEntity
  8
0
100
AcDbCircle
 62
7
  6
CONTINUOUS
 10
7.6119559802
 20
10.233112383
 30
0.0
 40
0.0165
100
AcDbArc
 50
88.0
 51
178.0
  0
ARC
  5
2BB
100
AcDbEntity
  8
0
100
AcDbCircle
 62
7
  6
CONTINUOUS
 10
7.6071956888
 20
10.0967954742
 30
0.0
 40
0.0165
100
AcDbArc
 50
178.0
 51
268.0
  0
ARC
  5
2BC
100
AcDbEntity
  8
0
100
AcDbCircle
 62
7
  6
CONTINUOUS
 10
7.8183150766
 20
10.5241878697
 30
0.0
 40
0.0165
100
AcDbArc
 50
178.0
 51
268.0
  0
ARC
  5
2BD
100
AcDbEntity
  8
0
100
AcDbCircle
 62
7
  6
CONTINUOUS
 10
7.5990262141
 20
10.0992454207
 30
0.0
 40
0.00825
100
AcDbArc
 50
100.8151754136
 51
178.0
  0
ARC
  5
2BE
100
AcDbEntity
  8
0
100
AcDbCircle
 62
7
  6
CONTINUOUS
 10
7.6036355063
 20
10.2312382782
 30
0.0
 40
0.00825
100
AcDbArc
 50
178.0
 51
260.878898083
  0
ARC
  5
2BF
100
AcDbEntity
  8
0
100
AcDbCircle
 62
7
  6
CONTINUOUS
 10
7.8419245861
 20
11.2002757642
 30
0.0
 40
0.0165
100
AcDbArc
 50
88.0
 51
178.0
  0
ARC
  5
2C0
100
AcDbEntity
  8
0
100
AcDbCircle
 62
7
  6
CONTINUOUS
 10
7.8379373376
 20
11.2279317644
 30
0.0
 40
0.011
100
AcDbArc
 50
178.0
 51
268.0
  0
ARC
  5
2C1
100
AcDbEntity
  8
0
100
AcDbCircle
 62
7
  6
CONTINUOUS
 10
8.570410557
 20
10.5870184622
 30
0.0
 40
0.11
100
AcDbArc
 50
148.2349159794
 51
181.1616744936
  0
ARC
  5
2C2
100
AcDbEntity
  8
0
100
AcDbCircle
 62
7
  6
CONTINUOUS
 10
8.570410557
 20
10.5870184622
 30
0.0
 40
0.099
100
AcDbArc
 50
148.2349159794
 51
181.1616744936
  0
CIRCLE
  5
2C3
100
AcDbEntity
  8
0
100
AcDbCircle
 62
7
  6
CONTINUOUS
 10
8.5531246503
 20
10.5904337406
 30
0.0
 40
0.0627
  0
ARC
  5
2C4
100
AcDbEntity
  8
0
100
AcDbCircle
 62
7
  6
CONTINUOUS
 10
8.6003277209
 20
10.1298057751
 30
0.0
 40
0.05775
100
AcDbArc
 50
273.9185890389
 51
86.9536418652
  0
ARC
  5
2C5
100
AcDbEntity
  8
0
100
AcDbCircle
 62
7
  6
CONTINUOUS
 10
8.5925679044
 20
10.5286187816
 30
0.0
 40
0.055
100
AcDbArc
 50
255.0
 51
337.084
  0
ARC
  5
2C6
100
AcDbEntity
  8
0
100
AcDbCircle
 62
7
  6
CONTINUOUS
 10
8.5925679044
 20
10.5286187816
 30
0.0
 40
0.044
100
AcDbArc
 50
255.0
 51
337.084
  0
ARC
  5
2C7
100
AcDbEntity
  8
0
100
AcDbCircle
 62
7
  6
CONTINUOUS
 10
8.5668662741
 20
10.5899538725
 30
0.0
 40
0.044
100
AcDbArc
 50
297.9999999996
 51
57.9999999426
  0
ARC
  5
2C8
100
AcDbEntity
  8
0
100
AcDbCircle
 62
7
  6
CONTINUOUS
 10
8.4113512094
 20
10.4704584767
 30
0.0
 40
0.0165
100
AcDbArc
 50
358.0
 51
88.0
  0
ARC
  5
2C9
100
AcDbEntity
  8
0
100
AcDbCircle
 62
7
  6
CONTINUOUS
 10
8.4362309335
 20
10.2373481823
 30
0.0
 40
0.0165
100
AcDbArc
 50
178.0
 51
268.0
  0
ARC
  5
2CA
100
AcDbEntity
  8
0
100
AcDbCircle
 62
7
  6
CONTINUOUS
 10
8.5986045742
 20
10.1986578549
 30
0.0
 40
0.0165
100
AcDbArc
 50
358.0
 51
88.0
  0
ARC
  5
2CB
100
AcDbEntity
  8
0
100
AcDbCircle
 62
7
  6
CONTINUOUS
 10
8.5169392342
 20
10.4997913765
 30
0.0
 40
0.0165
100
AcDbArc
 50
268.0
 51
317.6274652221
  0
ARC
  5
2CC
100
AcDbEntity
  8
0
100
AcDbCircle
 62
7
  6
CONTINUOUS
 10
8.434489491
 20
10.502670585
 30
0.0
 40
0.0165
100
AcDbArc
 50
268.0
 51
358.0
  0
ARC
  5
2CD
100
AcDbEntity
  8
0
100
AcDbCircle
 62
7
  6
CONTINUOUS
 10
8.5938442828
 20
10.0623409461
 30
0.0
 40
0.0165
100
AcDbArc
 50
268.0
 51
358.0
  0
ARC
  5
2CE
100
AcDbEntity
  8
0
100
AcDbCircle
 62
7
  6
CONTINUOUS
 10
8.4781015765
 20
10.5273354941
 30
0.0
 40
0.0165
100
AcDbArc
 50
181.1616744936
 51
246.3294288197
  0
ARC
  5
2CF
100
AcDbEntity
  8
0
100
AcDbCircle
 62
7
  6
CONTINUOUS
 10
8.5244826234
 20
10.5070040447
 30
0.0
 40
0.0165
100
AcDbArc
 50
246.3294288197
 51
255.0
  0
ARC
  5
2D0
100
AcDbEntity
  8
0
100
AcDbCircle
 62
7
  6
CONTINUOUS
 10
8.6021647567
 20
10.0642150509
 30
0.0
 40
0.00825
100
AcDbArc
 50
358.0
 51
75.1848245864
  0
ARC
  5
2D1
100
AcDbEntity
  8
0
100
AcDbCircle
 62
7
  6
CONTINUOUS
 10
8.6067740489
 20
10.1962079084
 30
0.0
 40
0.00825
100
AcDbArc
 50
275.1211019171
 51
358.0
  0
ARC
  5
2D2
100
AcDbEntity
  8
0
100
AcDbCircle
 62
7
  6
CONTINUOUS
 10
8.5244826234
 20
10.5070040447
 30
0.0
 40
0.0055
100
AcDbArc
 50
246.3294288197
 51
255.0
  0
ARC
  5
2D3
100
AcDbEntity
  8
0
100
AcDbCircle
 62
7
  6
CONTINUOUS
 10
8.4781015765
 20
10.5273354941
 30
0.0
 40
0.0055
100
AcDbArc
 50
181.1616744936
 51
246.3294288197
  0
ARC
  5
2D4
100
AcDbEntity
  8
0
100
AcDbCircle
 62
7
  6
CONTINUOUS
 10
8.6211479787
 20
10.6689610036
 30
0.0
 40
0.11
100
AcDbArc
 50
122.8548159912
 51
148.2349159794
  0
ARC
  5
2D5
100
AcDbEntity
  8
0
100
AcDbCircle
 62
7
  6
CONTINUOUS
 10
8.6211479787
 20
10.6689610036
 30
0.0
 40
0.099
100
AcDbArc
 50
122.8548159912
 51
148.2349159794
  0
ARC
  5
2D6
100
AcDbEntity
  8
0
100
AcDbCircle
 62
7
  6
CONTINUOUS
 10
8.4785721721
 20
10.9612968878
 30
0.0
 40
0.033
100
AcDbArc
 50
178.0
 51
233.2088958332
  0
ARC
  5
2D7
100
AcDbEntity
  8
0
100
AcDbCircle
 62
7
  6
CONTINUOUS
 10
8.5123884034
 20
10.8422588202
 30
0.0
 40
0.033
100
AcDbArc
 50
358.0
 51
88.0
  0
ARC
  5
2D8
100
AcDbEntity
  8
0
100
AcDbCircle
 62
7
  6
CONTINUOUS
 10
8.4366620672
 20
11.1795070737
 30
0.0
 40
0.0165
100
AcDbArc
 50
358.0
 51
88.0
  0
ARC
  5
2D9
100
AcDbEntity
  8
0
100
AcDbCircle
 62
7
  6
CONTINUOUS
 10
8.4811360312
 20
10.8928803495
 30
0.0
 40
0.0165
100
AcDbArc
 50
178.0
 51
268.0
  0
ARC
  5
2DA
100
AcDbEntity
  8
0
100
AcDbCircle
 62
7
  6
CONTINUOUS
 10
8.44911587
 20
10.9215152806
 30
0.0
 40
0.0165
100
AcDbArc
 50
358.0
 51
83.4135225507
  0
ARC
  5
2DB
100
AcDbEntity
  8
0
100
AcDbCircle
 62
7
  6
CONTINUOUS
 10
8.442568788
 20
11.2068175689
 30
0.0
 40
0.011
100
AcDbArc
 50
268.0
 51
358.0
  0
ARC
  5
2DC
100
AcDbEntity
  8
0
100
AcDbCircle
 62
7
  6
CONTINUOUS
 10
8.1878977767
 20
11.3398233013
 30
0.0
 40
0.6996
100
AcDbArc
 50
302.8548159912
 51
337.084
  0
ARC
  5
2DD
100
AcDbEntity
  8
0
100
AcDbCircle
 62
7
  6
CONTINUOUS
 10
8.1878977767
 20
11.3398233013
 30
0.0
 40
0.6886
100
AcDbArc
 50
302.8548159912
 51
337.084
  0
ARC
  5
2DE
100
AcDbEntity
  8
0
100
AcDbCircle
 62
7
  6
CONTINUOUS
 10
8.4774072106
 20
12.204459462
 30
0.0
 40
0.011
100
AcDbArc
 50
358.0
 51
88.0
  0
ARC
  5
2DF
100
AcDbEntity
  8
0
100
AcDbCircle
 62
7
  6
CONTINUOUS
 10
7.8727757602
 20
12.2255736575
 30
0.0
 40
0.011
100
AcDbArc
 50
88.0
 51
178.0
  0
ARC
  5
2E0
100
AcDbEntity
  8
0
100
AcDbCircle
 62
7
  6
CONTINUOUS
 10
9.8342052479
 20
12.4470979305
 30
0.0
 40
1.9635035522
100
AcDbArc
 50
90.0
 51
178.0
  0
ARC
  5
2E1
100
AcDbEntity
  8
0
100
AcDbCircle
 62
7
  6
CONTINUOUS
 10
9.8342052578
 20
12.4470979203
 30
0.0
 40
1.3365035624
100
AcDbArc
 50
90.0000004212
 51
177.9952702451
  0
ARC
  5
2E2
100
AcDbEntity
  8
0
100
AcDbCircle
 62
7
  6
CONTINUOUS
 10
8.7990153159
 20
12.4255349951
 30
0.0
 40
0.308162797
100
AcDbArc
 50
178.0350021151
 51
188.8073383335
  0
ARC
  5
2E3
100
AcDbEntity
  8
0
100
AcDbCircle
 62
7
  6
CONTINUOUS
 10
9.1078308735
 20
11.7192174642
 30
0.0
 40
0.011
100
AcDbArc
 50
67.084
 51
157.084
  0
ARC
  5
2E4
100
AcDbEntity
  8
0
100
AcDbCircle
 62
7
  6
CONTINUOUS
 10
9.1382264048
 20
11.7063678854
 30
0.0
 40
0.011
100
AcDbArc
 50
337.084
 51
67.084
  0
ARC
  5
2E5
100
AcDbEntity
  8
0
100
AcDbCircle
 62
7
  6
CONTINUOUS
 10
14.2512888399
 20
6.0944882998
 30
0.0
 40
0.495
100
AcDbArc
 50
252.7661274827
 51
287.1357192849
  0
ARC
  5
2E6
100
AcDbEntity
  8
0
100
AcDbCircle
 62
7
  6
CONTINUOUS
 10
14.2512523957
 20
6.0988259811
 30
0.0
 40
0.4391394614
100
AcDbArc
 50
290.4881189637
 51
295.3455323428
  0
ARC
  5
2E7
100
AcDbEntity
  8
0
100
AcDbCircle
 62
7
  6
CONTINUOUS
 10
14.2512527019
 20
6.090267721
 30
0.0
 40
0.4391386642
100
AcDbArc
 50
64.6969320843
 51
69.4132588844
  0
ARC
  5
2E8
100
AcDbEntity
  8
0
100
AcDbCircle
 62
7
  6
CONTINUOUS
 10
14.2512574252
 20
6.0902685546
 30
0.0
 40
0.4391377536
100
AcDbArc
 50
110.4804016791
 51
115.2936499364
  0
ARC
  5
2E9
100
AcDbEntity
  8
0
100
AcDbCircle
 62
7
  6
CONTINUOUS
 10
14.2512571218
 20
6.0988237163
 30
0.0
 40
0.4391369963
100
AcDbArc
 50
244.6639264164
 51
249.4211457372
  0
ARC
  5
2EA
100
AcDbEntity
  8
0
100
AcDbCircle
 62
7
  6
CONTINUOUS
 10
14.2512897586
 20
6.0944867085
 30
0.0
 40
0.4345
100
AcDbArc
 50
110.718927188
 51
249.1882152058
  0
ARC
  5
2EB
100
AcDbEntity
  8
0
100
AcDbCircle
 62
7
  6
CONTINUOUS
 10
14.2512897586
 20
6.0944867085
 30
0.0
 40
0.4345
100
AcDbArc
 50
290.717498352
 51
69.1866232788
  0
ARC
  5
2EC
100
AcDbEntity
  8
0
100
AcDbCircle
 62
7
  6
CONTINUOUS
 10
14.2512897586
 20
6.0944867085
 30
0.0
 40
0.4235
100
AcDbArc
 50
295.5830019774
 51
64.4666763057
  0
ARC
  5
2ED
100
AcDbEntity
  8
0
100
AcDbCircle
 62
7
  6
CONTINUOUS
 10
14.2512897586
 20
6.0944867085
 30
0.0
 40
0.4235
100
AcDbArc
 50
115.533337767
 51
244.4169980226
  0
ARC
  5
2EE
100
AcDbEntity
  8
0
100
AcDbCircle
 62
7
  6
CONTINUOUS
 10
14.2473530979
 20
6.1313004314
 30
0.0
 40
0.3873628429
100
AcDbArc
 50
63.0595144684
 51
65.8791979623
  0
ARC
  5
2EF
100
AcDbEntity
  8
0
100
AcDbCircle
 62
7
  6
CONTINUOUS
 10
14.2549757716
 20
6.1318342581
 30
0.0
 40
0.3867731567
100
AcDbArc
 50
114.0081387538
 51
116.9432285656
  0
ARC
  5
2F0
100
AcDbEntity
  8
0
100
AcDbCircle
 62
7
  6
CONTINUOUS
 10
14.2512897586
 20
6.1288617085
 30
0.0
 40
0.182875
100
AcDbArc
 50
0.0
 51
3.448444264
  0
ARC
  5
2F1
100
AcDbEntity
  8
0
100
AcDbCircle
 62
7
  6
CONTINUOUS
 10
14.2512897586
 20
6.1288617085
 30
0.0
 40
0.182875
100
AcDbArc
 50
176.551555736
 51
180.0
  0
ARC
  5
2F2
100
AcDbEntity
  8
0
100
AcDbCircle
 62
7
  6
CONTINUOUS
 10
14.2512897586
 20
6.1288617085
 30
0.0
 40
0.171875
100
AcDbArc
 50
176.3500078956
 51
180.0
  0
ARC
  5
2F3
100
AcDbEntity
  8
0
100
AcDbCircle
 62
7
  6
CONTINUOUS
 10
14.2512897586
 20
6.1288617085
 30
0.0
 40
0.171875
100
AcDbArc
 50
0.0
 51
3.6497579997
  0
ARC
  5
2F4
100
AcDbEntity
  8
0
100
AcDbCircle
 62
7
  6
CONTINUOUS
 10
14.2512897586
 20
6.1288617085
 30
0.0
 40
0.171875
100
AcDbArc
 50
153.6240816765
 51
176.3305995951
  0
ARC
  5
2F5
100
AcDbEntity
  8
0
100
AcDbCircle
 62
7
  6
CONTINUOUS
 10
14.2512897586
 20
6.1288617085
 30
0.0
 40
0.171875
100
AcDbArc
 50
3.6694003018
 51
26.2288780147
  0
ARC
  5
2F6
100
AcDbEntity
  8
0
100
AcDbCircle
 62
7
  6
CONTINUOUS
 10
14.7792552479
 20
3.6992964827
 30
0.0
 40
0.0165
100
AcDbArc
 50
0.0
 51
90.0
  0
ARC
  5
2F7
100
AcDbEntity
  8
0
100
AcDbCircle
 62
7
  6
CONTINUOUS
 10
13.7232552479
 20
3.6992964827
 30
0.0
 40
0.0165
100
AcDbArc
 50
90.0
 51
180.0
  0
ARC
  5
2F8
100
AcDbEntity
  8
0
100
AcDbCircle
 62
7
  6
CONTINUOUS
 10
13.8277552479
 20
7.1697964827
 30
0.0
 40
0.0165
100
AcDbArc
 50
90.0
 51
180.0
  0
ARC
  5
2F9
100
AcDbEntity
  8
0
100
AcDbCircle
 62
7
  6
CONTINUOUS
 10
14.6747552479
 20
7.1697964827
 30
0.0
 40
0.0165
100
AcDbArc
 50
0.0
 51
90.0
  0
ARC
  5
2FA
100
AcDbEntity
  8
0
100
AcDbCircle
 62
7
  6
CONTINUOUS
 10
14.4341647586
 20
5.712506363
 30
0.0
 40
0.011
100
AcDbArc
 50
180.0
 51
295.5830019774
  0
ARC
  5
2FB
100
AcDbEntity
  8
0
100
AcDbCircle
 62
7
  6
CONTINUOUS
 10
14.0684147586
 20
5.712506363
 30
0.0
 40
0.011
100
AcDbArc
 50
244.4169980226
 51
360.0
  0
ARC
  5
2FC
100
AcDbEntity
  8
0
100
AcDbCircle
 62
7
  6
CONTINUOUS
 10
14.3938927257
 20
5.6319732928
 30
0.0
 40
0.011
100
AcDbArc
 50
287.1357192847
 51
359.9509233827
  0
ARC
  5
2FD
100
AcDbEntity
  8
0
100
AcDbCircle
 62
7
  6
CONTINUOUS
 10
14.1078928306
 20
5.6322182656
 30
0.0
 40
0.011
100
AcDbArc
 50
179.9509233849
 51
252.7661274829
  0
ARC
  5
2FE
100
AcDbEntity
  8
0
100
AcDbCircle
 62
7
  6
CONTINUOUS
 10
14.3957397805
 20
7.788365192
 30
0.0
 40
0.011
100
AcDbArc
 50
359.9509233838
 51
89.9509233838
  0
ARC
  5
2FF
100
AcDbEntity
  8
0
100
AcDbCircle
 62
7
  6
CONTINUOUS
 10
14.1097398854
 20
7.7886101648
 30
0.0
 40
0.011
100
AcDbArc
 50
89.9509233838
 51
179.9509233838
  0
ARC
  5
300
100
AcDbEntity
  8
0
100
AcDbCircle
 62
7
  6
CONTINUOUS
 10
12.6012552384
 20
12.4471014732
 30
0.0
 40
1.9635000095
100
AcDbArc
 50
0.000000278
 51
89.999999722
  0
ARC
  5
301
100
AcDbEntity
  8
0
100
AcDbCircle
 62
7
  6
CONTINUOUS
 10
12.6012552479
 20
12.4471014827
 30
0.0
 40
1.3365
100
AcDbArc
 50
0.0
 51
90.0
  0
SPLINE
  5
302
100
AcDbEntity
  8
0
100
AcDbSpline
 62
7
  6
CONTINUOUS
 70
0
 71
3
 72
12
 73
8
 74
0
 42
0.0000001
 43
0.0000001
 44
0.0000000001
 40
0.0
 40
0.0
 40
0.0
 40
0.0
 40
0.3670337235
 40
0.6832758583
 40
0.9053168576
 40
0.9701037377
 40
1.0
 40
1.0
 40
1.0
 40
1.0
 10
8.4910364777
 20
12.4361014827
 30
0.0
 10
8.491284964
 20
12.443217199
 30
0.0
 10
8.4922126281
 20
12.4564525356
 30
0.0
 10
8.4945621966
 20
12.4738662223
 30
0.0
 10
8.496694026
 20
12.4853727143
 30
0.0
 10
8.4979702805
 20
12.4913829008
 30
0.0
 10
8.4983676908
 20
12.4931761563
 30
0.0
 10
8.4984950278
 20
12.4937419592
 30
0.0
  0
SPLINE
  5
303
100
AcDbEntity
  8
0
100
AcDbSpline
 62
7
  6
CONTINUOUS
 70
0
 71
3
 72
10
 73
6
 74
0
 42
0.0000001
 43
0.0000001
 44
0.0000000001
 40
0.0
 40
0.0
 40
0.0
 40
0.0
 40
0.2500071336
 40
0.625002303
 40
1.0
 40
1.0
 40
1.0
 40
1.0
 10
8.5875230229
 20
10.5511041785
 30
0.0
 10
8.5870127747
 20
10.5505983919
 30
0.0
 10
8.5857169621
 20
10.5493541914
 30
0.0
 10
8.5835649965
 20
10.547448096
 30
0.0
 10
8.5818891937
 20
10.5460914946
 30
0.0
 10
8.5810367554
 20
10.5454322085
 30
0.0
  0
SPLINE
  5
304
100
AcDbEntity
  8
0
100
AcDbSpline
 62
7
  6
CONTINUOUS
 70
0
 71
3
 72
11
 73
7
 74
0
 42
0.0000001
 43
0.0000001
 44
0.0000000001
 40
0.0
 40
0.0
 40
0.0
 40
0.0
 40
0.249428677
 40
0.4991272702
 40
0.7493060926
 40
1.0
 40
1.0
 40
1.0
 40
1.0
 10
8.5686893989
 20
10.6421613346
 30
0.0
 10
8.5700765079
 20
10.6416372837
 30
0.0
 10
8.5728229023
 20
10.6405082393
 30
0.0
 10
8.5768184605
 20
10.6385286235
 30
0.0
 10
8.5806315183
 20
10.6361988474
 30
0.0
 10
8.5829933545
 20
10.634370393
 30
0.0
 10
8.5841058103
 20
10.6333786746
 30
0.0
  0
SPLINE
  5
305
100
AcDbEntity
  8
0
100
AcDbSpline
 62
7
  6
CONTINUOUS
 70
0
 71
3
 72
11
 73
7
 74
0
 42
0.0000001
 43
0.0000001
 44
0.0000000001
 40
0.0
 40
0.0
 40
0.0
 40
0.0
 40
0.2506938895
 40
0.5008728443
 40
0.7505713099
 40
1.0
 40
1.0
 40
1.0
 40
1.0
 10
8.5810346698
 20
10.5454322813
 30
0.0
 10
8.5798557887
 20
10.5445205204
 30
0.0
 10
8.5773721268
 20
10.5428612958
 30
0.0
 10
8.5734058131
 20
10.5408032399
 30
0.0
 10
8.5692819385
 20
10.5391070388
 30
0.0
 10
8.5664634373
 20
10.5381724255
 30
0.0
 10
8.5650431494
 20
10.5377464105
 30
0.0
  0
SPLINE
  5
306
100
AcDbEntity
  8
0
100
AcDbSpline
 62
7
  6
CONTINUOUS
 70
0
 71
3
 72
9
 73
5
 74
0
 42
0.0000001
 43
0.0000001
 44
0.0000000001
 40
0.0
 40
0.0
 40
0.0
 40
0.0
 40
0.4999954702
 40
1.0
 40
1.0
 40
1.0
 40
1.0
 10
8.5901827218
 20
10.6272679887
 30
0.0
 10
8.589235213
 20
10.6283483548
 30
0.0
 10
8.587270245
 20
10.6304487551
 30
0.0
 10
8.5851784809
 20
10.6324224235
 30
0.0
 10
8.5841058103
 20
10.6333786746
 30
0.0
  0
SPLINE
  5
307
100
AcDbEntity
  8
0
100
AcDbSpline
 62
7
  6
CONTINUOUS
 70
0
 71
3
 72
23
 73
19
 74
0
 42
0.0000001
 43
0.0000001
 44
0.0000000001
 40
0.0
 40
0.0
 40
0.0
 40
0.0
 40
0.0647915858
 40
0.1294471842
 40
0.1938988505
 40
0.25808201
 40
0.3219421289
 40
0.3854348434
 40
0.4485280164
 40
0.5112029682
 40
0.5734553794
 40
0.6352957289
 40
0.6967492178
 40
0.7578551491
 40
0.8186656657
 40
0.8792443674
 40
0.9396624028
 40
1.0
 40
1.0
 40
1.0
 40
1.0
 10
8.4241031825
 20
10.9717603087
 30
0.0
 10
8.4240562934
 20
10.970734044
 30
0.0
 10
8.4240518067
 20
10.9686784613
 30
0.0
 10
8.4243135008
 20
10.9656114098
 30
0.0
 10
8.424841288
 20
10.9625883111
 30
0.0
 10
8.4256306511
 20
10.95963581
 30
0.0
 10
8.4266747456
 20
10.9567795906
 30
0.0
 10
8.4279645397
 20
10.9540446049
 30
0.0
 10
8.4294888493
 20
10.9514547423
 30
0.0
 10
8.4312344436
 20
10.9490326547
 30
0.0
 10
8.433186154
 20
10.9467995525
 30
0.0
 10
8.4353269989
 20
10.9447750206
 30
0.0
 10
8.4376383216
 20
10.9429768443
 30
0.0
 10
8.4400999561
 20
10.9414208459
 30
0.0
 10
8.4426903541
 20
10.9401207287
 30
0.0
 10
8.4453869309
 20
10.9390879653
 30
0.0
 10
8.4481656786
 20
10.9383316858
 30
0.0
 10
8.4500580658
 20
10.938016116
 30
0.0
 10
8.4510084642
 20
10.9379063784
 30
0.0
  0
SPLINE
  5
308
100
AcDbEntity
  8
0
100
AcDbSpline
 62
7
  6
CONTINUOUS
 70
0
 71
3
 72
55
 73
51
 74
0
 42
0.0000001
 43
0.0000001
 44
0.0000000001
 40
0.0
 40
0.0
 40
0.0
 40
0.0
 40
0.0184065644
 40
0.0365091116
 40
0.0543124782
 40
0.0718239842
 40
0.1060042503
 40
0.1391465064
 40
0.1553621233
 40
0.1713559179
 40
0.1871407055
 40
0.2027292814
 40
0.2333627097
 40
0.2633577585
 40
0.2928075753
 40
0.3218038372
 40
0.3504409285
 40
0.3788250456
 40
0.4070990652
 40
0.4355252453
 40
0.4499882004
 40
0.4649009704
 40
0.4727036907
 40
0.4809539985
 40
0.4899707259
 40
0.499981727
 40
0.5100164571
 40
0.5190706142
 40
0.5273418755
 40
0.5351575071
 40
0.5500816359
 40
0.5645498898
 40
0.5929794549
 40
0.6212533131
 40
0.6496357803
 40
0.6782701287
 40
0.7072627817
 40
0.736708193
 40
0.7666980241
 40
0.7973253305
 40
0.8129105188
 40
0.8286917037
 40
0.8446816661
 40
0.8608932019
 40
0.8940266543
 40
0.9281972301
 40
0.9457036197
 40
0.9635017202
 40
0.9815988828
 40
1.0
 40
1.0
 40
1.0
 40
1.0
 10
14.0636324554
 20
6.4873061314
 30
0.0
 10
14.0581804286
 20
6.4847297158
 30
0.0
 10
14.0474703756
 20
6.4793959808
 30
0.0
 10
14.0318763116
 20
6.4708177954
 30
0.0
 10
14.0168902009
 20
6.4617714424
 30
0.0
 10
13.9978749833
 20
6.4492420559
 30
0.0
 10
13.9755672873
 20
6.4326169459
 30
0.0
 10
13.954897136
 20
6.4146393056
 30
0.0
 10
13.9395400851
 20
6.3997159944
 30
0.0
 10
13.9286637824
 20
6.3883565723
 30
0.0
 10
13.9183349915
 20
6.3767710887
 30
0.0
 10
13.9053553055
 20
6.3611403344
 30
0.0
 10
13.8904054598
 20
6.3411144216
 30
0.0
 10
13.8743846615
 20
6.3163057339
 30
0.0
 10
13.8603094301
 20
6.2909560576
 30
0.0
 10
13.8481124066
 20
6.265143538
 30
0.0
 10
13.837734073
 20
6.2389235069
 30
0.0
 10
13.8291233708
 20
6.2123199591
 30
0.0
 10
13.8222355392
 20
6.1852913191
 30
0.0
 10
13.8179238569
 20
6.1623621787
 30
0.0
 10
13.815328311
 20
6.1436018352
 30
0.0
 10
13.8140624462
 20
6.131485123
 30
0.0
 10
13.8132738332
 20
6.1213707314
 30
0.0
 10
13.8127905969
 20
6.1131713594
 30
0.0
 10
13.8124520457
 20
6.1042405422
 30
0.0
 10
13.812322335
 20
6.0947192434
 30
0.0
 10
13.8124434737
 20
6.0851855611
 30
0.0
 10
13.8127756679
 20
6.0762275747
 30
0.0
 10
13.8132545062
 20
6.0680045423
 30
0.0
 10
13.8140376438
 20
6.0578748628
 30
0.0
 10
13.815297168
 20
6.0457477421
 30
0.0
 10
13.8178826268
 20
6.0269793749
 30
0.0
 10
13.8221817419
 20
6.0040450251
 30
0.0
 10
13.8290544054
 20
5.9770119927
 30
0.0
 10
13.837649552
 20
5.9504049859
 30
0.0
 10
13.8480119197
 20
5.9241814653
 30
0.0
 10
13.8601924896
 20
5.8983650822
 30
0.0
 10
13.8742507078
 20
5.8730109344
 30
0.0
 10
13.8902538499
 20
5.8481970048
 30
0.0
 10
13.9051885598
 20
5.8281658353
 30
0.0
 10
13.9181557797
 20
5.8125303208
 30
0.0
 10
13.9284749136
 20
5.8009409848
 30
0.0
 10
13.9393413556
 20
5.7895773525
 30
0.0
 10
13.954684824
 20
5.7746479333
 30
0.0
 10
13.9753374872
 20
5.7566614969
 30
0.0
 10
13.9976276205
 20
5.7400258172
 30
0.0
 10
14.0166285878
 20
5.7274867734
 30
0.0
 10
14.0316038456
 20
5.7184324539
 30
0.0
 10
14.0471870881
 20
5.7098455564
 30
0.0
 10
14.0578900432
 20
5.7045055441
 30
0.0
 10
14.0633385481
 20
5.7019258564
 30
0.0
  0
SPLINE
  5
309
100
AcDbEntity
  8
0
100
AcDbSpline
 62
7
  6
CONTINUOUS
 70
0
 71
3
 72
55
 73
51
 74
0
 42
0.0000001
 43
0.0000001
 44
0.0000000001
 40
0.0
 40
0.0
 40
0.0
 40
0.0
 40
0.0184003673
 40
0.036496836
 40
0.0542942869
 40
0.0718000606
 40
0.1059696806
 40
0.139102359
 40
0.1553136619
 40
0.1713033966
 40
0.1870844027
 40
0.2026694702
 40
0.2332967311
 40
0.2632866008
 40
0.2927321743
 40
0.3217251343
 40
0.3503599248
 40
0.3787428896
 40
0.4070174371
 40
0.4354478284
 40
0.449916426
 40
0.4648418384
 40
0.4726570162
 40
0.4809282846
 40
0.4899803109
 40
0.5000186503
 40
0.5100261872
 40
0.519046626
 40
0.5272970449
 40
0.5351006032
 40
0.5500133203
 40
0.5644768699
 40
0.5929037979
 40
0.6211784055
 40
0.6495631056
 40
0.6782006488
 40
0.707197252
 40
0.736647316
 40
0.7666425058
 40
0.7972758647
 40
0.812864323
 40
0.8286489513
 40
0.8446425238
 40
0.8608578869
 40
0.8939993929
 40
0.9281786765
 40
0.9456895796
 40
0.9634923208
 40
0.9815941793
 40
1.0
 40
1.0
 40
1.0
 40
1.0
 10
14.4392375445
 20
5.7019569216
 30
0.0
 10
14.4446845984
 20
5.7045370252
 30
0.0
 10
14.4553846915
 20
5.7098777648
 30
0.0
 10
14.470963717
 20
5.718465461
 30
0.0
 10
14.4859348917
 20
5.7275203084
 30
0.0
 10
14.5049307103
 20
5.7400597429
 30
0.0
 10
14.527214786
 20
5.7566953865
 30
0.0
 10
14.5478618513
 20
5.774681117
 30
0.0
 10
14.5632011569
 20
5.7896097115
 30
0.0
 10
14.574064725
 20
5.8009725967
 30
0.0
 10
14.5843811172
 20
5.8125610817
 30
0.0
 10
14.5973449454
 20
5.8281953742
 30
0.0
 10
14.6122757884
 20
5.8482247767
 30
0.0
 10
14.6282748187
 20
5.8730362371
 30
0.0
 10
14.6423294752
 20
5.8983876613
 30
0.0
 10
14.6545070165
 20
5.9242011499
 30
0.0
 10
14.6648668343
 20
5.9504216474
 30
0.0
 10
14.6734599213
 20
5.977025548
 30
0.0
 10
14.6803309775
 20
6.0040554276
 30
0.0
 10
14.6846290919
 20
6.0269870841
 30
0.0
 10
14.6872140202
 20
6.0457535194
 30
0.0
 10
14.6884732113
 20
6.0578792554
 30
0.0
 10
14.6892561951
 20
6.0680077212
 30
0.0
 10
14.6897348378
 20
6.0762287032
 30
0.0
 10
14.6900671475
 20
6.0851858513
 30
0.0
 10
14.6901880968
 20
6.0947174838
 30
0.0
 10
14.6900583856
 20
6.1042386396
 30
0.0
 10
14.689720092
 20
6.113168268
 30
0.0
 10
14.6892368422
 20
6.1213679573
 30
0.0
 10
14.688448437
 20
6.1314811607
 30
0.0
 10
14.6871827913
 20
6.1435965462
 30
0.0
 10
14.6845878635
 20
6.1623545848
 30
0.0
 10
14.6802771549
 20
6.1852810529
 30
0.0
 10
14.6733909315
 20
6.2123065079
 30
0.0
 10
14.6647822877
 20
6.2389069476
 30
0.0
 10
14.6544064855
 20
6.2651239945
 30
0.0
 10
14.6422124614
 20
6.290933653
 30
0.0
 10
14.6281407481
 20
6.3162806651
 30
0.0
 10
14.6121240181
 20
6.34108692
 30
0.0
 10
14.5971780097
 20
6.3611110779
 30
0.0
 10
14.5842017033
 20
6.3767406002
 30
0.0
 10
14.573875642
 20
6.3883252352
 30
0.0
 10
14.5630022026
 20
6.3996839024
 30
0.0
 10
14.5476493032
 20
6.4146063822
 30
0.0
 10
14.5269847414
 20
6.4325832968
 30
0.0
 10
14.5046830903
 20
6.4492083613
 30
0.0
 10
14.4856730092
 20
6.4617381287
 30
0.0
 10
14.4706909639
 20
6.4707850088
 30
0.0
 10
14.4551010999
 20
6.479363989
 30
0.0
 10
14.444393901
 20
6.4846984459
 30
0.0
 10
14.4389433213
 20
6.4872752749
 30
0.0
  0
LINE
  5
30A
100
AcDbEntity
  8
0
100
AcDbLine
 62
7
  6
CONTINUOUS
 10
14.4228123975
 20
6.1398615958
 30
0.0
 11
14.4228535492
 21
6.1395260603
 31
0.0
  0
LINE
  5
30B
100
AcDbEntity
  8
0
100
AcDbLine
 62
7
  6
CONTINUOUS
 10
14.0797259681
 20
6.1395260603
 30
0.0
 11
14.0797671197
 21
6.1398615961
 31
0.0
  0
SPLINE
  5
30C
100
AcDbEntity
  8
0
100
AcDbSpline
 62
7
  6
CONTINUOUS
 70
0
 71
3
 72
18
 73
14
 74
0
 42
0.0000001
 43
0.0000001
 44
0.0000000001
 40
0.0
 40
0.0
 40
0.0
 40
0.0
 40
0.13391527
 40
0.266527294
 40
0.396696909
 40
0.5236045531
 40
0.6468842319
 40
0.707279265
 40
0.7668824292
 40
0.8258037913
 40
0.8841838793
 40
0.9421881936
 40
1.0
 40
1.0
 40
1.0
 40
1.0
 10
8.3858954977
 20
10.5043675247
 30
0.0
 10
8.3858579163
 20
10.5032913333
 30
0.0
 10
8.3856020273
 20
10.5011512626
 30
0.0
 10
8.3846881498
 20
10.4980793342
 30
0.0
 10
8.3832776727
 20
10.4952620491
 30
0.0
 10
8.3814227226
 20
10.4928081855
 30
0.0
 10
8.3795469363
 20
10.4911315618
 30
0.0
 10
8.3779015263
 20
10.4900678131
 30
0.0
 10
8.3766150377
 20
10.489417319
 30
0.0
 10
8.3752808192
 20
10.488915804
 30
0.0
 10
8.3739116055
 20
10.4885681321
 30
0.0
 10
8.3725209583
 20
10.4883778104
 30
0.0
 10
8.3715874917
 20
10.4883571138
 30
0.0
 10
8.3711228952
 20
10.4883733378
 30
0.0
  0
SPLINE
  5
30D
100
AcDbEntity
  8
0
100
AcDbSpline
 62
7
  6
CONTINUOUS
 70
0
 71
3
 72
23
 73
19
 74
0
 42
0.0000001
 43
0.0000001
 44
0.0000000001
 40
0.0
 40
0.0
 40
0.0
 40
0.0
 40
0.1129529879
 40
0.2290698044
 40
0.2883061321
 40
0.3483253824
 40
0.4706724562
 40
0.5331012686
 40
0.5964243221
 40
0.6607154932
 40
0.7261032803
 40
0.7927041035
 40
0.8265216269
 40
0.8606770911
 40
0.895156057
 40
0.9299210706
 40
0.9649015603
 40
1.0
 40
1.0
 40
1.0
 40
1.0
 10
8.4496806986
 20
10.9376898547
 30
0.0
 10
8.4486406604
 20
10.9375660802
 30
0.0
 10
8.446543688
 20
10.9372020513
 30
0.0
 10
8.4439630453
 20
10.9364878782
 30
0.0
 10
8.4419065871
 20
10.9357543466
 30
0.0
 10
8.4398358343
 20
10.9348977598
 30
0.0
 10
8.4378077484
 20
10.9338653772
 30
0.0
 10
8.4358605143
 20
10.932637838
 30
0.0
 10
8.434436321
 20
10.9315971465
 30
0.0
 10
8.4330803228
 20
10.9304258381
 30
0.0
 10
8.4318160943
 20
10.9291122928
 30
0.0
 10
8.4308832797
 20
10.927884208
 30
0.0
 10
8.4302345736
 20
10.9268171262
 30
0.0
 10
8.4298036825
 20
10.9259691951
 30
0.0
 10
8.4294467027
 20
10.9250779319
 30
0.0
 10
8.4291697049
 20
10.9241505601
 30
0.0
 10
8.4289833567
 20
10.9231947451
 30
0.0
 10
8.4289267943
 20
10.9225459538
 30
0.0
 10
8.4289153984
 20
10.9222206966
 30
0.0
  0
SPLINE
  5
30E
100
AcDbEntity
  8
0
100
AcDbSpline
 62
7
  6
CONTINUOUS
 70
0
 71
3
 72
29
 73
25
 74
0
 42
0.0000001
 43
0.0000001
 44
0.0000000001
 40
0.0
 40
0.0
 40
0.0
 40
0.0
 40
0.2267349602
 40
0.4267627294
 40
0.516346885
 40
0.598762711
 40
0.673858445
 40
0.7414859468
 40
0.8015118882
 40
0.8538082647
 40
0.8982621885
 40
0.917515901
 40
0.9347708186
 40
0.9500184093
 40
0.9632515694
 40
0.974463195
 40
0.9836462217
 40
0.9907950765
 40
0.9936055241
 40
0.9959060535
 40
0.9976962154
 40
0.9989755603
 40
0.9997436385
 40
1.0
 40
1.0
 40
1.0
 40
1.0
 10
14.4049574188
 20
5.703821591
 30
0.0
 10
14.4063503322
 20
5.7044418655
 30
0.0
 10
14.408965176
 20
5.7056249448
 30
0.0
 10
14.4121127186
 20
5.7070915657
 30
0.0
 10
14.4143724334
 20
5.7081653651
 30
0.0
 10
14.4158701109
 20
5.7088852514
 30
0.0
 10
14.4172319839
 20
5.7095468013
 30
0.0
 10
14.4184562142
 20
5.7101470784
 30
0.0
 10
14.419540969
 20
5.7106835273
 30
0.0
 10
14.4204846414
 20
5.7111536924
 30
0.0
 10
14.4211820108
 20
5.7115033544
 30
0.0
 10
14.4216683452
 20
5.7117481488
 30
0.0
 10
14.4219791258
 20
5.711904863
 30
0.0
 10
14.4222536575
 20
5.7120435401
 30
0.0
 10
14.4224918255
 20
5.7121640677
 30
0.0
 10
14.4226935287
 20
5.7122663292
 30
0.0
 10
14.4228586658
 20
5.7123502287
 30
0.0
 10
14.4229733936
 20
5.712408619
 30
0.0
 10
14.4230468298
 20
5.7124460935
 30
0.0
 10
14.4230881891
 20
5.7124671541
 30
0.0
 10
14.423120284
 20
5.7124836931
 30
0.0
 10
14.423143401
 20
5.7124952079
 30
0.0
 10
14.4231569427
 20
5.7125026889
 30
0.0
 10
14.4231633305
 20
5.7125053972
 30
0.0
 10
14.4231647586
 20
5.712506363
 30
0.0
  0
SPLINE
  5
30F
100
AcDbEntity
  8
0
100
AcDbSpline
 62
7
  6
CONTINUOUS
 70
0
 71
3
 72
18
 73
14
 74
0
 42
0.0000001
 43
0.0000001
 44
0.0000000001
 40
0.0
 40
0.0
 40
0.0
 40
0.0
 40
0.1268117558
 40
0.2545097328
 40
0.382307459
 40
0.5094070901
 40
0.6350949869
 40
0.6972941319
 40
0.7589579077
 40
0.8200587426
 40
0.8805885797
 40
0.9405578922
 40
1.0
 40
1.0
 40
1.0
 40
1.0
 10
8.4204960248
 20
10.9710976005
 30
0.0
 10
8.4205708946
 20
10.9690643688
 30
0.0
 10
8.4210783785
 20
10.9649886235
 30
0.0
 10
8.4228627587
 20
10.9590910787
 30
0.0
 10
8.4256131824
 20
10.9535700229
 30
0.0
 10
8.4292346033
 20
10.94861788
 30
0.0
 10
8.4328933639
 20
10.9450908269
 30
0.0
 10
8.4361233317
 20
10.9427171862
 30
0.0
 10
8.4386666782
 20
10.94117983
 30
0.0
 10
8.4413160219
 20
10.9398937825
 30
0.0
 10
8.4440486397
 20
10.9388701527
 30
0.0
 10
8.4468403654
 20
10.9381180543
 30
0.0
 10
8.4487334618
 20
10.9378007378
 30
0.0
 10
8.4496807028
 20
10.9376898552
 30
0.0
  0
SPLINE
  5
310
100
AcDbEntity
  8
0
100
AcDbSpline
 62
7
  6
CONTINUOUS
 70
0
 71
3
 72
31
 73
27
 74
0
 42
0.0000001
 43
0.0000001
 44
0.0000000001
 40
0.0
 40
0.0
 40
0.0
 40
0.0
 40
0.0002557643
 40
0.0005751712
 40
0.0010221977
 40
0.0022989193
 40
0.0040855484
 40
0.0063817046
 40
0.0091870074
 40
0.0125010765
 40
0.0163235319
 40
0.0254919964
 40
0.0366872221
 40
0.0499019197
 40
0.0651287073
 40
0.0823602076
 40
0.1015883354
 40
0.1459878402
 40
0.1982292022
 40
0.2582058415
 40
0.3257929882
 40
0.4008613669
 40
0.4832680167
 40
0.5728649167
 40
0.7730058246
 40
1.0
 40
1.0
 40
1.0
 40
1.0
 10
14.0794147586
 20
5.712506363
 30
0.0
 10
14.0794160801
 20
5.7125053691
 30
0.0
 10
14.0794196278
 20
5.7125040551
 30
0.0
 10
14.0794253895
 20
5.7125008513
 30
0.0
 10
14.0794372217
 20
5.7124949531
 30
0.0
 10
14.0794573815
 20
5.7124845495
 30
0.0
 10
14.0794882698
 20
5.7124688419
 30
0.0
 10
14.0795279318
 20
5.7124485991
 30
0.0
 10
14.0795764118
 20
5.7124239067
 30
0.0
 10
14.0796336878
 20
5.7123947444
 30
0.0
 10
14.0797276397
 20
5.7123469495
 30
0.0
 10
14.079867036
 20
5.712276116
 30
0.0
 10
14.0800606278
 20
5.7121779003
 30
0.0
 10
14.0802892299
 20
5.7120621257
 30
0.0
 10
14.0805527448
 20
5.7119289156
 30
0.0
 10
14.0808510707
 20
5.711778396
 30
0.0
 10
14.0813179616
 20
5.711543287
 30
0.0
 10
14.0819875212
 20
5.7112074099
 30
0.0
 10
14.0828936471
 20
5.710755606
 30
0.0
 10
14.0839353624
 20
5.7102397982
 30
0.0
 10
14.0851112097
 20
5.7096623213
 30
0.0
 10
14.086419485
 20
5.7090255629
 30
0.0
 10
14.0878584693
 20
5.7083322451
 30
0.0
 10
14.0900303731
 20
5.7072973036
 30
0.0
 10
14.0930565289
 20
5.7058822084
 30
0.0
 10
14.0955703981
 20
5.7047393619
 30
0.0
 10
14.0969097706
 20
5.7041396787
 30
0.0
  0
SPLINE
  5
311
100
AcDbEntity
  8
0
100
AcDbSpline
 62
7
  6
CONTINUOUS
 70
0
 71
3
 72
23
 73
19
 74
0
 42
0.0000001
 43
0.0000001
 44
0.0000000001
 40
0.0
 40
0.0
 40
0.0
 40
0.0
 40
0.0624151775
 40
0.124840863
 40
0.1872693674
 40
0.2497123711
 40
0.3121692806
 40
0.3746431084
 40
0.4371343556
 40
0.4996427917
 40
0.5621669929
 40
0.6247045403
 40
0.6872522837
 40
0.7498060597
 40
0.8123627757
 40
0.8749146474
 40
0.9374655966
 40
1.0
 40
1.0
 40
1.0
 40
1.0
 10
14.0640045607
 20
6.4865511673
 30
0.0
 10
14.0644201364
 20
6.4867496836
 30
0.0
 10
14.0652774337
 20
6.487094611
 30
0.0
 10
14.0666175378
 20
6.4874457495
 30
0.0
 10
14.0679916091
 20
6.4876254266
 30
0.0
 10
14.0693775371
 20
6.4876307921
 30
0.0
 10
14.0707534745
 20
6.4874617155
 30
0.0
 10
14.0720975773
 20
6.487120918
 30
0.0
 10
14.0733885543
 20
6.4866137841
 30
0.0
 10
14.0746059444
 20
6.4859483599
 30
0.0
 10
14.0757304537
 20
6.4851351889
 30
0.0
 10
14.0767442683
 20
6.484187166
 30
0.0
 10
14.07763132
 20
6.4831193164
 30
0.0
 10
14.0783775779
 20
6.481948562
 30
0.0
 10
14.0789711698
 20
6.4806934709
 30
0.0
 10
14.0794027856
 20
6.4793738426
 30
0.0
 10
14.0796654475
 20
6.478010885
 30
0.0
 10
14.0797252404
 20
6.4770869448
 30
0.0
 10
14.0797260387
 20
6.4766255096
 30
0.0
  0
LINE
  5
312
100
AcDbEntity
  8
0
100
AcDbLine
 62
7
  6
CONTINUOUS
 10
8.4510084646
 20
10.9379063784
 30
0.0
 11
8.4496806943
 21
10.9376898528
 31
0.0
  0
SPLINE
  5
313
100
AcDbEntity
  8
0
100
AcDbSpline
 62
7
  6
CONTINUOUS
 70
0
 71
3
 72
78
 73
74
 74
0
 42
0.0000001
 43
0.0000001
 44
0.0000000001
 40
0.0
 40
0.0
 40
0.0
 40
0.0
 40
0.0000098358
 40
0.0000391987
 40
0.0000880831
 40
0.0001564836
 40
0.0003518109
 40
0.000625137
 40
0.0009764145
 40
0.001405543
 40
0.0019123844
 40
0.0024967997
 40
0.0038977849
 40
0.0056072052
 40
0.0076236343
 40
0.0099453404
 40
0.012570224
 40
0.0154959414
 40
0.0222385252
 40
0.0301490097
 40
0.0392009656
 40
0.049365069
 40
0.0606091104
 40
0.0728992371
 40
0.0862001114
 40
0.1156850983
 40
0.1487564024
 40
0.1850912836
 40
0.2243523115
 40
0.2661851289
 40
0.3102151687
 40
0.3560447506
 40
0.4032519676
 40
0.4999955334
 40
0.5486073899
 40
0.5967478462
 40
0.6439550606
 40
0.6897846387
 40
0.733814676
 40
0.7756474681
 40
0.8149085003
 40
0.8512433525
 40
0.8843146582
 40
0.8995251685
 40
0.9137998737
 40
0.9271007746
 40
0.9393909537
 40
0.9506349943
 40
0.9607990267
 40
0.9698510995
 40
0.9777617525
 40
0.9812805616
 40
0.9845041452
 40
0.9874297321
 40
0.9900546728
 40
0.9923766223
 40
0.9943933884
 40
0.9961031105
 40
0.9968423281
 40
0.9975041899
 40
0.9980885516
 40
0.9985952915
 40
0.999024288
 40
0.9993754204
 40
0.9995217575
 40
0.9996486006
 40
0.9997559448
 40
0.9998437848
 40
0.9999121154
 40
0.9999609316
 40
0.9999780201
 40
0.9999902282
 40
1.0
 40
1.0
 40
1.0
 40
1.0
 10
14.0968928347
 20
5.6322276876
 30
0.0
 10
14.0968937801
 20
5.632227297
 30
0.0
 10
14.0968977781
 20
5.6322263921
 30
0.0
 10
14.0969064858
 20
5.6322235781
 30
0.0
 10
14.096921171
 20
5.6322194259
 30
0.0
 10
14.096952351
 20
5.6322102244
 30
0.0
 10
14.0970059992
 20
5.6321946568
 30
0.0
 10
14.0970878832
 20
5.6321708406
 30
0.0
 10
14.0971931609
 20
5.6321403765
 30
0.0
 10
14.0973217935
 20
5.6321032502
 30
0.0
 10
14.097473759
 20
5.6320595227
 30
0.0
 10
14.097722915
 20
5.6319880239
 30
0.0
 10
14.0980924179
 20
5.6318824497
 30
0.0
 10
14.0986053034
 20
5.6317365659
 30
0.0
 10
14.0992104617
 20
5.6315650622
 30
0.0
 10
14.0999074207
 20
5.6313682802
 30
0.0
 10
14.1006956436
 20
5.6311466853
 30
0.0
 10
14.1019269552
 20
5.6308022311
 30
0.0
 10
14.1036890609
 20
5.6303146054
 30
0.0
 10
14.1060681468
 20
5.6296675449
 30
0.0
 10
14.1087941039
 20
5.6289400009
 30
0.0
 10
14.1118593058
 20
5.6281391426
 30
0.0
 10
14.1152557385
 20
5.6272739533
 30
0.0
 10
14.1189745657
 20
5.6263530505
 30
0.0
 10
14.1245446725
 20
5.625015885
 30
0.0
 10
14.1322384459
 20
5.623266705
 30
0.0
 10
14.1423070227
 20
5.621162973
 30
0.0
 10
14.1534139949
 20
5.6190670682
 30
0.0
 10
14.1654618549
 20
5.617056628
 30
0.0
 10
14.1783446151
 20
5.6152059058
 30
0.0
 10
14.1919465445
 20
5.6135834396
 30
0.0
 10
14.2061416782
 20
5.6122497844
 30
0.0
 10
14.2258366061
 20
5.6109127514
 30
0.0
 10
14.2458684731
 20
5.6103567866
 30
0.0
 10
14.2659937167
 20
5.6106115261
 30
0.0
 10
14.2809567922
 20
5.6112036539
 30
0.0
 10
14.2956099062
 20
5.6121731584
 30
0.0
 10
14.3098072045
 20
5.6134824392
 30
0.0
 10
14.3234118837
 20
5.6150818673
 30
0.0
 10
14.3362978271
 20
5.6169102214
 30
0.0
 10
14.3483490789
 20
5.6189002431
 30
0.0
 10
14.3594596432
 20
5.620976905
 30
0.0
 10
14.3680779631
 20
5.6227623313
 30
0.0
 10
14.3744306437
 20
5.6241683354
 30
0.0
 10
14.3787674899
 20
5.6251660389
 30
0.0
 10
14.3828009629
 20
5.6261270579
 30
0.0
 10
14.3865213428
 20
5.6270416953
 30
0.0
 10
14.3899192438
 20
5.6279010907
 30
0.0
 10
14.392985872
 20
5.6286964894
 30
0.0
 10
14.3957130509
 20
5.6294195294
 30
0.0
 10
14.3977694967
 20
5.6299753703
 30
0.0
 10
14.3992394286
 20
5.6303778139
 30
0.0
 10
14.400208787
 20
5.6306451363
 30
0.0
 10
14.401088098
 20
5.6308892746
 30
0.0
 10
14.4018767003
 20
5.6311095815
 30
0.0
 10
14.4025739822
 20
5.6313054617
 30
0.0
 10
14.403179416
 20
5.6314763286
 30
0.0
 10
14.4036262931
 20
5.6316029404
 30
0.0
 10
14.4039375256
 20
5.6316913531
 30
0.0
 10
14.4041361464
 20
5.631747854
 30
0.0
 10
14.4043114936
 20
5.6317977987
 30
0.0
 10
14.4044635332
 20
5.6318411584
 30
0.0
 10
14.4045922344
 20
5.6318779041
 30
0.0
 10
14.4046848841
 20
5.6319043833
 30
0.0
 10
14.4047473151
 20
5.6319222358
 30
0.0
 10
14.404785365
 20
5.631933124
 30
0.0
 10
14.4048175681
 20
5.6319423339
 30
0.0
 10
14.4048439089
 20
5.6319498958
 30
0.0
 10
14.404864425
 20
5.6319557223
 30
0.0
 10
14.4048778043
 20
5.6319596612
 30
0.0
 10
14.4048856703
 20
5.6319617757
 30
0.0
 10
14.4048894775
 20
5.6319631142
 30
0.0
 10
14.4048918659
 20
5.6319633224
 30
0.0
 10
14.4048927217
 20
5.6319638707
 30
0.0
  0
SPLINE
  5
314
100
AcDbEntity
  8
0
100
AcDbSpline
 62
7
  6
CONTINUOUS
 70
0
 71
3
 72
23
 73
19
 74
0
 42
0.0000001
 43
0.0000001
 44
0.0000000001
 40
0.0
 40
0.0
 40
0.0
 40
0.0
 40
0.0625344675
 40
0.1250853934
 40
0.1876372185
 40
0.2501938789
 40
0.3127475967
 40
0.3752952817
 40
0.4378327767
 40
0.5003569344
 40
0.5628653393
 40
0.6253565694
 40
0.6878303953
 40
0.750287317
 40
0.8127303514
 40
0.8751588858
 40
0.9375846442
 40
1.0
 40
1.0
 40
1.0
 40
1.0
 10
14.4228533076
 20
6.4766257367
 30
0.0
 10
14.4228541039
 20
6.4770871747
 30
0.0
 10
14.4229138847
 20
6.4780111207
 30
0.0
 10
14.4231765414
 20
6.4793740871
 30
0.0
 10
14.423608154
 20
6.4806937229
 30
0.0
 10
14.4242017433
 20
6.4819488219
 30
0.0
 10
14.4249480015
 20
6.4831195833
 30
0.0
 10
14.4258350549
 20
6.4841874393
 30
0.0
 10
14.426848873
 20
6.4851354674
 30
0.0
 10
14.4279733872
 20
6.4859486424
 30
0.0
 10
14.4291907834
 20
6.4866140691
 30
0.0
 10
14.4304817673
 20
6.4871212041
 30
0.0
 10
14.4318258778
 20
6.487462001
 30
0.0
 10
14.433201823
 20
6.4876310754
 30
0.0
 10
14.4345877588
 20
6.4876257057
 30
0.0
 10
14.4359618376
 20
6.4874460236
 30
0.0
 10
14.4373019496
 20
6.4870948779
 30
0.0
 10
14.438159251
 20
6.4867499434
 30
0.0
 10
14.4385748298
 20
6.4865514248
 30
0.0
  0
SPLINE
  5
315
100
AcDbEntity
  8
0
100
AcDbSpline
 62
7
  6
CONTINUOUS
 70
0
 71
3
 72
42
 73
38
 74
0
 42
0.0000001
 43
0.0000001
 44
0.0000000001
 40
0.0
 40
0.0
 40
0.0
 40
0.0
 40
0.0000179711
 40
0.0000718745
 40
0.0001616866
 40
0.000287384
 40
0.0004489433
 40
0.0006463411
 40
0.0011485583
 40
0.0017938485
 40
0.0025820249
 40
0.0035129008
 40
0.0045862897
 40
0.0071598623
 40
0.0103012561
 40
0.0140089404
 40
0.0182801174
 40
0.0231106338
 40
0.0284962935
 40
0.0344329291
 40
0.0409164032
 40
0.0555073028
 40
0.072229776
 40
0.0910362958
 40
0.1118798612
 40
0.134713668
 40
0.1594859754
 40
0.186144716
 40
0.2146400649
 40
0.2769438713
 40
0.3460245402
 40
0.4215543042
 40
0.5032611032
 40
0.590940936
 40
0.6844642076
 40
0.7837866955
 40
1.0
 40
1.0
 40
1.0
 40
1.0
 10
8.4455922748
 20
10.9624485712
 30
0.0
 10
8.4455922254
 20
10.9624484379
 30
0.0
 10
8.4455916388
 20
10.9624493426
 30
0.0
 10
8.4455907926
 20
10.9624496285
 30
0.0
 10
8.445589064
 20
10.9624512793
 30
0.0
 10
8.4455867934
 20
10.9624530375
 30
0.0
 10
8.4455838142
 20
10.9624555177
 30
0.0
 10
8.4455785503
 20
10.9624598073
 30
0.0
 10
8.445570311
 20
10.9624665558
 30
0.0
 10
8.4455584535
 20
10.9624762301
 30
0.0
 10
8.4455439586
 20
10.9624880474
 30
0.0
 10
8.44552683
 20
10.9625019881
 30
0.0
 10
8.4454987327
 20
10.962524823
 30
0.0
 10
8.4454570288
 20
10.9625586351
 30
0.0
 10
8.4453990715
 20
10.9626054828
 30
0.0
 10
8.4453305942
 20
10.9626606734
 30
0.0
 10
8.4452515996
 20
10.9627241033
 30
0.0
 10
8.4451620791
 20
10.9627956203
 30
0.0
 10
8.4450620402
 20
10.9628750736
 30
0.0
 10
8.4449514883
 20
10.9629623094
 30
0.0
 10
8.4447833347
 20
10.9630940739
 30
0.0
 10
8.4445470286
 20
10.963277166
 30
0.0
 10
8.444231718
 20
10.963517402
 30
0.0
 10
8.4438744699
 20
10.9637841635
 30
0.0
 10
8.4434753491
 20
10.9640755895
 30
0.0
 10
8.4430344653
 20
10.9643897758
 30
0.0
 10
8.442551788
 20
10.9647244883
 30
0.0
 10
8.4420273203
 20
10.9650774158
 30
0.0
 10
8.441248909
 20
10.9655844815
 30
0.0
 10
8.4401724963
 20
10.9662485008
 30
0.0
 10
8.4387492067
 20
10.9670569431
 30
0.0
 10
8.4371582675
 20
10.967878323
 30
0.0
 10
8.4353990284
 20
10.96869063
 30
0.0
 10
8.4334709979
 20
10.969471533
 30
0.0
 10
8.4313732431
 20
10.9701975775
 30
0.0
 10
8.4282611084
 20
10.971085452
 30
0.0
 10
8.4258002165
 20
10.9715499501
 30
0.0
 10
8.4241031816
 20
10.9717603088
 30
0.0
  0
SPLINE
  5
316
100
AcDbEntity
  8
0
100
AcDbSpline
 62
7
  6
CONTINUOUS
 70
0
 71
3
 72
11
 73
7
 74
0
 42
0.0000001
 43
0.0000001
 44
0.0000000001
 40
0.0
 40
0.0
 40
0.0
 40
0.0
 40
0.2358249466
 40
0.4782674539
 40
0.7317709553
 40
1.0
 40
1.0
 40
1.0
 40
1.0
 10
8.4241031816
 20
10.9717603088
 30
0.0
 10
8.4238134566
 20
10.9717962229
 30
0.0
 10
8.4232190176
 20
10.9718217027
 30
0.0
 10
8.4223155862
 20
10.9717201263
 30
0.0
 10
8.4213973948
 20
10.9714807649
 30
0.0
 10
8.4207967192
 20
10.9712384831
 30
0.0
 10
8.4204960286
 20
10.9710976024
 30
0.0
  0
SPLINE
  5
317
100
AcDbEntity
  8
0
100
AcDbSpline
 62
7
  6
CONTINUOUS
 70
0
 71
3
 72
23
 73
19
 74
0
 42
0.0000001
 43
0.0000001
 44
0.0000000001
 40
0.0
 40
0.0
 40
0.0
 40
0.0
 40
0.0362787634
 40
0.0764999216
 40
0.1208720171
 40
0.1694406678
 40
0.2221073956
 40
0.2787114872
 40
0.3390523723
 40
0.4028726067
 40
0.4699090148
 40
0.5398569897
 40
0.6123794563
 40
0.6871251411
 40
0.7636949878
 40
0.8416666897
 40
0.9205932461
 40
1.0
 40
1.0
 40
1.0
 40
1.0
 10
8.4204960286
 20
10.9710976024
 30
0.0
 10
8.4199075928
 20
10.9708219105
 30
0.0
 10
8.4187180179
 20
10.9701288416
 30
0.0
 10
8.4170084162
 20
10.9687927821
 30
0.0
 10
8.4152981842
 20
10.9671243068
 30
0.0
 10
8.4136045326
 20
10.9651369832
 30
0.0
 10
8.411941452
 20
10.9628476549
 30
0.0
 10
8.4103259293
 20
10.9602722711
 30
0.0
 10
8.4087761279
 20
10.9574273511
 30
0.0
 10
8.4073077357
 20
10.9543315831
 30
0.0
 10
8.4059397587
 20
10.9510033844
 30
0.0
 10
8.4046891443
 20
10.947463661
 30
0.0
 10
8.4035716117
 20
10.9437353169
 30
0.0
 10
8.4026049303
 20
10.9398427157
 30
0.0
 10
8.4018020239
 20
10.9358135271
 30
0.0
 10
8.4011754198
 20
10.9316773507
 30
0.0
 10
8.4007369699
 20
10.9274660549
 30
0.0
 10
8.4005715351
 20
10.9246336698
 30
0.0
 10
8.4005218768
 20
10.9232122203
 30
0.0
  0
SPLINE
  5
318
100
AcDbEntity
  8
0
100
AcDbSpline
 62
7
  6
CONTINUOUS
 70
0
 71
3
 72
69
 73
65
 74
0
 42
0.0000001
 43
0.0000001
 44
0.0000000001
 40
0.0
 40
0.0
 40
0.0
 40
0.0
 40
0.0177972664
 40
0.0353647735
 40
0.0527014924
 40
0.0698099308
 40
0.0866955159
 40
0.1033657425
 40
0.1198294886
 40
0.1360966579
 40
0.1680771298
 40
0.1838182347
 40
0.1994054934
 40
0.2301553592
 40
0.2604133513
 40
0.2753840969
 40
0.2902602253
 40
0.3197612161
 40
0.3489950258
 40
0.3780443363
 40
0.4070193961
 40
0.4361242986
 40
0.450877332
 40
0.4659867863
 40
0.4738124822
 40
0.477839859
 40
0.4819752993
 40
0.4862418365
 40
0.4906668499
 40
0.4952639559
 40
0.4976111741
 40
0.4999751629
 40
0.5023420679
 40
0.5046962174
 40
0.5093127983
 40
0.5137728796
 40
0.518065975
 40
0.5222173164
 40
0.5262625967
 40
0.5341110963
 40
0.5417444382
 40
0.5492435516
 40
0.5640066782
 40
0.593118193
 40
0.6220933688
 40
0.6511398157
 40
0.6803688396
 40
0.7098634346
 40
0.7247358015
 40
0.7397023905
 40
0.7699508565
 40
0.8006894975
 40
0.816270483
 40
0.8320048841
 40
0.8479033849
 40
0.8639767732
 40
0.8802358598
 40
0.8966911062
 40
0.9133524146
 40
0.9302287272
 40
0.9473276199
 40
0.9646546215
 40
0.9822123687
 40
1.0
 40
1.0
 40
1.0
 40
1.0
 10
14.4049207605
 20
5.6359180446
 30
0.0
 10
14.4111674913
 20
5.6385421686
 30
0.0
 10
14.4234533518
 20
5.6440648633
 30
0.0
 10
14.4413364961
 20
5.6531776678
 30
0.0
 10
14.4585388215
 20
5.6629996327
 30
0.0
 10
14.4750495833
 20
5.6734659555
 30
0.0
 10
14.4908645249
 20
5.6845188629
 30
0.0
 10
14.5059851266
 20
5.6961039846
 30
0.0
 10
14.5204178343
 20
5.7081717936
 30
0.0
 10
14.538649156
 20
5.7247493037
 30
0.0
 10
14.5556733691
 20
5.7422164976
 30
0.0
 10
14.5714685936
 20
5.7604272381
 30
0.0
 10
14.5862754521
 20
5.7788537566
 30
0.0
 10
14.6032825032
 20
5.8025739103
 30
0.0
 10
14.6184521269
 20
5.8272309585
 30
0.0
 10
14.6294338264
 20
5.8473100744
 30
0.0
 10
14.6396102146
 20
5.8674866837
 30
0.0
 10
14.6509961755
 20
5.893116846
 30
0.0
 10
14.6625967202
 20
5.9244817061
 30
0.0
 10
14.6721636691
 20
5.9563162908
 30
0.0
 10
14.6797521303
 20
5.9886276763
 30
0.0
 10
14.684444364
 20
6.0159746282
 30
0.0
 10
14.6872262041
 20
6.0382536492
 30
0.0
 10
14.6885591068
 20
6.0525424727
 30
0.0
 10
14.6892632688
 20
6.0627834937
 30
0.0
 10
14.6896037439
 20
6.0688609576
 30
0.0
 10
14.6898253894
 20
6.0735877563
 30
0.0
 10
14.6900096614
 20
6.0784676542
 30
0.0
 10
14.6901520478
 20
6.0835248072
 30
0.0
 10
14.6902254761
 20
6.0878526553
 30
0.0
 10
14.6902570217
 20
6.0913962538
 30
0.0
 10
14.6902677455
 20
6.0940909219
 30
0.0
 10
14.6902638296
 20
6.0967882503
 30
0.0
 10
14.6902377054
 20
6.1003430634
 30
0.0
 10
14.6901687089
 20
6.1046943799
 30
0.0
 10
14.6900375168
 20
6.1097827137
 30
0.0
 10
14.6898602897
 20
6.1146924245
 30
0.0
 10
14.689642937
 20
6.1194424257
 30
0.0
 10
14.6893116426
 20
6.1255419663
 30
0.0
 10
14.6888117637
 20
6.1329596181
 30
0.0
 10
14.6880801387
 20
6.1416783238
 30
0.0
 10
14.6869481092
 20
6.1530037567
 30
0.0
 10
14.6845497139
 20
6.1724171945
 30
0.0
 10
14.6798915305
 20
6.1997763032
 30
0.0
 10
14.6723443613
 20
6.2320989158
 30
0.0
 10
14.6628197462
 20
6.2639431663
 30
0.0
 10
14.6512628185
 20
6.2953184031
 30
0.0
 10
14.6399141864
 20
6.3209588614
 30
0.0
 10
14.6297684606
 20
6.3411447997
 30
0.0
 10
14.6188184469
 20
6.3612336501
 30
0.0
 10
14.6036898507
 20
6.385904652
 30
0.0
 10
14.5867247471
 20
6.4096423427
 30
0.0
 10
14.571952851
 20
6.4280845825
 30
0.0
 10
14.5601942
 20
6.4416853839
 30
0.0
 10
14.5477932681
 20
6.4549610027
 30
0.0
 10
14.5347367794
 20
6.4678785577
 30
0.0
 10
14.521012508
 20
6.4804013978
 30
0.0
 10
14.506609001
 20
6.4924884275
 30
0.0
 10
14.4915175587
 20
6.5040949656
 30
0.0
 10
14.4757320219
 20
6.5151713815
 30
0.0
 10
14.4592506238
 20
6.5256636427
 30
0.0
 10
14.4420773801
 20
6.5355141345
 30
0.0
 10
14.4242226682
 20
6.5446581889
 30
0.0
 10
14.4119550928
 20
6.5502034396
 30
0.0
 10
14.4057172834
 20
6.5528392911
 30
0.0
  0
SPLINE
  5
319
100
AcDbEntity
  8
0
100
AcDbSpline
 62
7
  6
CONTINUOUS
 70
0
 71
3
 72
72
 73
68
 74
0
 42
0.0000001
 43
0.0000001
 44
0.0000000001
 40
0.0
 40
0.0
 40
0.0
 40
0.0
 40
0.0177975764
 40
0.0353653844
 40
0.0527023879
 40
0.0698110821
 40
0.0866968838
 40
0.1033672829
 40
0.1198311803
 40
0.1360984601
 40
0.1521795367
 40
0.1680852313
 40
0.1838263513
 40
0.1994135529
 40
0.2301632403
 40
0.2604209676
 40
0.2753915338
 40
0.2902674832
 40
0.3197680425
 40
0.3490013704
 40
0.3780501327
 40
0.4070245872
 40
0.4361288056
 40
0.4508814747
 40
0.4583715961
 40
0.4659909592
 40
0.4738163481
 40
0.477843952
 40
0.4819795792
 40
0.4862443659
 40
0.4906706767
 40
0.4952682519
 40
0.4976144928
 40
0.4999782452
 40
0.5023448711
 40
0.5046981941
 40
0.5093160412
 40
0.5137775245
 40
0.5180686317
 40
0.5201584847
 40
0.5222194654
 40
0.5262652046
 40
0.5341134716
 40
0.5417465237
 40
0.5492454814
 40
0.5640081638
 40
0.593118991
 40
0.6220935754
 40
0.651139489
 40
0.6803680439
 40
0.7098622289
 40
0.7247344263
 40
0.7397008441
 40
0.7699490518
 40
0.800687531
 40
0.8162684679
 40
0.8320028867
 40
0.8479014262
 40
0.8639748787
 40
0.880234083
 40
0.8966894884
 40
0.9133509816
 40
0.9302275224
 40
0.9473266839
 40
0.964653984
 40
0.9822120458
 40
1.0
 40
1.0
 40
1.0
 40
1.0
 10
14.0976486586
 20
6.5531996519
 30
0.0
 10
14.0914006698
 20
6.5505761268
 30
0.0
 10
14.0791123051
 20
6.5450545073
 30
0.0
 10
14.0612253667
 20
6.5359431074
 30
0.0
 10
14.0440193823
 20
6.5261221247
 30
0.0
 10
14.0275050826
 20
6.515656464
 30
0.0
 10
14.011686756
 20
6.5046039843
 30
0.0
 10
13.9965627907
 20
6.4930190243
 30
0.0
 10
13.9821272271
 20
6.48095136
 30
0.0
 10
13.9683715522
 20
6.468445806
 30
0.0
 10
13.955284257
 20
6.4555437978
 30
0.0
 10
13.9428532262
 20
6.4422820868
 30
0.0
 10
13.9310652478
 20
6.428693686
 30
0.0
 10
13.916255532
 20
6.4102664481
 30
0.0
 10
13.8992448268
 20
6.3865446104
 30
0.0
 10
13.8840721917
 20
6.3618856875
 30
0.0
 10
13.8730882291
 20
6.3418049531
 30
0.0
 10
13.8629098431
 20
6.3216266634
 30
0.0
 10
13.851521616
 20
6.2959942905
 30
0.0
 10
13.8399188378
 20
6.2646265778
 30
0.0
 10
13.8303500701
 20
6.2327890536
 30
0.0
 10
13.8227601588
 20
6.2004745892
 30
0.0
 10
13.818067208
 20
6.1731252063
 30
0.0
 10
13.815644135
 20
6.153722743
 30
0.0
 10
13.8144982338
 20
6.1424101345
 30
0.0
 10
13.8137559631
 20
6.1337088857
 30
0.0
 10
13.8132473342
 20
6.126311854
 30
0.0
 10
13.8129068555
 20
6.1202336298
 30
0.0
 10
13.8126854713
 20
6.115506762
 30
0.0
 10
13.8125003796
 20
6.1106264128
 30
0.0
 10
13.8123586111
 20
6.1055686262
 30
0.0
 10
13.812285614
 20
6.1012399586
 30
0.0
 10
13.8122531165
 20
6.0976962293
 30
0.0
 10
13.8122420193
 20
6.0950018075
 30
0.0
 10
13.8122465022
 20
6.0923046669
 30
0.0
 10
13.8122736994
 20
6.0887493775
 30
0.0
 10
13.812341781
 20
6.0843968303
 30
0.0
 10
13.8124724805
 20
6.0793076124
 30
0.0
 10
13.8126219269
 20
6.0751819663
 30
0.0
 10
13.8127617633
 20
6.0719707223
 30
0.0
 10
13.8129108587
 20
6.0688534218
 30
0.0
 10
13.8131990389
 20
6.0635478035
 30
0.0
 10
13.8136990169
 20
6.0561292954
 30
0.0
 10
13.8144308127
 20
6.0474098125
 30
0.0
 10
13.8155630001
 20
6.0360833689
 30
0.0
 10
13.8179619129
 20
6.0166681315
 30
0.0
 10
13.8226209526
 20
5.9893064682
 30
0.0
 10
13.8301695832
 20
5.9569808257
 30
0.0
 10
13.8396960719
 20
5.9251336185
 30
0.0
 10
13.8512552882
 20
5.8937555327
 30
0.0
 10
13.8626062325
 20
5.8681128646
 30
0.0
 10
13.8727539974
 20
5.8479252475
 30
0.0
 10
13.8837063014
 20
5.8278347893
 30
0.0
 10
13.8988380176
 20
5.803161902
 30
0.0
 10
13.9158066721
 20
5.7794226689
 30
0.0
 10
13.930581749
 20
5.7609794511
 30
0.0
 10
13.9423428895
 20
5.7473779565
 30
0.0
 10
13.9547464725
 20
5.734101777
 30
0.0
 10
13.9678058116
 20
5.7211838586
 30
0.0
 10
13.9815331044
 20
5.7086608417
 30
0.0
 10
13.9959397186
 20
5.6965737421
 30
0.0
 10
14.0110344867
 20
5.6849674332
 30
0.0
 10
14.0268234704
 20
5.6738914628
 30
0.0
 10
14.0433084367
 20
5.6633998894
 30
0.0
 10
14.0604853815
 20
5.6535504112
 30
0.0
 10
14.0783439093
 20
5.6444077612
 30
0.0
 10
14.0906140168
 20
5.6388636127
 30
0.0
 10
14.0968531005
 20
5.6362283815
 30
0.0
  0
ENDSEC
  0
SECTION
  2
OBJECTS
  0
DICTIONARY
  5
C
100
AcDbDictionary
280
0
281
1
  3
ACAD_GROUP
350
D
  3
ACAD_MLINESTYLE
350
17
  3
ACAD_LAYOUT
350
1A
  3
ACAD_PLOTSETTINGS
350
19
  3
ACAD_PLOTSTYLENAME
350
E
  0
DICTIONARY
  5
D
102
{ACAD_REACTORS
330
C
102
}
100
AcDbDictionary
280
0
281
1
  0
ACDBDICTIONARYWDFLT
  5
E
102
{ACAD_REACTORS
330
C
102
}
100
AcDbDictionary
281
1
  3
Normal
350
F
100
AcDbDictionaryWithDefault
340
F
  0
DICTIONARY
  5
17
102
{ACAD_REACTORS
330
C
102
}
100
AcDbDictionary
280
0
281
1
  3
Standard
350
18
  0
DICTIONARY
  5
19
102
{ACAD_REACTORS
330
C
102
}
100
AcDbDictionary
281
1
  0
DICTIONARY
  5
1A
102
{ACAD_REACTORS
330
C
102
}
100
AcDbDictionary
281
1
  3
Model
350
31A
  3
Layout1
350
31B
  0
ACDBPLACEHOLDER
  5
F
102
{ACAD_REACTORS
330
E
102
}
  0
MLINESTYLE
  5
18
102
{ACAD_REACTORS
330
17
102
}
100
AcDbMlineStyle
  2
STANDARD
 70
0
  3

 62
256
 51
90.0
 52
90.0
 71
2
 49
0.5
 62
256
  6
BYLAYER
 49
-0.5
 62
256
  6
BYLAYER
  0
LAYOUT
  5
31A
102
{ACAD_REACTORS
330
1A
102
}
100
AcDbPlotSettings
  1

  2
none_device
  4
ANSI_C_(22.00_x_17.00_Inches)
  6

 40
0.0
 41
0.0
 42
0.0
 43
0.0
 44
558.8
 45
431.8
 46
0.0
 47
0.0
 48
0.0
 49
0.0
140
0.0
141
0.0
142
1.0
143
1.0
 70
1024
 72
0
 73
0
 74
0
  7

 75
0
147
1.0
148
0.0
149
0.0
100
AcDbLayout
  1
Model
 70
0
 71
0
 10
0.0
 20
0.0
 11
22.0
 21
17.0
 12
0.0
 22
0.0
 32
0.0
 14
0.0
 24
0.0
 34
0.0
 15
0.0
 25
0.0
 35
0.0
146
0.0
 13
0.0
 23
0.0
 33
0.0
 16
1.0
 26
0.0
 36
0.0
 17
0.0
 27
1.0
 37
0.0
 76
0
330
203
345
0
346
0
  0
LAYOUT
  5
31B
102
{ACAD_REACTORS
330
1A
102
}
100
AcDbPlotSettings
  1

  2
none_device
  4
ANSI_C_(22.00_x_17.00_Inches)
  6

 40
0.0
 41
0.0
 42
0.0
 43
0.0
 44
558.8
 45
431.8
 46
0.0
 47
0.0
 48
0.0
 49
0.0
140
0.0
141
0.0
142
1.0
143
1.0
 70
0
 72
0
 73
0
 74
0
  7

 75
0
147
1.0
148
0.0
149
0.0
100
AcDbLayout
  1
Layout1
 70
0
 71
1
 10
0.0
 20
0.0
 11
22.0
 21
17.0
 12
0.0
 22
0.0
 32
0.0
 14
0.0
 24
0.0
 34
0.0
 15
0.0
 25
0.0
 35
0.0
146
0.0
 13
0.0
 23
0.0
 33
0.0
 16
1.0
 26
0.0
 36
0.0
 17
0.0
 27
1.0
 37
0.0
 76
0
330
204
345
0
346
0
  0
ENDSEC
  0
EOF
