999
DXF file: 1500-7173_TOP.dxf
999
Pro/ENGINEER 2025093 by Parametric Technology Corporation
  0
SECTION
  2
HEADER
  9
$ACADVER
  1
AC1032
  9
$DWGCODEPAGE
  3
ANSI_1252
  9
$EXTMAX
 10
22.0
 20
17.0
 30
0.0
  9
$EXTMIN
 10
0.0
 20
0.0
 30
0.0
  9
$LIMMIN
 10
0.0
 20
0.0
  9
$LIMMAX
 10
22.0
 20
17.0
  9
$VIEWCTR
 10
11.0
 20
8.5
  9
$VIEWSIZE
 40
17.0
  9
$CLAYER
  8
0
  9
$LTSCALE
 40
1.21
  9
$CELTYPE
  6
BYLAYER
  9
$DIMSCALE
 40
1.0
  9
$DIMASZ
 40
0.1875
  9
$DIMEXO
 40
0.0625
  9
$DIMDLI
 40
0.836
  9
$DIMEXE
 40
0.125
  9
$DIMCEN
 40
0.198
  9
$DIMLFAC
 40
1.0
  9
$DIMBLK
  1
_FILLED
  9
$DIMALT
 70
0
  9
$DIMALTF
 40
25.4
  9
$DIMTXT
 40
0.15625
  9
$DIMTOL
 70
0
  9
$DIMLIM
 70
0
  9
$DIMTFAC
 40
1.0
  9
$DIMGAP
 40
0.09
  9
$DIMDSEP
 70
46
  9
$AUNITS
 70
0
  9
$PDMODE
 70
3
  9
$PDSIZE
 40
0.3125
  9
$HANDSEED
  5
290
  9
$TILEMODE
 70
1
  9
$MEASUREMENT
 70
0
  9
$INSUNITS
 70
1
  0
ENDSEC
  0
SECTION
  2
CLASSES
  0
CLASS
  1
ACDBDICTIONARYWDFLT
  2
AcDbDictionaryWithDefault
  3
AutoCAD 2000
 90
0
 91
1
280
0
281
0
  0
CLASS
  1
ACDBPLACEHOLDER
  2
AcDbPlaceHolder
  3
AutoCAD 2000
 90
0
 91
1
280
0
281
0
  0
CLASS
  1
LAYOUT
  2
AcDbLayout
  3
AutoCAD 2000
 90
0
 91
0
280
0
281
0
  0
ENDSEC
  0
SECTION
  2
TABLES
  0
TABLE
  2
VPORT
  5
8
100
AcDbSymbolTable
 70
2
  0
VPORT
  5
1F4
100
AcDbSymbolTableRecord
100
AcDbViewportTableRecord
  2
*ACTIVE
 70
0
 10
0.0
 20
0.0
 11
1.0
 21
1.0
 12
11.0
 22
8.5
 13
0.0
 23
0.0
 14
1.0
 24
1.0
 15
0.0
 25
0.0
 16
0.0
 26
0.0
 36
1.0
 17
0.0
 27
0.0
 37
0.0
 40
17.0
 41
1.2941176471
 42
50.0
 43
0.0
 44
0.0
 50
0.0
 51
0.0
 71
0
 72
100
 73
1
 74
1
 75
0
 76
0
 77
0
 78
0
  0
ENDTAB
  0
TABLE
  2
LTYPE
  5
5
100
AcDbSymbolTable
 70
6
  0
LTYPE
  5
14
100
AcDbSymbolTableRecord
100
AcDbLinetypeTableRecord
  2
BYBLOCK
 70
0
  3

 72
65
 73
0
 40
0.0
  0
LTYPE
  5
15
100
AcDbSymbolTableRecord
100
AcDbLinetypeTableRecord
  2
BYLAYER
 70
0
  3

 72
65
 73
0
 40
0.0
  0
LTYPE
  5
16
100
AcDbSymbolTableRecord
100
AcDbLinetypeTableRecord
  2
CONTINUOUS
 70
64
  3
Solid line
 72
65
 73
0
 40
0.0
  0
LTYPE
  5
1F5
100
AcDbSymbolTableRecord
100
AcDbLinetypeTableRecord
  2
CENTER
 70
64
  3
____ _ ____ _ ____ _ ____ _ ____ _ ____ _ ____
 72
65
 73
4
 40
0.6
 49
0.375
 74
0
 49
-0.075
 74
0
 49
0.075
 74
0
 49
-0.075
 74
0
  0
LTYPE
  5
1F6
100
AcDbSymbolTableRecord
100
AcDbLinetypeTableRecord
  2
HIDDEN
 70
64
  3
- - - - - - - - - - - - - - - - - - - -
 72
65
 73
2
 40
0.2
 49
0.1
 74
0
 49
-0.1
 74
0
  0
LTYPE
  5
1F7
100
AcDbSymbolTableRecord
100
AcDbLinetypeTableRecord
  2
PHANTOM
 70
64
  3
_____ _ _ _____ _ _ _____ _ _ _____
 72
65
 73
6
 40
0.8
 49
0.45
 74
0
 49
-0.05
 74
0
 49
0.1
 74
0
 49
-0.05
 74
0
 49
0.1
 74
0
 49
-0.05
 74
0
  0
LTYPE
  5
1F8
100
AcDbSymbolTableRecord
100
AcDbLinetypeTableRecord
  2
DOT
 70
64
  3
. . . . . . . . . . . . . . . . . . . .
 72
65
 73
2
 40
0.2
 49
0.1
 74
0
 49
-0.1
 74
0
  0
LTYPE
  5
1F9
100
AcDbSymbolTableRecord
100
AcDbLinetypeTableRecord
  2
DASHED
 70
64
  3
- - - - - - - - - - - - - - - - - - - -
 72
65
 73
2
 40
0.2
 49
0.1
 74
0
 49
-0.1
 74
0
  0
ENDTAB
  0
TABLE
  2
LAYER
  5
2
100
AcDbSymbolTable
 70
36
  0
LAYER
  5
10
100
AcDbSymbolTableRecord
100
AcDbLayerTableRecord
  2
0
 70
0
 62
7
  6
CONTINUOUS
370
-3
390
F
  0
LAYER
  5
1FA
100
AcDbSymbolTableRecord
100
AcDbLayerTableRecord
  2
DEFAULT_1
 70
0
 62
7
  6
CENTER
370
-3
390
F
  0
LAYER
  5
1FB
100
AcDbSymbolTableRecord
100
AcDbLayerTableRecord
  2
DEFAULT_2
 70
0
 62
8
  6
HIDDEN
370
-3
390
F
  0
LAYER
  5
1FC
100
AcDbSymbolTableRecord
100
AcDbLayerTableRecord
  2
DEFAULT_3
 70
0
 62
7
  6
PHANTOM
370
-3
390
F
  0
LAYER
  5
1FD
100
AcDbSymbolTableRecord
100
AcDbLayerTableRecord
  2
DEFAULT_COORDINATE_SYSTEM
 70
0
 62
7
  6
CONTINUOUS
370
-3
390
F
  0
LAYER
  5
1FE
100
AcDbSymbolTableRecord
100
AcDbLayerTableRecord
  2
DEFAULT_DATUM_AXES
 70
0
 62
7
  6
CONTINUOUS
370
-3
390
F
  0
LAYER
  5
1FF
100
AcDbSymbolTableRecord
100
AcDbLayerTableRecord
  2
DEFAULT_DATUM_CURVES
 70
0
 62
7
  6
CONTINUOUS
370
-3
390
F
  0
LAYER
  5
200
100
AcDbSymbolTableRecord
100
AcDbLayerTableRecord
  2
DEFAULT_DATUM_PLANES
 70
0
 62
7
  6
CONTINUOUS
370
-3
390
F
  0
ENDTAB
  0
TABLE
  2
STYLE
  5
3
100
AcDbSymbolTable
 70
1
  0
STYLE
  5
11
100
AcDbSymbolTableRecord
100
AcDbTextStyleTableRecord
  2
STANDARD
 70
0
 40
0.0
 41
0.8
 50
0.0
 71
0
 42
0.2
  3
txt
  4

  0
STYLE
  5
201
100
AcDbSymbolTableRecord
100
AcDbTextStyleTableRecord
  2
TEXTSTYLE_1
 70
0
 40
0.0
 41
0.8
 50
0.0
 71
0
 42
0.2
  3
gdt
  4

  0
ENDTAB
  0
TABLE
  2
VIEW
  5
6
100
AcDbSymbolTable
 70
0
  0
ENDTAB
  0
TABLE
  2
UCS
  5
7
100
AcDbSymbolTable
 70
0
  0
ENDTAB
  0
TABLE
  2
APPID
  5
9
100
AcDbSymbolTable
 70
1
  0
APPID
  5
202
100
AcDbSymbolTableRecord
100
AcDbRegAppTableRecord
  2
ACAD
 70
0
  0
ENDTAB
  0
TABLE
  2
BLOCK_RECORD
  5
1
100
AcDbSymbolTable
 70
0
  0
BLOCK_RECORD
  5
203
100
AcDbSymbolTableRecord
100
AcDbBlockTableRecord
  2
*Model_Space
  0
BLOCK_RECORD
  5
204
100
AcDbSymbolTableRecord
100
AcDbBlockTableRecord
  2
*Paper_Space
  0
BLOCK_RECORD
  5
205
100
AcDbSymbolTableRecord
100
AcDbBlockTableRecord
  2
_FILLED
  0
ENDTAB
  0
TABLE
  2
DIMSTYLE
  5
A
100
AcDbSymbolTable
 70
1
100
AcDbDimStyleTable
 71
0
  0
DIMSTYLE
105
206
100
AcDbSymbolTableRecord
100
AcDbDimStyleTableRecord
  2
STANDARD
 70
0
  3

  4

 40
1.0
 41
0.1875
 42
0.0625
 43
0.38
 44
0.125
 45
0.0
 46
0.0
 47
0.001
 48
0.001
140
0.15625
141
0.0
142
0.0
143
25.4
144
1.0
145
0.0
146
1.0
147
0.09
 71
0
 72
0
 73
1
 74
1
 75
0
 76
0
 77
0
 78
4
 79
1
170
0
171
2
172
0
173
0
174
0
175
0
176
0
177
0
178
0
270
2
179
1
271
3
272
3
273
2
274
2
275
0
280
0
281
0
282
0
283
1
284
4
285
0
286
0
287
3
288
0
340
11
278
46
341
205
342
205
343
205
344
205
  0
ENDTAB
  0
ENDSEC
  0
SECTION
  2
BLOCKS
  0
BLOCK
  5
20
100
AcDbEntity
  8
0
100
AcDbBlockBegin
  2
*Model_Space
 70
0
 10
0.0
 20
0.0
 30
0.0
  3
*Model_Space
  1

  0
ENDBLK
  5
21
100
AcDbEntity
  8
0
100
AcDbBlockEnd
  0
BLOCK
  5
1C
100
AcDbEntity
  8
0
100
AcDbBlockBegin
  2
*Paper_Space
 70
0
 10
0.0
 20
0.0
 30
0.0
  3
*Paper_Space
  1

  0
ENDBLK
  5
1D
100
AcDbEntity
  8
0
100
AcDbBlockEnd
  0
BLOCK
  5
207
100
AcDbEntity
  8
0
100
AcDbBlockBegin
  2
_FILLED
 70
64
 10
0.0
 20
0.0
 30
0.0
  3
_FILLED
  1

  0
SOLID
  5
208
100
AcDbEntity
  8
0
  6
BYBLOCK
 62
0
100
AcDbTrace
 10
0.0
 20
0.0
 30
0.0
 11
-1.0
 21
0.1666666667
 31
0.0
 12
-1.0
 22
-0.1666666667
 32
0.0
 13
-1.0
 23
-0.1666666667
 33
0.0
  0
ENDBLK
  5
209
100
AcDbEntity
  8
0
  6
BYBLOCK
 62
0
100
AcDbBlockEnd
  0
ENDSEC
  0
SECTION
  2
ENTITIES
  0
LINE
  5
20A
100
AcDbEntity
  8
0
100
AcDbLine
 62
7
  6
CONTINUOUS
 10
0.0
 20
0.0
 30
0.0
 11
0.0
 21
17.0
 31
0.0
  0
LINE
  5
20B
100
AcDbEntity
  8
0
100
AcDbLine
 62
7
  6
CONTINUOUS
 10
0.0
 20
0.0
 30
0.0
 11
22.0
 21
0.0
 31
0.0
  0
LINE
  5
20C
100
AcDbEntity
  8
0
100
AcDbLine
 62
7
  6
CONTINUOUS
 10
0.0
 20
17.0
 30
0.0
 11
22.0
 21
17.0
 31
0.0
  0
LINE
  5
20D
100
AcDbEntity
  8
0
100
AcDbLine
 62
7
  6
CONTINUOUS
 10
22.0
 20
0.0
 30
0.0
 11
22.0
 21
17.0
 31
0.0
  0
LINE
  5
20E
100
AcDbEntity
  8
0
100
AcDbLine
 62
7
  6
CONTINUOUS
 10
10.9331920315
 20
7.6088661604
 30
0.0
 11
10.3064724619
 21
7.6088661604
 31
0.0
  0
LINE
  5
20F
100
AcDbEntity
  8
0
100
AcDbLine
 62
7
  6
CONTINUOUS
 10
10.1097072467
 20
5.8799411896
 30
0.0
 11
10.1097088076
 21
5.8798657223
 31
0.0
  0
LINE
  5
210
100
AcDbEntity
  8
0
100
AcDbLine
 62
7
  6
CONTINUOUS
 10
10.1097072467
 20
5.8799411896
 30
0.0
 11
10.1097072523
 21
5.8798657221
 31
0.0
  0
LINE
  5
211
100
AcDbEntity
  8
0
100
AcDbLine
 62
7
  6
CONTINUOUS
 10
10.1097072467
 20
5.87986569
 30
0.0
 11
10.1097072467
 21
5.8799411896
 31
0.0
  0
LINE
  5
212
100
AcDbEntity
  8
0
100
AcDbLine
 62
7
  6
CONTINUOUS
 10
10.3057822467
 20
5.8903447296
 30
0.0
 11
10.3057822467
 21
5.9139542391
 31
0.0
  0
LINE
  5
213
100
AcDbEntity
  8
0
100
AcDbLine
 62
7
  6
CONTINUOUS
 10
10.306472466
 20
12.0258648092
 30
0.0
 11
10.3064724619
 21
5.9506161604
 31
0.0
  0
LINE
  5
214
100
AcDbEntity
  8
0
100
AcDbLine
 62
7
  6
CONTINUOUS
 10
10.3063334462
 20
5.950618971
 30
0.0
 11
10.3063322467
 21
5.9149139753
 31
0.0
  0
LINE
  5
215
100
AcDbEntity
  8
0
100
AcDbLine
 62
7
  6
CONTINUOUS
 10
10.3063521114
 20
5.9506189194
 30
0.0
 11
10.3063322467
 21
5.9497523979
 31
0.0
  0
LINE
  5
216
100
AcDbEntity
  8
0
100
AcDbLine
 62
7
  6
CONTINUOUS
 10
10.9333322467
 20
5.9497523979
 30
0.0
 11
10.9333120472
 21
5.950618958
 31
0.0
  0
LINE
  5
217
100
AcDbEntity
  8
0
100
AcDbLine
 62
7
  6
CONTINUOUS
 10
10.9331920315
 20
5.9506161604
 30
0.0
 11
10.9331920296
 21
12.0259511948
 31
0.0
  0
LINE
  5
218
100
AcDbEntity
  8
0
100
AcDbLine
 62
7
  6
CONTINUOUS
 10
10.9333322467
 20
5.9149139753
 30
0.0
 11
10.9333310471
 21
5.9506190105
 31
0.0
  0
LINE
  5
219
100
AcDbEntity
  8
0
100
AcDbLine
 62
7
  6
CONTINUOUS
 10
10.9338822467
 20
5.8903447296
 30
0.0
 11
10.9338822467
 21
5.9139542391
 31
0.0
  0
LINE
  5
21A
100
AcDbEntity
  8
0
100
AcDbLine
 62
7
  6
CONTINUOUS
 10
11.1299572467
 20
5.87986569
 30
0.0
 11
11.1299572467
 21
5.8799411896
 31
0.0
  0
LINE
  5
21B
100
AcDbEntity
  8
0
100
AcDbLine
 62
7
  6
CONTINUOUS
 10
10.9330571613
 20
5.950618127
 30
0.0
 11
10.933056494
 21
5.9505723609
 31
0.0
  0
LINE
  5
21C
100
AcDbEntity
  8
0
100
AcDbLine
 62
7
  6
CONTINUOUS
 10
11.1299556857
 20
5.8798657223
 30
0.0
 11
11.1299572467
 21
5.8799411896
 31
0.0
  0
LINE
  5
21D
100
AcDbEntity
  8
0
100
AcDbLine
 62
7
  6
CONTINUOUS
 10
10.9330578252
 20
5.9506181077
 30
0.0
 11
10.933056494
 21
5.9505723609
 31
0.0
  0
LINE
  5
21E
100
AcDbEntity
  8
0
100
AcDbLine
 62
7
  6
CONTINUOUS
 10
11.4163762345
 20
11.5936924945
 30
0.0
 11
11.4163762345
 21
12.4581398263
 31
0.0
  0
LINE
  5
21F
100
AcDbEntity
  8
0
100
AcDbLine
 62
7
  6
CONTINUOUS
 10
11.4327322467
 20
11.6101918662
 30
0.0
 11
11.4327322467
 21
12.4416404546
 31
0.0
  0
LINE
  5
220
100
AcDbEntity
  8
0
100
AcDbLine
 62
7
  6
CONTINUOUS
 10
11.4464822467
 20
11.6079506711
 30
0.0
 11
11.4464822467
 21
12.4439506711
 31
0.0
  0
LINE
  5
221
100
AcDbEntity
  8
0
100
AcDbLine
 62
7
  6
CONTINUOUS
 10
11.4629822467
 20
11.5914506711
 30
0.0
 11
11.4629822467
 21
12.4604506711
 31
0.0
  0
LINE
  5
222
100
AcDbEntity
  8
0
100
AcDbLine
 62
7
  6
CONTINUOUS
 10
12.0737539464
 20
11.8791466737
 30
0.0
 11
12.0737539464
 21
11.8790529387
 31
0.0
  0
LINE
  5
223
100
AcDbEntity
  8
0
100
AcDbLine
 62
7
  6
CONTINUOUS
 10
12.0827918898
 20
11.8777911745
 30
0.0
 11
12.0827918898
 21
11.8778849095
 31
0.0
  0
LINE
  5
224
100
AcDbEntity
  8
0
100
AcDbLine
 62
7
  6
CONTINUOUS
 10
12.1196822176
 20
12.2132356509
 30
0.0
 11
12.1196822467
 21
12.4604506711
 31
0.0
  0
LINE
  5
225
100
AcDbEntity
  8
0
100
AcDbLine
 62
7
  6
CONTINUOUS
 10
12.1196822467
 20
11.5914506711
 30
0.0
 11
12.1196822589
 21
11.8386654914
 31
0.0
  0
LINE
  5
226
100
AcDbEntity
  8
0
100
AcDbLine
 62
7
  6
CONTINUOUS
 10
12.1306822467
 20
12.4494506312
 30
0.0
 11
12.1306822467
 21
12.20849426
 31
0.0
  0
LINE
  5
227
100
AcDbEntity
  8
0
100
AcDbLine
 62
7
  6
CONTINUOUS
 10
12.1306822467
 20
11.602450781
 30
0.0
 11
12.1306822467
 21
11.8434068889
 31
0.0
  0
LINE
  5
228
100
AcDbEntity
  8
0
100
AcDbLine
 62
7
  6
CONTINUOUS
 10
10.9331920315
 20
10.3759161604
 30
0.0
 11
10.3064724619
 21
10.3759161604
 31
0.0
  0
LINE
  5
229
100
AcDbEntity
  8
0
100
AcDbLine
 62
7
  6
CONTINUOUS
 10
11.4163762345
 20
11.5936924945
 30
0.0
 11
10.9331920315
 21
11.5894758098
 31
0.0
  0
LINE
  5
22A
100
AcDbEntity
  8
0
100
AcDbLine
 62
7
  6
CONTINUOUS
 10
11.4629822467
 20
11.5914506711
 30
0.0
 11
12.1196822467
 21
11.5914506711
 31
0.0
  0
LINE
  5
22B
100
AcDbEntity
  8
0
100
AcDbLine
 62
7
  6
CONTINUOUS
 10
11.4464822467
 20
11.6535661604
 30
0.0
 11
11.4327322467
 21
11.6535661604
 31
0.0
  0
LINE
  5
22C
100
AcDbEntity
  8
0
100
AcDbLine
 62
7
  6
CONTINUOUS
 10
12.0737538195
 20
12.1728465902
 30
0.0
 11
12.0734897585
 21
12.1727984811
 31
0.0
  0
LINE
  5
22D
100
AcDbEntity
  8
0
100
AcDbLine
 62
7
  6
CONTINUOUS
 10
12.07375397
 20
12.1728465902
 30
0.0
 11
12.0734897585
 21
12.1727984811
 31
0.0
  0
LINE
  5
22E
100
AcDbEntity
  8
0
100
AcDbLine
 62
7
  6
CONTINUOUS
 10
12.0415794545
 20
11.8790529145
 30
0.0
 11
12.0737538129
 21
11.8790529145
 31
0.0
  0
LINE
  5
22F
100
AcDbEntity
  8
0
100
AcDbLine
 62
7
  6
CONTINUOUS
 10
12.0737539464
 20
11.8791466737
 30
0.0
 11
12.0414322755
 21
11.8791466737
 31
0.0
  0
LINE
  5
230
100
AcDbEntity
  8
0
100
AcDbLine
 62
7
  6
CONTINUOUS
 10
12.0249489864
 20
11.8905194119
 30
0.0
 11
12.0330301468
 21
11.8905194347
 31
0.0
  0
LINE
  5
231
100
AcDbEntity
  8
0
100
AcDbLine
 62
7
  6
CONTINUOUS
 10
12.073753811
 20
12.1728465892
 30
0.0
 11
12.0744191035
 21
12.1728585261
 31
0.0
  0
LINE
  5
232
100
AcDbEntity
  8
0
100
AcDbLine
 62
7
  6
CONTINUOUS
 10
12.0251582059
 20
12.1615373479
 30
0.0
 11
12.0330311041
 21
12.1615373414
 31
0.0
  0
LINE
  5
233
100
AcDbEntity
  8
0
100
AcDbLine
 62
7
  6
CONTINUOUS
 10
12.0415768651
 20
12.1728465902
 30
0.0
 11
12.0737538129
 21
12.1728465902
 31
0.0
  0
LWPOLYLINE
  5
234
100
AcDbEntity
  8
0
100
AcDbPolyline
 62
7
  6
CONTINUOUS
 90
7
 70
0
 10
12.0827680681
 20
11.8777979448
 10
12.0813519571
 20
11.8781661323
 10
12.0799114951
 20
11.8784732761
 10
12.0783443406
 20
11.8787320508
 10
12.0766831862
 20
11.8789226343
 10
12.0749375915
 20
11.8790316756
 10
12.0737538109
 20
11.8790529155
  0
LINE
  5
235
100
AcDbEntity
  8
0
100
AcDbLine
 62
7
  6
CONTINUOUS
 10
11.4464822467
 20
12.3982661604
 30
0.0
 11
11.4327322467
 21
12.3982661604
 31
0.0
  0
LINE
  5
236
100
AcDbEntity
  8
0
100
AcDbLine
 62
7
  6
CONTINUOUS
 10
11.4629822467
 20
12.4604506711
 30
0.0
 11
12.1196822467
 21
12.4604506711
 31
0.0
  0
LWPOLYLINE
  5
237
100
AcDbEntity
  8
0
100
AcDbPolyline
 62
7
  6
CONTINUOUS
 90
6
 70
0
 10
10.6511981368
 20
12.4648332697
 10
10.6514530754
 20
12.4648254667
 10
10.651717515
 20
12.4648186261
 10
10.6519894332
 20
12.4648129221
 10
10.6522669467
 20
12.4648084909
 10
11.4163762345
 20
12.4581398263
  0
LINE
  5
238
100
AcDbEntity
  8
0
100
AcDbLine
 62
7
  6
CONTINUOUS
 10
10.6507251453
 20
12.4648508905
 30
0.0
 11
10.6511981368
 21
12.4648332697
 31
0.0
  0
LINE
  5
239
100
AcDbEntity
  8
0
100
AcDbLine
 62
7
  6
CONTINUOUS
 10
10.6503138209
 20
12.4648695398
 30
0.0
 11
10.6507251453
 21
12.4648508905
 31
0.0
  0
LINE
  5
23A
100
AcDbEntity
  8
0
100
AcDbLine
 62
7
  6
CONTINUOUS
 10
10.6494802398
 20
12.4649169166
 30
0.0
 11
10.6503138209
 21
12.4648695398
 31
0.0
  0
ARC
  5
23B
100
AcDbEntity
  8
0
100
AcDbCircle
 62
7
  6
CONTINUOUS
 10
10.6194204167
 20
5.8798963693
 30
0.0
 40
0.5097164609
100
AcDbArc
 50
127.8764869586
 51
179.9949618415
  0
ARC
  5
23C
100
AcDbEntity
  8
0
100
AcDbCircle
 62
7
  6
CONTINUOUS
 10
10.6202440757
 20
5.8798963692
 30
0.0
 40
0.5097164609
100
AcDbArc
 50
0.0050381682
 51
52.123514479
  0
ARC
  5
23D
100
AcDbEntity
  8
0
100
AcDbCircle
 62
7
  6
CONTINUOUS
 10
10.6202534381
 20
5.8804756376
 30
0.0
 40
0.4932067612
100
AcDbArc
 50
0.004808734
 51
50.6143735105
  0
ARC
  5
23E
100
AcDbEntity
  8
0
100
AcDbCircle
 62
7
  6
CONTINUOUS
 10
10.6194110544
 20
5.8804756376
 30
0.0
 40
0.4932067612
100
AcDbArc
 50
129.3856264197
 51
179.9951912711
  0
ARC
  5
23F
100
AcDbEntity
  8
0
100
AcDbCircle
 62
7
  6
CONTINUOUS
 10
10.6194481385
 20
5.8805157907
 30
0.0
 40
0.3296158918
100
AcDbArc
 50
161.7321754511
 51
179.9997843545
  0
ARC
  5
240
100
AcDbEntity
  8
0
100
AcDbCircle
 62
7
  6
CONTINUOUS
 10
10.6202163549
 20
5.8805157907
 30
0.0
 40
0.3296158918
100
AcDbArc
 50
0.0002156455
 51
18.2678245565
  0
ARC
  5
241
100
AcDbEntity
  8
0
100
AcDbCircle
 62
7
  6
CONTINUOUS
 10
10.6143878117
 20
5.9598675981
 30
0.0
 40
0.3188042198
100
AcDbArc
 50
358.3374400225
 51
0.0000265433
  0
ARC
  5
242
100
AcDbEntity
  8
0
100
AcDbCircle
 62
7
  6
CONTINUOUS
 10
10.6198321376
 20
5.8906773318
 30
0.0
 40
0.3141912914
100
AcDbArc
 50
270.0000198855
 51
270.5972922468
  0
ARC
  5
243
100
AcDbEntity
  8
0
100
AcDbCircle
 62
7
  6
CONTINUOUS
 10
10.6198311633
 20
5.9153253557
 30
0.0
 40
0.3137204164
100
AcDbArc
 50
270.7495694543
 51
273.4307685912
  0
ARC
  5
244
100
AcDbEntity
  8
0
100
AcDbCircle
 62
7
  6
CONTINUOUS
 10
10.6201820109
 20
5.8903453522
 30
0.0
 40
0.3137002334
100
AcDbArc
 50
357.6797649354
 51
359.9998862841
  0
ARC
  5
245
100
AcDbEntity
  8
0
100
AcDbCircle
 62
7
  6
CONTINUOUS
 10
10.6194786792
 20
5.9139540146
 30
0.0
 40
0.3136964327
100
AcDbArc
 50
176.7849695468
 51
179.8224263464
  0
ARC
  5
246
100
AcDbEntity
  8
0
100
AcDbCircle
 62
7
  6
CONTINUOUS
 10
10.6201858144
 20
5.9139540146
 30
0.0
 40
0.3136964325
100
AcDbArc
 50
0.1775736484
 51
3.2150297853
  0
ARC
  5
247
100
AcDbEntity
  8
0
100
AcDbCircle
 62
7
  6
CONTINUOUS
 10
10.6202859628
 20
5.9139542287
 30
0.0
 40
0.3135962839
100
AcDbArc
 50
0.0000019059
 51
0.1775912516
  0
ARC
  5
248
100
AcDbEntity
  8
0
100
AcDbCircle
 62
7
  6
CONTINUOUS
 10
10.6193785304
 20
5.9139542287
 30
0.0
 40
0.3135962837
100
AcDbArc
 50
179.8224087441
 51
179.9999980939
  0
ARC
  5
249
100
AcDbEntity
  8
0
100
AcDbCircle
 62
7
  6
CONTINUOUS
 10
10.6201434439
 20
5.9497509762
 30
0.0
 40
0.3131888116
100
AcDbArc
 50
1.101063641
 51
1.8511364263
  0
ARC
  5
24A
100
AcDbEntity
  8
0
100
AcDbCircle
 62
7
  6
CONTINUOUS
 10
10.6195188989
 20
5.9497510507
 30
0.0
 40
0.3131866604
100
AcDbArc
 50
178.1488644275
 51
178.8804440161
  0
ARC
  5
24B
100
AcDbEntity
  8
0
100
AcDbCircle
 62
7
  6
CONTINUOUS
 10
10.6194690116
 20
5.9497519112
 30
0.0
 40
0.3131367659
100
AcDbArc
 50
178.880423082
 51
179.8413506863
  0
ARC
  5
24C
100
AcDbEntity
  8
0
100
AcDbCircle
 62
7
  6
CONTINUOUS
 10
10.6201978841
 20
5.9497519106
 30
0.0
 40
0.3131343635
100
AcDbArc
 50
0.1586578726
 51
1.1010841152
  0
ARC
  5
24D
100
AcDbEntity
  8
0
100
AcDbCircle
 62
7
  6
CONTINUOUS
 10
10.6202153404
 20
5.9149140115
 30
0.0
 40
0.3131169045
100
AcDbArc
 50
358.4400594608
 51
359.9999933759
  0
ARC
  5
24E
100
AcDbEntity
  8
0
100
AcDbCircle
 62
7
  6
CONTINUOUS
 10
10.6198322467
 20
12.0259161604
 30
0.0
 40
0.5445
100
AcDbArc
 50
305.1430028953
 51
306.7304199484
  0
ARC
  5
24F
100
AcDbEntity
  8
0
100
AcDbCircle
 62
7
  6
CONTINUOUS
 10
10.6198322467
 20
12.0259161604
 30
0.0
 40
0.5445
100
AcDbArc
 50
53.2695800515
 51
234.8569971047
  0
ARC
  5
250
100
AcDbEntity
  8
0
100
AcDbCircle
 62
7
  6
CONTINUOUS
 10
10.6198322467
 20
12.0259161604
 30
0.0
 40
0.528
100
AcDbArc
 50
55.7859703764
 51
233.5930666442
  0
ARC
  5
251
100
AcDbEntity
  8
0
100
AcDbCircle
 62
7
  6
CONTINUOUS
 10
10.6198322467
 20
12.0259161604
 30
0.0
 40
0.44
100
AcDbArc
 50
315.4354832362
 51
224.5645167638
  0
ARC
  5
252
100
AcDbEntity
  8
0
100
AcDbCircle
 62
7
  6
CONTINUOUS
 10
10.6198322467
 20
12.0259161604
 30
0.0
 40
0.4235
100
AcDbArc
 50
317.7483061277
 51
222.2516938836
  0
ARC
  5
253
100
AcDbEntity
  8
0
100
AcDbCircle
 62
7
  6
CONTINUOUS
 10
10.6139861902
 20
12.0259162411
 30
0.0
 40
0.3192058413
100
AcDbArc
 50
0.0062757197
 51
1.3332401647
  0
ARC
  5
254
100
AcDbEntity
  8
0
100
AcDbCircle
 62
7
  6
CONTINUOUS
 10
12.1159900441
 20
12.0670178036
 30
0.0
 40
0.1950231237
100
AcDbArc
 50
237.4062806908
 51
244.8249695107
  0
ARC
  5
255
100
AcDbEntity
  8
0
100
AcDbCircle
 62
7
  6
CONTINUOUS
 10
12.1152292792
 20
11.9860443601
 30
0.0
 40
0.1937893869
100
AcDbArc
 50
115.097658786
 51
122.3661863155
  0
ARC
  5
256
100
AcDbEntity
  8
0
100
AcDbCircle
 62
7
  6
CONTINUOUS
 10
12.1306822467
 20
12.0259506711
 30
0.0
 40
0.171875
100
AcDbArc
 50
93.4484629134
 51
266.5515626123
  0
ARC
  5
257
100
AcDbEntity
  8
0
100
AcDbCircle
 62
7
  6
CONTINUOUS
 10
12.1251378241
 20
12.0261460084
 30
0.0
 40
0.1541706119
100
AcDbArc
 50
180.5441330119
 51
240.5151155543
  0
ARC
  5
258
100
AcDbEntity
  8
0
100
AcDbCircle
 62
7
  6
CONTINUOUS
 10
12.1250688869
 20
12.0261168698
 30
0.0
 40
0.1540999117
100
AcDbArc
 50
179.8592831383
 51
180.5335429133
  0
ARC
  5
259
100
AcDbEntity
  8
0
100
AcDbCircle
 62
7
  6
CONTINUOUS
 10
12.1249689588
 20
12.0258829561
 30
0.0
 40
0.154
100
AcDbArc
 50
253.9327834772
 51
254.1028755726
  0
ARC
  5
25A
100
AcDbEntity
  8
0
100
AcDbCircle
 62
7
  6
CONTINUOUS
 10
12.1249689588
 20
12.0258829561
 30
0.0
 40
0.154
100
AcDbArc
 50
240.5560576091
 51
249.096761024
  0
ARC
  5
25B
100
AcDbEntity
  8
0
100
AcDbCircle
 62
7
  6
CONTINUOUS
 10
12.1249689588
 20
12.0260165502
 30
0.0
 40
0.154
100
AcDbArc
 50
240.5461033483
 51
249.2576696765
  0
CIRCLE
  5
25C
100
AcDbEntity
  8
0
100
AcDbCircle
 62
7
  6
CONTINUOUS
 10
12.1249689588
 20
12.0274007454
 30
0.0
 40
0.154
  0
ARC
  5
25D
100
AcDbEntity
  8
0
100
AcDbCircle
 62
7
  6
CONTINUOUS
 10
12.1249689588
 20
12.0255445522
 30
0.0
 40
0.154
100
AcDbArc
 50
240.4948539541
 51
249.0541991536
  0
ARC
  5
25E
100
AcDbEntity
  8
0
100
AcDbCircle
 62
7
  6
CONTINUOUS
 10
12.1249689588
 20
12.0255445508
 30
0.0
 40
0.154
100
AcDbArc
 50
252.3987445576
 51
359.9368503013
  0
CIRCLE
  5
25F
100
AcDbEntity
  8
0
100
AcDbCircle
 62
7
  6
CONTINUOUS
 10
12.1249689588
 20
12.0274101674
 30
0.0
 40
0.143
  0
ARC
  5
260
100
AcDbEntity
  8
0
100
AcDbCircle
 62
7
  6
CONTINUOUS
 10
12.0737539464
 20
12.2058465539
 30
0.0
 40
0.033
100
AcDbArc
 50
270.0
 51
271.2237952878
  0
ARC
  5
261
100
AcDbEntity
  8
0
100
AcDbCircle
 62
7
  6
CONTINUOUS
 10
12.0737539464
 20
11.8461466858
 30
0.0
 40
0.033
100
AcDbArc
 50
74.1048881675
 51
90.0
  0
ARC
  5
262
100
AcDbEntity
  8
0
100
AcDbCircle
 62
7
  6
CONTINUOUS
 10
11.4629822467
 20
11.6079506711
 30
0.0
 40
0.0165
100
AcDbArc
 50
180.0
 51
270.0
  0
ARC
  5
263
100
AcDbEntity
  8
0
100
AcDbCircle
 62
7
  6
CONTINUOUS
 10
11.4629822467
 20
12.4439506711
 30
0.0
 40
0.0165
100
AcDbArc
 50
90.0
 51
180.0
  0
ARC
  5
264
100
AcDbEntity
  8
0
100
AcDbCircle
 62
7
  6
CONTINUOUS
 10
11.4162322467
 20
11.6101918662
 30
0.0
 40
0.0165
100
AcDbArc
 50
270.5
 51
360.0
  0
ARC
  5
265
100
AcDbEntity
  8
0
100
AcDbCircle
 62
7
  6
CONTINUOUS
 10
11.4162322467
 20
12.4416404546
 30
0.0
 40
0.0165
100
AcDbArc
 50
0.0
 51
89.5
  0
ARC
  5
266
100
AcDbEntity
  8
0
100
AcDbCircle
 62
7
  6
CONTINUOUS
 10
12.1196822467
 20
12.2084945442
 30
0.0
 40
0.011
100
AcDbArc
 50
273.4481528663
 51
359.9993931083
  0
ARC
  5
267
100
AcDbEntity
  8
0
100
AcDbCircle
 62
7
  6
CONTINUOUS
 10
12.1196822467
 20
11.8434067979
 30
0.0
 40
0.011
100
AcDbArc
 50
0.0001914348
 51
86.5514482942
  0
ARC
  5
268
100
AcDbEntity
  8
0
100
AcDbCircle
 62
7
  6
CONTINUOUS
 10
12.1196822467
 20
11.6024506711
 30
0.0
 40
0.011
100
AcDbArc
 50
270.0
 51
360.0
  0
ARC
  5
269
100
AcDbEntity
  8
0
100
AcDbCircle
 62
7
  6
CONTINUOUS
 10
12.1196822467
 20
12.4494506711
 30
0.0
 40
0.011
100
AcDbArc
 50
0.0
 51
90.0
  0
SPLINE
  5
26A
100
AcDbEntity
  8
0
100
AcDbSpline
 62
7
  6
CONTINUOUS
 70
0
 71
3
 72
27
 73
23
 74
0
 42
0.0000001
 43
0.0000001
 44
0.0000000001
 40
0.0
 40
0.0
 40
0.0
 40
0.0
 40
0.0624903917
 40
0.0937390534
 40
0.1249879802
 40
0.187478922
 40
0.24997053
 40
0.2812202485
 40
0.3124702079
 40
0.3749637384
 40
0.4374585042
 40
0.4999546639
 40
0.5624523556
 40
0.6249516946
 40
0.6874527725
 40
0.7187075855
 40
0.7499628558
 40
0.8124675814
 40
0.8749741621
 40
0.9062317443
 40
0.937489782
 40
1.0
 40
1.0
 40
1.0
 40
1.0
 10
11.1753322467
 20
5.8775418492
 30
0.0
 10
11.1753322467
 20
5.8887760049
 30
0.0
 10
11.1748200633
 20
5.9056337388
 30
0.0
 10
11.1731152328
 20
5.9280410326
 30
0.0
 10
11.1707308355
 20
5.9503870481
 30
0.0
 10
11.1664792586
 20
5.9781682738
 30
0.0
 10
11.1605487292
 20
6.0056403261
 30
0.0
 10
11.154811117
 20
6.0273687869
 30
0.0
 10
11.1484163945
 20
6.0489133063
 30
0.0
 10
11.1392001524
 20
6.0754656937
 30
0.0
 10
11.1262277799
 20
6.1065960744
 30
0.0
 10
11.1113893351
 20
6.1368829064
 30
0.0
 10
11.0947395531
 20
6.1662139772
 30
0.0
 10
11.0763402869
 20
6.194480835
 30
0.0
 10
11.0596043367
 20
6.217065064
 30
0.0
 10
11.0454137949
 20
6.23449585
 30
0.0
 10
11.0307003301
 20
6.2514885004
 30
0.0
 10
11.0113509106
 20
6.2718804296
 30
0.0
 10
10.9907994669
 20
6.2910608273
 30
0.0
 10
10.9736847438
 20
6.3056343633
 30
0.0
 10
10.9561357832
 20
6.3196818921
 30
0.0
 10
10.9424987993
 20
6.3296144019
 30
0.0
 10
10.9332185234
 20
6.335951817
 30
0.0
  0
SPLINE
  5
26B
100
AcDbEntity
  8
0
100
AcDbSpline
 62
7
  6
CONTINUOUS
 70
0
 71
3
 72
27
 73
23
 74
0
 42
0.0000001
 43
0.0000001
 44
0.0000000001
 40
0.0
 40
0.0
 40
0.0
 40
0.0
 40
0.062510218
 40
0.0937682557
 40
0.1250258379
 40
0.1875324186
 40
0.2500371441
 40
0.2812924144
 40
0.3125472274
 40
0.3750483053
 40
0.4375476443
 40
0.500045336
 40
0.5625414956
 40
0.6250362615
 40
0.6875297919
 40
0.7187797514
 40
0.7500294698
 40
0.8125210778
 40
0.8750120198
 40
0.9062609465
 40
0.9375096082
 40
1.0
 40
1.0
 40
1.0
 40
1.0
 10
10.3064459411
 20
6.3359517973
 30
0.0
 10
10.2971656663
 20
6.329614382
 30
0.0
 10
10.2835286838
 20
6.3196818721
 30
0.0
 10
10.2659797251
 20
6.3056343432
 30
0.0
 10
10.248865004
 20
6.2910608071
 30
0.0
 10
10.2283135627
 20
6.2718804096
 30
0.0
 10
10.2089641454
 20
6.2514884808
 30
0.0
 10
10.1942506824
 20
6.2344958308
 30
0.0
 10
10.1800601423
 20
6.2170650453
 30
0.0
 10
10.1633241941
 20
6.1944808171
 30
0.0
 10
10.1449249301
 20
6.1662139605
 30
0.0
 10
10.1282751502
 20
6.136882891
 30
0.0
 10
10.1134367073
 20
6.1065960605
 30
0.0
 10
10.1004643363
 20
6.0754656815
 30
0.0
 10
10.0912480955
 20
6.0489132956
 30
0.0
 10
10.0848533738
 20
6.0273687775
 30
0.0
 10
10.0791157622
 20
6.005640318
 30
0.0
 10
10.0731852336
 20
5.9781682674
 30
0.0
 10
10.0689336573
 20
5.9503870434
 30
0.0
 10
10.0665492603
 20
5.9280410293
 30
0.0
 10
10.06484443
 20
5.905633737
 30
0.0
 10
10.0643322467
 20
5.8887760042
 30
0.0
 10
10.0643322467
 20
5.8775418492
 30
0.0
  0
SPLINE
  5
26C
100
AcDbEntity
  8
0
100
AcDbSpline
 62
7
  6
CONTINUOUS
 70
0
 71
3
 72
71
 73
67
 74
0
 42
0.0000001
 43
0.0000001
 44
0.0000000001
 40
0.0
 40
0.0
 40
0.0
 40
0.0
 40
0.0156212159
 40
0.0312423917
 40
0.0468636965
 40
0.0624850959
 40
0.078106641
 40
0.0937283629
 40
0.109350293
 40
0.1249724611
 40
0.1405948945
 40
0.1562176178
 40
0.1718406529
 40
0.1874640189
 40
0.2030877313
 40
0.2187118027
 40
0.2343362419
 40
0.2499610544
 40
0.265586242
 40
0.2812118029
 40
0.2968377316
 40
0.3124640192
 40
0.3280906533
 40
0.3437176182
 40
0.3593448949
 40
0.3749724616
 40
0.3906002935
 40
0.4062283633
 40
0.4218566415
 40
0.4374850965
 40
0.453113695
 40
0.4687424023
 40
0.4843711829
 40
0.5000000002
 40
0.5156288175
 40
0.5312575981
 40
0.5468863054
 40
0.5625149039
 40
0.5781433589
 40
0.5937716371
 40
0.6093997069
 40
0.6250275387
 40
0.6406551054
 40
0.6562823821
 40
0.671909347
 40
0.6875359811
 40
0.7031622687
 40
0.7187881974
 40
0.7344137582
 40
0.7500389458
 40
0.7656637582
 40
0.7812881975
 40
0.7969122688
 40
0.8125359813
 40
0.8281593472
 40
0.8437823823
 40
0.8594051056
 40
0.8750275389
 40
0.890649707
 40
0.9062716372
 40
0.921893359
 40
0.9375149041
 40
0.9531363035
 40
0.9687576083
 40
0.9843787841
 40
1.0
 40
1.0
 40
1.0
 40
1.0
 10
10.0643322467
 20
5.8775418492
 30
0.0
 10
10.0643322467
 20
5.868458095
 30
0.0
 10
10.0647785316
 20
5.8502874475
 30
0.0
 10
10.06678523
 20
5.823099689
 30
0.0
 10
10.0701243185
 20
5.7960424472
 30
0.0
 10
10.0747877841
 20
5.7691817364
 30
0.0
 10
10.0807643734
 20
5.7425820768
 30
0.0
 10
10.0880396881
 20
5.7163076135
 30
0.0
 10
10.0965961855
 20
5.6904216351
 30
0.0
 10
10.1064132424
 20
5.6649865136
 30
0.0
 10
10.1174671998
 20
5.6400635291
 30
0.0
 10
10.1297314227
 20
5.6157127299
 30
0.0
 10
10.1431763495
 20
5.5919927794
 30
0.0
 10
10.1577695757
 20
5.5689608195
 30
0.0
 10
10.1734759334
 20
5.5466723345
 30
0.0
 10
10.1902575773
 20
5.5251810187
 30
0.0
 10
10.2080740704
 20
5.5045386439
 30
0.0
 10
10.2268824761
 20
5.4847949292
 30
0.0
 10
10.246637474
 20
5.4659974301
 30
0.0
 10
10.267291466
 20
5.4481914232
 30
0.0
 10
10.2887946928
 20
5.4314198
 30
0.0
 10
10.3110953442
 20
5.415722952
 30
0.0
 10
10.3341396905
 20
5.4011386794
 30
0.0
 10
10.3578722145
 20
5.387702105
 30
0.0
 10
10.3822357448
 20
5.3754455899
 30
0.0
 10
10.4071715913
 20
5.3643986543
 30
0.0
 10
10.4326196821
 20
5.3545878941
 30
0.0
 10
10.4585187154
 20
5.3460369322
 30
0.0
 10
10.4848063054
 20
5.3387663596
 30
0.0
 10
10.5114191326
 20
5.3327936893
 30
0.0
 10
10.5382930929
 20
5.3281333019
 30
0.0
 10
10.5653634538
 20
5.3247964136
 30
0.0
 10
10.5925650115
 20
5.3227910586
 30
0.0
 10
10.619832247
 20
5.322122068
 30
0.0
 10
10.6470994825
 20
5.3227910587
 30
0.0
 10
10.6743010403
 20
5.3247964137
 30
0.0
 10
10.7013714011
 20
5.328133302
 30
0.0
 10
10.7282453614
 20
5.3327936894
 30
0.0
 10
10.7548581886
 20
5.3387663598
 30
0.0
 10
10.7811457786
 20
5.3460369324
 30
0.0
 10
10.8070448118
 20
5.3545878943
 30
0.0
 10
10.8324929026
 20
5.3643986545
 30
0.0
 10
10.857428749
 20
5.3754455902
 30
0.0
 10
10.8817922793
 20
5.3877021052
 30
0.0
 10
10.9055248034
 20
5.4011386796
 30
0.0
 10
10.9285691495
 20
5.4157229523
 30
0.0
 10
10.9508698009
 20
5.4314198003
 30
0.0
 10
10.9723730277
 20
5.4481914234
 30
0.0
 10
10.9930270196
 20
5.4659974303
 30
0.0
 10
11.0127820175
 20
5.4847949294
 30
0.0
 10
11.0315904232
 20
5.5045386442
 30
0.0
 10
11.0494069162
 20
5.5251810189
 30
0.0
 10
11.0661885601
 20
5.5466723347
 30
0.0
 10
11.0818949178
 20
5.5689608197
 30
0.0
 10
11.0964881439
 20
5.5919927796
 30
0.0
 10
11.1099330707
 20
5.61571273
 30
0.0
 10
11.1221972936
 20
5.6400635292
 30
0.0
 10
11.1332512511
 20
5.6649865137
 30
0.0
 10
11.1430683079
 20
5.6904216351
 30
0.0
 10
11.1516248053
 20
5.7163076135
 30
0.0
 10
11.15890012
 20
5.7425820768
 30
0.0
 10
11.1648767093
 20
5.7691817364
 30
0.0
 10
11.1695401749
 20
5.7960424472
 30
0.0
 10
11.1728792634
 20
5.823099689
 30
0.0
 10
11.1748859617
 20
5.8502874475
 30
0.0
 10
11.1753322467
 20
5.868458095
 30
0.0
 10
11.1753322467
 20
5.8775418492
 30
0.0
  0
SPLINE
  5
26D
100
AcDbEntity
  8
0
100
AcDbSpline
 62
7
  6
CONTINUOUS
 70
0
 71
3
 72
33
 73
29
 74
0
 42
0.0000001
 43
0.0000001
 44
0.0000000001
 40
0.0
 40
0.0
 40
0.0
 40
0.0
 40
0.0312624248
 40
0.0625246479
 40
0.0937867635
 40
0.125048576
 40
0.1875526008
 40
0.250054649
 40
0.2813140211
 40
0.3125727163
 40
0.3438306856
 40
0.3750878873
 40
0.4063442868
 40
0.4375998569
 40
0.5000899282
 40
0.5625765536
 40
0.5938278509
 40
0.6250783252
 40
0.6563280056
 40
0.6875769286
 40
0.718825138
 40
0.7500726845
 40
0.812547495
 40
0.8750204064
 40
0.9062655876
 40
0.9375105535
 40
0.9687552711
 40
1.0
 40
1.0
 40
1.0
 40
1.0
 10
10.6239351918
 20
5.6016250842
 30
0.0
 10
10.6290210953
 20
5.6016916128
 30
0.0
 10
10.6391913847
 20
5.6020721929
 30
0.0
 10
10.654399486
 20
5.6033841657
 30
0.0
 10
10.6695263932
 20
5.6054342714
 30
0.0
 10
10.6895338171
 20
5.6091442432
 30
0.0
 10
10.7141691525
 20
5.6156004796
 30
0.0
 10
10.7380598869
 20
5.6244206174
 30
0.0
 10
10.7565832587
 20
5.6328405297
 30
0.0
 10
10.7701549582
 20
5.6398249773
 30
0.0
 10
10.7833702346
 20
5.6474610564
 30
0.0
 10
10.7961981107
 20
5.6557307264
 30
0.0
 10
10.8086083893
 20
5.6646146714
 30
0.0
 10
10.8245553725
 20
5.6772473406
 30
0.0
 10
10.8433073532
 20
5.69447092
 30
0.0
 10
10.8602949817
 20
5.7134359975
 30
0.0
 10
10.8727258797
 20
5.7295379612
 30
0.0
 10
10.881452073
 20
5.7420561545
 30
0.0
 10
10.8895582285
 20
5.7549836655
 30
0.0
 10
10.8970254101
 20
5.7682900648
 30
0.0
 10
10.9038359682
 20
5.7819441605
 30
0.0
 10
10.9120178154
 20
5.8005651139
 30
0.0
 10
10.9205300031
 20
5.8245552413
 30
0.0
 10
10.9266674936
 20
5.8492594184
 30
0.0
 10
10.9301176734
 20
5.8693025737
 30
0.0
 10
10.9319709202
 20
5.8844464632
 30
0.0
 10
10.9330845673
 20
5.8996618424
 30
0.0
 10
10.9333322467
 20
5.9098305157
 30
0.0
 10
10.9333322467
 20
5.9149139753
 30
0.0
  0
SPLINE
  5
26E
100
AcDbEntity
  8
0
100
AcDbSpline
 62
7
  6
CONTINUOUS
 70
0
 71
3
 72
33
 73
29
 74
0
 42
0.0000001
 43
0.0000001
 44
0.0000000001
 40
0.0
 40
0.0
 40
0.0
 40
0.0
 40
0.0312447004
 40
0.0624893891
 40
0.0937343344
 40
0.1249795022
 40
0.1874517943
 40
0.2499260459
 40
0.2811736536
 40
0.3124219435
 40
0.3436709669
 40
0.3749207679
 40
0.4061713827
 40
0.4374228398
 40
0.4999092103
 40
0.5623990845
 40
0.5936548847
 40
0.6249115201
 40
0.6561689604
 40
0.687427167
 40
0.718686094
 40
0.7499456884
 40
0.8124475085
 40
0.8749512145
 40
0.9062131357
 40
0.9374753258
 40
0.9687375817
 40
1.0
 40
1.0
 40
1.0
 40
1.0
 10
10.3063322467
 20
5.9149139753
 30
0.0
 10
10.3063322467
 20
5.909745109
 30
0.0
 10
10.3065883219
 20
5.8994055325
 30
0.0
 10
10.3077396879
 20
5.8839357273
 30
0.0
 10
10.3096556044
 20
5.8685410735
 30
0.0
 10
10.3132221332
 20
5.8481711681
 30
0.0
 10
10.3195657694
 20
5.8230764148
 30
0.0
 10
10.3283610459
 20
5.7987319887
 30
0.0
 10
10.3368119354
 20
5.7798563505
 30
0.0
 10
10.3438447551
 20
5.7660268638
 30
0.0
 10
10.3515534908
 20
5.7525624036
 30
0.0
 10
10.3599193049
 20
5.7394955994
 30
0.0
 10
10.3689219921
 20
5.7268582535
 30
0.0
 10
10.3817419473
 20
5.7106261527
 30
0.0
 10
10.3992512626
 20
5.6915547567
 30
0.0
 10
10.4185610764
 20
5.6743076733
 30
0.0
 10
10.4349687129
 20
5.6617093983
 30
0.0
 10
10.4477302289
 20
5.6528783783
 30
0.0
 10
10.4609130411
 20
5.6446894345
 30
0.0
 10
10.4744850669
 20
5.6371623362
 30
0.0
 10
10.4884134131
 20
5.6303154757
 30
0.0
 10
10.5074092769
 20
5.6221174512
 30
0.0
 10
10.5318809816
 20
5.6136470097
 30
0.0
 10
10.557070404
 20
5.6076365029
 30
0.0
 10
10.5774965598
 20
5.6043391571
 30
0.0
 10
10.5929236753
 20
5.6026260926
 30
0.0
 10
10.6084159641
 20
5.6016780123
 30
0.0
 10
10.6187638369
 20
5.6015574379
 30
0.0
 10
10.6239351918
 20
5.6016250842
 30
0.0
  0
SPLINE
  5
26F
100
AcDbEntity
  8
0
100
AcDbSpline
 62
7
  6
CONTINUOUS
 70
0
 71
3
 72
31
 73
27
 74
0
 42
0.0000001
 43
0.0000001
 44
0.0000000001
 40
0.0
 40
0.0
 40
0.0
 40
0.0
 40
0.0624753895
 40
0.12498352
 40
0.1875207312
 40
0.2500618237
 40
0.2813336806
 40
0.3125965641
 40
0.3438493287
 40
0.3750928593
 40
0.4063306385
 40
0.4375688322
 40
0.4688127242
 40
0.5000647391
 40
0.5625731893
 40
0.6250952217
 40
0.6876021584
 40
0.7188518583
 40
0.7500914991
 40
0.7813225492
 40
0.7969372835
 40
0.8125516949
 40
0.8437804177
 40
0.8750160262
 40
0.9374950054
 40
1.0
 40
1.0
 40
1.0
 40
1.0
 10
10.6198322467
 20
5.6373071361
 30
0.0
 10
10.6095852799
 20
5.6373071361
 30
0.0
 10
10.5890718272
 20
5.6383480154
 30
0.0
 10
10.5586122986
 20
5.6429363539
 30
0.0
 10
10.5287294776
 20
5.6504563015
 30
0.0
 10
10.504537494
 20
5.6590921766
 30
0.0
 10
10.4857614026
 20
5.6673730127
 30
0.0
 10
10.4719993889
 20
5.6742599449
 30
0.0
 10
10.4585957354
 20
5.6818107282
 30
0.0
 10
10.4455856409
 20
5.6900137931
 30
0.0
 10
10.4330055793
 20
5.6988584339
 30
0.0
 10
10.4208900536
 20
5.7083292707
 30
0.0
 10
10.4092600555
 20
5.7183941812
 30
0.0
 10
10.3944324891
 20
5.7325639449
 30
0.0
 10
10.3772175464
 20
5.7516154669
 30
0.0
 10
10.3588647799
 20
5.7763557765
 30
0.0
 10
10.345624455
 20
5.7983550054
 30
0.0
 10
10.336360279
 20
5.8166514313
 30
0.0
 10
10.3300959127
 20
5.8306957232
 30
0.0
 10
10.3254642884
 20
5.8426423182
 30
0.0
 10
10.322124003
 20
5.852327954
 30
0.0
 10
10.3190307368
 20
5.8620948408
 30
0.0
 10
10.3156277697
 20
5.874446888
 30
0.0
 10
10.3111739053
 20
5.8944569099
 30
0.0
 10
10.3074615041
 20
5.9198521308
 30
0.0
 10
10.3064724619
 20
5.9403643379
 30
0.0
 10
10.3064724619
 20
5.9506161604
 30
0.0
  0
SPLINE
  5
270
100
AcDbEntity
  8
0
100
AcDbSpline
 62
7
  6
CONTINUOUS
 70
0
 71
3
 72
31
 73
27
 74
0
 42
0.0000001
 43
0.0000001
 44
0.0000000001
 40
0.0
 40
0.0
 40
0.0
 40
0.0
 40
0.0624564545
 40
0.1249463903
 40
0.1874668236
 40
0.24999317
 40
0.2812586001
 40
0.3125157701
 40
0.3437635959
 40
0.3750030209
 40
0.4062375825
 40
0.437473487
 40
0.468716028
 40
0.4999676296
 40
0.5624780283
 40
0.6250055941
 40
0.6875214294
 40
0.7187767481
 40
0.7500227314
 40
0.7812607993
 40
0.7968792788
 40
0.8124975838
 40
0.8437344965
 40
0.8749787511
 40
0.9374760238
 40
1.0
 40
1.0
 40
1.0
 40
1.0
 10
10.6198322467
 20
12.3394161604
 30
0.0
 10
10.6095841966
 20
12.3394161604
 30
0.0
 10
10.5890684323
 20
12.3383744147
 30
0.0
 10
10.5586056313
 20
12.3337822805
 30
0.0
 10
10.5287197393
 20
12.3262561331
 30
0.0
 10
10.504525678
 20
12.3176132432
 30
0.0
 10
10.4857481654
 20
12.3093257562
 30
0.0
 10
10.4719850435
 20
12.3024332292
 30
0.0
 10
10.4585803963
 20
12.2948763191
 30
0.0
 10
10.4455694321
 20
12.2866666076
 30
0.0
 10
10.4329886428
 20
12.277814806
 30
0.0
 10
10.4208725277
 20
12.2683363374
 30
0.0
 10
10.4092420746
 20
12.2582633569
 30
0.0
 10
10.3944138722
 20
12.2440820747
 30
0.0
 10
10.3771985793
 20
12.2250151495
 30
0.0
 10
10.3588463548
 20
12.2002554138
 30
0.0
 10
10.3456072356
 20
12.1782393788
 30
0.0
 10
10.3363443323
 20
12.1599290766
 30
0.0
 10
10.33008103
 20
12.1458740178
 30
0.0
 10
10.3254504844
 20
12.1339183783
 30
0.0
 10
10.3221111595
 20
12.1242254366
 30
0.0
 10
10.3190188909
 20
12.1144511161
 30
0.0
 10
10.3156172731
 20
12.1020897394
 30
0.0
 10
10.311165772
 20
12.0820647039
 30
0.0
 10
10.3074567504
 20
12.0566507988
 30
0.0
 10
10.3064708157
 20
12.0361239384
 30
0.0
 10
10.306472466
 20
12.0258648092
 30
0.0
  0
SPLINE
  5
271
100
AcDbEntity
  8
0
100
AcDbSpline
 62
7
  6
CONTINUOUS
 70
0
 71
3
 72
65
 73
61
 74
0
 42
0.0000001
 43
0.0000001
 44
0.0000000001
 40
0.0
 40
0.0
 40
0.0
 40
0.0
 40
0.0156216299
 40
0.0312432615
 40
0.046865009
 40
0.062486864
 40
0.093721681
 40
0.1249574279
 40
0.1405804405
 40
0.1562037773
 40
0.1718274629
 40
0.1874515183
 40
0.2030759613
 40
0.2187008056
 40
0.2343260613
 40
0.2499517343
 40
0.2655778268
 40
0.2812043367
 40
0.2968312579
 40
0.3124585804
 40
0.3280862904
 40
0.3437143703
 40
0.3593427988
 40
0.3749715514
 40
0.3906006006
 40
0.4062299157
 40
0.4218594638
 40
0.4374892095
 40
0.4531191157
 40
0.4687491436
 40
0.5000000001
 40
0.5312508567
 40
0.5468808846
 40
0.5625107907
 40
0.5781405365
 40
0.5937700845
 40
0.6093993997
 40
0.6250284488
 40
0.6406572014
 40
0.6562856299
 40
0.6719137098
 40
0.6875414197
 40
0.7031687423
 40
0.7187956635
 40
0.7344221733
 40
0.7500482658
 40
0.7656739389
 40
0.7812991945
 40
0.7969240388
 40
0.8125484818
 40
0.8281725372
 40
0.8437962227
 40
0.8594195595
 40
0.8750425721
 40
0.906278319
 40
0.937513136
 40
0.953134991
 40
0.9687567385
 40
0.9843783701
 40
1.0
 40
1.0
 40
1.0
 40
1.0
 10
10.3057822467
 20
5.8903447296
 30
0.0
 10
10.3057822467
 20
5.8852094951
 30
0.0
 10
10.3060345511
 20
5.8749372216
 30
0.0
 10
10.3071689758
 20
5.8595674684
 30
0.0
 10
10.3090567524
 20
5.8442711512
 30
0.0
 10
10.3125710547
 20
5.8240288087
 30
0.0
 10
10.3188222039
 20
5.799085152
 30
0.0
 10
10.3274906431
 20
5.7748748357
 30
0.0
 10
10.3358211699
 20
5.7560930431
 30
0.0
 10
10.3427546586
 20
5.74232664
 30
0.0
 10
10.3503555516
 20
5.7289171864
 30
0.0
 10
10.3586056637
 20
5.7158965608
 30
0.0
 10
10.3674850811
 20
5.7032962447
 30
0.0
 10
10.3769724183
 20
5.6911465618
 30
0.0
 10
10.3870448138
 20
5.6794767883
 30
0.0
 10
10.3976779999
 20
5.6683150338
 30
0.0
 10
10.4088463572
 20
5.657688186
 30
0.0
 10
10.420522978
 20
5.6476218429
 30
0.0
 10
10.4326797303
 20
5.6381402524
 30
0.0
 10
10.445287326
 20
5.629266253
 30
0.0
 10
10.4583153913
 20
5.6210212195
 30
0.0
 10
10.47173254
 20
5.6134250114
 30
0.0
 10
10.4855064492
 20
5.6064959248
 30
0.0
 10
10.4996039364
 20
5.600250649
 30
0.0
 10
10.5139910428
 20
5.5947042257
 30
0.0
 10
10.5286331018
 20
5.5898700135
 30
0.0
 10
10.5434948733
 20
5.5857596553
 30
0.0
 10
10.5585404375
 20
5.5823830508
 30
0.0
 10
10.5737339958
 20
5.5797483319
 30
0.0
 10
10.5941353622
 20
5.5772333885
 30
0.0
 10
10.6198322468
 20
5.5759711122
 30
0.0
 10
10.6455291315
 20
5.5772333885
 30
0.0
 10
10.6659304978
 20
5.5797483319
 30
0.0
 10
10.6811240561
 20
5.5823830508
 30
0.0
 10
10.6961696203
 20
5.5857596554
 30
0.0
 10
10.7110313918
 20
5.5898700136
 30
0.0
 10
10.7256734508
 20
5.5947042258
 30
0.0
 10
10.7400605572
 20
5.6002506491
 30
0.0
 10
10.7541580444
 20
5.6064959249
 30
0.0
 10
10.7679319536
 20
5.6134250115
 30
0.0
 10
10.7813491023
 20
5.6210212196
 30
0.0
 10
10.7943771676
 20
5.6292662531
 30
0.0
 10
10.8069847632
 20
5.6381402525
 30
0.0
 10
10.8191415155
 20
5.647621843
 30
0.0
 10
10.8308181363
 20
5.6576881861
 30
0.0
 10
10.8419864936
 20
5.6683150339
 30
0.0
 10
10.8526196796
 20
5.6794767884
 30
0.0
 10
10.8626920751
 20
5.6911465618
 30
0.0
 10
10.8721794124
 20
5.7032962448
 30
0.0
 10
10.8810588298
 20
5.7158965609
 30
0.0
 10
10.8893089418
 20
5.7289171865
 30
0.0
 10
10.8969098348
 20
5.74232664
 30
0.0
 10
10.9038433235
 20
5.7560930431
 30
0.0
 10
10.9121738503
 20
5.7748748357
 30
0.0
 10
10.9208422895
 20
5.7990851521
 30
0.0
 10
10.9270934386
 20
5.8240288087
 30
0.0
 10
10.9306077409
 20
5.8442711512
 30
0.0
 10
10.9324955176
 20
5.8595674684
 30
0.0
 10
10.9336299423
 20
5.8749372216
 30
0.0
 10
10.9338822467
 20
5.8852094951
 30
0.0
 10
10.9338822467
 20
5.8903447296
 30
0.0
  0
SPLINE
  5
272
100
AcDbEntity
  8
0
100
AcDbSpline
 62
7
  6
CONTINUOUS
 70
0
 71
3
 72
31
 73
27
 74
0
 42
0.0000001
 43
0.0000001
 44
0.0000000001
 40
0.0
 40
0.0
 40
0.0
 40
0.0
 40
0.0625049946
 40
0.1249839738
 40
0.1562195823
 40
0.1874483051
 40
0.2030627165
 40
0.2186774508
 40
0.2499085009
 40
0.2811481417
 40
0.3123978416
 40
0.3749047783
 40
0.4374268107
 40
0.4999352609
 40
0.5311872758
 40
0.5624311678
 40
0.5936693615
 40
0.6249071407
 40
0.6561506713
 40
0.6874034359
 40
0.7186663194
 40
0.7499381763
 40
0.8124792688
 40
0.87501648
 40
0.9375246105
 40
1.0
 40
1.0
 40
1.0
 40
1.0
 10
10.9331920315
 20
5.9506161604
 30
0.0
 10
10.9331920315
 20
5.9403643379
 30
0.0
 10
10.9322029893
 20
5.9198521308
 30
0.0
 10
10.9284905881
 20
5.8944569099
 30
0.0
 10
10.9240367236
 20
5.874446888
 30
0.0
 10
10.9206337566
 20
5.8620948408
 30
0.0
 10
10.9175404904
 20
5.852327954
 30
0.0
 10
10.914200205
 20
5.8426423182
 30
0.0
 10
10.9095685807
 20
5.8306957232
 30
0.0
 10
10.9033042144
 20
5.8166514313
 30
0.0
 10
10.8940400384
 20
5.7983550054
 30
0.0
 10
10.8807997135
 20
5.7763557765
 30
0.0
 10
10.862446947
 20
5.7516154669
 30
0.0
 10
10.8452320043
 20
5.7325639449
 30
0.0
 10
10.8304044379
 20
5.7183941812
 30
0.0
 10
10.8187744398
 20
5.7083292707
 30
0.0
 10
10.8066589141
 20
5.6988584339
 30
0.0
 10
10.7940788525
 20
5.6900137931
 30
0.0
 10
10.781068758
 20
5.6818107282
 30
0.0
 10
10.7676651044
 20
5.6742599449
 30
0.0
 10
10.7539030908
 20
5.6673730127
 30
0.0
 10
10.7351269994
 20
5.6590921766
 30
0.0
 10
10.7109350158
 20
5.6504563015
 30
0.0
 10
10.6810521948
 20
5.6429363539
 30
0.0
 10
10.6505926662
 20
5.6383480154
 30
0.0
 10
10.6300792135
 20
5.6373071361
 30
0.0
 10
10.6198322467
 20
5.6373071361
 30
0.0
  0
SPLINE
  5
273
100
AcDbEntity
  8
0
100
AcDbSpline
 62
7
  6
CONTINUOUS
 70
0
 71
3
 72
31
 73
27
 74
0
 42
0.0000001
 43
0.0000001
 44
0.0000000001
 40
0.0
 40
0.0
 40
0.0
 40
0.0
 40
0.0625239456
 40
0.1250211374
 40
0.1562653516
 40
0.1875022403
 40
0.2031205431
 40
0.2187390284
 40
0.249977125
 40
0.2812231471
 40
0.3124785039
 40
0.3749943955
 40
0.437521966
 40
0.5000323304
 40
0.5312839079
 40
0.5625264293
 40
0.5937623247
 40
0.6249968923
 40
0.6562363332
 40
0.6874841775
 40
0.7187413641
 40
0.7500068065
 40
0.8125331683
 40
0.8750536024
 40
0.9375435381
 40
1.0
 40
1.0
 40
1.0
 40
1.0
 10
10.9331920296
 20
12.0259511948
 30
0.0
 10
10.9331909039
 20
12.03620852
 30
0.0
 10
10.9321997633
 20
12.0567314914
 30
0.0
 10
10.9284850983
 20
12.0821399843
 30
0.0
 10
10.9240296029
 20
12.10216042
 30
0.0
 10
10.9206257085
 20
12.1145188255
 30
0.0
 10
10.9175317436
 20
12.1242907198
 30
0.0
 10
10.9141908341
 20
12.1339812189
 30
0.0
 10
10.9095585312
 20
12.1459337766
 30
0.0
 10
10.9032934616
 20
12.1599851093
 30
0.0
 10
10.8940286419
 20
12.1782904303
 30
0.0
 10
10.8807879252
 20
12.2003002466
 30
0.0
 10
10.8624349539
 20
12.2250526871
 30
0.0
 10
10.8452199398
 20
12.2441137639
 30
0.0
 10
10.8303924562
 20
12.2582905705
 30
0.0
 10
10.8187627804
 20
12.2683603109
 30
0.0
 10
10.8066476651
 20
12.2778356707
 30
0.0
 10
10.7940680978
 20
12.2866845204
 30
0.0
 10
10.781058588
 20
12.2948914886
 30
0.0
 10
10.7676556005
 20
12.3024458602
 30
0.0
 10
10.7538943269
 20
12.309336062
 30
0.0
 10
10.7351195038
 20
12.3176207408
 30
0.0
 10
10.7109291843
 20
12.3262606812
 30
0.0
 10
10.6810482274
 20
12.3337842397
 30
0.0
 10
10.6505906641
 20
12.3383747802
 30
0.0
 10
10.6300785009
 20
12.3394161604
 30
0.0
 10
10.6198322467
 20
12.3394161604
 30
0.0
  0
SPLINE
  5
274
100
AcDbEntity
  8
0
100
AcDbSpline
 62
7
  6
CONTINUOUS
 70
0
 71
3
 72
31
 73
27
 74
0
 42
0.0000001
 43
0.0000001
 44
0.0000000001
 40
0.0
 40
0.0
 40
0.0
 40
0.0
 40
0.1666355876
 40
0.2538018881
 40
0.3417102757
 40
0.4289641093
 40
0.5141834661
 40
0.5960185547
 40
0.6731739005
 40
0.7444282501
 40
0.808654549
 40
0.8648380454
 40
0.8896321602
 40
0.9120932084
 40
0.9321356398
 40
0.9496789523
 40
0.9646581418
 40
0.9770159945
 40
0.9867109249
 40
0.9905522744
 40
0.9937207755
 40
0.9962197213
 40
0.9980605474
 40
0.9987436914
 40
0.9992795979
 40
1.0
 40
1.0
 40
1.0
 40
1.0
 10
12.1196822711
 20
11.8386654731
 30
0.0
 10
12.1197468614
 20
11.8395380706
 30
0.0
 10
12.1198392286
 20
11.8408675699
 30
0.0
 10
12.1199538426
 20
11.8426581896
 30
0.0
 10
12.1200368573
 20
11.8440331468
 30
0.0
 10
12.1201143334
 20
11.8453981871
 30
0.0
 10
12.1201850445
 20
11.846731661
 30
0.0
 10
12.1202478786
 20
11.8480124424
 30
0.0
 10
12.1203018527
 20
11.8492202307
 30
0.0
 10
12.1203461387
 20
11.8503358854
 30
0.0
 10
12.1203800596
 20
11.8513417268
 30
0.0
 10
12.1204000911
 20
11.8521039244
 30
0.0
 10
12.1204100621
 20
11.8526469804
 30
0.0
 10
12.120414356
 20
11.853000329
 30
0.0
 10
12.1204157956
 20
11.8533156287
 30
0.0
 10
12.1204143763
 20
11.8535916423
 30
0.0
 10
12.1204101629
 20
11.8538272774
 30
0.0
 10
12.1204031758
 20
11.8540216105
 30
0.0
 10
12.1203947364
 20
11.8541573534
 30
0.0
 10
12.1203859815
 20
11.8542446416
 30
0.0
 10
12.1203793167
 20
11.8542941384
 30
0.0
 10
12.1203719851
 20
11.8543329047
 30
0.0
 10
12.1203650767
 20
11.8543583936
 30
0.0
 10
12.1203586151
 20
11.8543732366
 30
0.0
 10
12.1203535229
 20
11.8543818495
 30
0.0
 10
12.1203477274
 20
11.8543867235
 30
0.0
 10
12.1203439515
 20
11.8543869512
 30
0.0
  0
SPLINE
  5
275
100
AcDbEntity
  8
0
100
AcDbSpline
 62
7
  6
CONTINUOUS
 70
0
 71
3
 72
31
 73
27
 74
0
 42
0.0000001
 43
0.0000001
 44
0.0000000001
 40
0.0
 40
0.0
 40
0.0
 40
0.0
 40
0.0624753895
 40
0.12498352
 40
0.1875207312
 40
0.2500618237
 40
0.2813336806
 40
0.3125965641
 40
0.3438493287
 40
0.3750928593
 40
0.4063306385
 40
0.4375688322
 40
0.4688127242
 40
0.5000647391
 40
0.5625731893
 40
0.6250952217
 40
0.6876021584
 40
0.7188518583
 40
0.7500914991
 40
0.7813225492
 40
0.7969372835
 40
0.8125516949
 40
0.8437804177
 40
0.8750160262
 40
0.9374950054
 40
1.0
 40
1.0
 40
1.0
 40
1.0
 10
10.6198322467
 20
5.6465587215
 30
0.0
 10
10.6095852799
 20
5.6465587215
 30
0.0
 10
10.5890718272
 20
5.6475996008
 30
0.0
 10
10.5586122986
 20
5.6521879393
 30
0.0
 10
10.5287294776
 20
5.6597078868
 30
0.0
 10
10.504537494
 20
5.668343762
 30
0.0
 10
10.4857614026
 20
5.6766245981
 30
0.0
 10
10.4719993889
 20
5.6835115303
 30
0.0
 10
10.4585957354
 20
5.6910623136
 30
0.0
 10
10.4455856409
 20
5.6992653784
 30
0.0
 10
10.4330055793
 20
5.7081100193
 30
0.0
 10
10.4208900536
 20
5.7175808561
 30
0.0
 10
10.4092600555
 20
5.7276457665
 30
0.0
 10
10.3944324891
 20
5.7418155303
 30
0.0
 10
10.3772175464
 20
5.7608670522
 30
0.0
 10
10.3588647799
 20
5.7856073619
 30
0.0
 10
10.345624455
 20
5.8076065908
 30
0.0
 10
10.336360279
 20
5.8259030166
 30
0.0
 10
10.3300959127
 20
5.8399473085
 30
0.0
 10
10.3254642884
 20
5.8518939035
 30
0.0
 10
10.322124003
 20
5.8615795393
 30
0.0
 10
10.3190307368
 20
5.8713464261
 30
0.0
 10
10.3156277697
 20
5.8836984734
 30
0.0
 10
10.3111739053
 20
5.9037084952
 30
0.0
 10
10.3074615041
 20
5.9291037162
 30
0.0
 10
10.3064724619
 20
5.9496159233
 30
0.0
 10
10.3064724619
 20
5.9598677457
 30
0.0
  0
SPLINE
  5
276
100
AcDbEntity
  8
0
100
AcDbSpline
 62
7
  6
CONTINUOUS
 70
0
 71
3
 72
31
 73
27
 74
0
 42
0.0000001
 43
0.0000001
 44
0.0000000001
 40
0.0
 40
0.0
 40
0.0
 40
0.0
 40
0.0007193452
 40
0.0012547336
 40
0.0019374107
 40
0.0037774686
 40
0.0062758526
 40
0.0094439919
 40
0.0132851369
 40
0.0229798871
 40
0.0353376335
 40
0.0503167162
 40
0.0678599553
 40
0.0879023636
 40
0.1103634295
 40
0.135157594
 40
0.1913412765
 40
0.2555678654
 40
0.3268225886
 40
0.4039783721
 40
0.4858139421
 40
0.5710338028
 40
0.6582881419
 40
0.7461970132
 40
0.8333637611
 40
1.0
 40
1.0
 40
1.0
 40
1.0
 10
12.1203438034
 20
12.1975142201
 30
0.0
 10
12.1203475737
 20
12.1975144471
 30
0.0
 10
12.1203533596
 20
12.1975193222
 30
0.0
 10
12.1203584347
 20
12.1975279321
 30
0.0
 10
12.1203648754
 20
12.1975427742
 30
0.0
 10
12.1203717558
 20
12.1975682604
 30
0.0
 10
12.1203790586
 20
12.1976070229
 30
0.0
 10
12.1203857023
 20
12.1976565162
 30
0.0
 10
12.1203944404
 20
12.1977438019
 30
0.0
 10
12.1204028764
 20
12.1978795421
 30
0.0
 10
12.1204098585
 20
12.1980738732
 30
0.0
 10
12.1204140588
 20
12.1983095068
 30
0.0
 10
12.1204154659
 20
12.1985855189
 30
0.0
 10
12.1204140184
 20
12.1989008178
 30
0.0
 10
12.1204097192
 20
12.1992541662
 30
0.0
 10
12.1203997421
 20
12.1997972227
 30
0.0
 10
12.1203797066
 20
12.200559422
 30
0.0
 10
12.1203457882
 20
12.2015652667
 30
0.0
 10
12.12030151
 20
12.2026809262
 30
0.0
 10
12.1202475492
 20
12.2038887204
 30
0.0
 10
12.1201847329
 20
12.2051695086
 30
0.0
 10
12.1201140451
 20
12.2065029899
 30
0.0
 10
12.1200365924
 20
12.2078680378
 30
0.0
 10
12.1199536146
 20
12.2092430031
 30
0.0
 10
12.1198390213
 20
12.2110336301
 30
0.0
 10
12.1197467486
 20
12.2123631402
 30
0.0
 10
12.1196821884
 20
12.2132357422
 30
0.0
  0
SPLINE
  5
277
100
AcDbEntity
  8
0
100
AcDbSpline
 62
7
  6
CONTINUOUS
 70
0
 71
3
 72
20
 73
16
 74
0
 42
0.0000001
 43
0.0000001
 44
0.0000000001
 40
0.0
 40
0.0
 40
0.0
 40
0.0
 40
0.1671351294
 40
0.3290695523
 40
0.4809406453
 40
0.551783077
 40
0.6186151046
 40
0.6810918858
 40
0.7389777601
 40
0.7921784941
 40
0.8407786196
 40
0.8850912079
 40
0.9257175388
 40
0.9636034149
 40
1.0
 40
1.0
 40
1.0
 40
1.0
 10
12.1196822176
 20
12.2132356501
 30
0.0
 10
12.1203981124
 20
12.2132356499
 30
0.0
 10
12.1218084256
 20
12.2131766677
 30
0.0
 10
12.1238540599
 20
12.2129136106
 30
0.0
 10
12.1254643558
 20
12.2125497984
 30
0.0
 10
12.1266469451
 20
12.2121739613
 30
0.0
 10
12.1274467372
 20
12.2118634484
 30
0.0
 10
12.1281724851
 20
12.2115207757
 30
0.0
 10
12.1288174168
 20
12.2111490459
 30
0.0
 10
12.129375587
 20
12.2107515764
 30
0.0
 10
12.1298418466
 20
12.2103316488
 30
0.0
 10
12.1302116619
 20
12.2098924693
 30
0.0
 10
12.1304808679
 20
12.2094370763
 30
0.0
 10
12.130645076
 20
12.2089694425
 30
0.0
 10
12.1306822458
 20
12.2086501847
 30
0.0
 10
12.1306822467
 20
12.2084942861
 30
0.0
  0
SPLINE
  5
278
100
AcDbEntity
  8
0
100
AcDbSpline
 62
7
  6
CONTINUOUS
 70
0
 71
3
 72
20
 73
16
 74
0
 42
0.0000001
 43
0.0000001
 44
0.0000000001
 40
0.0
 40
0.0
 40
0.0
 40
0.0
 40
0.1671346509
 40
0.3290684816
 40
0.4809389934
 40
0.5517812162
 40
0.6186130683
 40
0.6810896536
 40
0.7389752948
 40
0.7921757549
 40
0.8407756682
 40
0.8850880833
 40
0.9257137736
 40
0.9636010262
 40
1.0
 40
1.0
 40
1.0
 40
1.0
 10
12.1196822711
 20
11.8386654731
 30
0.0
 10
12.1203981643
 20
11.8386654723
 30
0.0
 10
12.1218084768
 20
11.8387243911
 30
0.0
 10
12.1238541028
 20
11.8389874832
 30
0.0
 10
12.1254643933
 20
11.8393512921
 30
0.0
 10
12.1266469784
 20
11.839727132
 30
0.0
 10
12.1274467677
 20
11.8400376463
 30
0.0
 10
12.1281725126
 20
11.8403803206
 30
0.0
 10
12.1288174404
 20
11.8407520522
 30
0.0
 10
12.1293756067
 20
11.8411495222
 30
0.0
 10
12.1298418626
 20
11.8415694509
 30
0.0
 10
12.1302116698
 20
11.8420086311
 30
0.0
 10
12.1304808824
 20
11.8424640239
 30
0.0
 10
12.13064508
 20
11.842931677
 30
0.0
 10
12.1306822459
 20
11.8432509509
 30
0.0
 10
12.1306822467
 20
11.8434068598
 30
0.0
  0
SPLINE
  5
279
100
AcDbEntity
  8
0
100
AcDbSpline
 62
7
  6
CONTINUOUS
 70
0
 71
3
 72
76
 73
72
 74
0
 42
0.0000001
 43
0.0000001
 44
0.0000000001
 40
0.0
 40
0.0
 40
0.0
 40
0.0
 40
0.000004601
 40
0.0000199093
 40
0.0000459999
 40
0.000082947
 40
0.0001308248
 40
0.0001897065
 40
0.0003401125
 40
0.0005322413
 40
0.0007638521
 40
0.0010327121
 40
0.0013367142
 40
0.0020421215
 40
0.002864402
 40
0.0037900519
 40
0.0048065476
 40
0.0059032355
 40
0.0070705968
 40
0.0095807299
 40
0.0122689328
 40
0.0150926554
 40
0.018025002
 40
0.0210431037
 40
0.0241295317
 40
0.0272726459
 40
0.0336918412
 40
0.0402435882
 40
0.0468941695
 40
0.053619452
 40
0.0604035034
 40
0.0672351759
 40
0.0741058551
 40
0.0810093346
 40
0.0948967317
 40
0.1088717058
 40
0.1229182482
 40
0.1370264143
 40
0.1511900201
 40
0.165405324
 40
0.179670186
 40
0.1939835915
 40
0.2083454122
 40
0.2372152355
 40
0.266289723
 40
0.2955827795
 40
0.3251119021
 40
0.3548972115
 40
0.3849609697
 40
0.4153276587
 40
0.4460237174
 40
0.4770772821
 40
0.5085179544
 40
0.5403764119
 40
0.5726838408
 40
0.6054708886
 40
0.6387667053
 40
0.6725970416
 40
0.7069821186
 40
0.7419334044
 40
0.7774502999
 40
0.8135164649
 40
0.8317471254
 40
0.8500996035
 40
0.8685656199
 40
0.8871354512
 40
0.9057977666
 40
0.9245397059
 40
0.9621992645
 40
0.9810916133
 40
1.0
 40
1.0
 40
1.0
 40
1.0
 10
10.6525255112
 20
12.464805846
 30
0.0
 10
10.6525244396
 20
12.46480575
 30
0.0
 10
10.6525346432
 20
12.46480535
 30
0.0
 10
10.6525396774
 20
12.4648046935
 30
0.0
 10
10.6525613114
 20
12.4648034741
 30
0.0
 10
10.652585689
 20
12.4648018513
 30
0.0
 10
10.6526198173
 20
12.4647997499
 30
0.0
 10
10.6526795526
 20
12.4647960453
 30
0.0
 10
10.6527734296
 20
12.4647903241
 30
0.0
 10
10.652907355
 20
12.4647821612
 30
0.0
 10
10.6530690357
 20
12.4647722865
 30
0.0
 10
10.6532567849
 20
12.464760746
 30
0.0
 10
10.65355512
 20
12.4647422704
 30
0.0
 10
10.6539825889
 20
12.4647154563
 30
0.0
 10
10.6545550951
 20
12.4646788621
 30
0.0
 10
10.6552001451
 20
12.4646368545
 30
0.0
 10
10.6559091674
 20
12.4645897892
 30
0.0
 10
10.656674521
 20
12.4645380155
 30
0.0
 10
10.6577882452
 20
12.4644612595
 30
0.0
 10
10.6592730306
 20
12.4643559064
 30
0.0
 10
10.6611436883
 20
12.4642166554
 30
0.0
 10
10.6631122622
 20
12.4640630011
 30
0.0
 10
10.6651571628
 20
12.4638960647
 30
0.0
 10
10.6672626272
 20
12.4637161979
 30
0.0
 10
10.6694164657
 20
12.4635237573
 30
0.0
 10
10.6723613904
 20
12.4632490452
 30
0.0
 10
10.6761109899
 20
12.4628765327
 30
0.0
 10
10.6806728444
 20
12.4623852801
 30
0.0
 10
10.6853015609
 20
12.461847899
 30
0.0
 10
10.6899794546
 20
12.4612645263
 30
0.0
 10
10.694694159
 20
12.4606355401
 30
0.0
 10
10.6994369299
 20
12.459961171
 30
0.0
 10
10.7042012758
 20
12.4592414155
 30
0.0
 10
10.7105882855
 20
12.4582192997
 30
0.0
 10
10.7185983496
 20
12.4568285836
 30
0.0
 10
10.7282228634
 20
12.4549810783
 30
0.0
 10
10.7378633133
 20
12.4529509784
 30
0.0
 10
10.7475085881
 20
12.4507375148
 30
0.0
 10
10.7571503794
 20
12.4483397233
 30
0.0
 10
10.7667821088
 20
12.4457565077
 30
0.0
 10
10.7763982867
 20
12.4429866377
 30
0.0
 10
10.7859942106
 20
12.4400287434
 30
0.0
 10
10.7987774461
 20
12.4358252159
 30
0.0
 10
10.8146872834
 20
12.4300898455
 30
0.0
 10
10.8336032423
 20
12.4224406654
 30
0.0
 10
10.8523478291
 20
12.4139970648
 30
0.0
 10
10.8708914053
 20
12.4047417659
 30
0.0
 10
10.8892029095
 20
12.3946557005
 30
0.0
 10
10.9072486952
 20
12.3837181326
 30
0.0
 10
10.9249920818
 20
12.3719070333
 30
0.0
 10
10.9423923624
 20
12.359198822
 30
0.0
 10
10.9594041447
 20
12.3455689334
 30
0.0
 10
10.9759764388
 20
12.3309921852
 30
0.0
 10
10.9920516648
 20
12.3154433941
 30
0.0
 10
11.0075651191
 20
12.2988988193
 30
0.0
 10
11.0224430719
 20
12.2813366174
 30
0.0
 10
11.0366030734
 20
12.2627398789
 30
0.0
 10
11.0499519675
 20
12.2430979622
 30
0.0
 10
11.0623872404
 20
12.2224111255
 30
0.0
 10
11.0737954409
 20
12.2006926557
 30
0.0
 10
11.0840515054
 20
12.1779742982
 30
0.0
 10
11.0915110503
 20
12.1583264167
 30
0.0
 10
11.0967866485
 20
12.1421759788
 30
0.0
 10
11.1003892731
 20
12.1298156047
 30
0.0
 10
11.1036094593
 20
12.1172683008
 30
0.0
 10
11.1064341644
 20
12.1045518355
 30
0.0
 10
11.1088505289
 20
12.0916855696
 30
0.0
 10
11.1115127336
 20
12.0743336684
 30
0.0
 10
11.1132984893
 20
12.0568020076
 30
0.0
 10
11.1141990774
 20
12.0391775213
 30
0.0
 10
11.1143516399
 20
12.0303375824
 30
0.0
 10
11.1143522872
 20
12.0259161604
 30
0.0
  0
SPLINE
  5
27A
100
AcDbEntity
  8
0
100
AcDbSpline
 62
7
  6
CONTINUOUS
 70
0
 71
3
 72
27
 73
23
 74
0
 42
0.0000001
 43
0.0000001
 44
0.0000000001
 40
0.0
 40
0.0
 40
0.0
 40
0.0
 40
0.0316532484
 40
0.0632700731
 40
0.0948324448
 40
0.1263307416
 40
0.1890827513
 40
0.251516216
 40
0.2826277716
 40
0.3136718353
 40
0.3446576929
 40
0.3755965133
 40
0.4373666127
 40
0.4991060178
 40
0.5609204725
 40
0.6229029172
 40
0.685123708
 40
0.7476231057
 40
0.8104064732
 40
0.8734434565
 40
0.9366702603
 40
1.0
 40
1.0
 40
1.0
 40
1.0
 10
12.1196822589
 20
11.8386654914
 30
0.0
 10
12.1167345158
 20
11.8388477565
 30
0.0
 10
12.1108504123
 20
11.8393585014
 30
0.0
 10
12.1020807686
 20
11.8405606106
 30
0.0
 10
12.0933952343
 20
11.8421929195
 30
0.0
 10
12.0819754985
 20
11.8449283052
 30
0.0
 10
12.0680237941
 20
11.8493782456
 30
0.0
 10
12.0546052334
 20
11.8551505039
 30
0.0
 10
12.0442836433
 20
11.8605062733
 30
0.0
 10
12.0367675537
 20
11.8648757267
 30
0.0
 10
12.0294820301
 20
11.8695899928
 30
0.0
 10
12.0200979283
 20
11.8763145964
 30
0.0
 10
12.0089899846
 20
11.8855314446
 30
0.0
 10
11.996757671
 20
11.8977876012
 30
0.0
 10
11.9857045131
 20
11.9111433108
 30
0.0
 10
11.975908855
 20
11.9255008751
 30
0.0
 10
11.9674471973
 20
11.9407560644
 30
0.0
 10
11.9603946402
 20
11.9567934295
 30
0.0
 10
11.9548220537
 20
11.9734834013
 30
0.0
 10
11.9507910495
 20
11.9906814162
 30
0.0
 10
11.9483520257
 20
12.0082263268
 30
0.0
 10
11.9478072945
 20
12.0200417571
 30
0.0
 10
11.9478072467
 20
12.0259506711
 30
0.0
  0
SPLINE
  5
27B
100
AcDbEntity
  8
0
100
AcDbSpline
 62
7
  6
CONTINUOUS
 70
0
 71
3
 72
71
 73
67
 74
0
 42
0.0000001
 43
0.0000001
 44
0.0000000001
 40
0.0
 40
0.0
 40
0.0
 40
0.0
 40
0.015620281
 40
0.0312405265
 40
0.0468609219
 40
0.0624814362
 40
0.0781021328
 40
0.0937230494
 40
0.1093442256
 40
0.1249656984
 40
0.1405875016
 40
0.156209666
 40
0.171832219
 40
0.1874551841
 40
0.2030785808
 40
0.2187024246
 40
0.2343267267
 40
0.2499514936
 40
0.2655767277
 40
0.2812024267
 40
0.2968285837
 40
0.3124551878
 40
0.3280822233
 40
0.3437096708
 40
0.3593375066
 40
0.3749657034
 40
0.3905942304
 40
0.4062230536
 40
0.4218521364
 40
0.4374814392
 40
0.4531109207
 40
0.4687405378
 40
0.484370246
 40
0.5
 40
0.515629754
 40
0.5312594622
 40
0.5468890793
 40
0.5625185608
 40
0.5781478636
 40
0.5937769464
 40
0.6094057696
 40
0.6250342966
 40
0.6406624934
 40
0.6562903292
 40
0.6719177767
 40
0.6875448122
 40
0.7031714163
 40
0.7187975733
 40
0.7344232723
 40
0.7500485064
 40
0.7656732733
 40
0.7812975754
 40
0.7969214192
 40
0.8125448159
 40
0.828167781
 40
0.843790334
 40
0.8594124984
 40
0.8750343016
 40
0.8906557744
 40
0.9062769506
 40
0.9218978672
 40
0.9375185638
 40
0.9531390781
 40
0.9687594735
 40
0.984379719
 40
1.0
 40
1.0
 40
1.0
 40
1.0
 10
10.1097072523
 20
5.8798657221
 30
0.0
 10
10.109708488
 20
5.8715255069
 30
0.0
 10
10.110120689
 20
5.8548422528
 30
0.0
 10
10.1119667224
 20
5.8298801633
 30
0.0
 10
10.1150359978
 20
5.8050380477
 30
0.0
 10
10.1193211574
 20
5.7803764923
 30
0.0
 10
10.1248118615
 20
5.7559547153
 30
0.0
 10
10.1314948961
 20
5.7318315902
 30
0.0
 10
10.13935416
 20
5.7080652073
 30
0.0
 10
10.14837072
 20
5.6847128142
 30
0.0
 10
10.1585228574
 20
5.661830657
 30
0.0
 10
10.1697861196
 20
5.6394738509
 30
0.0
 10
10.1821333802
 20
5.6176962469
 30
0.0
 10
10.1955348997
 20
5.5965503003
 30
0.0
 10
10.2099583945
 20
5.5760869417
 30
0.0
 10
10.2253691222
 20
5.5563554588
 30
0.0
 10
10.2417299639
 20
5.5374033772
 30
0.0
 10
10.2590015137
 20
5.5192763467
 30
0.0
 10
10.2771421729
 20
5.5020180311
 30
0.0
 10
10.296108244
 20
5.4856699964
 30
0.0
 10
10.3158540432
 20
5.4702716168
 30
0.0
 10
10.3363320098
 20
5.4558599805
 30
0.0
 10
10.3574928208
 20
5.4424698003
 30
0.0
 10
10.3792855096
 20
5.4301333316
 30
0.0
 10
10.4016575845
 20
5.4188802865
 30
0.0
 10
10.4245551579
 20
5.4087377661
 30
0.0
 10
10.4479230781
 20
5.3997301985
 30
0.0
 10
10.471705061
 20
5.3918792799
 30
0.0
 10
10.495843826
 20
5.3852039232
 30
0.0
 10
10.520281232
 20
5.3797202079
 30
0.0
 10
10.5449584175
 20
5.3754413379
 30
0.0
 10
10.5698159448
 20
5.3723776178
 30
0.0
 10
10.5947939418
 20
5.370536427
 30
0.0
 10
10.6198322467
 20
5.3699222022
 30
0.0
 10
10.6448705515
 20
5.370536427
 30
0.0
 10
10.6698485486
 20
5.3723776178
 30
0.0
 10
10.6947060759
 20
5.3754413379
 30
0.0
 10
10.7193832614
 20
5.3797202079
 30
0.0
 10
10.7438206674
 20
5.3852039231
 30
0.0
 10
10.7679594323
 20
5.3918792799
 30
0.0
 10
10.7917414153
 20
5.3997301985
 30
0.0
 10
10.8151093355
 20
5.408737766
 30
0.0
 10
10.8380069089
 20
5.4188802865
 30
0.0
 10
10.8603789838
 20
5.4301333316
 30
0.0
 10
10.8821716726
 20
5.4424698003
 30
0.0
 10
10.9033324835
 20
5.4558599805
 30
0.0
 10
10.9238104502
 20
5.4702716167
 30
0.0
 10
10.9435562493
 20
5.4856699964
 30
0.0
 10
10.9625223204
 20
5.5020180311
 30
0.0
 10
10.9806629797
 20
5.5192763467
 30
0.0
 10
10.9979345294
 20
5.5374033772
 30
0.0
 10
11.0142953712
 20
5.5563554587
 30
0.0
 10
11.0297060989
 20
5.5760869417
 30
0.0
 10
11.0441295937
 20
5.5965503003
 30
0.0
 10
11.0575311132
 20
5.6176962468
 30
0.0
 10
11.0698783738
 20
5.6394738509
 30
0.0
 10
11.081141636
 20
5.661830657
 30
0.0
 10
11.0912937733
 20
5.6847128142
 30
0.0
 10
11.1003103333
 20
5.7080652073
 30
0.0
 10
11.1081695973
 20
5.7318315902
 30
0.0
 10
11.1148526319
 20
5.7559547153
 30
0.0
 10
11.1203433359
 20
5.7803764923
 30
0.0
 10
11.1246284956
 20
5.8050380476
 30
0.0
 10
11.127697771
 20
5.8298801633
 30
0.0
 10
11.1295438044
 20
5.8548422528
 30
0.0
 10
11.1299560054
 20
5.8715255068
 30
0.0
 10
11.1299572411
 20
5.8798657221
 30
0.0
  0
SPLINE
  5
27C
100
AcDbEntity
  8
0
100
AcDbSpline
 62
7
  6
CONTINUOUS
 70
0
 71
3
 72
71
 73
67
 74
0
 42
0.0000001
 43
0.0000001
 44
0.0000000001
 40
0.0
 40
0.0
 40
0.0
 40
0.0
 40
0.0156202646
 40
0.0312405042
 40
0.0468608984
 40
0.0624814134
 40
0.0781021122
 40
0.09372303
 40
0.1093442064
 40
0.1249656788
 40
0.1405874821
 40
0.1562096472
 40
0.171832201
 40
0.1874551666
 40
0.2030785637
 40
0.2187024079
 40
0.2343267104
 40
0.2499514779
 40
0.2655767126
 40
0.2812024122
 40
0.29682857
 40
0.3124551748
 40
0.3280822111
 40
0.3437096594
 40
0.3593374961
 40
0.3749656939
 40
0.390594222
 40
0.4062230464
 40
0.4218521302
 40
0.4374814342
 40
0.453110917
 40
0.4687405353
 40
0.4843702448
 40
0.5
 40
0.5156297552
 40
0.5312594647
 40
0.546889083
 40
0.5625185658
 40
0.5781478698
 40
0.5937769536
 40
0.609405778
 40
0.6250343061
 40
0.6406625039
 40
0.6562903406
 40
0.6719177889
 40
0.6875448252
 40
0.70317143
 40
0.7187975878
 40
0.7344232874
 40
0.7500485221
 40
0.7656732896
 40
0.7812975921
 40
0.7969214363
 40
0.8125448334
 40
0.828167799
 40
0.8437903528
 40
0.8594125179
 40
0.8750343212
 40
0.8906557936
 40
0.90627697
 40
0.9218978878
 40
0.9375185866
 40
0.9531391016
 40
0.9687594958
 40
0.9843797354
 40
1.0
 40
1.0
 40
1.0
 40
1.0
 10
10.1262072467
 20
5.8805170313
 30
0.0
 10
10.1262072467
 20
5.8724458286
 30
0.0
 10
10.1266037984
 20
5.856300626
 30
0.0
 10
10.1283868772
 20
5.8321434186
 30
0.0
 10
10.1313538722
 20
5.8081021529
 30
0.0
 10
10.1354976699
 20
5.7842354783
 30
0.0
 10
10.1408082685
 20
5.7606007176
 30
0.0
 10
10.1472728838
 20
5.7372548589
 30
0.0
 10
10.1548759407
 20
5.7142541332
 30
0.0
 10
10.1635991195
 20
5.6916539538
 30
0.0
 10
10.1734214038
 20
5.6695087643
 30
0.0
 10
10.1843191304
 20
5.6478719142
 30
0.0
 10
10.196266046
 20
5.6267955294
 30
0.0
 10
10.2092333715
 20
5.6063303864
 30
0.0
 10
10.2231898672
 20
5.5865257885
 30
0.0
 10
10.2381019073
 20
5.5674294444
 30
0.0
 10
10.2539335664
 20
5.5490873577
 30
0.0
 10
10.2706467041
 20
5.5315437157
 30
0.0
 10
10.2882010577
 20
5.5148407829
 30
0.0
 10
10.3065543391
 20
5.4990188003
 30
0.0
 10
10.3256623326
 20
5.484115884
 30
0.0
 10
10.3454790033
 20
5.4701679333
 30
0.0
 10
10.3659566106
 20
5.4572085487
 30
0.0
 10
10.3870458223
 20
5.4452689502
 30
0.0
 10
10.4086958335
 20
5.4343779018
 30
0.0
 10
10.4308544889
 20
5.4245616439
 30
0.0
 10
10.4534684055
 20
5.4158438225
 30
0.0
 10
10.4764831037
 20
5.4082454369
 30
0.0
 10
10.4998431393
 20
5.401784791
 30
0.0
 10
10.5234922366
 20
5.396477449
 30
0.0
 10
10.5473734237
 20
5.3923361981
 30
0.0
 10
10.5714291695
 20
5.389371018
 30
0.0
 10
10.5956015215
 20
5.3875890493
 30
0.0
 10
10.6198322467
 20
5.3869945825
 30
0.0
 10
10.6440629719
 20
5.3875890493
 30
0.0
 10
10.6682353239
 20
5.389371018
 30
0.0
 10
10.6922910697
 20
5.3923361981
 30
0.0
 10
10.7161722568
 20
5.396477449
 30
0.0
 10
10.7398213541
 20
5.401784791
 30
0.0
 10
10.7631813897
 20
5.4082454369
 30
0.0
 10
10.7861960879
 20
5.4158438225
 30
0.0
 10
10.8088100045
 20
5.4245616439
 30
0.0
 10
10.8309686599
 20
5.4343779018
 30
0.0
 10
10.8526186711
 20
5.4452689502
 30
0.0
 10
10.8737078828
 20
5.4572085487
 30
0.0
 10
10.8941854901
 20
5.4701679333
 30
0.0
 10
10.9140021608
 20
5.484115884
 30
0.0
 10
10.9331101543
 20
5.4990188003
 30
0.0
 10
10.9514634356
 20
5.5148407829
 30
0.0
 10
10.9690177892
 20
5.5315437157
 30
0.0
 10
10.985730927
 20
5.5490873577
 30
0.0
 10
11.0015625861
 20
5.5674294444
 30
0.0
 10
11.0164746262
 20
5.5865257885
 30
0.0
 10
11.0304311219
 20
5.6063303864
 30
0.0
 10
11.0433984474
 20
5.6267955294
 30
0.0
 10
11.055345363
 20
5.6478719142
 30
0.0
 10
11.0662430896
 20
5.6695087643
 30
0.0
 10
11.0760653739
 20
5.6916539538
 30
0.0
 10
11.0847885527
 20
5.7142541332
 30
0.0
 10
11.0923916095
 20
5.7372548589
 30
0.0
 10
11.0988562248
 20
5.7606007176
 30
0.0
 10
11.1041668235
 20
5.7842354783
 30
0.0
 10
11.1083106212
 20
5.8081021529
 30
0.0
 10
11.1112776162
 20
5.8321434186
 30
0.0
 10
11.113060695
 20
5.856300626
 30
0.0
 10
11.1134572467
 20
5.8724458286
 30
0.0
 10
11.1134572467
 20
5.8805170313
 30
0.0
  0
SPLINE
  5
27D
100
AcDbEntity
  8
0
100
AcDbSpline
 62
7
  6
CONTINUOUS
 70
0
 71
3
 72
65
 73
61
 74
0
 42
0.0000001
 43
0.0000001
 44
0.0000000001
 40
0.0
 40
0.0
 40
0.0
 40
0.0
 40
0.0156211292
 40
0.0312422608
 40
0.046863534
 40
0.0624849298
 40
0.0937188936
 40
0.1249538892
 40
0.1405765746
 40
0.1561996219
 40
0.1718230585
 40
0.1874469074
 40
0.2030711877
 40
0.2186959149
 40
0.2343211003
 40
0.2499467508
 40
0.2655728686
 40
0.2811994513
 40
0.2968264922
 40
0.3124539801
 40
0.3280818996
 40
0.343710231
 40
0.3593389508
 40
0.3749680318
 40
0.390597443
 40
0.4062271505
 40
0.4218571176
 40
0.4374873048
 40
0.4531176709
 40
0.4687481725
 40
0.5
 40
0.5312518275
 40
0.5468823291
 40
0.5625126952
 40
0.5781428824
 40
0.5937728495
 40
0.609402557
 40
0.6250319682
 40
0.6406610492
 40
0.656289769
 40
0.6719181004
 40
0.6875460199
 40
0.7031735078
 40
0.7188005487
 40
0.7344271314
 40
0.7500532492
 40
0.7656788997
 40
0.7813040851
 40
0.7969288123
 40
0.8125530926
 40
0.8281769415
 40
0.8438003781
 40
0.8594234254
 40
0.8750461108
 40
0.9062811064
 40
0.9375150702
 40
0.953136466
 40
0.9687577392
 40
0.9843788708
 40
1.0
 40
1.0
 40
1.0
 40
1.0
 10
10.9498322467
 20
5.8805170313
 30
0.0
 10
10.9498322467
 20
5.8751212473
 30
0.0
 10
10.9495671372
 20
5.8643277831
 30
0.0
 10
10.9483751335
 20
5.8481781977
 30
0.0
 10
10.9463915417
 20
5.8321057622
 30
0.0
 10
10.9426988602
 20
5.8108363085
 30
0.0
 10
10.9361304018
 20
5.7846269479
 30
0.0
 10
10.9270219432
 20
5.7591881201
 30
0.0
 10
10.9182685349
 20
5.7394532379
 30
0.0
 10
10.9109830619
 20
5.7249882128
 30
0.0
 10
10.9029962879
 20
5.7108982252
 30
0.0
 10
10.8943273182
 20
5.6972167716
 30
0.0
 10
10.884997074
 20
5.6839769322
 30
0.0
 10
10.8750280231
 20
5.6712105708
 30
0.0
 10
10.8644441847
 20
5.658948451
 30
0.0
 10
10.8532710556
 20
5.647220111
 30
0.0
 10
10.8415355532
 20
5.6360538058
 30
0.0
 10
10.8292659497
 20
5.6254764357
 30
0.0
 10
10.816491804
 20
5.615513482
 30
0.0
 10
10.8032438904
 20
5.606188946
 30
0.0
 10
10.7895541244
 20
5.5975252909
 30
0.0
 10
10.7754554859
 20
5.5895433879
 30
0.0
 10
10.7609819397
 20
5.5822624655
 30
0.0
 10
10.7461683543
 20
5.5757000638
 30
0.0
 10
10.7310504145
 20
5.569871992
 30
0.0
 10
10.7156645495
 20
5.5647922899
 30
0.0
 10
10.7000477915
 20
5.5604731947
 30
0.0
 10
10.6842378874
 20
5.5569251115
 30
0.0
 10
10.6682724571
 20
5.5541565876
 30
0.0
 10
10.6468346293
 20
5.5515139194
 30
0.0
 10
10.6198322467
 20
5.5501875364
 30
0.0
 10
10.5928298641
 20
5.5515139194
 30
0.0
 10
10.5713920363
 20
5.5541565876
 30
0.0
 10
10.555426606
 20
5.5569251115
 30
0.0
 10
10.5396167019
 20
5.5604731947
 30
0.0
 10
10.5239999438
 20
5.5647922899
 30
0.0
 10
10.5086140788
 20
5.569871992
 30
0.0
 10
10.493496139
 20
5.5757000638
 30
0.0
 10
10.4786825537
 20
5.5822624655
 30
0.0
 10
10.4642090075
 20
5.5895433879
 30
0.0
 10
10.450110369
 20
5.5975252909
 30
0.0
 10
10.436420603
 20
5.606188946
 30
0.0
 10
10.4231726894
 20
5.615513482
 30
0.0
 10
10.4103985437
 20
5.6254764357
 30
0.0
 10
10.3981289402
 20
5.6360538058
 30
0.0
 10
10.3863934378
 20
5.647220111
 30
0.0
 10
10.3752203087
 20
5.658948451
 30
0.0
 10
10.3646364703
 20
5.6712105708
 30
0.0
 10
10.3546674194
 20
5.6839769322
 30
0.0
 10
10.3453371752
 20
5.6972167716
 30
0.0
 10
10.3366682055
 20
5.7108982252
 30
0.0
 10
10.3286814315
 20
5.7249882128
 30
0.0
 10
10.3213959585
 20
5.7394532379
 30
0.0
 10
10.3126425501
 20
5.7591881201
 30
0.0
 10
10.3035340916
 20
5.7846269479
 30
0.0
 10
10.2969656332
 20
5.8108363085
 30
0.0
 10
10.2932729516
 20
5.8321057622
 30
0.0
 10
10.2912893599
 20
5.8481781977
 30
0.0
 10
10.2900973562
 20
5.8643277831
 30
0.0
 10
10.2898322467
 20
5.8751212473
 30
0.0
 10
10.2898322467
 20
5.8805170313
 30
0.0
  0
SPLINE
  5
27E
100
AcDbEntity
  8
0
100
AcDbSpline
 62
7
  6
CONTINUOUS
 70
0
 71
3
 72
39
 73
35
 74
0
 42
0.0000001
 43
0.0000001
 44
0.0000000001
 40
0.0
 40
0.0
 40
0.0
 40
0.0
 40
0.0312417647
 40
0.062484682
 40
0.0937288079
 40
0.1249741781
 40
0.1562208057
 40
0.1874686825
 40
0.2187177784
 40
0.2499680416
 40
0.2812194006
 40
0.3124717641
 40
0.3437250237
 40
0.3749790555
 40
0.4062337215
 40
0.4374888734
 40
0.4687443538
 40
0.5000000001
 40
0.5312556463
 40
0.5625111267
 40
0.5937662786
 40
0.6250209446
 40
0.6562749764
 40
0.687528236
 40
0.7187805995
 40
0.7500319585
 40
0.7812822216
 40
0.8125313175
 40
0.8437791943
 40
0.875025822
 40
0.9062711921
 40
0.937515318
 40
0.9687582353
 40
1.0
 40
1.0
 40
1.0
 40
1.0
 10
10.3467033296
 20
5.7353944786
 30
0.0
 10
10.3500938242
 20
5.7293806702
 30
0.0
 10
10.3572749943
 20
5.7175733787
 30
0.0
 10
10.3691917737
 20
5.7006154985
 30
0.0
 10
10.3822039062
 20
5.6844805876
 30
0.0
 10
10.3962539673
 20
5.6692401688
 30
0.0
 10
10.4112807196
 20
5.6549605222
 30
0.0
 10
10.4272185013
 20
5.6417041257
 30
0.0
 10
10.4439976787
 20
5.6295288411
 30
0.0
 10
10.4615449644
 20
5.6184878758
 30
0.0
 10
10.4797837025
 20
5.6086294557
 30
0.0
 10
10.4986342132
 20
5.5999966304
 30
0.0
 10
10.5180141628
 20
5.5926271383
 30
0.0
 10
10.5378388801
 20
5.5865531375
 30
0.0
 10
10.5580217739
 20
5.5818011881
 30
0.0
 10
10.5784746738
 20
5.578392034
 30
0.0
 10
10.599108236
 20
5.5763405613
 30
0.0
 10
10.6198323277
 20
5.5756557549
 30
0.0
 10
10.6405564191
 20
5.576340572
 30
0.0
 10
10.6611899803
 20
5.5783920553
 30
0.0
 10
10.6816428784
 20
5.58180122
 30
0.0
 10
10.7018257697
 20
5.5865531798
 30
0.0
 10
10.7216504839
 20
5.5926271909
 30
0.0
 10
10.7410304296
 20
5.599996693
 30
0.0
 10
10.7598809359
 20
5.608629528
 30
0.0
 10
10.7781196689
 20
5.6184879575
 30
0.0
 10
10.7956669489
 20
5.6295289319
 30
0.0
 10
10.81244612
 20
5.6417042251
 30
0.0
 10
10.8283838949
 20
5.6549606299
 30
0.0
 10
10.8434106398
 20
5.6692402842
 30
0.0
 10
10.857460693
 20
5.6844807103
 30
0.0
 10
10.8704728171
 20
5.7006156279
 30
0.0
 10
10.8823895877
 20
5.7175735142
 30
0.0
 10
10.8895707518
 20
5.7293808094
 30
0.0
 10
10.8929612433
 20
5.7353946196
 30
0.0
  0
SPLINE
  5
27F
100
AcDbEntity
  8
0
100
AcDbSpline
 62
7
  6
CONTINUOUS
 70
0
 71
3
 72
63
 73
59
 74
0
 42
0.0000001
 43
0.0000001
 44
0.0000000001
 40
0.0
 40
0.0
 40
0.0
 40
0.0
 40
0.0156213487
 40
0.0312426787
 40
0.0468641529
 40
0.0624857857
 40
0.0937207554
 40
0.1249568318
 40
0.1405798383
 40
0.1562032129
 40
0.1718269794
 40
0.1874511583
 40
0.2030757661
 40
0.2187008154
 40
0.2343263148
 40
0.2499522688
 40
0.2655786778
 40
0.2812055378
 40
0.296832841
 40
0.3124605753
 40
0.3280887248
 40
0.3437172697
 40
0.3593461867
 40
0.374975449
 40
0.3906050266
 40
0.4062348868
 40
0.4218649941
 40
0.437495311
 40
0.4687474826
 40
0.5
 40
0.5312525174
 40
0.562504689
 40
0.5781350059
 40
0.5937651132
 40
0.6093949734
 40
0.625024551
 40
0.6406538133
 40
0.6562827303
 40
0.6719112752
 40
0.6875394247
 40
0.703167159
 40
0.7187944622
 40
0.7344213222
 40
0.7500477312
 40
0.7656736852
 40
0.7812991846
 40
0.7969242339
 40
0.8125488417
 40
0.8281730206
 40
0.8437967871
 40
0.8594201617
 40
0.8750431682
 40
0.9062792446
 40
0.9375142143
 40
0.9531358471
 40
0.9687573213
 40
0.9843786513
 40
1.0
 40
1.0
 40
1.0
 40
1.0
 10
10.9330809909
 20
5.8685517316
 30
0.0
 10
10.9328809227
 20
5.8635603434
 30
0.0
 10
10.9322417056
 20
5.8535854884
 30
0.0
 10
10.9305682217
 20
5.8386875871
 30
0.0
 10
10.9281837
 20
5.8238860658
 30
0.0
 10
10.9240647967
 20
5.8043295254
 30
0.0
 10
10.9171676542
 20
5.7802860748
 30
0.0
 10
10.9080029761
 20
5.7570118909
 30
0.0
 10
10.8993652946
 20
5.7389877133
 30
0.0
 10
10.8922461147
 20
5.7257914746
 30
0.0
 10
10.8845037935
 20
5.7129508534
 30
0.0
 10
10.8761559124
 20
5.7004948377
 30
0.0
 10
10.867221606
 20
5.6884520296
 30
0.0
 10
10.8577213054
 20
5.6768499533
 30
0.0
 10
10.847676749
 20
5.66571516
 30
0.0
 10
10.8371109168
 20
5.6550731224
 30
0.0
 10
10.8260479823
 20
5.6449481885
 30
0.0
 10
10.8145132562
 20
5.6353635223
 30
0.0
 10
10.8025331285
 20
5.626341052
 30
0.0
 10
10.7901350083
 20
5.6179014195
 30
0.0
 10
10.7773472606
 20
5.6100639332
 30
0.0
 10
10.7641991426
 20
5.602846524
 30
0.0
 10
10.7507207332
 20
5.5962657038
 30
0.0
 10
10.7369428776
 20
5.5903365291
 30
0.0
 10
10.7228970655
 20
5.585072562
 30
0.0
 10
10.7086155516
 20
5.5804858556
 30
0.0
 10
10.6941305619
 20
5.5765868659
 30
0.0
 10
10.6745950496
 20
5.5723178372
 30
0.0
 10
10.649824549
 20
5.5687402644
 30
0.0
 10
10.6198322456
 20
5.5673056442
 30
0.0
 10
10.5898399423
 20
5.5687402646
 30
0.0
 10
10.5650694416
 20
5.5723178376
 30
0.0
 10
10.5455339294
 20
5.5765868664
 30
0.0
 10
10.5310489398
 20
5.5804858562
 30
0.0
 10
10.5167674259
 20
5.5850725627
 30
0.0
 10
10.5027216138
 20
5.5903365298
 30
0.0
 10
10.4889437583
 20
5.5962657047
 30
0.0
 10
10.4754653489
 20
5.602846525
 30
0.0
 10
10.462317231
 20
5.6100639343
 30
0.0
 10
10.4495294833
 20
5.6179014207
 30
0.0
 10
10.4371313631
 20
5.6263410533
 30
0.0
 10
10.4251512355
 20
5.6353635237
 30
0.0
 10
10.4136165095
 20
5.6449481899
 30
0.0
 10
10.4025535751
 20
5.6550731239
 30
0.0
 10
10.3919877429
 20
5.6657151615
 30
0.0
 10
10.3819431866
 20
5.6768499549
 30
0.0
 10
10.3724428861
 20
5.6884520313
 30
0.0
 10
10.3635085798
 20
5.7004948395
 30
0.0
 10
10.3551606988
 20
5.7129508552
 30
0.0
 10
10.3474183777
 20
5.7257914764
 30
0.0
 10
10.3402991978
 20
5.7389877152
 30
0.0
 10
10.3316615164
 20
5.7570118929
 30
0.0
 10
10.3224968385
 20
5.7802860768
 30
0.0
 10
10.3155996961
 20
5.8043295275
 30
0.0
 10
10.311480793
 20
5.8238860678
 30
0.0
 10
10.3090962714
 20
5.8386875892
 30
0.0
 10
10.3074227876
 20
5.8535854905
 30
0.0
 10
10.3067835705
 20
5.8635603455
 30
0.0
 10
10.3065835023
 20
5.8685517337
 30
0.0
  0
SPLINE
  5
280
100
AcDbEntity
  8
0
100
AcDbSpline
 62
7
  6
CONTINUOUS
 70
0
 71
3
 72
71
 73
67
 74
0
 42
0.0000001
 43
0.0000001
 44
0.0000000001
 40
0.0
 40
0.0
 40
0.0
 40
0.0
 40
0.0156202777
 40
0.031240524
 40
0.0468609197
 40
0.0624814341
 40
0.0781021307
 40
0.0937230472
 40
0.1093442234
 40
0.1249656959
 40
0.1405874989
 40
0.1562096631
 40
0.1718322159
 40
0.1874551807
 40
0.2030785772
 40
0.2187024207
 40
0.2343267225
 40
0.2499514893
 40
0.2655767233
 40
0.2812024222
 40
0.2968285792
 40
0.3124551833
 40
0.3280822189
 40
0.3437096666
 40
0.3593375026
 40
0.3749656996
 40
0.390594227
 40
0.4062230506
 40
0.4218521338
 40
0.4374814371
 40
0.4531109191
 40
0.4687405367
 40
0.4843702455
 40
0.5
 40
0.5156297545
 40
0.5312594633
 40
0.5468890809
 40
0.5625185629
 40
0.5781478662
 40
0.5937769494
 40
0.609405773
 40
0.6250343004
 40
0.6406624974
 40
0.6562903334
 40
0.6719177811
 40
0.6875448167
 40
0.7031714208
 40
0.7187975778
 40
0.7344232767
 40
0.7500485107
 40
0.7656732775
 40
0.7812975793
 40
0.7969214228
 40
0.8125448193
 40
0.8281677841
 40
0.8437903369
 40
0.8594125011
 40
0.8750343041
 40
0.8906557766
 40
0.9062769528
 40
0.9218978693
 40
0.9375185659
 40
0.9531390803
 40
0.968759476
 40
0.9843797223
 40
1.0
 40
1.0
 40
1.0
 40
1.0
 10
10.1097072467
 20
5.87986569
 30
0.0
 10
10.1097072467
 20
5.8715246908
 30
0.0
 10
10.1101170542
 20
5.8548398051
 30
0.0
 10
10.1119597366
 20
5.8298751031
 30
0.0
 10
10.1150259089
 20
5.8050302259
 30
0.0
 10
10.1193082188
 20
5.7803657803
 30
0.0
 10
10.1247963314
 20
5.755941002
 30
0.0
 10
10.1314770368
 20
5.7318147831
 30
0.0
 10
10.1393342362
 20
5.7080452323
 30
0.0
 10
10.1483489978
 20
5.6846896155
 30
0.0
 10
10.1584996032
 20
5.6618041972
 30
0.0
 10
10.1697615988
 20
5.639444111
 30
0.0
 10
10.1821078562
 20
5.6176632257
 30
0.0
 10
10.1955086327
 20
5.5965140146
 30
0.0
 10
10.2099316404
 20
5.5760474256
 30
0.0
 10
10.2253421315
 20
5.5563127637
 30
0.0
 10
10.2417029808
 20
5.5373575709
 30
0.0
 10
10.2589747748
 20
5.5192275131
 30
0.0
 10
10.2771159064
 20
5.5019662698
 30
0.0
 10
10.2960826688
 20
5.4856154217
 30
0.0
 10
10.3158293678
 20
5.4702143573
 30
0.0
 10
10.3363084317
 20
5.4558001783
 30
0.0
 10
10.3574705254
 20
5.4424076101
 30
0.0
 10
10.3792646698
 20
5.4300689199
 30
0.0
 10
10.4016383597
 20
5.4188138308
 30
0.0
 10
10.4245376935
 20
5.4086694539
 30
0.0
 10
10.4479075047
 20
5.3996602265
 30
0.0
 10
10.4716914943
 20
5.3918078527
 30
0.0
 10
10.4958323658
 20
5.3851312525
 30
0.0
 10
10.5202719623
 20
5.3796465116
 30
0.0
 10
10.5449514058
 20
5.3753668387
 30
0.0
 10
10.5698112419
 20
5.3723025423
 30
0.0
 10
10.5947915819
 20
5.3704610046
 30
0.0
 10
10.6198322467
 20
5.369846664
 30
0.0
 10
10.6448729115
 20
5.3704610046
 30
0.0
 10
10.6698532515
 20
5.3723025423
 30
0.0
 10
10.6947130876
 20
5.3753668387
 30
0.0
 10
10.7193925311
 20
5.3796465116
 30
0.0
 10
10.7438321276
 20
5.3851312525
 30
0.0
 10
10.7679729991
 20
5.3918078527
 30
0.0
 10
10.7917569886
 20
5.3996602265
 30
0.0
 10
10.8151267999
 20
5.4086694539
 30
0.0
 10
10.8380261337
 20
5.4188138308
 30
0.0
 10
10.8603998236
 20
5.4300689199
 30
0.0
 10
10.882193968
 20
5.4424076101
 30
0.0
 10
10.9033560617
 20
5.4558001783
 30
0.0
 10
10.9238351256
 20
5.4702143573
 30
0.0
 10
10.9435818246
 20
5.4856154217
 30
0.0
 10
10.962548587
 20
5.5019662698
 30
0.0
 10
10.9806897186
 20
5.5192275131
 30
0.0
 10
10.9979615126
 20
5.5373575709
 30
0.0
 10
11.0143223618
 20
5.5563127637
 30
0.0
 10
11.029732853
 20
5.5760474256
 30
0.0
 10
11.0441558607
 20
5.5965140146
 30
0.0
 10
11.0575566372
 20
5.6176632257
 30
0.0
 10
11.0699028946
 20
5.639444111
 30
0.0
 10
11.0811648902
 20
5.6618041972
 30
0.0
 10
11.0913154956
 20
5.6846896155
 30
0.0
 10
11.1003302572
 20
5.7080452323
 30
0.0
 10
11.1081874566
 20
5.7318147831
 30
0.0
 10
11.1148681619
 20
5.755941002
 30
0.0
 10
11.1203562746
 20
5.7803657803
 30
0.0
 10
11.1246385844
 20
5.8050302259
 30
0.0
 10
11.1277047568
 20
5.8298751031
 30
0.0
 10
11.1295474391
 20
5.8548398051
 30
0.0
 10
11.1299572467
 20
5.8715246908
 30
0.0
 10
11.1299572467
 20
5.87986569
 30
0.0
  0
SPLINE
  5
281
100
AcDbEntity
  8
0
100
AcDbSpline
 62
7
  6
CONTINUOUS
 70
0
 71
3
 72
29
 73
25
 74
0
 42
0.0000001
 43
0.0000001
 44
0.0000000001
 40
0.0
 40
0.0
 40
0.0
 40
0.0
 40
0.0342515875
 40
0.0684718071
 40
0.1366714054
 40
0.2043695774
 40
0.2379699036
 40
0.2713715843
 40
0.3045565569
 40
0.3375098949
 40
0.3702191723
 40
0.4026753628
 40
0.4348718125
 40
0.4668044057
 40
0.4984714834
 40
0.5298725657
 40
0.5918783664
 40
0.6528563378
 40
0.7128492986
 40
0.7719097063
 40
0.8300952456
 40
0.8874658018
 40
0.9440813202
 40
1.0
 40
1.0
 40
1.0
 40
1.0
 10
11.1143522872
 20
12.0259161604
 30
0.0
 10
11.1143516312
 20
12.0213507008
 30
0.0
 10
11.1141890446
 20
12.012223084
 30
0.0
 10
11.1132291636
 20
11.9940283392
 30
0.0
 10
11.1108553307
 20
11.9714577208
 30
0.0
 10
11.1069296941
 20
11.949189361
 30
0.0
 10
11.1029141499
 20
11.9316868438
 30
0.0
 10
11.0994913814
 20
11.9187761088
 30
0.0
 10
11.0956642562
 20
11.906069667
 30
0.0
 10
11.0914495789
 20
11.8935838899
 30
0.0
 10
11.0868667344
 20
11.8813322754
 30
0.0
 10
11.0819338722
 20
11.8693264406
 30
0.0
 10
11.0766685166
 20
11.8575760883
 30
0.0
 10
11.0710870537
 20
11.8460894991
 30
0.0
 10
11.0652067741
 20
11.8348725132
 30
0.0
 10
11.0570259554
 20
11.8203440646
 30
0.0
 10
11.0461435081
 20
11.8028638938
 30
0.0
 10
11.0320889324
 20
11.7829161682
 30
0.0
 10
11.0172029708
 20
11.7640796084
 30
0.0
 10
11.0015840435
 20
11.7463405584
 30
0.0
 10
10.9853194353
 20
11.7296778216
 30
0.0
 10
10.9684859384
 20
11.7140663081
 30
0.0
 10
10.9511516875
 20
11.6994794915
 30
0.0
 10
10.939230611
 20
11.6903650689
 30
0.0
 10
10.9332074619
 20
11.6859745729
 30
0.0
  0
SPLINE
  5
282
100
AcDbEntity
  8
0
100
AcDbSpline
 62
7
  6
CONTINUOUS
 70
0
 71
3
 72
33
 73
29
 74
0
 42
0.0000001
 43
0.0000001
 44
0.0000000001
 40
0.0
 40
0.0
 40
0.0
 40
0.0
 40
0.0312630718
 40
0.0625259733
 40
0.0937887606
 40
0.1250512482
 40
0.1875562736
 40
0.2500592244
 40
0.281319149
 40
0.3125783514
 40
0.3438367769
 40
0.3750943783
 40
0.4063511166
 40
0.4376069607
 40
0.500097062
 40
0.5625834311
 40
0.593834648
 40
0.6250849706
 40
0.6563344298
 40
0.6875830647
 40
0.7188309225
 40
0.7500780578
 40
0.8125515742
 40
0.8750230163
 40
0.9062675799
 40
0.937511872
 40
0.9687559818
 40
1.0
 40
1.0
 40
1.0
 40
1.0
 10
10.6198322467
 20
5.6000955499
 30
0.0
 10
10.6249703652
 20
5.6000955499
 30
0.0
 10
10.6352483748
 20
5.6003476913
 30
0.0
 10
10.6506267324
 20
5.6014813844
 30
0.0
 10
10.6659316194
 20
5.6033679444
 30
0.0
 10
10.6861850915
 20
5.6068799463
 30
0.0
 10
10.7111423088
 20
5.6131269123
 30
0.0
 10
10.7353666468
 20
5.6217898527
 30
0.0
 10
10.7541594874
 20
5.6301152438
 30
0.0
 10
10.7679337388
 20
5.637044331
 30
0.0
 10
10.7813508852
 20
5.644640434
 30
0.0
 10
10.7943789447
 20
5.6528852984
 30
0.0
 10
10.8069867327
 20
5.6617593419
 30
0.0
 10
10.8231920507
 20
5.6743981585
 30
0.0
 10
10.8422557
 20
5.6916649724
 30
0.0
 10
10.8595336821
 20
5.7107174911
 30
0.0
 10
10.8721806075
 20
5.7269134065
 30
0.0
 10
10.8810600869
 20
5.7395135139
 30
0.0
 10
10.8893100049
 20
5.7525336425
 30
0.0
 10
10.8969107665
 20
5.7659426262
 30
0.0
 10
10.9038441054
 20
5.7797085036
 30
0.0
 10
10.9121744347
 20
5.7984895333
 30
0.0
 10
10.9208426501
 20
5.8226988146
 30
0.0
 10
10.927093635
 20
5.847641388
 30
0.0
 10
10.9306078341
 20
5.8678828146
 30
0.0
 10
10.9324955582
 20
5.8831784269
 30
0.0
 10
10.9336299444
 20
5.8985474592
 30
0.0
 10
10.9338822427
 20
5.9088192521
 30
0.0
 10
10.9338822427
 20
5.9139542391
 30
0.0
  0
SPLINE
  5
283
100
AcDbEntity
  8
0
100
AcDbSpline
 62
7
  6
CONTINUOUS
 70
0
 71
3
 72
29
 73
25
 74
0
 42
0.0000001
 43
0.0000001
 44
0.0000000001
 40
0.0
 40
0.0
 40
0.0
 40
0.0
 40
0.0633276276
 40
0.0949668757
 40
0.1265691352
 40
0.1896040148
 40
0.2523852976
 40
0.2836782469
 40
0.3148991738
 40
0.3771178911
 40
0.4390982723
 40
0.5009106687
 40
0.5626480171
 40
0.6244160576
 40
0.6553538458
 40
0.6863386724
 40
0.7173817036
 40
0.748492227
 40
0.8109236072
 40
0.8736735206
 40
0.9051707841
 40
0.9367321078
 40
0.9683478197
 40
1.0
 40
1.0
 40
1.0
 40
1.0
 10
11.9478072467
 20
12.0259506711
 30
0.0
 10
11.947807279
 20
12.0318595838
 30
0.0
 10
11.9482161144
 20
12.0407277566
 30
0.0
 10
11.9495734917
 20
12.0524622679
 30
0.0
 10
11.9514653647
 20
12.0640957229
 30
0.0
 10
11.954821766
 20
12.0784179129
 30
0.0
 10
11.959471809
 20
12.0923434723
 30
0.0
 10
11.9639328511
 20
12.1031537306
 30
0.0
 10
11.9688641852
 20
12.1136996743
 30
0.0
 10
11.9759090159
 20
12.1264008739
 30
0.0
 10
11.9857044534
 20
12.1407579027
 30
0.0
 10
11.9967576706
 20
12.1541137502
 30
0.0
 10
12.0089899645
 20
12.1663698679
 30
0.0
 10
12.0200979042
 20
12.17558673
 30
0.0
 10
12.0294819979
 20
12.1823113396
 30
0.0
 10
12.0367675206
 20
12.187025605
 30
0.0
 10
12.0442836129
 20
12.1913950524
 30
0.0
 10
12.0546052138
 20
12.1967507973
 30
0.0
 10
12.0680237541
 20
12.2025230828
 30
0.0
 10
12.0819754442
 20
12.2069730879
 30
0.0
 10
12.0933952176
 20
12.2097083105
 30
0.0
 10
12.1020807297
 20
12.2113406927
 30
0.0
 10
12.1108503618
 20
12.2125428547
 30
0.0
 10
12.1167344719
 20
12.2130534549
 30
0.0
 10
12.1196822176
 20
12.2132356509
 30
0.0
  0
SPLINE
  5
284
100
AcDbEntity
  8
0
100
AcDbSpline
 62
7
  6
CONTINUOUS
 70
0
 71
3
 72
31
 73
27
 74
0
 42
0.0000001
 43
0.0000001
 44
0.0000000001
 40
0.0
 40
0.0
 40
0.0
 40
0.0
 40
0.0312447612
 40
0.0624896807
 40
0.0937348423
 40
0.1249803275
 40
0.1874549399
 40
0.2499317413
 40
0.2811799417
 40
0.3124288703
 40
0.3436785746
 40
0.3749290952
 40
0.4374150804
 40
0.4999046315
 40
0.5623977927
 40
0.6248944785
 40
0.6561528909
 40
0.6874120945
 40
0.7186720444
 40
0.7499326886
 40
0.8124382088
 40
0.8749457425
 40
0.9062088712
 40
0.9374723223
 40
0.9687357801
 40
1.0
 40
1.0
 40
1.0
 40
1.0
 10
10.9336250601
 20
5.8776453005
 30
0.0
 10
10.9334238924
 20
5.8726807486
 30
0.0
 10
10.932785487
 20
5.8627595498
 30
0.0
 10
10.9311220817
 20
5.847941382
 30
0.0
 10
10.9287564436
 20
5.8332182051
 30
0.0
 10
10.9246742749
 20
5.813763339
 30
0.0
 10
10.9178444122
 20
5.7898404502
 30
0.0
 10
10.9087740029
 20
5.766673685
 30
0.0
 10
10.9002265743
 20
5.7487250359
 30
0.0
 10
10.8931822788
 20
5.7355798789
 30
0.0
 10
10.8855213128
 20
5.7227838368
 30
0.0
 10
10.8745101786
 20
5.7062296701
 30
0.0
 10
10.8592884083
 20
5.6865440903
 30
0.0
 10
10.8388668249
 20
5.664764947
 30
0.0
 10
10.8164707074
 20
5.6450193827
 30
0.0
 10
10.7963253034
 20
5.6304056371
 30
0.0
 10
10.7794382188
 20
5.6199037657
 30
0.0
 10
10.7664100354
 20
5.6126353289
 30
0.0
 10
10.7530512116
 20
5.6059933961
 30
0.0
 10
10.7348426174
 20
5.5979940595
 30
0.0
 10
10.7113994188
 20
5.5896291629
 30
0.0
 10
10.6872681206
 20
5.58352537
 30
0.0
 10
10.667687844
 20
5.5800319925
 30
0.0
 10
10.6528913355
 20
5.5781111551
 30
0.0
 10
10.6380208343
 20
5.5768946235
 30
0.0
 10
10.6280788836
 20
5.576554939
 30
0.0
 10
10.6231074334
 20
5.5765031125
 30
0.0
  0
SPLINE
  5
285
100
AcDbEntity
  8
0
100
AcDbSpline
 62
7
  6
CONTINUOUS
 70
0
 71
3
 72
33
 73
29
 74
0
 42
0.0000001
 43
0.0000001
 44
0.0000000001
 40
0.0
 40
0.0
 40
0.0
 40
0.0
 40
0.0312440182
 40
0.062488128
 40
0.0937324201
 40
0.1249769837
 40
0.1874484258
 40
0.2499219422
 40
0.2811690775
 40
0.3124169353
 40
0.3436655702
 40
0.3749150294
 40
0.406165352
 40
0.4374165689
 40
0.499902938
 40
0.5623930393
 40
0.5936488834
 40
0.6249056217
 40
0.6561632231
 40
0.6874216486
 40
0.718680851
 40
0.7499407756
 40
0.8124437264
 40
0.8749487518
 40
0.9062112394
 40
0.9374740267
 40
0.9687369282
 40
1.0
 40
1.0
 40
1.0
 40
1.0
 10
10.3057822506
 20
5.9139542391
 30
0.0
 10
10.3057822506
 20
5.9088192521
 30
0.0
 10
10.306034549
 20
5.8985474592
 30
0.0
 10
10.3071689352
 20
5.8831784269
 30
0.0
 10
10.3090566593
 20
5.8678828146
 30
0.0
 10
10.3125708584
 20
5.847641388
 30
0.0
 10
10.3188218433
 20
5.8226988146
 30
0.0
 10
10.3274900587
 20
5.7984895333
 30
0.0
 10
10.3358203879
 20
5.7797085036
 30
0.0
 10
10.3427537269
 20
5.7659426262
 30
0.0
 10
10.3503544884
 20
5.7525336425
 30
0.0
 10
10.3586044064
 20
5.7395135139
 30
0.0
 10
10.3674838858
 20
5.7269134065
 30
0.0
 10
10.3801308113
 20
5.7107174911
 30
0.0
 10
10.3974087933
 20
5.6916649724
 30
0.0
 10
10.4164724427
 20
5.6743981585
 30
0.0
 10
10.4326777607
 20
5.6617593419
 30
0.0
 10
10.4452855486
 20
5.6528852984
 30
0.0
 10
10.4583136081
 20
5.644640434
 30
0.0
 10
10.4717307546
 20
5.637044331
 30
0.0
 10
10.485505006
 20
5.6301152438
 30
0.0
 10
10.5042978466
 20
5.6217898527
 30
0.0
 10
10.5285221846
 20
5.6131269123
 30
0.0
 10
10.5534794019
 20
5.6068799463
 30
0.0
 10
10.573732874
 20
5.6033679444
 30
0.0
 10
10.589037761
 20
5.6014813844
 30
0.0
 10
10.6044161186
 20
5.6003476913
 30
0.0
 10
10.6146941282
 20
5.6000955499
 30
0.0
 10
10.6198322467
 20
5.6000955499
 30
0.0
  0
SPLINE
  5
286
100
AcDbEntity
  8
0
100
AcDbSpline
 62
7
  6
CONTINUOUS
 70
0
 71
3
 72
48
 73
44
 74
0
 42
0.0000001
 43
0.0000001
 44
0.0000000001
 40
0.0
 40
0.0
 40
0.0
 40
0.0
 40
0.1514057212
 40
0.2263182607
 40
0.3006208733
 40
0.374233005
 40
0.4470417777
 40
0.5188948904
 40
0.589583637
 40
0.6588079384
 40
0.6927401172
 40
0.7261270833
 40
0.7588736763
 40
0.7908670384
 40
0.8219556455
 40
0.8519490923
 40
0.8805967778
 40
0.9075648599
 40
0.9202879556
 40
0.9324155212
 40
0.9438732223
 40
0.9545711962
 40
0.9644138968
 40
0.9732923265
 40
0.9773344663
 40
0.9810921065
 40
0.9845501454
 40
0.9876935907
 40
0.9905082828
 40
0.9929804428
 40
0.995096542
 40
0.996845528
 40
0.9975793438
 40
0.9982177733
 40
0.998759642
 40
0.9992041747
 40
0.9995509087
 40
0.99968746
 40
0.9997993928
 40
0.9998866524
 40
0.9999491867
 40
0.999986954
 40
1.0
 40
1.0
 40
1.0
 40
1.0
 10
12.0330305456
 20
11.8905194347
 30
0.0
 10
12.0350297491
 20
11.8897659717
 30
0.0
 10
12.0380342942
 20
11.8886819815
 30
0.0
 10
12.0420534139
 20
11.8873246869
 30
0.0
 10
12.0450457017
 20
11.8863585304
 30
0.0
 10
12.0480219919
 20
11.8854403641
 30
0.0
 10
12.0509766214
 20
11.8845700977
 30
0.0
 10
12.0539021642
 20
11.883747938
 30
0.0
 10
12.0567886251
 20
11.8829745087
 30
0.0
 10
12.0591655405
 20
11.8823675939
 30
0.0
 10
12.0610364376
 20
11.8819069905
 30
0.0
 10
12.0624093921
 20
11.8815771172
 30
0.0
 10
12.0637574867
 20
11.8812609754
 30
0.0
 10
12.0650756313
 20
11.8809592547
 30
0.0
 10
12.0663573946
 20
11.8806727872
 30
0.0
 10
12.0675944368
 20
11.8804027434
 30
0.0
 10
12.0687758752
 20
11.8801506778
 30
0.0
 10
12.0697198578
 20
11.8799536393
 30
0.0
 10
12.0704361055
 20
11.8798064724
 30
0.0
 10
12.0709381632
 20
11.87970432
 30
0.0
 10
12.0714123931
 20
11.8796087284
 30
0.0
 10
12.071855164
 20
11.8795202392
 30
0.0
 10
12.0722623665
 20
11.8794394951
 30
0.0
 10
12.0725775231
 20
11.8793774254
 30
0.0
 10
12.0728084692
 20
11.8793321357
 30
0.0
 10
12.0729643718
 20
11.8793016351
 30
0.0
 10
12.0731078392
 20
11.8792736214
 30
0.0
 10
12.0732382538
 20
11.8792481913
 30
0.0
 10
12.0733550172
 20
11.8792254398
 30
0.0
 10
12.073457551
 20
11.8792054596
 30
0.0
 10
12.0735453201
 20
11.8791883334
 30
0.0
 10
12.0736090067
 20
11.8791758703
 30
0.0
 10
12.0736522233
 20
11.8791673751
 30
0.0
 10
12.0736787213
 20
11.8791621442
 30
0.0
 10
12.0737012119
 20
11.8791576799
 30
0.0
 10
12.0737196526
 20
11.8791539828
 30
0.0
 10
12.0737324946
 20
11.8791513857
 30
0.0
 10
12.0737407029
 20
11.8791496761
 30
0.0
 10
12.0737453746
 20
11.8791487204
 30
0.0
 10
12.0737488928
 20
11.8791478915
 30
0.0
 10
12.0737516841
 20
11.8791474246
 30
0.0
 10
12.073752868
 20
11.8791468448
 30
0.0
 10
12.0737539483
 20
11.8791468578
 30
0.0
 10
12.0737539464
 20
11.8791466737
 30
0.0
  0
SPLINE
  5
287
100
AcDbEntity
  8
0
100
AcDbSpline
 62
7
  6
CONTINUOUS
 70
0
 71
3
 72
28
 73
24
 74
0
 42
0.0000001
 43
0.0000001
 44
0.0000000001
 40
0.0
 40
0.0
 40
0.0
 40
0.0
 40
0.0625027516
 40
0.1249751413
 40
0.1562079681
 40
0.1874360609
 40
0.2498823841
 40
0.3123647043
 40
0.3748799622
 40
0.437404738
 40
0.4686707601
 40
0.4999297367
 40
0.531180483
 40
0.5624236692
 40
0.5936623441
 40
0.6249022151
 40
0.6561487624
 40
0.6874047461
 40
0.7499271132
 40
0.8124720352
 40
0.8750114805
 40
0.9375217176
 40
1.0
 40
1.0
 40
1.0
 40
1.0
 10
10.933056494
 20
5.9505723609
 30
0.0
 10
10.9327632307
 20
5.9405191199
 30
0.0
 10
10.9312245311
 20
5.9204330154
 30
0.0
 10
10.9269171883
 20
5.8956279038
 30
0.0
 10
10.9220429561
 20
5.8761168902
 30
0.0
 10
10.9162159675
 20
5.8568733806
 30
0.0
 10
10.9071438191
 20
5.8333932524
 30
0.0
 10
10.8935799768
 20
5.8064021414
 30
0.0
 10
10.8775037456
 20
5.7808139098
 30
0.0
 10
10.862146665
 20
5.7608432092
 30
0.0
 10
10.8487733967
 20
5.7457996743
 30
0.0
 10
10.8382172319
 20
5.7350084634
 30
0.0
 10
10.8271575157
 20
5.7247397035
 30
0.0
 10
10.8156148096
 20
5.7150217691
 30
0.0
 10
10.8036097922
 20
5.7058836522
 30
0.0
 10
10.791164475
 20
5.6973541141
 30
0.0
 10
10.7783132441
 20
5.6894438042
 30
0.0
 10
10.7606838992
 20
5.6797378466
 30
0.0
 10
10.7377947702
 20
5.6692052892
 30
0.0
 10
10.7092581983
 20
5.6592233297
 30
0.0
 10
10.6799064257
 20
5.6519789049
 30
0.0
 10
10.6500115879
 20
5.647560676
 30
0.0
 10
10.6298858267
 20
5.6465587215
 30
0.0
 10
10.6198322467
 20
5.6465587215
 30
0.0
  0
SPLINE
  5
288
100
AcDbEntity
  8
0
100
AcDbSpline
 62
7
  6
CONTINUOUS
 70
0
 71
3
 72
11
 73
7
 74
0
 42
0.0000001
 43
0.0000001
 44
0.0000000001
 40
0.0
 40
0.0
 40
0.0
 40
0.0
 40
0.2766512641
 40
0.5347035172
 40
0.7750291332
 40
1.0
 40
1.0
 40
1.0
 40
1.0
 10
12.0330312334
 20
12.1615374188
 30
0.0
 10
12.0340027081
 20
12.1609975808
 30
0.0
 10
12.0359405275
 20
12.160056587
 30
0.0
 10
12.0389041217
 20
12.1590697094
 30
0.0
 10
12.0417794051
 20
12.1585734596
 30
0.0
 10
12.0436614706
 20
12.1585797309
 30
0.0
 10
12.0445603353
 20
12.1586738114
 30
0.0
  0
SPLINE
  5
289
100
AcDbEntity
  8
0
100
AcDbSpline
 62
7
  6
CONTINUOUS
 70
0
 71
3
 72
16
 73
12
 74
0
 42
0.0000001
 43
0.0000001
 44
0.0000000001
 40
0.0
 40
0.0
 40
0.0
 40
0.0
 40
0.1471115301
 40
0.2869124455
 40
0.4195005002
 40
0.4832274039
 40
0.5453266682
 40
0.6650049249
 40
0.7796803941
 40
0.8907772739
 40
1.0
 40
1.0
 40
1.0
 40
1.0
 10
12.033030915
 20
11.890519184
 30
0.0
 10
12.0337595885
 20
11.8909251243
 30
0.0
 10
12.0352145542
 20
11.8916584816
 30
0.0
 10
12.0374326843
 20
11.8925270201
 30
0.0
 10
12.0392739486
 20
11.8930350007
 30
0.0
 10
12.0407159897
 20
11.8932990926
 30
0.0
 10
12.0420986734
 20
11.8934658696
 30
0.0
 10
12.0437844694
 20
11.8935075919
 30
0.0
 10
12.0457368606
 20
11.8932783901
 30
0.0
 10
12.0475748035
 20
11.8927701805
 30
0.0
 10
12.0487156998
 20
11.89224558
 30
0.0
 10
12.0492552863
 20
11.8919416626
 30
0.0
  0
SPLINE
  5
28A
100
AcDbEntity
  8
0
100
AcDbSpline
 62
7
  6
CONTINUOUS
 70
0
 71
3
 72
16
 73
12
 74
0
 42
0.0000001
 43
0.0000001
 44
0.0000000001
 40
0.0
 40
0.0
 40
0.0
 40
0.0
 40
0.0263820214
 40
0.0675763206
 40
0.1182273607
 40
0.1749158606
 40
0.2991371957
 40
0.4318514537
 40
0.5696068988
 40
0.7107470292
 40
1.0
 40
1.0
 40
1.0
 40
1.0
 10
12.0734897585
 20
12.1727984811
 30
0.0
 10
12.0731262823
 20
12.172730611
 30
0.0
 10
12.0721960159
 20
12.1725526969
 30
0.0
 10
12.0705702927
 20
12.1722321031
 30
0.0
 10
12.0685310355
 20
12.1718133343
 30
0.0
 10
12.0653577805
 20
12.1711324135
 30
0.0
 10
12.0610739201
 20
12.1701460315
 30
0.0
 10
12.0557105178
 20
12.1687896983
 30
0.0
 10
12.050150903
 20
12.1672475522
 30
0.0
 10
12.042530719
 20
12.1649348682
 30
0.0
 10
12.0368257318
 20
12.1629638989
 30
0.0
 10
12.0330309848
 20
12.1615373197
 30
0.0
  0
SPLINE
  5
28B
100
AcDbEntity
  8
0
100
AcDbSpline
 62
7
  6
CONTINUOUS
 70
0
 71
3
 72
33
 73
29
 74
0
 42
0.0000001
 43
0.0000001
 44
0.0000000001
 40
0.0
 40
0.0
 40
0.0
 40
0.0
 40
0.0312439988
 40
0.0624880908
 40
0.0937323681
 40
0.1249769212
 40
0.1874480457
 40
0.2499212769
 40
0.2811684416
 40
0.3124163392
 40
0.3436650247
 40
0.3749145453
 40
0.4061649401
 40
0.4374162395
 40
0.4999024872
 40
0.5623924976
 40
0.5936484617
 40
0.624905323
 40
0.6561630486
 40
0.6874215973
 40
0.7186809198
 40
0.7499409592
 40
0.8124437993
 40
0.8749486644
 40
0.9062112038
 40
0.9374740274
 40
0.9687369341
 40
1.0
 40
1.0
 40
1.0
 40
1.0
 10
10.3063322486
 20
5.9497523979
 30
0.0
 10
10.3063322528
 20
5.9445837016
 30
0.0
 10
10.3065883194
 20
5.9342444478
 30
0.0
 10
10.3077396595
 20
5.9187751287
 30
0.0
 10
10.3096555419
 20
5.903380947
 30
0.0
 10
10.3132219993
 20
5.8830116595
 30
0.0
 10
10.3195655242
 20
5.8579176345
 30
0.0
 10
10.3283606487
 20
5.8335739033
 30
0.0
 10
10.3368114032
 20
5.8146987772
 30
0.0
 10
10.3438441241
 20
5.8008696394
 30
0.0
 10
10.3515527615
 20
5.787405502
 30
0.0
 10
10.3599184804
 20
5.7743389935
 30
0.0
 10
10.3689210779
 20
5.761701916
 30
0.0
 10
10.3817409376
 20
5.74547012
 30
0.0
 10
10.3992501642
 20
5.7263990413
 30
0.0
 10
10.4185598971
 20
5.7091522286
 30
0.0
 10
10.4349675002
 20
5.6965541214
 30
0.0
 10
10.4477290216
 20
5.6877231974
 30
0.0
 10
10.4609118577
 20
5.6795343313
 30
0.0
 10
10.4744839262
 20
5.6720072945
 30
0.0
 10
10.4884123335
 20
5.6651604816
 30
0.0
 10
10.5074083157
 20
5.6569624992
 30
0.0
 10
10.5318802061
 20
5.6484920922
 30
0.0
 10
10.5570698321
 20
5.6424816081
 30
0.0
 10
10.5774961748
 20
5.6391842718
 30
0.0
 10
10.5929234445
 20
5.637471211
 30
0.0
 10
10.6084158916
 20
5.6365231342
 30
0.0
 10
10.6187638713
 20
5.6364025612
 30
0.0
 10
10.6239352794
 20
5.6364702083
 30
0.0
  0
SPLINE
  5
28C
100
AcDbEntity
  8
0
100
AcDbSpline
 62
7
  6
CONTINUOUS
 70
0
 71
3
 72
33
 73
29
 74
0
 42
0.0000001
 43
0.0000001
 44
0.0000000001
 40
0.0
 40
0.0
 40
0.0
 40
0.0
 40
0.0312630728
 40
0.0625259656
 40
0.0937887128
 40
0.1250511457
 40
0.1875563242
 40
0.2500593804
 40
0.2813191897
 40
0.3125782719
 40
0.3438365745
 40
0.3750940526
 40
0.4063506689
 40
0.4376063944
 40
0.5000965871
 40
0.5625830789
 40
0.5938342152
 40
0.6250844676
 40
0.6563338673
 40
0.6875824536
 40
0.7188302735
 40
0.7500773814
 40
0.8125511842
 40
0.8750229454
 40
0.9062675215
 40
0.9375118306
 40
0.9687559604
 40
1.0
 40
1.0
 40
1.0
 40
1.0
 10
10.6239352794
 20
5.6364702083
 30
0.0
 10
10.6290212327
 20
5.6365367375
 30
0.0
 10
10.6391916249
 20
5.6369173192
 30
0.0
 10
10.6543998768
 20
5.6382292908
 30
0.0
 10
10.6695269307
 20
5.6402793964
 30
0.0
 10
10.6895345272
 20
5.6439893606
 30
0.0
 10
10.7141700475
 20
5.6504455757
 30
0.0
 10
10.7380609481
 20
5.6592656784
 30
0.0
 10
10.7565844224
 20
5.6676855468
 30
0.0
 10
10.7701561712
 20
5.6746699446
 30
0.0
 10
10.7833714789
 20
5.6823059594
 30
0.0
 10
10.7961993681
 20
5.6905755484
 30
0.0
 10
10.8086096421
 20
5.6994593938
 30
0.0
 10
10.8245565803
 20
5.7120918902
 30
0.0
 10
10.843308468
 20
5.7293151925
 30
0.0
 10
10.8602959979
 20
5.748279946
 30
0.0
 10
10.8727267951
 20
5.7643815998
 30
0.0
 10
10.8814528966
 20
5.7768995216
 30
0.0
 10
10.8895589556
 20
5.7898267345
 30
0.0
 10
10.8970260386
 20
5.8031328096
 30
0.0
 10
10.9038364983
 20
5.8167865558
 30
0.0
 10
10.9120182119
 20
5.8354069981
 30
0.0
 10
10.9205302495
 20
5.8593964345
 30
0.0
 10
10.9266676295
 20
5.8840998887
 30
0.0
 10
10.9301177378
 20
5.9041424319
 30
0.0
 10
10.9319709512
 20
5.9192858539
 30
0.0
 10
10.9330845674
 20
5.9345007522
 30
0.0
 10
10.933332249
 20
5.9446691062
 30
0.0
 10
10.9333322448
 20
5.9497523979
 30
0.0
  0
SPLINE
  5
28D
100
AcDbEntity
  8
0
100
AcDbSpline
 62
7
  6
CONTINUOUS
 70
0
 71
3
 72
33
 73
29
 74
0
 42
0.0000001
 43
0.0000001
 44
0.0000000001
 40
0.0
 40
0.0
 40
0.0
 40
0.0
 40
0.0312630659
 40
0.0625259726
 40
0.0937887962
 40
0.1250513356
 40
0.1875562007
 40
0.2500590408
 40
0.2813190802
 40
0.3125784027
 40
0.3438369514
 40
0.375094677
 40
0.4063515383
 40
0.4376075024
 40
0.5000975128
 40
0.5625837605
 40
0.5938350599
 40
0.6250854547
 40
0.6563349753
 40
0.6875836608
 40
0.7188315584
 40
0.7500787231
 40
0.8125519543
 40
0.8750230788
 40
0.9062676319
 40
0.9375119092
 40
0.9687560012
 40
1.0
 40
1.0
 40
1.0
 40
1.0
 10
10.6239352794
 20
5.6016317857
 30
0.0
 10
10.6187638713
 20
5.6015641386
 30
0.0
 10
10.6084158916
 20
5.6016847116
 30
0.0
 10
10.5929234445
 20
5.6026327884
 30
0.0
 10
10.5774961748
 20
5.6043458492
 30
0.0
 10
10.5570698321
 20
5.6076431855
 30
0.0
 10
10.5318802061
 20
5.6136536696
 30
0.0
 10
10.5074083157
 20
5.6221240767
 30
0.0
 10
10.4884123335
 20
5.630322059
 30
0.0
 10
10.4744839262
 20
5.6371688719
 30
0.0
 10
10.4609118577
 20
5.6446959087
 30
0.0
 10
10.4477290216
 20
5.6528847748
 30
0.0
 10
10.4349675002
 20
5.6617156989
 30
0.0
 10
10.4185598971
 20
5.674313806
 30
0.0
 10
10.3992501642
 20
5.6915606187
 30
0.0
 10
10.3817409376
 20
5.7106316974
 30
0.0
 10
10.3689210779
 20
5.7268634934
 30
0.0
 10
10.3599184804
 20
5.7395005709
 30
0.0
 10
10.3515527615
 20
5.7525670794
 30
0.0
 10
10.3438441242
 20
5.7660312169
 30
0.0
 10
10.3368114032
 20
5.7798603546
 30
0.0
 10
10.3283606487
 20
5.7987354807
 30
0.0
 10
10.3195655242
 20
5.8230792119
 30
0.0
 10
10.3132219993
 20
5.8481732369
 30
0.0
 10
10.3096555419
 20
5.8685425245
 30
0.0
 10
10.3077396595
 20
5.8839367061
 30
0.0
 10
10.3065883194
 20
5.8994060252
 30
0.0
 10
10.3063322528
 20
5.909745279
 30
0.0
 10
10.3063322486
 20
5.9149139753
 30
0.0
  0
ENDSEC
  0
SECTION
  2
OBJECTS
  0
DICTIONARY
  5
C
100
AcDbDictionary
280
0
281
1
  3
ACAD_GROUP
350
D
  3
ACAD_MLINESTYLE
350
17
  3
ACAD_LAYOUT
350
1A
  3
ACAD_PLOTSETTINGS
350
19
  3
ACAD_PLOTSTYLENAME
350
E
  0
DICTIONARY
  5
D
102
{ACAD_REACTORS
330
C
102
}
100
AcDbDictionary
280
0
281
1
  0
ACDBDICTIONARYWDFLT
  5
E
102
{ACAD_REACTORS
330
C
102
}
100
AcDbDictionary
281
1
  3
Normal
350
F
100
AcDbDictionaryWithDefault
340
F
  0
DICTIONARY
  5
17
102
{ACAD_REACTORS
330
C
102
}
100
AcDbDictionary
280
0
281
1
  3
Standard
350
18
  0
DICTIONARY
  5
19
102
{ACAD_REACTORS
330
C
102
}
100
AcDbDictionary
281
1
  0
DICTIONARY
  5
1A
102
{ACAD_REACTORS
330
C
102
}
100
AcDbDictionary
281
1
  3
Model
350
28E
  3
Layout1
350
28F
  0
ACDBPLACEHOLDER
  5
F
102
{ACAD_REACTORS
330
E
102
}
  0
MLINESTYLE
  5
18
102
{ACAD_REACTORS
330
17
102
}
100
AcDbMlineStyle
  2
STANDARD
 70
0
  3

 62
256
 51
90.0
 52
90.0
 71
2
 49
0.5
 62
256
  6
BYLAYER
 49
-0.5
 62
256
  6
BYLAYER
  0
LAYOUT
  5
28E
102
{ACAD_REACTORS
330
1A
102
}
100
AcDbPlotSettings
  1

  2
none_device
  4
ANSI_C_(22.00_x_17.00_Inches)
  6

 40
0.0
 41
0.0
 42
0.0
 43
0.0
 44
558.8
 45
431.8
 46
0.0
 47
0.0
 48
0.0
 49
0.0
140
0.0
141
0.0
142
1.0
143
1.0
 70
1024
 72
0
 73
0
 74
0
  7

 75
0
147
1.0
148
0.0
149
0.0
100
AcDbLayout
  1
Model
 70
0
 71
0
 10
0.0
 20
0.0
 11
22.0
 21
17.0
 12
0.0
 22
0.0
 32
0.0
 14
0.0
 24
0.0
 34
0.0
 15
0.0
 25
0.0
 35
0.0
146
0.0
 13
0.0
 23
0.0
 33
0.0
 16
1.0
 26
0.0
 36
0.0
 17
0.0
 27
1.0
 37
0.0
 76
0
330
203
345
0
346
0
  0
LAYOUT
  5
28F
102
{ACAD_REACTORS
330
1A
102
}
100
AcDbPlotSettings
  1

  2
none_device
  4
ANSI_C_(22.00_x_17.00_Inches)
  6

 40
0.0
 41
0.0
 42
0.0
 43
0.0
 44
558.8
 45
431.8
 46
0.0
 47
0.0
 48
0.0
 49
0.0
140
0.0
141
0.0
142
1.0
143
1.0
 70
0
 72
0
 73
0
 74
0
  7

 75
0
147
1.0
148
0.0
149
0.0
100
AcDbLayout
  1
Layout1
 70
0
 71
1
 10
0.0
 20
0.0
 11
22.0
 21
17.0
 12
0.0
 22
0.0
 32
0.0
 14
0.0
 24
0.0
 34
0.0
 15
0.0
 25
0.0
 35
0.0
146
0.0
 13
0.0
 23
0.0
 33
0.0
 16
1.0
 26
0.0
 36
0.0
 17
0.0
 27
1.0
 37
0.0
 76
0
330
204
345
0
346
0
  0
ENDSEC
  0
EOF
