999
DXF file: 1503-1_RIGHT.dxf
999
Pro/ENGINEER 2023134 by Parametric Technology Corporation
  0
SECTION
  2
HEADER
  9
$ACADVER
  1
AC1032
  9
$DWGCODEPAGE
  3
ANSI_1252
  9
$EXTMAX
 10
22.0
 20
17.0
 30
0.0
  9
$EXTMIN
 10
0.0
 20
0.0
 30
0.0
  9
$LIMMIN
 10
0.0
 20
0.0
  9
$LIMMAX
 10
22.0
 20
17.0
  9
$VIEWCTR
 10
11.0
 20
8.5
  9
$VIEWSIZE
 40
17.0
  9
$CLAYER
  8
0
  9
$LTSCALE
 40
1.21
  9
$CELTYPE
  6
BYLAYER
  9
$DIMSCALE
 40
1.0
  9
$DIMASZ
 40
0.1
  9
$DIMEXO
 40
0.0625
  9
$DIMDLI
 40
0.836
  9
$DIMEXE
 40
0.125
  9
$DIMCEN
 40
0.198
  9
$DIMLFAC
 40
1.0
  9
$DIMBLK
  1
_FILLED
  9
$DIMALT
 70
1
  9
$DIMALTD
 70
2
  9
$DIMALTTD
 70
2
  9
$DIMALTF
 40
25.4
  9
$DIMTXT
 40
0.08
  9
$DIMTOL
 70
1
  9
$DIMLIM
 70
0
  9
$DIMTFAC
 40
1.0
  9
$DIMTP
 40
0.001
  9
$DIMTM
 40
0.001
  9
$DIMGAP
 40
0.09
  9
$DIMDSEP
 70
46
  9
$AUNITS
 70
0
  9
$PDMODE
 70
3
  9
$PDSIZE
 40
0.3125
  9
$HANDSEED
  5
278
  9
$TILEMODE
 70
1
  9
$MEASUREMENT
 70
0
  9
$INSUNITS
 70
1
  0
ENDSEC
  0
SECTION
  2
CLASSES
  0
CLASS
  1
ACDBDICTIONARYWDFLT
  2
AcDbDictionaryWithDefault
  3
AutoCAD 2000
 90
0
 91
1
280
0
281
0
  0
CLASS
  1
ACDBPLACEHOLDER
  2
AcDbPlaceHolder
  3
AutoCAD 2000
 90
0
 91
1
280
0
281
0
  0
CLASS
  1
LAYOUT
  2
AcDbLayout
  3
AutoCAD 2000
 90
0
 91
0
280
0
281
0
  0
ENDSEC
  0
SECTION
  2
TABLES
  0
TABLE
  2
VPORT
  5
8
100
AcDbSymbolTable
 70
2
  0
VPORT
  5
1F4
100
AcDbSymbolTableRecord
100
AcDbViewportTableRecord
  2
*ACTIVE
 70
0
 10
0.0
 20
0.0
 11
1.0
 21
1.0
 12
11.0
 22
8.5
 13
0.0
 23
0.0
 14
1.0
 24
1.0
 15
0.0
 25
0.0
 16
0.0
 26
0.0
 36
1.0
 17
0.0
 27
0.0
 37
0.0
 40
17.0
 41
1.2941176471
 42
50.0
 43
0.0
 44
0.0
 50
0.0
 51
0.0
 71
0
 72
100
 73
1
 74
1
 75
0
 76
0
 77
0
 78
0
  0
ENDTAB
  0
TABLE
  2
LTYPE
  5
5
100
AcDbSymbolTable
 70
6
  0
LTYPE
  5
14
100
AcDbSymbolTableRecord
100
AcDbLinetypeTableRecord
  2
BYBLOCK
 70
0
  3

 72
65
 73
0
 40
0.0
  0
LTYPE
  5
15
100
AcDbSymbolTableRecord
100
AcDbLinetypeTableRecord
  2
BYLAYER
 70
0
  3

 72
65
 73
0
 40
0.0
  0
LTYPE
  5
16
100
AcDbSymbolTableRecord
100
AcDbLinetypeTableRecord
  2
CONTINUOUS
 70
64
  3
Solid line
 72
65
 73
0
 40
0.0
  0
LTYPE
  5
1F5
100
AcDbSymbolTableRecord
100
AcDbLinetypeTableRecord
  2
CENTER
 70
64
  3
____ _ ____ _ ____ _ ____ _ ____ _ ____ _ ____
 72
65
 73
4
 40
0.6
 49
0.375
 74
0
 49
-0.075
 74
0
 49
0.075
 74
0
 49
-0.075
 74
0
  0
LTYPE
  5
1F6
100
AcDbSymbolTableRecord
100
AcDbLinetypeTableRecord
  2
HIDDEN
 70
64
  3
- - - - - - - - - - - - - - - - - - - -
 72
65
 73
2
 40
0.2
 49
0.1
 74
0
 49
-0.1
 74
0
  0
LTYPE
  5
1F7
100
AcDbSymbolTableRecord
100
AcDbLinetypeTableRecord
  2
PHANTOM
 70
64
  3
_____ _ _ _____ _ _ _____ _ _ _____
 72
65
 73
6
 40
0.8
 49
0.45
 74
0
 49
-0.05
 74
0
 49
0.1
 74
0
 49
-0.05
 74
0
 49
0.1
 74
0
 49
-0.05
 74
0
  0
LTYPE
  5
1F8
100
AcDbSymbolTableRecord
100
AcDbLinetypeTableRecord
  2
DOT
 70
64
  3
. . . . . . . . . . . . . . . . . . . .
 72
65
 73
2
 40
0.2
 49
0.1
 74
0
 49
-0.1
 74
0
  0
LTYPE
  5
1F9
100
AcDbSymbolTableRecord
100
AcDbLinetypeTableRecord
  2
DASHED
 70
64
  3
- - - - - - - - - - - - - - - - - - - -
 72
65
 73
2
 40
0.2
 49
0.1
 74
0
 49
-0.1
 74
0
  0
ENDTAB
  0
TABLE
  2
LAYER
  5
2
100
AcDbSymbolTable
 70
36
  0
LAYER
  5
10
100
AcDbSymbolTableRecord
100
AcDbLayerTableRecord
  2
0
 70
0
 62
7
  6
CONTINUOUS
370
-3
390
F
  0
LAYER
  5
1FA
100
AcDbSymbolTableRecord
100
AcDbLayerTableRecord
  2
DEFAULT_1
 70
0
 62
7
  6
CENTER
370
-3
390
F
  0
LAYER
  5
1FB
100
AcDbSymbolTableRecord
100
AcDbLayerTableRecord
  2
DEFAULT_2
 70
0
 62
8
  6
HIDDEN
370
-3
390
F
  0
LAYER
  5
1FC
100
AcDbSymbolTableRecord
100
AcDbLayerTableRecord
  2
DEFAULT_3
 70
0
 62
7
  6
PHANTOM
370
-3
390
F
  0
LAYER
  5
1FD
100
AcDbSymbolTableRecord
100
AcDbLayerTableRecord
  2
DEFAULT_COORDINATE_SYSTEM
 70
0
 62
7
  6
CONTINUOUS
370
-3
390
F
  0
LAYER
  5
1FE
100
AcDbSymbolTableRecord
100
AcDbLayerTableRecord
  2
DEFAULT_DATUM_AXES
 70
0
 62
7
  6
CONTINUOUS
370
-3
390
F
  0
LAYER
  5
1FF
100
AcDbSymbolTableRecord
100
AcDbLayerTableRecord
  2
DEFAULT_DATUM_PLANES
 70
0
 62
7
  6
CONTINUOUS
370
-3
390
F
  0
ENDTAB
  0
TABLE
  2
STYLE
  5
3
100
AcDbSymbolTable
 70
1
  0
STYLE
  5
11
100
AcDbSymbolTableRecord
100
AcDbTextStyleTableRecord
  2
STANDARD
 70
0
 40
0.0
 41
0.8
 50
0.0
 71
0
 42
0.2
  3
txt
  4

  0
STYLE
  5
200
100
AcDbSymbolTableRecord
100
AcDbTextStyleTableRecord
  2
TEXTSTYLE_1
 70
0
 40
0.0
 41
0.8
 50
0.0
 71
0
 42
0.2
  3
gdt
  4

  0
ENDTAB
  0
TABLE
  2
VIEW
  5
6
100
AcDbSymbolTable
 70
0
  0
ENDTAB
  0
TABLE
  2
UCS
  5
7
100
AcDbSymbolTable
 70
0
  0
ENDTAB
  0
TABLE
  2
APPID
  5
9
100
AcDbSymbolTable
 70
1
  0
APPID
  5
201
100
AcDbSymbolTableRecord
100
AcDbRegAppTableRecord
  2
ACAD
 70
0
  0
ENDTAB
  0
TABLE
  2
BLOCK_RECORD
  5
1
100
AcDbSymbolTable
 70
0
  0
BLOCK_RECORD
  5
202
100
AcDbSymbolTableRecord
100
AcDbBlockTableRecord
  2
*Model_Space
  0
BLOCK_RECORD
  5
203
100
AcDbSymbolTableRecord
100
AcDbBlockTableRecord
  2
*Paper_Space
  0
BLOCK_RECORD
  5
204
100
AcDbSymbolTableRecord
100
AcDbBlockTableRecord
  2
_FILLED
  0
ENDTAB
  0
TABLE
  2
DIMSTYLE
  5
A
100
AcDbSymbolTable
 70
1
100
AcDbDimStyleTable
 71
0
  0
DIMSTYLE
105
205
100
AcDbSymbolTableRecord
100
AcDbDimStyleTableRecord
  2
STANDARD
 70
0
  3

  4

 40
1.0
 41
0.1
 42
0.0625
 43
0.38
 44
0.125
 45
0.0
 46
0.0
 47
0.001
 48
0.001
140
0.08
141
0.09
142
0.0
143
25.4
144
1.0
145
0.0
146
1.0
147
0.09
 71
1
 72
0
 73
1
 74
1
 75
0
 76
0
 77
0
 78
4
 79
1
170
1
171
2
172
0
173
0
174
0
175
0
176
0
177
0
178
0
270
2
179
3
271
3
272
3
273
2
274
2
275
0
280
0
281
0
282
0
283
1
284
4
285
0
286
0
287
3
288
0
340
11
278
46
341
204
342
204
343
204
344
204
  0
ENDTAB
  0
ENDSEC
  0
SECTION
  2
BLOCKS
  0
BLOCK
  5
20
100
AcDbEntity
  8
0
100
AcDbBlockBegin
  2
*Model_Space
 70
0
 10
0.0
 20
0.0
 30
0.0
  3
*Model_Space
  1

  0
ENDBLK
  5
21
100
AcDbEntity
  8
0
100
AcDbBlockEnd
  0
BLOCK
  5
1C
100
AcDbEntity
  8
0
100
AcDbBlockBegin
  2
*Paper_Space
 70
0
 10
0.0
 20
0.0
 30
0.0
  3
*Paper_Space
  1

  0
ENDBLK
  5
1D
100
AcDbEntity
  8
0
100
AcDbBlockEnd
  0
BLOCK
  5
206
100
AcDbEntity
  8
0
100
AcDbBlockBegin
  2
_FILLED
 70
64
 10
0.0
 20
0.0
  3
_FILLED
  1

  0
SOLID
  5
207
100
AcDbEntity
  8
0
  6
BYBLOCK
 62
0
100
AcDbTrace
 10
0.0
 20
0.0
 11
-1.0
 21
0.2
 12
-1.0
 22
-0.2
 13
-1.0
 23
-0.2
  0
ENDBLK
  5
208
100
AcDbEntity
  8
0
  6
BYBLOCK
 62
0
100
AcDbBlockEnd
  0
ENDSEC
  0
SECTION
  2
ENTITIES
  0
LINE
  5
209
100
AcDbEntity
  8
0
100
AcDbLine
 62
7
  6
CONTINUOUS
 10
0.0
 20
0.0
 11
0.0
 21
17.0
  0
LINE
  5
20A
100
AcDbEntity
  8
0
100
AcDbLine
 62
7
  6
CONTINUOUS
 10
0.0
 20
0.0
 11
22.0
 21
0.0
  0
LINE
  5
20B
100
AcDbEntity
  8
0
100
AcDbLine
 62
7
  6
CONTINUOUS
 10
0.0
 20
17.0
 11
22.0
 21
17.0
  0
LINE
  5
20C
100
AcDbEntity
  8
0
100
AcDbLine
 62
7
  6
CONTINUOUS
 10
22.0
 20
0.0
 11
22.0
 21
17.0
  0
LINE
  5
20D
100
AcDbEntity
  8
0
100
AcDbLine
 62
7
  6
CONTINUOUS
 10
13.6356681444
 20
0.623834143
 11
17.5956681444
 21
0.623834143
  0
LINE
  5
20E
100
AcDbEntity
  8
0
100
AcDbLine
 62
7
  6
CONTINUOUS
 10
3.5106681444
 20
8.313834143
 11
3.5106681444
 21
7.813834143
  0
LINE
  5
20F
100
AcDbEntity
  8
0
100
AcDbLine
 62
7
  6
CONTINUOUS
 10
17.5956681444
 20
1.413834143
 11
13.6356681444
 21
1.413834143
  0
LINE
  5
210
100
AcDbEntity
  8
0
100
AcDbLine
 62
7
  6
CONTINUOUS
 10
17.5356681444
 20
1.473834143
 11
13.6956681444
 21
1.473834143
  0
LINE
  5
211
100
AcDbEntity
  8
0
100
AcDbLine
 62
7
  6
CONTINUOUS
 10
3.6356681444
 20
7.813834143
 11
3.6356681444
 21
7.7962006836
  0
LINE
  5
212
100
AcDbEntity
  8
0
100
AcDbLine
 62
7
  6
CONTINUOUS
 10
3.6583640132
 20
7.7962006836
 11
3.6583640132
 21
7.7562006836
  0
LINE
  5
213
100
AcDbEntity
  8
0
100
AcDbLine
 62
7
  6
CONTINUOUS
 10
3.7419092418
 20
7.7962006836
 11
3.7419092418
 21
7.7562006836
  0
LINE
  5
214
100
AcDbEntity
  8
0
100
AcDbLine
 62
7
  6
CONTINUOUS
 10
3.8980919701
 20
7.7562006836
 11
3.8980919701
 21
7.7962006836
  0
LINE
  5
215
100
AcDbEntity
  8
0
100
AcDbLine
 62
7
  6
CONTINUOUS
 10
4.0008636807
 20
7.7962006836
 11
4.0008636807
 21
7.7562006836
  0
LINE
  5
216
100
AcDbEntity
  8
0
100
AcDbLine
 62
7
  6
CONTINUOUS
 10
4.2025597046
 20
7.7962006836
 11
4.2025597046
 21
7.7562006836
  0
LINE
  5
217
100
AcDbEntity
  8
0
100
AcDbLine
 62
7
  6
CONTINUOUS
 10
4.2356681444
 20
7.7562006836
 11
4.2356681444
 21
7.7962006836
  0
LINE
  5
218
100
AcDbEntity
  8
0
100
AcDbLine
 62
7
  6
CONTINUOUS
 10
4.5356681444
 20
7.7562006836
 11
4.5356681444
 21
7.7962006836
  0
LINE
  5
219
100
AcDbEntity
  8
0
100
AcDbLine
 62
7
  6
CONTINUOUS
 10
4.5687765842
 20
7.7962006836
 11
4.5687765842
 21
7.7562006836
  0
LINE
  5
21A
100
AcDbEntity
  8
0
100
AcDbLine
 62
7
  6
CONTINUOUS
 10
4.7704726081
 20
7.7962006836
 11
4.7704726081
 21
7.7562006836
  0
LINE
  5
21B
100
AcDbEntity
  8
0
100
AcDbLine
 62
7
  6
CONTINUOUS
 10
4.8732443187
 20
7.7562006836
 11
4.8732443187
 21
7.7962006836
  0
LINE
  5
21C
100
AcDbEntity
  8
0
100
AcDbLine
 62
7
  6
CONTINUOUS
 10
5.0294270471
 20
7.7962006836
 11
5.0294270471
 21
7.7562006836
  0
LINE
  5
21D
100
AcDbEntity
  8
0
100
AcDbLine
 62
7
  6
CONTINUOUS
 10
5.1129722756
 20
7.7962006836
 11
5.1129722756
 21
7.7562006836
  0
LINE
  5
21E
100
AcDbEntity
  8
0
100
AcDbLine
 62
7
  6
CONTINUOUS
 10
5.1356681444
 20
7.813834143
 11
5.1356681444
 21
7.7962006836
  0
LINE
  5
21F
100
AcDbEntity
  8
0
100
AcDbLine
 62
7
  6
CONTINUOUS
 10
5.2606681444
 20
8.313834143
 11
5.2606681444
 21
7.813834143
  0
LINE
  5
220
100
AcDbEntity
  8
0
100
AcDbLine
 62
7
  6
CONTINUOUS
 10
6.0856681444
 20
9.138834143
 11
6.0856681444
 21
10.888834143
  0
LINE
  5
221
100
AcDbEntity
  8
0
100
AcDbLine
 62
7
  6
CONTINUOUS
 10
9.4156684242
 20
15.3185387661
 11
9.4156659998
 21
16.3585387661
  0
LINE
  5
222
100
AcDbEntity
  8
0
100
AcDbLine
 62
7
  6
CONTINUOUS
 10
9.4556685174
 20
15.2785388593
 11
9.4556659065
 21
16.3985388593
  0
LINE
  5
223
100
AcDbEntity
  8
0
100
AcDbLine
 62
7
  6
CONTINUOUS
 10
3.6583640132
 20
7.7562006836
 11
3.8980919701
 21
7.7562006836
  0
LINE
  5
224
100
AcDbEntity
  8
0
100
AcDbLine
 62
7
  6
CONTINUOUS
 10
4.0008636807
 20
7.7562006836
 11
4.2356681444
 21
7.7562006836
  0
LINE
  5
225
100
AcDbEntity
  8
0
100
AcDbLine
 62
7
  6
CONTINUOUS
 10
4.5356681444
 20
7.7562006836
 11
4.7704726081
 21
7.7562006836
  0
LINE
  5
226
100
AcDbEntity
  8
0
100
AcDbLine
 62
7
  6
CONTINUOUS
 10
4.8732443187
 20
7.7562006836
 11
5.1129722756
 21
7.7562006836
  0
LINE
  5
227
100
AcDbEntity
  8
0
100
AcDbLine
 62
7
  6
CONTINUOUS
 10
4.8732443187
 20
7.7862006836
 11
4.7704726081
 21
7.7862006836
  0
LINE
  5
228
100
AcDbEntity
  8
0
100
AcDbLine
 62
7
  6
CONTINUOUS
 10
4.5356681444
 20
7.7862006836
 11
4.2356681444
 21
7.7862006836
  0
LINE
  5
229
100
AcDbEntity
  8
0
100
AcDbLine
 62
7
  6
CONTINUOUS
 10
4.0008636807
 20
7.7862006836
 11
3.8980919701
 21
7.7862006836
  0
LINE
  5
22A
100
AcDbEntity
  8
0
100
AcDbLine
 62
7
  6
CONTINUOUS
 10
5.1356681444
 20
7.7962006836
 11
5.1129722756
 21
7.7962006836
  0
LINE
  5
22B
100
AcDbEntity
  8
0
100
AcDbLine
 62
7
  6
CONTINUOUS
 10
5.0294270471
 20
7.7962006836
 11
4.7704726081
 21
7.7962006836
  0
LINE
  5
22C
100
AcDbEntity
  8
0
100
AcDbLine
 62
7
  6
CONTINUOUS
 10
4.5687765842
 20
7.7962006836
 11
4.2025597046
 21
7.7962006836
  0
LINE
  5
22D
100
AcDbEntity
  8
0
100
AcDbLine
 62
7
  6
CONTINUOUS
 10
4.0008636807
 20
7.7962006836
 11
3.7419092418
 21
7.7962006836
  0
LINE
  5
22E
100
AcDbEntity
  8
0
100
AcDbLine
 62
7
  6
CONTINUOUS
 10
3.6583640132
 20
7.7962006836
 11
3.6356681444
 21
7.7962006836
  0
LINE
  5
22F
100
AcDbEntity
  8
0
100
AcDbLine
 62
7
  6
CONTINUOUS
 10
5.2606681444
 20
7.813834143
 11
3.5106681444
 21
7.813834143
  0
LINE
  5
230
100
AcDbEntity
  8
0
100
AcDbLine
 62
7
  6
CONTINUOUS
 10
5.2606681444
 20
8.313834143
 11
3.5106681444
 21
8.313834143
  0
LINE
  5
231
100
AcDbEntity
  8
0
100
AcDbLine
 62
7
  6
CONTINUOUS
 10
14.0685413363
 20
15.2835031311
 11
14.0625160413
 21
15.2683013824
  0
LINE
  5
232
100
AcDbEntity
  8
0
100
AcDbLine
 62
7
  6
CONTINUOUS
 10
14.0625160413
 20
15.2683013824
 11
14.057101247
 21
15.2549122688
  0
LINE
  5
233
100
AcDbEntity
  8
0
100
AcDbLine
 62
7
  6
CONTINUOUS
 10
14.057101247
 20
15.2549122688
 11
14.0523410596
 21
15.2433412113
  0
LINE
  5
234
100
AcDbEntity
  8
0
100
AcDbLine
 62
7
  6
CONTINUOUS
 10
14.0523410596
 20
15.2433412113
 11
14.0482709375
 21
15.2335866617
  0
LINE
  5
235
100
AcDbEntity
  8
0
100
AcDbLine
 62
7
  6
CONTINUOUS
 10
14.0482709375
 20
15.2335866617
 11
14.0435175438
 21
15.2223496096
  0
LINE
  5
236
100
AcDbEntity
  8
0
100
AcDbLine
 62
7
  6
CONTINUOUS
 10
14.0435175438
 20
15.2223496096
 11
14.0389595824
 21
15.2117238086
  0
LINE
  5
237
100
AcDbEntity
  8
0
100
AcDbLine
 62
7
  6
CONTINUOUS
 10
14.0390495308
 20
15.2119315934
 11
14.0389685013
 21
15.2117443975
  0
LINE
  5
238
100
AcDbEntity
  8
0
100
AcDbLine
 62
7
  6
CONTINUOUS
 10
14.0184119617
 20
9.138834143
 11
6.0856681444
 21
9.138834143
  0
LINE
  5
239
100
AcDbEntity
  8
0
100
AcDbLine
 62
7
  6
CONTINUOUS
 10
14.0751275827
 20
15.3005147751
 11
14.0685413363
 21
15.2835031311
  0
LINE
  5
23A
100
AcDbEntity
  8
0
100
AcDbLine
 62
7
  6
CONTINUOUS
 10
14.018411961
 20
10.888834143
 11
6.0856681444
 21
10.888834143
  0
LINE
  5
23B
100
AcDbEntity
  8
0
100
AcDbLine
 62
7
  6
CONTINUOUS
 10
13.6356681444
 20
1.413834143
 11
13.6356681444
 21
0.623834143
  0
LINE
  5
23C
100
AcDbEntity
  8
0
100
AcDbLine
 62
7
  6
CONTINUOUS
 10
14.0156681444
 20
13.259834143
 11
14.0156681444
 21
10.893834143
  0
LINE
  5
23D
100
AcDbEntity
  8
0
100
AcDbLine
 62
7
  6
CONTINUOUS
 10
14.0156681444
 20
9.133834143
 11
14.0156681444
 21
1.473834143
  0
LINE
  5
23E
100
AcDbEntity
  8
0
100
AcDbLine
 62
7
  6
CONTINUOUS
 10
14.0356681444
 20
15.195834143
 11
14.0356681444
 21
13.432834143
  0
LINE
  5
23F
100
AcDbEntity
  8
0
100
AcDbLine
 62
7
  6
CONTINUOUS
 10
14.1056681444
 20
13.319834143
 11
14.1056681444
 21
13.372834143
  0
LWPOLYLINE
  5
240
100
AcDbEntity
  8
0
100
AcDbPolyline
 62
7
  6
CONTINUOUS
 90
38
 70
0
 10
14.1860891552
 20
15.8219853614
 10
14.1856854346
 20
15.8098522843
 10
14.1849807741
 20
15.7937304696
 10
14.1840814873
 20
15.777567557
 10
14.182987524
 20
15.7613772669
 10
14.1816998428
 20
15.7451719552
 10
14.1802194916
 20
15.7289628829
 10
14.1785481383
 20
15.7127637635
 10
14.1766887861
 20
15.6965879756
 10
14.1746447119
 20
15.6804467565
 10
14.1724197866
 20
15.6643543442
 10
14.170018734
 20
15.6483241201
 10
14.1674466489
 20
15.6323661427
 10
14.1647094629
 20
15.6164944454
 10
14.161813596
 20
15.6007227497
 10
14.1587655892
 20
15.5850603122
 10
14.1555730891
 20
15.5695205964
 10
14.1522442334
 20
15.5541177766
 10
14.148786958
 20
15.5388617341
 10
14.1452091453
 20
15.5237606198
 10
14.1415216649
 20
15.5088341269
 10
14.1377377787
 20
15.494108218
 10
14.1338666472
 20
15.4795901611
 10
14.1299208507
 20
15.4652992903
 10
14.1259197506
 20
15.4512765012
 10
14.1218751336
 20
15.4375329204
 10
14.1177990875
 20
15.4240802586
 10
14.1137118819
 20
15.4109558015
 10
14.1096261462
 20
15.39817044
 10
14.1055534865
 20
15.3857318567
 10
14.1015123256
 20
15.3736681354
 10
14.0975148987
 20
15.3619884442
 10
14.0935720458
 20
15.3506982441
 10
14.0896992407
 20
15.3398163852
 10
14.0859070992
 20
15.3293486332
 10
14.0822059139
 20
15.3193005753
 10
14.0786094842
 20
15.3096874888
 10
14.0751275827
 20
15.3005147751
  0
LINE
  5
241
100
AcDbEntity
  8
0
100
AcDbLine
 62
7
  6
CONTINUOUS
 10
17.2156681444
 20
13.259834143
 11
14.0156681444
 21
13.259834143
  0
LINE
  5
242
100
AcDbEntity
  8
0
100
AcDbLine
 62
7
  6
CONTINUOUS
 10
17.1556681444
 20
13.319834143
 11
14.0756681444
 21
13.319834143
  0
LINE
  5
243
100
AcDbEntity
  8
0
100
AcDbLine
 62
7
  6
CONTINUOUS
 10
17.1356681444
 20
13.372834143
 11
14.0956681444
 21
13.372834143
  0
LINE
  5
244
100
AcDbEntity
  8
0
100
AcDbLine
 62
7
  6
CONTINUOUS
 10
17.1956681444
 20
13.432834143
 11
14.0356681444
 21
13.432834143
  0
LWPOLYLINE
  5
245
100
AcDbEntity
  8
0
100
AcDbPolyline
 62
7
  6
CONTINUOUS
 90
32
 70
0
 10
17.4156658623
 20
16.3585572724
 10
17.415660302
 20
16.3592241062
 10
17.4155679893
 20
16.3613536491
 10
17.4153623673
 20
16.363475253
 10
17.4150440196
 20
16.3655828929
 10
17.4146138499
 20
16.3676705833
 10
17.4140730796
 20
16.3697323958
 10
17.4134232442
 20
16.3717624752
 10
17.412666189
 20
16.3737550565
 10
17.4118040636
 20
16.3757044811
 10
17.410839316
 20
16.3776052133
 10
17.409774686
 20
16.3794518551
 10
17.4086131967
 20
16.3812391626
 10
17.4073581464
 20
16.3829620603
 10
17.4060130992
 20
16.3846156554
 10
17.4045818747
 20
16.3861952519
 10
17.4030685372
 20
16.3876963645
 10
17.4014773841
 20
16.3891147302
 10
17.3998129339
 20
16.3904463213
 10
17.3980799132
 20
16.3916873565
 10
17.3962832432
 20
16.3928343116
 10
17.3944280259
 20
16.3938839297
 10
17.3925195296
 20
16.3948332302
 10
17.3905631738
 20
16.3956795173
 10
17.388564514
 20
16.3964203879
 10
17.3865292257
 20
16.397053738
 10
17.3844630886
 20
16.3975777692
 10
17.3823719699
 20
16.3979909933
 10
17.3802618076
 20
16.398292237
 10
17.3781385941
 20
16.3984806446
 10
17.3760083585
 20
16.3985556813
 10
9.4556659065
 20
16.3985388593
  0
LINE
  5
246
100
AcDbEntity
  8
0
100
AcDbLine
 62
7
  6
CONTINUOUS
 10
17.0447481664
 20
15.273390106
 11
17.0446875827
 21
15.2858341412
  0
LINE
  5
247
100
AcDbEntity
  8
0
100
AcDbLine
 62
7
  6
CONTINUOUS
 10
17.0407660097
 20
15.820834143
 11
17.0407660097
 21
15.285834143
  0
LINE
  5
248
100
AcDbEntity
  8
0
100
AcDbLine
 62
7
  6
CONTINUOUS
 10
17.0446875827
 20
15.820834143
 11
17.0446875827
 21
15.2858341412
  0
LINE
  5
249
100
AcDbEntity
  8
0
100
AcDbLine
 62
7
  6
CONTINUOUS
 10
17.1256681444
 20
13.319834143
 11
17.1256681444
 21
13.372834143
  0
LINE
  5
24A
100
AcDbEntity
  8
0
100
AcDbLine
 62
7
  6
CONTINUOUS
 10
17.1956681444
 20
14.620834143
 11
17.1956681444
 21
13.432834143
  0
LINE
  5
24B
100
AcDbEntity
  8
0
100
AcDbLine
 62
7
  6
CONTINUOUS
 10
17.2156681444
 20
13.259834143
 11
17.2156681444
 21
1.473834143
  0
LINE
  5
24C
100
AcDbEntity
  8
0
100
AcDbLine
 62
7
  6
CONTINUOUS
 10
17.4156684241
 20
15.318557571
 11
17.4156659997
 21
16.3585572724
  0
LINE
  5
24D
100
AcDbEntity
  8
0
100
AcDbLine
 62
7
  6
CONTINUOUS
 10
17.5956681444
 20
1.413834143
 11
17.5956681444
 21
0.623834143
  0
LWPOLYLINE
  5
24E
100
AcDbEntity
  8
0
100
AcDbPolyline
 62
7
  6
CONTINUOUS
 90
31
 70
0
 10
17.3760109535
 20
15.2785589799
 10
17.3781411876
 20
15.2786340261
 10
17.3802643992
 20
15.2788224432
 10
17.3823745591
 20
15.2791236961
 10
17.3844656751
 20
15.2795369294
 10
17.386531809
 20
15.2800609694
 10
17.3885670936
 20
15.2806943282
 10
17.3905657493
 20
15.2814352072
 10
17.3925221006
 20
15.2822815024
 10
17.3944305919
 20
15.2832308106
 10
17.3962858038
 20
15.2842804362
 10
17.398082468
 20
15.2854273984
 10
17.3998154825
 20
15.2866684402
 10
17.401479926
 20
15.2880000374
 10
17.4030710721
 20
15.2894184087
 10
17.4045844023
 20
15.2909195264
 10
17.4060156192
 20
15.2924991276
 10
17.4073606586
 20
15.2941527267
 10
17.408615701
 20
15.295875628
 10
17.4097771824
 20
15.2976629388
 10
17.4108418045
 20
15.2995095837
 10
17.4118065441
 20
15.3014103188
 10
17.4126686617
 20
15.3033597463
 10
17.4134257092
 20
15.3053523304
 10
17.4140755368
 20
15.3073824129
 10
17.4146162993
 20
15.3094442286
 10
17.415046461
 20
15.3115319227
 10
17.4153648007
 20
15.3136395667
 10
17.4155704143
 20
15.3157611753
 10
17.4156627181
 20
15.3178907237
 10
17.4156682755
 20
15.318557571
  0
LINE
  5
24F
100
AcDbEntity
  8
0
100
AcDbLine
 62
7
  6
CONTINUOUS
 10
9.4556685174
 20
15.2785388593
 11
14.0665883723
 21
15.2785496081
  0
LINE
  5
250
100
AcDbEntity
  8
0
100
AcDbLine
 62
7
  6
CONTINUOUS
 10
17.0447198748
 20
15.2785565506
 11
17.3760109535
 21
15.2785589799
  0
LINE
  5
251
100
AcDbEntity
  8
0
100
AcDbLine
 62
7
  6
CONTINUOUS
 10
17.0446875827
 20
15.2858341412
 11
17.0407660097
 21
15.285834143
  0
LINE
  5
252
100
AcDbEntity
  8
0
100
AcDbLine
 62
7
  6
CONTINUOUS
 10
17.0446875827
 20
15.820834143
 11
14.189979335
 21
15.8208341874
  0
LINE
  5
253
100
AcDbEntity
  8
0
100
AcDbLine
 62
7
  6
CONTINUOUS
 10
17.0046875827
 20
15.860834143
 11
14.2260727489
 21
15.860834143
  0
LINE
  5
254
100
AcDbEntity
  8
0
100
AcDbLine
 62
7
  6
CONTINUOUS
 10
17.1923761915
 20
14.6367249982
 11
17.1890981259
 21
14.6443526008
  0
LINE
  5
255
100
AcDbEntity
  8
0
100
AcDbLine
 62
7
  6
CONTINUOUS
 10
17.1890981259
 20
14.6443526008
 11
17.1849760562
 21
14.6540503998
  0
LINE
  5
256
100
AcDbEntity
  8
0
100
AcDbLine
 62
7
  6
CONTINUOUS
 10
17.1849760562
 20
14.6540503998
 11
17.1792466502
 21
14.667735012
  0
LINE
  5
257
100
AcDbEntity
  8
0
100
AcDbLine
 62
7
  6
CONTINUOUS
 10
17.1792466502
 20
14.667735012
 11
17.1745735929
 21
14.6790832771
  0
LINE
  5
258
100
AcDbEntity
  8
0
100
AcDbLine
 62
7
  6
CONTINUOUS
 10
17.1745735929
 20
14.6790832771
 11
17.1692567748
 21
14.6922127037
  0
LINE
  5
259
100
AcDbEntity
  8
0
100
AcDbLine
 62
7
  6
CONTINUOUS
 10
17.1692567748
 20
14.6922127037
 11
17.1633387778
 21
14.707117326
  0
LWPOLYLINE
  5
25A
100
AcDbEntity
  8
0
100
AcDbPolyline
 62
7
  6
CONTINUOUS
 90
41
 70
0
 10
17.1633387778
 20
14.707117326
 10
17.1568676884
 20
14.7237930961
 10
17.1534444759
 20
14.7327862608
 10
17.1499063047
 20
14.7422142855
 10
17.1462628664
 20
14.752071157
 10
17.1425278222
 20
14.7623412472
 10
17.1387110504
 20
14.7730193942
 10
17.1348227862
 20
14.7840999717
 10
17.1308785194
 20
14.7955631879
 10
17.1268892014
 20
14.807402318
 10
17.122866191
 20
14.8196097221
 10
17.1188264831
 20
14.8321607497
 10
17.1147813502
 20
14.8450479699
 10
17.1107429756
 20
14.8582611304
 10
17.1067300974
 20
14.8717675526
 10
17.1027543528
 20
14.885556714
 10
17.0988274016
 20
14.8996176978
 10
17.0949677273
 20
14.9139132556
 10
17.0911866653
 20
14.9284292538
 10
17.0874944478
 20
14.9431548786
 10
17.0839069675
 20
14.9580543827
 10
17.0804355566
 20
14.9731056773
 10
17.0770872592
 20
14.9883032081
 10
17.0738705773
 20
15.003634311
 10
17.0707940242
 20
15.0190827008
 10
17.0678644489
 20
15.0346372177
 10
17.0650874399
 20
15.050292905
 10
17.0624696687
 20
15.0660366957
 10
17.0600169298
 20
15.0818549767
 10
17.0577334788
 20
15.0977426205
 10
17.0556245231
 20
15.1136870694
 10
17.0536943015
 20
15.1296746128
 10
17.0519455842
 20
15.1456988993
 10
17.0503818797
 20
15.1617465083
 10
17.0490058742
 20
15.1778050196
 10
17.0478185062
 20
15.193870071
 10
17.0468212295
 20
15.2099294409
 10
17.0460152555
 20
15.2259712382
 10
17.0454003892
 20
15.2419905777
 10
17.0449757692
 20
15.2579757425
 10
17.0447404937
 20
15.2739097408
  0
ARC
  5
25B
100
AcDbEntity
  8
0
100
AcDbCircle
 62
7
  6
CONTINUOUS
 10
6.0856681444
 20
8.313834143
 40
2.575
100
AcDbArc
 50
90.0
 51
180.0
  0
ARC
  5
25C
100
AcDbEntity
  8
0
100
AcDbCircle
 62
7
  6
CONTINUOUS
 10
6.0856681444
 20
8.313834143
 40
0.825
100
AcDbArc
 50
90.0
 51
180.0
  0
ARC
  5
25D
100
AcDbEntity
  8
0
100
AcDbCircle
 62
7
  6
CONTINUOUS
 10
17.1556681444
 20
13.259834143
 40
0.06
100
AcDbArc
 50
0.0
 51
90.0
  0
ARC
  5
25E
100
AcDbEntity
  8
0
100
AcDbCircle
 62
7
  6
CONTINUOUS
 10
14.0756681444
 20
13.259834143
 40
0.06
100
AcDbArc
 50
90.0
 51
180.0
  0
ARC
  5
25F
100
AcDbEntity
  8
0
100
AcDbCircle
 62
7
  6
CONTINUOUS
 10
14.0956681444
 20
13.432834143
 40
0.06
100
AcDbArc
 50
180.0
 51
270.0
  0
ARC
  5
260
100
AcDbEntity
  8
0
100
AcDbCircle
 62
7
  6
CONTINUOUS
 10
17.1356681444
 20
13.432834143
 40
0.06
100
AcDbArc
 50
270.0
 51
360.0
  0
ARC
  5
261
100
AcDbEntity
  8
0
100
AcDbCircle
 62
7
  6
CONTINUOUS
 10
17.5356681444
 20
1.413834143
 40
0.06
100
AcDbArc
 50
0.0
 51
90.0
  0
ARC
  5
262
100
AcDbEntity
  8
0
100
AcDbCircle
 62
7
  6
CONTINUOUS
 10
13.6956681444
 20
1.413834143
 40
0.06
100
AcDbArc
 50
90.0
 51
180.0
  0
ARC
  5
263
100
AcDbEntity
  8
0
100
AcDbCircle
 62
7
  6
CONTINUOUS
 10
9.4556684242
 20
15.3185388593
 40
0.04
100
AcDbArc
 50
180.0001335656
 51
270.0001335656
  0
ARC
  5
264
100
AcDbEntity
  8
0
100
AcDbCircle
 62
7
  6
CONTINUOUS
 10
9.4556659998
 20
16.3585388593
 40
0.04
100
AcDbArc
 50
90.0001335656
 51
180.0001335656
  0
ARC
  5
265
100
AcDbEntity
  8
0
100
AcDbCircle
 62
7
  6
CONTINUOUS
 10
17.0046875827
 20
15.820834143
 40
0.04
100
AcDbArc
 50
0.0
 51
90.0
  0
ARC
  5
266
100
AcDbEntity
  8
0
100
AcDbCircle
 62
7
  6
CONTINUOUS
 10
17.1556681444
 20
14.620834143
 40
0.04
100
AcDbArc
 50
0.0
 51
23.4077025417
  0
ARC
  5
267
100
AcDbEntity
  8
0
100
AcDbCircle
 62
7
  6
CONTINUOUS
 10
14.0756681444
 20
15.195834143
 40
0.04
100
AcDbArc
 50
156.5941470745
 51
180.0
  0
ARC
  5
268
100
AcDbEntity
  8
0
100
AcDbCircle
 62
7
  6
CONTINUOUS
 10
14.226072588
 20
15.820834143
 40
0.04
100
AcDbArc
 50
90.0010527366
 51
178.3507836939
  0
SPLINE
  5
269
100
AcDbEntity
  8
0
100
AcDbSpline
 62
7
  6
CONTINUOUS
 70
0
 71
3
 72
43
 73
39
 74
0
 42
0.0000001
 43
0.0000001
 44
0.0000000001
 40
0.0
 40
0.0
 40
0.0
 40
0.0
 40
0.0107932109
 40
0.042100468
 40
0.0912378969
 40
0.1214812925
 40
0.154979457
 40
0.1913701669
 40
0.2105459609
 40
0.2303222963
 40
0.2715225174
 40
0.3146710622
 40
0.3594567739
 40
0.3823607985
 40
0.4055427166
 40
0.4289522092
 40
0.4525360898
 40
0.4643761874
 40
0.4762386383
 40
0.5000000024
 40
0.5237613645
 40
0.5356238146
 40
0.5474639123
 40
0.5710477944
 40
0.5944572866
 40
0.6176392037
 40
0.6405432282
 40
0.6853289402
 40
0.7284774841
 40
0.7696777053
 40
0.7894540389
 40
0.808629833
 40
0.845020543
 40
0.8785187066
 40
0.9087621023
 40
0.9578995316
 40
0.9892067893
 40
1.0
 40
1.0
 40
1.0
 40
1.0
 10
14.0156681444
 20
10.893834143
 30
0.0
 10
14.0188883812
 20
10.8879792343
 30
0.0
 10
14.0313822828
 20
10.8651043616
 30
0.0
 10
14.0578728258
 20
10.8152131403
 30
0.0
 10
14.0885294073
 20
10.7539114156
 30
0.0
 10
14.1180685619
 20
10.6905727609
 30
0.0
 10
14.14293227
 20
10.6337782685
 30
0.0
 10
14.1636102424
 20
10.5826521473
 30
0.0
 10
14.1800301196
 20
10.5389907865
 30
0.0
 10
14.1966564478
 20
10.492234492
 30
0.0
 10
14.216452692
 20
10.4308643397
 30
0.0
 10
14.237568722
 20
10.3537264005
 30
0.0
 10
14.2523020659
 20
10.2866691115
 30
0.0
 10
14.262046521
 20
10.2312541302
 30
0.0
 10
14.2682389241
 20
10.1886706665
 30
0.0
 10
14.2731661105
 20
10.1454986546
 30
0.0
 10
14.2761446723
 20
10.1091900675
 30
0.0
 10
14.2778296905
 20
10.0799625254
 30
0.0
 10
14.2790395284
 20
10.0506014604
 30
0.0
 10
14.2796482677
 20
10.0138341398
 30
0.0
 10
14.2790395288
 20
9.9770668196
 30
0.0
 10
14.2778296903
 20
9.9477057563
 30
0.0
 10
14.2761446716
 20
9.9184782138
 30
0.0
 10
14.2731661099
 20
9.8821696259
 30
0.0
 10
14.2682389236
 20
9.8389976138
 30
0.0
 10
14.2620465202
 20
9.7964141511
 30
0.0
 10
14.252302065
 20
9.7409991704
 30
0.0
 10
14.2375687211
 20
9.6739418818
 30
0.0
 10
14.216452691
 20
9.596803943
 30
0.0
 10
14.1966564472
 20
9.5354337922
 30
0.0
 10
14.1800301193
 20
9.4886774987
 30
0.0
 10
14.1636102425
 20
9.4450161388
 30
0.0
 10
14.1429322702
 20
9.3938900181
 30
0.0
 10
14.1180685624
 20
9.337095526
 30
0.0
 10
14.0885294079
 20
9.2737568716
 30
0.0
 10
14.0578728261
 20
9.2124551463
 30
0.0
 10
14.0313822829
 20
9.1625639245
 30
0.0
 10
14.0188883811
 20
9.1396890516
 30
0.0
 10
14.0156681444
 20
9.133834143
 30
0.0
  0
SPLINE
  5
26A
100
AcDbEntity
  8
0
100
AcDbSpline
 62
7
  6
CONTINUOUS
 70
0
 71
3
 72
19
 73
15
 74
0
 42
0.0000001
 43
0.0000001
 44
0.0000000001
 40
0.0
 40
0.0
 40
0.0
 40
0.0
 40
0.2206983964
 40
0.4142040624
 40
0.579913802
 40
0.7173766073
 40
0.7755105086
 40
0.8266193671
 40
0.8707779413
 40
0.9081242283
 40
0.9389178339
 40
0.9636688662
 40
0.9833795403
 40
1.0
 40
1.0
 40
1.0
 40
1.0
 10
14.1899792032
 20
15.8208342317
 30
0.0
 10
14.1896778048
 20
15.8208809351
 30
0.0
 10
14.1891128468
 20
15.8209732541
 30
0.0
 10
14.1883248833
 20
15.8211199743
 30
0.0
 10
14.1876539631
 20
15.8212653476
 30
0.0
 10
14.1871703851
 20
15.8213907237
 30
0.0
 10
14.1868448521
 20
15.8214922763
 30
0.0
 10
14.1866451059
 20
15.8215635026
 30
0.0
 10
14.1864758298
 20
15.8216340211
 30
0.0
 10
14.1863370147
 20
15.821703793
 30
0.0
 10
14.1862284266
 20
15.8217728609
 30
0.0
 10
14.1861496954
 20
15.8218416556
 30
0.0
 10
14.1861001416
 20
15.8219115478
 30
0.0
 10
14.1860886072
 20
15.8219623917
 30
0.0
 10
14.1860892535
 20
15.8219853513
 30
0.0
  0
SPLINE
  5
26B
100
AcDbEntity
  8
0
100
AcDbSpline
 62
7
  6
CONTINUOUS
 70
0
 71
3
 72
58
 73
54
 74
0
 42
0.0000001
 43
0.0000001
 44
0.0000000001
 40
0.0
 40
0.0
 40
0.0
 40
0.0
 40
0.0000012192
 40
0.0000048731
 40
0.0000109614
 40
0.0000194839
 40
0.0000438306
 40
0.0000779114
 40
0.0001217242
 40
0.0001752673
 40
0.0002385387
 40
0.0003115366
 40
0.0004867041
 40
0.0007007547
 40
0.0009536734
 40
0.0012454449
 40
0.0015760541
 40
0.0019454861
 40
0.0028007574
 40
0.0038111381
 40
0.004976455
 40
0.0062963773
 40
0.0077705442
 40
0.009398595
 40
0.0111801692
 40
0.0131149064
 40
0.0152024463
 40
0.0198341506
 40
0.0250708766
 40
0.0309079691
 40
0.0373407378
 40
0.0443637104
 40
0.0519707095
 40
0.0601555425
 40
0.0689118049
 40
0.0782322275
 40
0.0985356624
 40
0.1210037518
 40
0.1455693206
 40
0.1721619605
 40
0.2007079758
 40
0.2311309555
 40
0.2633524946
 40
0.2972916858
 40
0.3328662697
 40
0.369991631
 40
0.4485473844
 40
0.5322453399
 40
0.6203337426
 40
0.7120170428
 40
0.8064536961
 40
0.9027544227
 40
1.0
 40
1.0
 40
1.0
 40
1.0
 10
17.3756683722
 20
15.2785573222
 30
0.0
 10
17.375668155
 20
15.2785573995
 30
0.0
 10
17.3756682876
 20
15.27855864
 30
0.0
 10
17.375667373
 20
15.2785602979
 30
0.0
 10
17.3756666632
 20
15.2785638199
 30
0.0
 10
17.3756645847
 20
15.2785708046
 30
0.0
 10
17.3756613233
 20
15.2785830968
 30
0.0
 10
17.375656157
 20
15.2786016939
 30
0.0
 10
17.3756495925
 20
15.2786256726
 30
0.0
 10
17.3756415443
 20
15.2786549513
 30
0.0
 10
17.3756320455
 20
15.2786895593
 30
0.0
 10
17.3756164589
 20
15.2787463395
 30
0.0
 10
17.3755933352
 20
15.2788306131
 30
0.0
 10
17.3755612213
 20
15.2789476929
 30
0.0
 10
17.3755232897
 20
15.2790860371
 30
0.0
 10
17.3754795463
 20
15.279245638
 30
0.0
 10
17.3754299974
 20
15.2794264885
 30
0.0
 10
17.375352324
 20
15.2797100968
 30
0.0
 10
17.3752407626
 20
15.2801176766
 30
0.0
 10
17.375089577
 20
15.2806704182
 30
0.0
 10
17.3749153384
 20
15.2813079296
 30
0.0
 10
17.3747181868
 20
15.2820300795
 30
0.0
 10
17.3744982649
 20
15.2828367005
 30
0.0
 10
17.3742557192
 20
15.2837276206
 30
0.0
 10
17.3739906959
 20
15.2847026673
 30
0.0
 10
17.373703342
 20
15.2857616687
 30
0.0
 10
17.3732755798
 20
15.2873409108
 30
0.0
 10
17.3726861943
 20
15.2895231552
 30
0.0
 10
17.3719152722
 20
15.2923906707
 30
0.0
 10
17.3710600863
 20
15.295588136
 30
0.0
 10
17.3701225499
 20
15.2991131565
 30
0.0
 10
17.3691049411
 20
15.3029631334
 30
0.0
 10
17.3680098419
 20
15.3071352491
 30
0.0
 10
17.3668398232
 20
15.3116264941
 30
0.0
 10
17.3655975361
 20
15.316433661
 30
0.0
 10
17.3637969285
 20
15.3234629803
 30
0.0
 10
17.3613863743
 20
15.3330121358
 30
0.0
 10
17.3583328491
 20
15.3453715478
 30
0.0
 10
17.3550703947
 20
15.3589039456
 30
0.0
 10
17.3516292705
 20
15.3735750313
 30
0.0
 10
17.3480415763
 20
15.3893488652
 30
0.0
 10
17.3443404903
 20
15.406187868
 30
0.0
 10
17.3405601131
 20
15.4240528988
 30
0.0
 10
17.3367356756
 20
15.4429034998
 30
0.0
 10
17.3329029501
 20
15.4626976903
 30
0.0
 10
17.3277311545
 20
15.4908233898
 30
0.0
 10
17.3214763293
 20
15.5279990756
 30
0.0
 10
17.3146416674
 20
15.5748375284
 30
0.0
 10
17.3086111657
 20
15.6242885853
 30
0.0
 10
17.3036324283
 20
15.675897478
 30
0.0
 10
17.299912849
 20
15.7291697519
 30
0.0
 10
17.2976130268
 20
15.783574854
 30
0.0
 10
17.2970952618
 20
15.8201694618
 30
0.0
 10
17.2970951765
 20
15.8385550253
 30
0.0
  0
SPLINE
  5
26C
100
AcDbEntity
  8
0
100
AcDbSpline
 62
7
  6
CONTINUOUS
 70
0
 71
3
 72
17
 73
13
 74
0
 42
0.0000001
 43
0.0000001
 44
0.0000000001
 40
0.0
 40
0.0
 40
0.0
 40
0.0
 40
0.1249986859
 40
0.1875011523
 40
0.2500036114
 40
0.3750024308
 40
0.5000012748
 40
0.6250001034
 40
0.7499988631
 40
0.8749975218
 40
0.9374988248
 40
1.0
 40
1.0
 40
1.0
 40
1.0
 10
17.3353094484
 20
15.8385552208
 30
0.0
 10
17.3353114135
 20
15.8605579439
 30
0.0
 10
17.3359747589
 20
15.893567491
 30
0.0
 10
17.3381760026
 20
15.9375210152
 30
0.0
 10
17.3412513664
 20
15.9814226283
 30
0.0
 10
17.3467184955
 20
16.0361729312
 30
0.0
 10
17.355804029
 20
16.1015685116
 30
0.0
 10
17.3673241404
 20
16.1665788899
 30
0.0
 10
17.3811699759
 20
16.2311321678
 30
0.0
 10
17.3945448445
 20
16.2844999728
 30
0.0
 10
17.4062808998
 20
16.3269137259
 30
0.0
 10
17.4124841043
 20
16.3480257692
 30
0.0
 10
17.4156659993
 20
16.3585572742
 30
0.0
  0
SPLINE
  5
26D
100
AcDbEntity
  8
0
100
AcDbSpline
 62
7
  6
CONTINUOUS
 70
0
 71
3
 72
21
 73
17
 74
0
 42
0.0000001
 43
0.0000001
 44
0.0000000001
 40
0.0
 40
0.0
 40
0.0
 40
0.0
 40
0.065661727
 40
0.1312269383
 40
0.1965446327
 40
0.2615322104
 40
0.3900103398
 40
0.5162280779
 40
0.5784761294
 40
0.6401001925
 40
0.7011317279
 40
0.7616244878
 40
0.8216497827
 40
0.8813105658
 40
0.940737543
 40
1.0
 40
1.0
 40
1.0
 40
1.0
 10
17.0407660097
 20
15.820834143
 30
0.0
 10
17.0407660097
 20
15.8221419198
 30
0.0
 10
17.0406501374
 20
15.8247570364
 30
0.0
 10
17.0401311473
 20
15.8286419112
 30
0.0
 10
17.0392709935
 20
15.8324527091
 30
0.0
 10
17.037687974
 20
15.8373637411
 30
0.0
 10
17.0349162693
 20
15.8431382881
 30
0.0
 10
17.0311448484
 20
15.8482521621
 30
0.0
 10
17.0276283229
 20
15.8517896492
 30
0.0
 10
17.0247801075
 20
15.8541343115
 30
0.0
 10
17.0217378969
 20
15.8561585226
 30
0.0
 10
17.018530419
 20
15.8578421754
 30
0.0
 10
17.0151890941
 20
15.859169489
 30
0.0
 10
17.0117453949
 20
15.8601270862
 30
0.0
 10
17.0082338148
 20
15.8607048804
 30
0.0
 10
17.0058679061
 20
15.860834143
 30
0.0
 10
17.0046875827
 20
15.860834143
 30
0.0
  0
SPLINE
  5
26E
100
AcDbEntity
  8
0
100
AcDbSpline
 62
7
  6
CONTINUOUS
 70
0
 71
3
 72
21
 73
17
 74
0
 42
0.0000001
 43
0.0000001
 44
0.0000000001
 40
0.0
 40
0.0
 40
0.0
 40
0.0
 40
0.0656489212
 40
0.1312019042
 40
0.1965091835
 40
0.2614879967
 40
0.3899551721
 40
0.5161720461
 40
0.5784224183
 40
0.6400498013
 40
0.7010856123
 40
0.7615841576
 40
0.8216171688
 40
0.8812867855
 40
0.9407245992
 40
1.0
 40
1.0
 40
1.0
 40
1.0
 10
14.1899792032
 20
15.8208342317
 30
0.0
 10
14.1899792055
 20
15.8221419886
 30
0.0
 10
14.1900951207
 20
15.8247570778
 30
0.0
 10
14.1906143325
 20
15.8286419245
 30
0.0
 10
14.1914748387
 20
15.8324527244
 30
0.0
 10
14.193058562
 20
15.8373638782
 30
0.0
 10
14.1958315709
 20
15.8431386401
 30
0.0
 10
14.199604615
 20
15.84825252
 30
0.0
 10
14.203122653
 20
15.8517899
 30
0.0
 10
14.2059720064
 20
15.8541345317
 30
0.0
 10
14.209015397
 20
15.8561586354
 30
0.0
 10
14.2122240574
 20
15.8578421899
 30
0.0
 10
14.2155665788
 20
15.8591694376
 30
0.0
 10
14.2190115144
 20
15.8601270049
 30
0.0
 10
14.2225243919
 20
15.860704828
 30
0.0
 10
14.2248911966
 20
15.8608341217
 30
0.0
 10
14.22607199
 20
15.860834143
 30
0.0
  0
SPLINE
  5
26F
100
AcDbEntity
  8
0
100
AcDbSpline
 62
7
  6
CONTINUOUS
 70
0
 71
3
 72
16
 73
12
 74
0
 42
0.0000001
 43
0.0000001
 44
0.0000000001
 40
0.0
 40
0.0
 40
0.0
 40
0.0
 40
0.0863123155
 40
0.1715804571
 40
0.2552449267
 40
0.3367865359
 40
0.4157333571
 40
0.491652777
 40
0.6328082184
 40
0.8618609957
 40
1.0
 40
1.0
 40
1.0
 40
1.0
 10
14.189979335
 20
15.8208341874
 30
0.0
 10
14.1894457892
 20
15.8027714089
 30
0.0
 10
14.1876677566
 20
15.7668814771
 30
0.0
 10
14.1829279762
 20
15.7136403955
 30
0.0
 10
14.176301265
 20
15.6616083082
 30
0.0
 10
14.1680191836
 20
15.6111565048
 30
0.0
 10
14.158353226
 20
15.5626052011
 30
0.0
 10
14.1443502076
 20
15.5022227988
 30
0.0
 10
14.1194258956
 20
15.4121622802
 30
0.0
 10
14.0843431827
 20
15.3115630099
 30
0.0
 10
14.0550849938
 20
15.2404543871
 30
0.0
 10
14.0435898
 20
15.2139157195
 30
0.0
  0
LINE
  5
270
100
AcDbEntity
  8
0
100
AcDbLine
 62
7
  6
CONTINUOUS
 10
14.0435898
 20
15.2139157195
 11
14.0419355169
 21
15.2101055508
  0
LINE
  5
271
100
AcDbEntity
  8
0
100
AcDbLine
 62
7
  6
CONTINUOUS
 10
14.0419355169
 20
15.2101055508
 11
14.0356681444
 21
15.195834143
  0
SPLINE
  5
272
100
AcDbEntity
  8
0
100
AcDbSpline
 62
7
  6
CONTINUOUS
 70
0
 71
3
 72
19
 73
15
 74
0
 42
0.0000001
 43
0.0000001
 44
0.0000000001
 40
0.0
 40
0.0
 40
0.0
 40
0.0
 40
0.0859790102
 40
0.1712800721
 40
0.255254704
 40
0.3372956809
 40
0.4168511392
 40
0.4934197106
 40
0.5665412931
 40
0.6357834015
 40
0.7609514445
 40
0.8655968602
 40
0.9463457648
 40
1.0
 40
1.0
 40
1.0
 40
1.0
 10
17.0407660097
 20
15.285834143
 30
0.0
 10
17.0407660754
 20
15.26660563
 30
0.0
 10
17.0415835821
 20
15.2282952309
 30
0.0
 10
17.0452111443
 20
15.1713091029
 30
0.0
 10
17.0510865786
 20
15.1153965337
 30
0.0
 10
17.0589701373
 20
15.0610318378
 30
0.0
 10
17.0685623859
 20
15.0086274256
 30
0.0
 10
17.0795233778
 20
14.9585344391
 30
0.0
 10
17.0914942315
 20
14.9110500939
 30
0.0
 10
17.1077752236
 20
14.8534698735
 30
0.0
 10
17.128362429
 20
14.7898083968
 30
0.0
 10
17.1523616692
 20
14.7246177359
 30
0.0
 10
17.1723081871
 20
14.6750109075
 30
0.0
 10
17.1840788544
 20
14.6473518822
 30
0.0
 10
17.1888610309
 20
14.6363466613
 30
0.0
  0
LINE
  5
273
100
AcDbEntity
  8
0
100
AcDbLine
 62
7
  6
CONTINUOUS
 10
17.1888610309
 20
14.6363466613
 11
17.1956681444
 21
14.620834143
  0
SPLINE
  5
274
100
AcDbEntity
  8
0
100
AcDbSpline
 62
7
  6
CONTINUOUS
 70
0
 71
3
 72
55
 73
51
 74
0
 42
0.0000001
 43
0.0000001
 44
0.0000000001
 40
0.0
 40
0.0
 40
0.0
 40
0.0
 40
0.0486782053
 40
0.0972468293
 40
0.1455744957
 40
0.1935488264
 40
0.2410575644
 40
0.2879867809
 40
0.3796693157
 40
0.4677570835
 40
0.5514545227
 40
0.6300098368
 40
0.7027086443
 40
0.7366476772
 40
0.7688690749
 40
0.7992919656
 40
0.8278378982
 40
0.8544304668
 40
0.8789959576
 40
0.9014639997
 40
0.9217673985
 40
0.9398440593
 40
0.948028885
 40
0.9556358929
 40
0.9626588719
 40
0.969091635
 40
0.9749287451
 40
0.9801655004
 40
0.9847972243
 40
0.9888195289
 40
0.9906011284
 40
0.9922292074
 40
0.993703402
 40
0.9950233482
 40
0.9961886817
 40
0.9971990784
 40
0.9980543747
 40
0.9984238213
 40
0.9987544461
 40
0.9990462338
 40
0.9992991687
 40
0.9995132352
 40
0.999688418
 40
0.9998247014
 40
0.9998782509
 40
0.9999220699
 40
0.9999561562
 40
0.9999805079
 40
0.9999951232
 40
1.0
 40
1.0
 40
1.0
 40
1.0
 10
17.2970951765
 20
15.8385550253
 30
0.0
 10
17.2970952367
 20
15.847758405
 30
0.0
 10
17.2972280413
 20
15.8661447059
 30
0.0
 10
17.2978140606
 20
15.8936624539
 30
0.0
 10
17.2987769533
 20
15.9210364912
 30
0.0
 10
17.3001123729
 20
15.9481942268
 30
0.0
 10
17.3018065706
 20
15.9750670328
 30
0.0
 10
17.3044949177
 20
16.0101540628
 30
0.0
 10
17.3086106192
 20
16.0528223905
 30
0.0
 10
17.3146403422
 20
16.1022736636
 30
0.0
 10
17.3214750879
 20
16.1491125596
 30
0.0
 10
17.3288454958
 20
16.192921323
 30
0.0
 10
17.3353385785
 20
16.2273299513
 30
0.0
 10
17.3405583552
 20
16.2530596007
 30
0.0
 10
17.3443385833
 20
16.2709248448
 30
0.0
 10
17.3480397086
 20
16.2877640073
 30
0.0
 10
17.351627415
 20
16.3035380092
 30
0.0
 10
17.3550684603
 20
16.3182092712
 30
0.0
 10
17.358330801
 20
16.3317418457
 30
0.0
 10
17.3613842436
 20
16.34410142
 30
0.0
 10
17.3641998929
 20
16.3552558722
 30
0.0
 10
17.3663933217
 20
16.3637821067
 30
0.0
 10
17.368007527
 20
16.3699786817
 30
0.0
 10
17.3691025892
 20
16.3741508672
 30
0.0
 10
17.3701201603
 20
16.37800091
 30
0.0
 10
17.37105765
 20
16.381525996
 30
0.0
 10
17.3719128017
 20
16.3847235234
 30
0.0
 10
17.3726836974
 20
16.3875910995
 30
0.0
 10
17.3733684349
 20
16.3901265356
 30
0.0
 10
17.3738846409
 20
16.3920308303
 30
0.0
 10
17.374253181
 20
16.3933867719
 30
0.0
 10
17.3744957275
 20
16.3942777202
 30
0.0
 10
17.3747156499
 20
16.3950843681
 30
0.0
 10
17.3749128
 20
16.395806542
 30
0.0
 10
17.3750870331
 20
16.3964440749
 30
0.0
 10
17.3752382111
 20
16.3969968376
 30
0.0
 10
17.3753497675
 20
16.3974044355
 30
0.0
 10
17.3754274373
 20
16.3976880596
 30
0.0
 10
17.3754769836
 20
16.3978689224
 30
0.0
 10
17.3755207251
 20
16.3980285356
 30
0.0
 10
17.3755586523
 20
16.3981668919
 30
0.0
 10
17.3755907679
 20
16.3982839837
 30
0.0
 10
17.3756170402
 20
16.3983798042
 30
0.0
 10
17.3756353342
 20
16.398446355
 30
0.0
 10
17.3756469792
 20
16.3984889563
 30
0.0
 10
17.3756536586
 20
16.3985129205
 30
0.0
 10
17.3756585183
 20
16.3985315711
 30
0.0
 10
17.3756627602
 20
16.3985448741
 30
0.0
 10
17.375663928
 20
16.3985528958
 30
0.0
 10
17.3756659664
 20
16.3985564206
 30
0.0
 10
17.3756657724
 20
16.3985573221
 30
0.0
  0
SPLINE
  5
275
100
AcDbEntity
  8
0
100
AcDbSpline
 62
7
  6
CONTINUOUS
 70
0
 71
3
 72
58
 73
54
 74
0
 42
0.0000001
 43
0.0000001
 44
0.0000000001
 40
0.0
 40
0.0
 40
0.0
 40
0.0
 40
0.000001196
 40
0.0000047885
 40
0.0000107771
 40
0.0000191617
 40
0.0000431181
 40
0.0000766559
 40
0.0001197734
 40
0.0001724689
 40
0.0002347407
 40
0.000306587
 40
0.0004789967
 40
0.0006896843
 40
0.0009386362
 40
0.0012258386
 40
0.0015512781
 40
0.001914941
 40
0.0027568824
 40
0.0037515539
 40
0.0048988041
 40
0.006198335
 40
0.0076498163
 40
0.0092529178
 40
0.0110073097
 40
0.0129126621
 40
0.0149686455
 40
0.0195309505
 40
0.0246902552
 40
0.0304422759
 40
0.0367827239
 40
0.0437067471
 40
0.0512086879
 40
0.0592828381
 40
0.0679234126
 40
0.0771238875
 40
0.0971770048
 40
0.1193857163
 40
0.1436885394
 40
0.1700212594
 40
0.1983160192
 40
0.2285026996
 40
0.2605087538
 40
0.294259571
 40
0.3296787998
 40
0.3666865692
 40
0.4451376012
 40
0.5289315954
 40
0.6173300348
 40
0.7095355495
 40
0.8046810825
 40
0.9018304431
 40
1.0
 40
1.0
 40
1.0
 40
1.0
 10
17.4156684233
 20
15.3185575707
 30
0.0
 10
17.4156682975
 20
15.3185574018
 30
0.0
 10
17.4156682076
 20
15.31855911
 30
0.0
 10
17.4156675068
 20
15.318560054
 30
0.0
 10
17.4156666746
 20
15.3185635741
 30
0.0
 10
17.4156646669
 20
15.318569731
 30
0.0
 10
17.4156613453
 20
15.3185810535
 30
0.0
 10
17.4156561969
 20
15.3185978968
 30
0.0
 10
17.4156496108
 20
15.3186197325
 30
0.0
 10
17.4156415522
 20
15.3186463528
 30
0.0
 10
17.415632035
 20
15.3186778346
 30
0.0
 10
17.4156164204
 20
15.3187294808
 30
0.0
 10
17.415593253
 20
15.31880614
 30
0.0
 10
17.4155610778
 20
15.3189126429
 30
0.0
 10
17.4155230721
 20
15.3190384936
 30
0.0
 10
17.4154792414
 20
15.3191836854
 30
0.0
 10
17.4154295917
 20
15.3193482128
 30
0.0
 10
17.4153517565
 20
15.3196062329
 30
0.0
 10
17.4152399562
 20
15.3199770529
 30
0.0
 10
17.4150884371
 20
15.3204799628
 30
0.0
 10
17.414913798
 20
15.3210600313
 30
0.0
 10
17.4147161729
 20
15.3217171553
 30
0.0
 10
17.4144956996
 20
15.3224512
 30
0.0
 10
17.4142525197
 20
15.3232620259
 30
0.0
 10
17.4139867744
 20
15.3241494933
 30
0.0
 10
17.4136986053
 20
15.3251134625
 30
0.0
 10
17.4132695618
 20
15.3265511986
 30
0.0
 10
17.4126782663
 20
15.3285382581
 30
0.0
 10
17.4119046079
 20
15.3311498448
 30
0.0
 10
17.4110460821
 20
15.3340627335
 30
0.0
 10
17.410104536
 20
15.3372749985
 30
0.0
 10
17.409082082
 20
15.3407845359
 30
0.0
 10
17.4079812283
 20
15.3445890916
 30
0.0
 10
17.4068044738
 20
15.3486862308
 30
0.0
 10
17.4055543429
 20
15.3530733606
 30
0.0
 10
17.4037408678
 20
15.3594925018
 30
0.0
 10
17.4013107413
 20
15.3682192395
 30
0.0
 10
17.398228546
 20
15.379523804
 30
0.0
 10
17.3949305427
 20
15.3919150357
 30
0.0
 10
17.3914460682
 20
15.4053649494
 30
0.0
 10
17.3878067703
 20
15.4198442873
 30
0.0
 10
17.3840453141
 20
15.4353221705
 30
0.0
 10
17.3801958877
 20
15.4517664617
 30
0.0
 10
17.3762936153
 20
15.4691436399
 30
0.0
 10
17.3723746632
 20
15.4874186151
 30
0.0
 10
17.3670717624
 20
15.5134427657
 30
0.0
 10
17.3606364683
 20
15.5479244625
 30
0.0
 10
17.3535781986
 20
15.5914806812
 30
0.0
 10
17.3473247289
 20
15.6376054231
 30
0.0
 10
17.3421420255
 20
15.6858738442
 30
0.0
 10
17.3382584035
 20
15.7358103446
 30
0.0
 10
17.3358519584
 20
15.7868909642
 30
0.0
 10
17.3353095301
 20
15.821274765
 30
0.0
 10
17.3353094484
 20
15.8385552208
 30
0.0
  0
ENDSEC
  0
SECTION
  2
OBJECTS
  0
DICTIONARY
  5
C
100
AcDbDictionary
280
0
281
1
  3
ACAD_GROUP
350
D
  3
ACAD_MLINESTYLE
350
17
  3
ACAD_LAYOUT
350
1A
  3
ACAD_PLOTSETTINGS
350
19
  3
ACAD_PLOTSTYLENAME
350
E
  0
DICTIONARY
  5
D
102
{ACAD_REACTORS
330
C
102
}
100
AcDbDictionary
280
0
281
1
  0
ACDBDICTIONARYWDFLT
  5
E
102
{ACAD_REACTORS
330
C
102
}
100
AcDbDictionary
281
1
  3
Normal
350
F
100
AcDbDictionaryWithDefault
340
F
  0
DICTIONARY
  5
17
102
{ACAD_REACTORS
330
C
102
}
100
AcDbDictionary
280
0
281
1
  3
Standard
350
18
  0
DICTIONARY
  5
19
102
{ACAD_REACTORS
330
C
102
}
100
AcDbDictionary
281
1
  0
DICTIONARY
  5
1A
102
{ACAD_REACTORS
330
C
102
}
100
AcDbDictionary
281
1
  3
Model
350
276
  3
Layout1
350
277
  0
ACDBPLACEHOLDER
  5
F
102
{ACAD_REACTORS
330
E
102
}
  0
MLINESTYLE
  5
18
102
{ACAD_REACTORS
330
17
102
}
100
AcDbMlineStyle
  2
STANDARD
 70
0
  3

 62
256
 51
90.0
 52
90.0
 71
2
 49
0.5
 62
256
  6
BYLAYER
 49
-0.5
 62
256
  6
BYLAYER
  0
LAYOUT
  5
276
102
{ACAD_REACTORS
330
1A
102
}
100
AcDbPlotSettings
  1

  2
none_device
  4
ANSI_C_(22.00_x_17.00_Inches)
  6

 40
0.0
 41
0.0
 42
0.0
 43
0.0
 44
558.8
 45
431.8
 46
0.0
 47
0.0
 48
0.0
 49
0.0
140
0.0
141
0.0
142
1.0
143
1.0
 70
1024
 72
0
 73
0
 74
0
  7

 75
0
147
1.0
148
0.0
149
0.0
100
AcDbLayout
  1
Model
 70
0
 71
0
 10
0.0
 20
0.0
 11
22.0
 21
17.0
 12
0.0
 22
0.0
 32
0.0
 14
0.0
 24
0.0
 34
0.0
 15
0.0
 25
0.0
 35
0.0
146
0.0
 13
0.0
 23
0.0
 33
0.0
 16
1.0
 26
0.0
 36
0.0
 17
0.0
 27
1.0
 37
0.0
 76
0
330
202
345
0
346
0
  0
LAYOUT
  5
277
102
{ACAD_REACTORS
330
1A
102
}
100
AcDbPlotSettings
  1

  2
none_device
  4
ANSI_C_(22.00_x_17.00_Inches)
  6

 40
0.0
 41
0.0
 42
0.0
 43
0.0
 44
558.8
 45
431.8
 46
0.0
 47
0.0
 48
0.0
 49
0.0
140
0.0
141
0.0
142
1.0
143
1.0
 70
0
 72
0
 73
0
 74
0
  7

 75
0
147
1.0
148
0.0
149
0.0
100
AcDbLayout
  1
Layout1
 70
0
 71
1
 10
0.0
 20
0.0
 11
22.0
 21
17.0
 12
0.0
 22
0.0
 32
0.0
 14
0.0
 24
0.0
 34
0.0
 15
0.0
 25
0.0
 35
0.0
146
0.0
 13
0.0
 23
0.0
 33
0.0
 16
1.0
 26
0.0
 36
0.0
 17
0.0
 27
1.0
 37
0.0
 76
0
330
203
345
0
346
0
  0
ENDSEC
  0
EOF
