999
DXF file: 1503_RIGHT.dxf
999
Pro/ENGINEER 2018400 by Parametric Technology Corporation
  0
SECTION
  2
HEADER
  9
$ACADVER
  1
AC1027
  9
$DWGCODEPAGE
  3
ANSI_1252
  9
$EXTMAX
 10
11.0
 20
8.5
 30
0.0
  9
$EXTMIN
 10
0.0
 20
0.0
 30
0.0
  9
$LIMMIN
 10
0.0
 20
0.0
  9
$LIMMAX
 10
11.0
 20
8.5
  9
$VIEWCTR
 10
5.5
 20
4.25
  9
$VIEWSIZE
 40
8.5
  9
$CLAYER
  8
0
  9
$LTSCALE
 40
0.605
  9
$CELTYPE
  6
BYLAYER
  9
$DIMSCALE
 40
1.0
  9
$DIMASZ
 40
0.1
  9
$DIMEXO
 40
0.0625
  9
$DIMDLI
 40
0.418
  9
$DIMEXE
 40
0.125
  9
$DIMCEN
 40
0.099
  9
$DIMLFAC
 40
1.0
  9
$DIMBLK
  1
_FILLED
  9
$DIMALT
 70
1
  9
$DIMALTD
 70
2
  9
$DIMALTTD
 70
2
  9
$DIMALTF
 40
25.4
  9
$DIMTXT
 40
0.08
  9
$DIMTOL
 70
1
  9
$DIMLIM
 70
0
  9
$DIMTFAC
 40
1.0
  9
$DIMTP
 40
0.001
  9
$DIMTM
 40
0.001
  9
$DIMGAP
 40
0.09
  9
$DIMDSEP
 70
46
  9
$AUNITS
 70
0
  9
$PDMODE
 70
3
  9
$PDSIZE
 40
0.3125
  9
$HANDSEED
  5
23A
  9
$TILEMODE
 70
1
  9
$MEASUREMENT
 70
0
  9
$INSUNITS
 70
1
  0
ENDSEC
  0
SECTION
  2
CLASSES
  0
CLASS
  1
ACDBDICTIONARYWDFLT
  2
AcDbDictionaryWithDefault
  3
AutoCAD 2000
 90
0
 91
1
280
0
281
0
  0
CLASS
  1
ACDBPLACEHOLDER
  2
AcDbPlaceHolder
  3
AutoCAD 2000
 90
0
 91
1
280
0
281
0
  0
CLASS
  1
LAYOUT
  2
AcDbLayout
  3
AutoCAD 2000
 90
0
 91
0
280
0
281
0
  0
ENDSEC
  0
SECTION
  2
TABLES
  0
TABLE
  2
VPORT
  5
8
100
AcDbSymbolTable
 70
2
  0
VPORT
  5
1F4
100
AcDbSymbolTableRecord
100
AcDbViewportTableRecord
  2
*ACTIVE
 70
0
 10
0.0
 20
0.0
 11
1.0
 21
1.0
 12
5.5
 22
4.25
 13
0.0
 23
0.0
 14
1.0
 24
1.0
 15
0.0
 25
0.0
 16
0.0
 26
0.0
 36
1.0
 17
0.0
 27
0.0
 37
0.0
 40
8.5
 41
1.2941176471
 42
50.0
 43
0.0
 44
0.0
 50
0.0
 51
0.0
 71
0
 72
100
 73
1
 74
1
 75
0
 76
0
 77
0
 78
0
  0
ENDTAB
  0
TABLE
  2
LTYPE
  5
5
100
AcDbSymbolTable
 70
6
  0
LTYPE
  5
14
100
AcDbSymbolTableRecord
100
AcDbLinetypeTableRecord
  2
BYBLOCK
 70
0
  3

 72
65
 73
0
 40
0.0
  0
LTYPE
  5
15
100
AcDbSymbolTableRecord
100
AcDbLinetypeTableRecord
  2
BYLAYER
 70
0
  3

 72
65
 73
0
 40
0.0
  0
LTYPE
  5
16
100
AcDbSymbolTableRecord
100
AcDbLinetypeTableRecord
  2
CONTINUOUS
 70
64
  3
Solid line
 72
65
 73
0
 40
0.0
  0
LTYPE
  5
1F5
100
AcDbSymbolTableRecord
100
AcDbLinetypeTableRecord
  2
CENTER
 70
64
  3
____ _ ____ _ ____ _ ____ _ ____ _ ____ _ ____
 72
65
 73
4
 40
0.6
 49
0.375
 74
0
 49
-0.075
 74
0
 49
0.075
 74
0
 49
-0.075
 74
0
  0
LTYPE
  5
1F6
100
AcDbSymbolTableRecord
100
AcDbLinetypeTableRecord
  2
HIDDEN
 70
64
  3
- - - - - - - - - - - - - - - - - - - -
 72
65
 73
2
 40
0.2
 49
0.1
 74
0
 49
-0.1
 74
0
  0
LTYPE
  5
1F7
100
AcDbSymbolTableRecord
100
AcDbLinetypeTableRecord
  2
PHANTOM
 70
64
  3
_____ _ _ _____ _ _ _____ _ _ _____
 72
65
 73
6
 40
0.8
 49
0.45
 74
0
 49
-0.05
 74
0
 49
0.1
 74
0
 49
-0.05
 74
0
 49
0.1
 74
0
 49
-0.05
 74
0
  0
LTYPE
  5
1F8
100
AcDbSymbolTableRecord
100
AcDbLinetypeTableRecord
  2
DOT
 70
64
  3
. . . . . . . . . . . . . . . . . . . .
 72
65
 73
2
 40
0.2
 49
0.1
 74
0
 49
-0.1
 74
0
  0
LTYPE
  5
1F9
100
AcDbSymbolTableRecord
100
AcDbLinetypeTableRecord
  2
DASHED
 70
64
  3
- - - - - - - - - - - - - - - - - - - -
 72
65
 73
2
 40
0.2
 49
0.1
 74
0
 49
-0.1
 74
0
  0
ENDTAB
  0
TABLE
  2
LAYER
  5
2
100
AcDbSymbolTable
 70
36
  0
LAYER
  5
10
100
AcDbSymbolTableRecord
100
AcDbLayerTableRecord
  2
0
 70
0
 62
7
  6
CONTINUOUS
370
-3
390
F
  0
LAYER
  5
1FA
100
AcDbSymbolTableRecord
100
AcDbLayerTableRecord
  2
DEFAULT_1
 70
0
 62
7
  6
CENTER
370
-3
390
F
  0
LAYER
  5
1FB
100
AcDbSymbolTableRecord
100
AcDbLayerTableRecord
  2
DEFAULT_2
 70
0
 62
8
  6
HIDDEN
370
-3
390
F
  0
LAYER
  5
1FC
100
AcDbSymbolTableRecord
100
AcDbLayerTableRecord
  2
DEFAULT_3
 70
0
 62
7
  6
PHANTOM
370
-3
390
F
  0
LAYER
  5
1FD
100
AcDbSymbolTableRecord
100
AcDbLayerTableRecord
  2
DEFAULT_COORDINATE_SYSTEM
 70
0
 62
7
  6
CONTINUOUS
370
-3
390
F
  0
LAYER
  5
1FE
100
AcDbSymbolTableRecord
100
AcDbLayerTableRecord
  2
DEFAULT_DATUM_AXES
 70
0
 62
7
  6
CONTINUOUS
370
-3
390
F
  0
LAYER
  5
1FF
100
AcDbSymbolTableRecord
100
AcDbLayerTableRecord
  2
DEFAULT_DATUM_PLANES
 70
0
 62
7
  6
CONTINUOUS
370
-3
390
F
  0
ENDTAB
  0
TABLE
  2
STYLE
  5
3
100
AcDbSymbolTable
 70
1
  0
STYLE
  5
11
100
AcDbSymbolTableRecord
100
AcDbTextStyleTableRecord
  2
STANDARD
 70
0
 40
0.0
 41
0.8
 50
0.0
 71
0
 42
0.2
  3
txt
  4

  0
STYLE
  5
200
100
AcDbSymbolTableRecord
100
AcDbTextStyleTableRecord
  2
TEXTSTYLE_1
 70
0
 40
0.0
 41
0.8
 50
0.0
 71
0
 42
0.2
  3
gdt
  4

  0
ENDTAB
  0
TABLE
  2
VIEW
  5
6
100
AcDbSymbolTable
 70
0
  0
ENDTAB
  0
TABLE
  2
UCS
  5
7
100
AcDbSymbolTable
 70
0
  0
ENDTAB
  0
TABLE
  2
APPID
  5
9
100
AcDbSymbolTable
 70
1
  0
APPID
  5
201
100
AcDbSymbolTableRecord
100
AcDbRegAppTableRecord
  2
ACAD
 70
0
  0
ENDTAB
  0
TABLE
  2
BLOCK_RECORD
  5
1
100
AcDbSymbolTable
 70
0
  0
BLOCK_RECORD
  5
202
100
AcDbSymbolTableRecord
100
AcDbBlockTableRecord
  2
*Model_Space
  0
BLOCK_RECORD
  5
203
100
AcDbSymbolTableRecord
100
AcDbBlockTableRecord
  2
*Paper_Space
  0
BLOCK_RECORD
  5
204
100
AcDbSymbolTableRecord
100
AcDbBlockTableRecord
  2
_FILLED
  0
ENDTAB
  0
TABLE
  2
DIMSTYLE
  5
A
100
AcDbSymbolTable
 70
1
100
AcDbDimStyleTable
 71
0
  0
DIMSTYLE
105
205
100
AcDbSymbolTableRecord
100
AcDbDimStyleTableRecord
  2
STANDARD
 70
0
  3

  4

 40
1.0
 41
0.1
 42
0.0625
 43
0.38
 44
0.125
 45
0.0
 46
0.0
 47
0.001
 48
0.001
140
0.08
141
0.09
142
0.0
143
25.4
144
1.0
145
0.0
146
1.0
147
0.09
 71
1.0
 72
0.0
 73
1
 74
1
 75
0
 76
0
 77
0
 78
4
 79
1
170
1
171
2
172
0
173
0
174
0
175
0
176
0
177
0
178
0
270
2
179
3
271
3
272
3
273
2
274
2
275
0
280
0
281
0
282
0
283
1
284
4
285
0
286
0
287
3
288
0
340
11
278
46
341
204
342
204
343
204
344
204
  0
ENDTAB
  0
ENDSEC
  0
SECTION
  2
BLOCKS
  0
BLOCK
  5
20
100
AcDbEntity
  8
0
100
AcDbBlockBegin
  2
*Model_Space
 70
0
 10
0.0
 20
0.0
 30
0.0
  3
*Model_Space
  1

  0
ENDBLK
  5
21
100
AcDbEntity
  8
0
100
AcDbBlockEnd
  0
BLOCK
  5
1C
100
AcDbEntity
  8
0
100
AcDbBlockBegin
  2
*Paper_Space
 70
0
 10
0.0
 20
0.0
 30
0.0
  3
*Paper_Space
  1

  0
ENDBLK
  5
1D
100
AcDbEntity
  8
0
100
AcDbBlockEnd
  0
BLOCK
  5
206
100
AcDbEntity
  8
0
100
AcDbBlockBegin
  2
_FILLED
 70
64
 10
0.0
 20
0.0
  3
_FILLED
  1

  0
SOLID
  5
207
100
AcDbEntity
  8
0
  6
BYBLOCK
 62
0
100
AcDbTrace
 10
0.0
 20
0.0
 11
-1.0
 21
0.2
 12
-1.0
 22
-0.2
 13
-1.0
 23
-0.2
  0
ENDBLK
  5
208
100
AcDbEntity
  8
0
  6
BYBLOCK
 62
0
100
AcDbBlockEnd
  0
ENDSEC
  0
SECTION
  2
ENTITIES
  0
MTEXT
  5
209
100
AcDbEntity
  8
0
100
AcDbMText
 62
2
  6
CONTINUOUS
  7
STANDARD
 71
3
 72
1
 10
5.6853763508
 20
1.1948959627
 30
0.0
 11
1.0
 21
0.0
 31
0.0
 73
2
 44
0.9
  1
SCALE  .500
 40
0.08
 41
0.704
  0
LINE
  5
20A
100
AcDbEntity
  8
0
100
AcDbLine
 62
7
  6
CONTINUOUS
 10
0.0
 20
0.0
 11
0.0
 21
8.5
  0
LINE
  5
20B
100
AcDbEntity
  8
0
100
AcDbLine
 62
7
  6
CONTINUOUS
 10
0.0
 20
0.0
 11
11.0
 21
0.0
  0
LINE
  5
20C
100
AcDbEntity
  8
0
100
AcDbLine
 62
7
  6
CONTINUOUS
 10
0.0
 20
8.5
 11
11.0
 21
8.5
  0
LINE
  5
20D
100
AcDbEntity
  8
0
100
AcDbLine
 62
7
  6
CONTINUOUS
 10
11.0
 20
0.0
 11
11.0
 21
8.5
  0
LINE
  5
20E
100
AcDbEntity
  8
0
100
AcDbLine
 62
7
  6
CONTINUOUS
 10
4.9503861375
 20
2.3851987578
 11
5.9953861375
 21
2.3851987578
  0
LINE
  5
20F
100
AcDbEntity
  8
0
100
AcDbLine
 62
7
  6
CONTINUOUS
 10
4.8853872628
 20
2.3909487578
 11
6.0603850122
 21
2.3909487578
  0
LINE
  5
210
100
AcDbEntity
  8
0
100
AcDbLine
 62
7
  6
CONTINUOUS
 10
4.8853872628
 20
2.5784487578
 11
6.0603850122
 21
2.5784487578
  0
LINE
  5
211
100
AcDbEntity
  8
0
100
AcDbLine
 62
7
  6
CONTINUOUS
 10
3.3274885887
 20
3.9173863148
 11
3.5924885887
 21
3.4583928508
  0
LINE
  5
212
100
AcDbEntity
  8
0
100
AcDbLine
 62
7
  6
CONTINUOUS
 10
3.3311488427
 20
3.9310465688
 11
3.6061488427
 21
3.4547325967
  0
LINE
  5
213
100
AcDbEntity
  8
0
100
AcDbLine
 62
7
  6
CONTINUOUS
 10
3.6528861375
 20
5.9486987578
 11
3.6528861375
 21
5.7461987578
  0
LINE
  5
214
100
AcDbEntity
  8
0
100
AcDbLine
 62
7
  6
CONTINUOUS
 10
3.6678861375
 20
5.7311987578
 11
3.6678861375
 21
5.9636987578
  0
LINE
  5
215
100
AcDbEntity
  8
0
100
AcDbLine
 62
7
  6
CONTINUOUS
 10
5.9428861375
 20
5.7429128119
 11
5.4728861375
 21
5.5674487578
  0
LINE
  5
216
100
AcDbEntity
  8
0
100
AcDbLine
 62
7
  6
CONTINUOUS
 10
3.3311488427
 20
3.9310465688
 11
4.9928863595
 21
4.8904511715
  0
LINE
  5
217
100
AcDbEntity
  8
0
100
AcDbLine
 62
7
  6
CONTINUOUS
 10
3.6061488427
 20
3.4547325967
 11
4.9778872472
 21
4.2467061338
  0
LINE
  5
218
100
AcDbEntity
  8
0
100
AcDbLine
 62
7
  6
CONTINUOUS
 10
4.8853861375
 20
2.5784487578
 11
4.8853861375
 21
2.3909487578
  0
LINE
  5
219
100
AcDbEntity
  8
0
100
AcDbLine
 62
7
  6
CONTINUOUS
 10
5.0003861375
 20
5.5284487578
 11
5.0003861375
 21
4.9034414243
  0
LINE
  5
21A
100
AcDbEntity
  8
0
100
AcDbLine
 62
7
  6
CONTINUOUS
 10
5.0003861375
 20
4.2337151121
 11
5.0003861375
 21
2.5784487578
  0
LINE
  5
21B
100
AcDbEntity
  8
0
100
AcDbLine
 62
7
  6
CONTINUOUS
 10
5.0028861375
 20
6.1574487578
 11
5.0028861375
 21
5.9636987578
  0
LINE
  5
21C
100
AcDbEntity
  8
0
100
AcDbLine
 62
7
  6
CONTINUOUS
 10
5.0028861375
 20
5.7311987578
 11
5.0028861375
 21
5.5674487578
  0
LINE
  5
21D
100
AcDbEntity
  8
0
100
AcDbLine
 62
7
  6
CONTINUOUS
 10
5.9428861375
 20
6.1574487578
 11
5.9428861375
 21
5.7429128119
  0
LINE
  5
21E
100
AcDbEntity
  8
0
100
AcDbLine
 62
7
  6
CONTINUOUS
 10
5.9453861375
 20
5.5284487578
 11
5.9453861375
 21
2.5784487578
  0
LINE
  5
21F
100
AcDbEntity
  8
0
100
AcDbLine
 62
7
  6
CONTINUOUS
 10
5.9453861375
 20
5.5284487578
 11
5.0003861375
 21
5.5284487578
  0
LINE
  5
220
100
AcDbEntity
  8
0
100
AcDbLine
 62
7
  6
CONTINUOUS
 10
6.0603861375
 20
2.5784487578
 11
6.0603861375
 21
2.3909487578
  0
LINE
  5
221
100
AcDbEntity
  8
0
100
AcDbLine
 62
7
  6
CONTINUOUS
 10
5.4728861375
 20
5.5674487578
 11
5.0028861375
 21
5.5674487578
  0
LINE
  5
222
100
AcDbEntity
  8
0
100
AcDbLine
 62
7
  6
CONTINUOUS
 10
3.6678861375
 20
5.7311987578
 11
5.0028861375
 21
5.7311987578
  0
LINE
  5
223
100
AcDbEntity
  8
0
100
AcDbLine
 62
7
  6
CONTINUOUS
 10
3.6678861375
 20
5.9636987578
 11
5.0028861375
 21
5.9636987578
  0
LINE
  5
224
100
AcDbEntity
  8
0
100
AcDbLine
 62
7
  6
CONTINUOUS
 10
5.0028861375
 20
6.1574487578
 11
5.9428861375
 21
6.1574487578
  0
LINE
  5
225
100
AcDbEntity
  8
0
100
AcDbLine
 62
7
  6
CONTINUOUS
 10
5.0178861375
 20
6.1724487578
 11
5.9278861375
 21
6.1724487578
  0
ARC
  5
226
100
AcDbEntity
  8
0
100
AcDbCircle
 62
7
  6
CONTINUOUS
 10
5.4728861375
 20
5.5284487578
 40
0.45
100
AcDbArc
 50
175.0280712916
 51
180.0
  0
ARC
  5
227
100
AcDbEntity
  8
0
100
AcDbCircle
 62
7
  6
CONTINUOUS
 10
5.4728861375
 20
5.5284487578
 40
0.45
100
AcDbArc
 50
0.0
 51
25.1292793844
  0
ARC
  5
228
100
AcDbEntity
  8
0
100
AcDbCircle
 62
7
  6
CONTINUOUS
 10
4.9503861375
 20
2.4109487578
 40
0.02575
100
AcDbArc
 50
230.9593273636
 51
270.0
  0
ARC
  5
229
100
AcDbEntity
  8
0
100
AcDbCircle
 62
7
  6
CONTINUOUS
 10
5.9953861375
 20
2.4109487578
 40
0.02575
100
AcDbArc
 50
270.0
 51
309.0406726364
  0
ARC
  5
22A
100
AcDbEntity
  8
0
100
AcDbCircle
 62
7
  6
CONTINUOUS
 10
3.6678861375
 20
5.7461987578
 40
0.015
100
AcDbArc
 50
180.0
 51
270.0
  0
ARC
  5
22B
100
AcDbEntity
  8
0
100
AcDbCircle
 62
7
  6
CONTINUOUS
 10
3.6678861375
 20
5.9486987578
 40
0.015
100
AcDbArc
 50
90.0
 51
180.0
  0
ARC
  5
22C
100
AcDbEntity
  8
0
100
AcDbCircle
 62
7
  6
CONTINUOUS
 10
5.9278861375
 20
6.1574487578
 40
0.015
100
AcDbArc
 50
0.0
 51
90.0
  0
ARC
  5
22D
100
AcDbEntity
  8
0
100
AcDbCircle
 62
7
  6
CONTINUOUS
 10
5.0178861375
 20
6.1574487578
 40
0.015
100
AcDbArc
 50
90.0
 51
180.0
  0
ARC
  5
22E
100
AcDbEntity
  8
0
100
AcDbCircle
 62
7
  6
CONTINUOUS
 10
4.9853867792
 20
4.2337165634
 40
0.0149999516
100
AcDbArc
 50
359.994456058
 51
120.0048950209
  0
ARC
  5
22F
100
AcDbEntity
  8
0
100
AcDbCircle
 62
7
  6
CONTINUOUS
 10
4.9853881019
 20
4.9034410878
 40
0.0149999341
100
AcDbArc
 50
299.9941438376
 51
0.0012856323
  0
ARC
  5
230
100
AcDbEntity
  8
0
100
AcDbCircle
 62
7
  6
CONTINUOUS
 10
3.6011488427
 20
3.4633928508
 40
0.01
100
AcDbArc
 50
210.0
 51
300.0
  0
ARC
  5
231
100
AcDbEntity
  8
0
100
AcDbCircle
 62
7
  6
CONTINUOUS
 10
3.3361488427
 20
3.9223863148
 40
0.01
100
AcDbArc
 50
120.0
 51
210.0
  0
SPLINE
  5
232
100
AcDbEntity
  8
0
100
AcDbSpline
 62
7
  6
CONTINUOUS
 70
0
 71
3
 72
52
 73
48
 74
0
 42
0.0000001
 43
0.0000001
 44
0.0000000001
 40
0.0
 40
0.0
 40
0.0
 40
0.0
 40
0.0000089801
 40
0.0000340665
 40
0.0000752362
 40
0.0001324643
 40
0.0002057255
 40
0.0002949943
 40
0.0005214537
 40
0.0008116397
 40
0.0011653496
 40
0.0015823807
 40
0.0020625307
 40
0.002605593
 40
0.0032113425
 40
0.0046099803
 40
0.0062565977
 40
0.0081493475
 40
0.010286064
 40
0.0126625841
 40
0.0152739724
 40
0.0181152918
 40
0.024467977
 40
0.0316811231
 40
0.0397151213
 40
0.0485286393
 40
0.0580786766
 40
0.0683224504
 40
0.0792180035
 40
0.0907236941
 40
0.1154148102
 40
0.1421145432
 40
0.1705720514
 40
0.2005659413
 40
0.2319086827
 40
0.2644399833
 40
0.2980210021
 40
0.332535745
 40
0.3678827678
 40
0.4407431036
 40
0.5160480082
 40
0.5933792006
 40
0.6724097894
 40
0.7528655472
 40
0.8344885961
 40
0.916989741
 40
1.0
 40
1.0
 40
1.0
 40
1.0
 10
4.9778861375
 20
4.2467054931
 30
0.0
 10
4.9778869169
 20
4.2467063749
 30
0.0
 10
4.9778882044
 20
4.2467108249
 30
0.0
 10
4.9778927405
 20
4.2467194722
 30
0.0
 10
4.9778989766
 20
4.2467344806
 30
0.0
 10
4.9779081345
 20
4.2467549975
 30
0.0
 10
4.9779196062
 20
4.2467814266
 30
0.0
 10
4.9779399688
 20
4.2468281558
 30
0.0
 10
4.9779715269
 20
4.2469010266
 30
0.0
 10
4.9780167373
 20
4.2470057455
 30
0.0
 10
4.978071674
 20
4.2471334708
 30
0.0
 10
4.9781362748
 20
4.247284139
 30
0.0
 10
4.9782104599
 20
4.2474576981
 30
0.0
 10
4.978294156
 20
4.2476540884
 30
0.0
 10
4.9784248266
 20
4.2479613056
 30
0.0
 10
4.9786118091
 20
4.2484017346
 30
0.0
 10
4.9788646108
 20
4.2489974569
 30
0.0
 10
4.9791553558
 20
4.2496821544
 30
0.0
 10
4.9794839013
 20
4.2504547236
 30
0.0
 10
4.9798494289
 20
4.2513139081
 30
0.0
 10
4.9802509258
 20
4.25225814
 30
0.0
 10
4.9808557296
 20
4.2536821652
 30
0.0
 10
4.981694271
 20
4.2556621329
 30
0.0
 10
4.9827948678
 20
4.2582701472
 30
0.0
 10
4.9840175115
 20
4.2611766963
 30
0.0
 10
4.9853550423
 20
4.264367166
 30
0.0
 10
4.9867998865
 20
4.2678266616
 30
0.0
 10
4.9883444344
 20
4.271540211
 30
0.0
 10
4.9899806684
 20
4.2754932002
 30
0.0
 10
4.9923300285
 20
4.2812001619
 30
0.0
 10
4.9954439494
 20
4.2888321891
 30
0.0
 10
4.9993557414
 20
4.2985379805
 30
0.0
 10
5.0034764391
 20
4.3089087149
 30
0.0
 10
5.0077611971
 20
4.319868839
 30
0.0
 10
5.0121709509
 20
4.3313531054
 30
0.0
 10
5.0166699936
 20
4.3433063791
 30
0.0
 10
5.0212259177
 20
4.3556820667
 30
0.0
 10
5.0258086167
 20
4.3684407126
 30
0.0
 10
5.0319801354
 20
4.3860976482
 30
0.0
 10
5.0395944042
 20
4.4089122382
 30
0.0
 10
5.0483329085
 20
4.4371456794
 30
0.0
 10
5.0565566217
 20
4.4663755665
 30
0.0
 10
5.0640463508
 20
4.4964999062
 30
0.0
 10
5.0705601884
 20
4.5274275992
 30
0.0
 10
5.0758260328
 20
4.5590569631
 30
0.0
 10
5.0795416595
 20
4.5912456271
 30
0.0
 10
5.080770117
 20
4.6129187522
 30
0.0
 10
5.0810235978
 20
4.6237945817
 30
0.0
  0
SPLINE
  5
233
100
AcDbEntity
  8
0
100
AcDbSpline
 62
7
  6
CONTINUOUS
 70
0
 71
3
 72
55
 73
51
 74
0
 42
0.0000001
 43
0.0000001
 44
0.0000000001
 40
0.0
 40
0.0
 40
0.0
 40
0.0
 40
0.0965489142
 40
0.1924734726
 40
0.2399702739
 40
0.287003667
 40
0.3334518186
 40
0.3791877257
 40
0.4240823005
 40
0.4680069578
 40
0.5524425413
 40
0.6315828066
 40
0.7046187045
 40
0.7386269268
 40
0.7708524447
 40
0.8012212766
 40
0.829661942
 40
0.8561081007
 40
0.8804951915
 40
0.9027636258
 40
0.9228562322
 40
0.9407203602
 40
0.9488012369
 40
0.956307413
 40
0.9632335145
 40
0.9695744134
 40
0.975325837
 40
0.9804836452
 40
0.9850436788
 40
0.9890024188
 40
0.9907554792
 40
0.9923572388
 40
0.9938073765
 40
0.9951055709
 40
0.9962515024
 40
0.9972449555
 40
0.9980858588
 40
0.9984490854
 40
0.9987741516
 40
0.99906105
 40
0.9993097728
 40
0.9995203125
 40
0.9996926613
 40
0.9998268116
 40
0.99987956
 40
0.9999227559
 40
0.9999563984
 40
0.9999804868
 40
0.9999950202
 40
1.0
 40
1.0
 40
1.0
 40
1.0
 10
5.0810235978
 20
4.6237945817
 30
0.0
 10
5.0812383747
 20
4.6330123415
 30
0.0
 10
5.0811471821
 20
4.6514052071
 30
0.0
 10
5.0796125164
 20
4.6742874053
 30
0.0
 10
5.0774933565
 20
4.692354633
 30
0.0
 10
5.0754743111
 20
4.7056682759
 30
0.0
 10
5.073033644
 20
4.7187399947
 30
0.0
 10
5.0701914408
 20
4.731521086
 30
0.0
 10
5.066978825
 20
4.743965408
 30
0.0
 10
5.0623115295
 20
4.7598416012
 30
0.0
 10
5.0558146105
 20
4.77857726
 30
0.0
 10
5.0471502603
 20
4.79945852
 30
0.0
 10
5.0394721284
 20
4.8155042384
 30
0.0
 10
5.0333115247
 20
4.8272923412
 30
0.0
 10
5.0288662168
 20
4.8353768663
 30
0.0
 10
5.024529651
 20
4.8429123151
 30
0.0
 10
5.0203442634
 20
4.849896394
 30
0.0
 10
5.0163487926
 20
4.8563270602
 30
0.0
 10
5.012580148
 20
4.8622037887
 30
0.0
 10
5.0090695929
 20
4.8675245243
 30
0.0
 10
5.0058469446
 20
4.872288392
 30
0.0
 10
5.003347633
 20
4.8759054837
 30
0.0
 10
5.0015148587
 20
4.8785219737
 30
0.0
 10
5.000274289
 20
4.8802779289
 30
0.0
 10
4.9991235037
 20
4.8818938461
 30
0.0
 10
4.9980647737
 20
4.8833695789
 30
0.0
 10
4.9971002576
 20
4.8847050595
 30
0.0
 10
4.9962320192
 20
4.8859002791
 30
0.0
 10
4.9954621665
 20
4.8869553631
 30
0.0
 10
4.9948827227
 20
4.8877468776
 30
0.0
 10
4.9944694379
 20
4.8883099089
 30
0.0
 10
4.994197616
 20
4.8886795986
 30
0.0
 10
4.9939512596
 20
4.8890140949
 30
0.0
 10
4.993730482
 20
4.8893133669
 30
0.0
 10
4.9935353915
 20
4.8895773925
 30
0.0
 10
4.9933660774
 20
4.8898061655
 30
0.0
 10
4.9932410939
 20
4.8899747557
 30
0.0
 10
4.9931540434
 20
4.8900920103
 30
0.0
 10
4.9930984952
 20
4.8901667595
 30
0.0
 10
4.9930494369
 20
4.8902327079
 30
0.0
 10
4.9930068746
 20
4.8902898564
 30
0.0
 10
4.9929708187
 20
4.8903382135
 30
0.0
 10
4.9929412679
 20
4.8903777653
 30
0.0
 10
4.9929207238
 20
4.890405254
 30
0.0
 10
4.9929075219
 20
4.8904228008
 30
0.0
 10
4.9929001208
 20
4.8904327586
 30
0.0
 10
4.9928942297
 20
4.8904402861
 30
0.0
 10
4.9928902657
 20
4.8904461712
 30
0.0
 10
4.9928873797
 20
4.8904488016
 30
0.0
 10
4.9928866093
 20
4.8904509838
 30
0.0
 10
4.9928861375
 20
4.8904510433
 30
0.0
  0
SPLINE
  5
234
100
AcDbEntity
  8
0
100
AcDbSpline
 62
7
  6
CONTINUOUS
 70
0
 71
3
 72
47
 73
43
 74
0
 42
0.0000001
 43
0.0000001
 44
0.0000000001
 40
0.0
 40
0.0
 40
0.0
 40
0.0
 40
0.000019332
 40
0.000043497
 40
0.000077328
 40
0.000173988
 40
0.0003093121
 40
0.0004833003
 40
0.0006959525
 40
0.0009472688
 40
0.0012372491
 40
0.0019331878
 40
0.0027835902
 40
0.0037881742
 40
0.0049466557
 40
0.0062587509
 40
0.007724176
 40
0.0111138811
 40
0.01511346
 40
0.0197195993
 40
0.0249279681
 40
0.0307341941
 40
0.0371339093
 40
0.0441222955
 40
0.0598408778
 40
0.0778405744
 40
0.0980671381
 40
0.120459947
 40
0.1449555757
 40
0.1714847276
 40
0.1999765239
 40
0.230355522
 40
0.2625449426
 40
0.2964644956
 40
0.3691628556
 40
0.4477660852
 40
0.5315516658
 40
0.6197568624
 40
0.7115766297
 40
0.8061570357
 40
0.9026090472
 40
1.0
 40
1.0
 40
1.0
 40
1.0
 10
5.002886177
 20
5.9636987091
 30
0.0
 10
5.0028856926
 20
5.9636992906
 30
0.0
 10
5.0028871516
 20
5.9636955607
 30
0.0
 10
5.002887334
 20
5.963693696
 30
0.0
 10
5.002889096
 20
5.9636872049
 30
0.0
 10
5.0028913609
 20
5.9636775577
 30
0.0
 10
5.0028952837
 20
5.9636619073
 30
0.0
 10
5.0029001407
 20
5.963642154
 30
0.0
 10
5.0029061458
 20
5.9636178752
 30
0.0
 10
5.0029132188
 20
5.9635892293
 30
0.0
 10
5.0029248368
 20
5.9635421993
 30
0.0
 10
5.0029420762
 20
5.9634724065
 30
0.0
 10
5.0029660162
 20
5.9633754461
 30
0.0
 10
5.0029942718
 20
5.9632609003
 30
0.0
 10
5.0030268214
 20
5.9631287956
 30
0.0
 10
5.0030636417
 20
5.9629791615
 30
0.0
 10
5.003121257
 20
5.9627446842
 30
0.0
 10
5.003203792
 20
5.9624079832
 30
0.0
 10
5.0033152675
 20
5.9619517745
 30
0.0
 10
5.0034431774
 20
5.9614262847
 30
0.0
 10
5.0035871633
 20
5.9608319113
 30
0.0
 10
5.0037468717
 20
5.9601690961
 30
0.0
 10
5.0039219421
 20
5.9594382994
 30
0.0
 10
5.0041858609
 20
5.9583297309
 30
0.0
 10
5.0045510775
 20
5.9567784387
 30
0.0
 10
5.005027468
 20
5.9547208775
 30
0.0
 10
5.005553114
 20
5.9524065252
 30
0.0
 10
5.0061229078
 20
5.9498414291
 30
0.0
 10
5.0067316017
 20
5.9470322441
 30
0.0
 10
5.007373323
 20
5.9439859425
 30
0.0
 10
5.0080421712
 20
5.9407100224
 30
0.0
 10
5.0087318049
 20
5.9372122475
 30
0.0
 10
5.009435812
 20
5.9335008057
 30
0.0
 10
5.0104075349
 20
5.9281539186
 30
0.0
 10
5.0116148749
 20
5.9210031778
 30
0.0
 10
5.012983003
 20
5.9119010239
 30
0.0
 10
5.0142495958
 20
5.9021714623
 30
0.0
 10
5.0153650586
 20
5.8919026345
 30
0.0
 10
5.016284644
 20
5.8811900427
 30
0.0
 10
5.016970676
 20
5.8701363215
 30
0.0
 10
5.01739431
 20
5.8588511552
 30
0.0
 10
5.0174896756
 20
5.851261695
 30
0.0
 10
5.0174896756
 20
5.8474487578
 30
0.0
  0
SPLINE
  5
235
100
AcDbEntity
  8
0
100
AcDbSpline
 62
7
  6
CONTINUOUS
 70
0
 71
3
 72
51
 73
47
 74
0
 42
0.0000001
 43
0.0000001
 44
0.0000000001
 40
0.0
 40
0.0
 40
0.0
 40
0.0
 40
0.0000088524
 40
0.0000337782
 40
0.0000747504
 40
0.0001317408
 40
0.0002047217
 40
0.0002936649
 40
0.0005193261
 40
0.0008085002
 40
0.001160963
 40
0.0015764903
 40
0.0020548578
 40
0.0031992345
 40
0.004592387
 40
0.0062326258
 40
0.0081182618
 40
0.0102472305
 40
0.0126153608
 40
0.0152177487
 40
0.0180494889
 40
0.0243814636
 40
0.0315725363
 40
0.0395840451
 40
0.0483751188
 40
0.0579028904
 40
0.0681247605
 40
0.0789990066
 40
0.0904842619
 40
0.115139158
 40
0.1418112631
 40
0.1702493426
 40
0.2002316956
 40
0.2315705774
 40
0.264105777
 40
0.2976970286
 40
0.3322281597
 40
0.3675963497
 40
0.4405114196
 40
0.5158811017
 40
0.5932793941
 40
0.6723710485
 40
0.7528731917
 40
0.8345195911
 40
0.9170165742
 40
1.0
 40
1.0
 40
1.0
 40
1.0
 10
5.0003861375
 20
4.2337151121
 30
0.0
 10
5.0003863205
 20
4.2337162873
 30
0.0
 10
5.0003883594
 20
4.233720431
 30
0.0
 10
5.0003914535
 20
4.2337299404
 30
0.0
 10
5.0003975299
 20
4.2337453278
 30
0.0
 10
5.0004055647
 20
4.2337668307
 30
0.0
 10
5.0004160533
 20
4.2337943164
 30
0.0
 10
5.0004345607
 20
4.2338429908
 30
0.0
 10
5.0004634918
 20
4.2339187831
 30
0.0
 10
5.000505102
 20
4.2340276318
 30
0.0
 10
5.0005559106
 20
4.2341602764
 30
0.0
 10
5.0006158941
 20
4.2343166277
 30
0.0
 10
5.0007141253
 20
4.23457227
 30
0.0
 10
5.0008597429
 20
4.2349504228
 30
0.0
 10
5.0010615174
 20
4.2354742362
 30
0.0
 10
5.0012989218
 20
4.2360910555
 30
0.0
 10
5.0015714573
 20
4.2368002887
 30
0.0
 10
5.0018785008
 20
4.2376010343
 30
0.0
 10
5.0022195104
 20
4.2384918966
 30
0.0
 10
5.0025938228
 20
4.239471118
 30
0.0
 10
5.0031577217
 20
4.2409480421
 30
0.0
 10
5.0039405629
 20
4.2430013263
 30
0.0
 10
5.0049689115
 20
4.2457058366
 30
0.0
 10
5.006111136
 20
4.2487205328
 30
0.0
 10
5.007360154
 20
4.2520305061
 30
0.0
 10
5.0087087621
 20
4.2556203239
 30
0.0
 10
5.010149716
 20
4.2594744427
 30
0.0
 10
5.0116759413
 20
4.2635774665
 30
0.0
 10
5.0138679187
 20
4.2695018999
 30
0.0
 10
5.0167733546
 20
4.2774256023
 30
0.0
 10
5.0204172861
 20
4.2875045227
 30
0.0
 10
5.0242512932
 20
4.2982757373
 30
0.0
 10
5.0282337321
 20
4.3096595185
 30
0.0
 10
5.032326169
 20
4.3215878047
 30
0.0
 10
5.0364941511
 20
4.334002535
 30
0.0
 10
5.0407064459
 20
4.3468544837
 30
0.0
 10
5.0449337088
 20
4.3601016924
 30
0.0
 10
5.0506116269
 20
4.3784313859
 30
0.0
 10
5.0575835213
 20
4.4021037275
 30
0.0
 10
5.0655194884
 20
4.431372816
 30
0.0
 10
5.0729060652
 20
4.4616415339
 30
0.0
 10
5.0795302895
 20
4.4927931998
 30
0.0
 10
5.0851601376
 20
4.5247217307
 30
0.0
 10
5.0895394163
 20
4.5573107251
 30
0.0
 10
5.0923905214
 20
4.5904059634
 30
0.0
 10
5.0930808632
 20
4.6126447898
 30
0.0
 10
5.0930809067
 20
4.6237945817
 30
0.0
  0
SPLINE
  5
236
100
AcDbEntity
  8
0
100
AcDbSpline
 62
7
  6
CONTINUOUS
 70
0
 71
3
 72
13
 73
9
 74
0
 42
0.0000001
 43
0.0000001
 44
0.0000000001
 40
0.0
 40
0.0
 40
0.0
 40
0.0
 40
0.1938408125
 40
0.3802404382
 40
0.5522330702
 40
0.7035386558
 40
0.9221550988
 40
1.0
 40
1.0
 40
1.0
 40
1.0
 10
5.0174896756
 20
5.8474487578
 30
0.0
 10
5.0174896756
 20
5.8398602367
 30
0.0
 10
5.0171169589
 20
5.8249717874
 30
0.0
 10
5.0155232208
 20
5.8034040335
 30
0.0
 10
5.0131591102
 20
5.7835845015
 30
0.0
 10
5.0098197697
 20
5.7626298565
 30
0.0
 10
5.0063103899
 20
5.7454470008
 30
0.0
 10
5.0036178982
 20
5.7341569662
 30
0.0
 10
5.0028861771
 20
5.7311988065
 30
0.0
  0
SPLINE
  5
237
100
AcDbEntity
  8
0
100
AcDbSpline
 62
7
  6
CONTINUOUS
 70
0
 71
3
 72
41
 73
37
 74
0
 42
0.0000001
 43
0.0000001
 44
0.0000000001
 40
0.0
 40
0.0
 40
0.0
 40
0.0
 40
0.0954806376
 40
0.1903797347
 40
0.2839752951
 40
0.3300245697
 40
0.3754157922
 40
0.4200283024
 40
0.4637394256
 40
0.5064287391
 40
0.5479783088
 40
0.6272027618
 40
0.7005759588
 40
0.7673367842
 40
0.8267982562
 40
0.8535943002
 40
0.8783348143
 40
0.9009517711
 40
0.9213800391
 40
0.939560098
 40
0.9554361035
 40
0.9689586491
 40
0.9748231839
 40
0.9800834634
 40
0.9847347553
 40
0.9887729495
 40
0.9921954759
 40
0.9949999834
 40
0.9971841506
 40
0.9980430513
 40
0.9987463034
 40
0.9992937656
 40
0.9996852966
 40
0.9998225438
 40
0.9999207551
 40
1.0
 40
1.0
 40
1.0
 40
1.0
 10
5.0930809067
 20
4.6237945817
 30
0.0
 10
5.0930809062
 20
4.6333341316
 30
0.0
 10
5.0925753897
 20
4.6523599695
 30
0.0
 10
5.0901833016
 20
4.6806470288
 30
0.0
 10
5.0867793003
 20
4.7038489979
 30
0.0
 10
5.0832303323
 20
4.7219948502
 30
0.0
 10
5.0802016863
 20
4.7352487176
 30
0.0
 10
5.0768205896
 20
4.74817554
 30
0.0
 10
5.073120364
 20
4.7607333455
 30
0.0
 10
5.0691426223
 20
4.7728843357
 30
0.0
 10
5.0636155538
 20
4.7882543602
 30
0.0
 10
5.0563102848
 20
4.8062341859
 30
0.0
 10
5.0470638306
 20
4.8261128169
 30
0.0
 10
5.03787983
 20
4.8438198062
 30
0.0
 10
5.030347259
 20
4.8571270285
 30
0.0
 10
5.0246571747
 20
4.866646249
 30
0.0
 10
5.0207690474
 20
4.8729530084
 30
0.0
 10
5.0171439602
 20
4.8786738385
 30
0.0
 10
5.0138139993
 20
4.8838052323
 30
0.0
 10
5.0108069961
 20
4.8883429872
 30
0.0
 10
5.0081488305
 20
4.8922839863
 30
0.0
 10
5.0061582096
 20
4.8951909253
 30
0.0
 10
5.0047577648
 20
4.8972164773
 30
0.0
 10
5.0038578663
 20
4.8985105436
 30
0.0
 10
5.0030593952
 20
4.8996528823
 30
0.0
 10
5.0023640905
 20
4.9006433098
 30
0.0
 10
5.0017732818
 20
4.9014816515
 30
0.0
 10
5.0012881639
 20
4.9021678606
 30
0.0
 10
5.0009505659
 20
4.9026446827
 30
0.0
 10
5.0007342614
 20
4.9029501519
 30
0.0
 10
5.0006124145
 20
4.9031221361
 30
0.0
 10
5.0005176003
 20
4.9032560475
 30
0.0
 10
5.0004553395
 20
4.9033437139
 30
0.0
 10
5.0004192273
 20
4.9033949044
 30
0.0
 10
5.0004008363
 20
4.9034204018
 30
0.0
 10
5.0003909763
 20
4.9034351576
 30
0.0
 10
5.0003861375
 20
4.9034414243
 30
0.0
  0
ENDSEC
  0
SECTION
  2
OBJECTS
  0
DICTIONARY
  5
C
100
AcDbDictionary
280
0
281
1
  3
ACAD_GROUP
350
D
  3
ACAD_MLINESTYLE
350
17
  3
ACAD_LAYOUT
350
1A
  3
ACAD_PLOTSETTINGS
350
19
  3
ACAD_PLOTSTYLENAME
350
E
  0
DICTIONARY
  5
D
102
{ACAD_REACTORS
330
C
102
}
100
AcDbDictionary
280
0
281
1
  0
ACDBDICTIONARYWDFLT
  5
E
102
{ACAD_REACTORS
330
C
102
}
100
AcDbDictionary
281
1
  3
Normal
350
F
100
AcDbDictionaryWithDefault
340
F
  0
DICTIONARY
  5
17
102
{ACAD_REACTORS
330
C
102
}
100
AcDbDictionary
280
0
281
1
  3
Standard
350
18
  0
DICTIONARY
  5
19
102
{ACAD_REACTORS
330
C
102
}
100
AcDbDictionary
281
1
  0
DICTIONARY
  5
1A
102
{ACAD_REACTORS
330
C
102
}
100
AcDbDictionary
281
1
  3
Model
350
238
  3
Layout1
350
239
  0
ACDBPLACEHOLDER
  5
F
102
{ACAD_REACTORS
330
E
102
}
  0
MLINESTYLE
  5
18
102
{ACAD_REACTORS
330
17
102
}
100
AcDbMlineStyle
  2
STANDARD
 70
0
  3

 62
256
 51
90.0
 52
90.0
 71
2
 49
0.5
 62
256
  6
BYLAYER
 49
-0.5
 62
256
  6
BYLAYER
  0
LAYOUT
  5
238
102
{ACAD_REACTORS
330
1A
102
}
100
AcDbPlotSettings
  1

  2
none_device
  4
ANSI_A_(11.00_x_8.50_Inches)
  6

 40
0.0
 41
0.0
 42
0.0
 43
0.0
 44
279.4
 45
215.9
 46
0.0
 47
0.0
 48
0.0
 49
0.0
140
0.0
141
0.0
142
1.0
143
1.0
 70
1024
 72
0
 73
0
 74
0
  7

 75
0
147
1.0
148
0.0
149
0.0
100
AcDbLayout
  1
Model
 70
0
 71
0
 10
0.0
 20
0.0
 11
11.0
 21
8.5
 12
0.0
 22
0.0
 32
0.0
 14
0.0
 24
0.0
 34
0.0
 15
0.0
 25
0.0
 35
0.0
146
0.0
 13
0.0
 23
0.0
 33
0.0
 16
1.0
 26
0.0
 36
0.0
 17
0.0
 27
1.0
 37
0.0
 76
0
330
202
345
0
346
0
  0
LAYOUT
  5
239
102
{ACAD_REACTORS
330
1A
102
}
100
AcDbPlotSettings
  1

  2
none_device
  4
ANSI_A_(11.00_x_8.50_Inches)
  6

 40
0.0
 41
0.0
 42
0.0
 43
0.0
 44
279.4
 45
215.9
 46
0.0
 47
0.0
 48
0.0
 49
0.0
140
0.0
141
0.0
142
1.0
143
1.0
 70
0
 72
0
 73
0
 74
0
  7

 75
0
147
1.0
148
0.0
149
0.0
100
AcDbLayout
  1
Layout1
 70
0
 71
1
 10
0.0
 20
0.0
 11
11.0
 21
8.5
 12
0.0
 22
0.0
 32
0.0
 14
0.0
 24
0.0
 34
0.0
 15
0.0
 25
0.0
 35
0.0
146
0.0
 13
0.0
 23
0.0
 33
0.0
 16
1.0
 26
0.0
 36
0.0
 17
0.0
 27
1.0
 37
0.0
 76
0
330
203
345
0
346
0
  0
ENDSEC
  0
EOF
