  0
SECTION
  2
HEADER
  9
$ACADVER
  1
AC1021
  9
$DWGCODEPAGE
  3
ANSI_1252
  9
$EXTMAX
 10
46.811023622
 20
33.1102362205
 30
0.0
  9
$EXTMIN
 10
0.0
 20
0.0
 30
0.0
  9
$LIMMIN
 10
0.0
 20
0.0
  9
$LIMMAX
 10
46.811023622
 20
33.1102362205
  9
$VIEWCTR
 10
23.405511811
 20
16.5551181102
  9
$VIEWSIZE
 40
33.1102362205
  9
$CLAYER
  8
0
  9
$LTSCALE
 40
2.5746062992
  9
$CELTYPE
  6
BYLAYER
  9
$DIMSCALE
 40
1.0
  9
$DIMASZ
 40
0.1875
  9
$DIMEXO
 40
0.2925688976
  9
$DIMDLI
 40
1.7788188976
  9
$DIMEXE
 40
0.8425984252
  9
$DIMCEN
 40
0.4212992126
  9
$DIMLFAC
 40
1.0
  9
$DIMBLK
  1
_CLOSED
  9
$DIMTXT
 40
0.15625
  9
$DIMTOL
 70
0
  9
$DIMLIM
 70
0
  9
$DIMTFAC
 40
1.0
  9
$PDMODE
 70
3
  9
$PDSIZE
 40
0.3125
  9
$HANDSEED
  5
226
  9
$TILEMODE
 70
1
  9
$MEASUREMENT
 70
0
  9
$INSUNITS
 70
1
  0
ENDSEC
  0
SECTION
  2
CLASSES
  0
CLASS
  1
ACDBDICTIONARYWDFLT
  2
AcDbDictionaryWithDefault
  3
AutoCAD 2000
 90
0
 91
1
280
0
281
0
  0
CLASS
  1
ACDBPLACEHOLDER
  2
AcDbPlaceHolder
  3
AutoCAD 2000
 90
0
 91
1
280
0
281
0
  0
CLASS
  1
LAYOUT
  2
AcDbLayout
  3
AutoCAD 2000
 90
0
 91
0
280
0
281
0
  0
ENDSEC
  0
SECTION
  2
TABLES
  0
TABLE
  2
VPORT
  5
8
100
AcDbSymbolTable
 70
2
  0
VPORT
  5
1F4
100
AcDbSymbolTableRecord
100
AcDbViewportTableRecord
  2
*ACTIVE
 70
0
 10
0.0
 20
0.0
 11
1.0
 21
1.0
 12
23.405511811
 22
16.5551181102
 13
0.0
 23
0.0
 14
1.0
 24
1.0
 15
0.0
 25
0.0
 16
0.0
 26
0.0
 36
1.0
 17
0.0
 27
0.0
 37
0.0
 40
33.1102362205
 41
1.4137931034
 42
50.0
 43
0.0
 44
0.0
 50
0.0
 51
0.0
 71
0
 72
100
 73
1
 74
1
 75
0
 76
0
 77
0
 78
0
  0
ENDTAB
  0
TABLE
  2
LTYPE
  5
5
100
AcDbSymbolTable
 70
6
  0
LTYPE
  5
14
100
AcDbSymbolTableRecord
100
AcDbLinetypeTableRecord
  2
BYBLOCK
 70
0
  3

 72
65
 73
0
 40
0.0
  0
LTYPE
  5
15
100
AcDbSymbolTableRecord
100
AcDbLinetypeTableRecord
  2
BYLAYER
 70
0
  3

 72
65
 73
0
 40
0.0
  0
LTYPE
  5
16
100
AcDbSymbolTableRecord
100
AcDbLinetypeTableRecord
  2
CONTINUOUS
 70
64
  3
Solid line
 72
65
 73
0
 40
0.0
  0
LTYPE
  5
1F5
100
AcDbSymbolTableRecord
100
AcDbLinetypeTableRecord
  2
CENTER
 70
64
  3
____ _ ____ _ ____ _ ____ _ ____ _ ____ _ ____
 72
65
 73
4
 40
0.6
 49
0.375
 74
0
 49
-0.075
 74
0
 49
0.075
 74
0
 49
-0.075
 74
0
  0
LTYPE
  5
1F6
100
AcDbSymbolTableRecord
100
AcDbLinetypeTableRecord
  2
HIDDEN
 70
64
  3
- - - - - - - - - - - - - - - - - - - -
 72
65
 73
2
 40
0.2
 49
0.1
 74
0
 49
-0.1
 74
0
  0
LTYPE
  5
1F7
100
AcDbSymbolTableRecord
100
AcDbLinetypeTableRecord
  2
PHANTOM
 70
64
  3
_____ _ _ _____ _ _ _____ _ _ _____
 72
65
 73
6
 40
0.8
 49
0.45
 74
0
 49
-0.05
 74
0
 49
0.1
 74
0
 49
-0.05
 74
0
 49
0.1
 74
0
 49
-0.05
 74
0
  0
LTYPE
  5
1F8
100
AcDbSymbolTableRecord
100
AcDbLinetypeTableRecord
  2
DOT
 70
64
  3
. . . . . . . . . . . . . . . . . . . .
 72
65
 73
2
 40
0.2
 49
0.1
 74
0
 49
-0.1
 74
0
  0
LTYPE
  5
1F9
100
AcDbSymbolTableRecord
100
AcDbLinetypeTableRecord
  2
DASHED
 70
64
  3
- - - - - - - - - - - - - - - - - - - -
 72
65
 73
2
 40
0.2
 49
0.1
 74
0
 49
-0.1
 74
0
  0
ENDTAB
  0
TABLE
  2
LAYER
  5
2
100
AcDbSymbolTable
 70
36
  0
LAYER
  5
10
100
AcDbSymbolTableRecord
100
AcDbLayerTableRecord
  2
0
 70
0
 62
7
  6
CONTINUOUS
370
-3
390
F
  0
LAYER
  5
1FA
100
AcDbSymbolTableRecord
100
AcDbLayerTableRecord
  2
DEFAULT_1
 70
0
 62
7
  6
CENTER
370
-3
390
F
  0
LAYER
  5
1FB
100
AcDbSymbolTableRecord
100
AcDbLayerTableRecord
  2
DEFAULT_2
 70
0
 62
8
  6
HIDDEN
370
-3
390
F
  0
LAYER
  5
1FC
100
AcDbSymbolTableRecord
100
AcDbLayerTableRecord
  2
DEFAULT_3
 70
0
 62
7
  6
PHANTOM
370
-3
390
F
  0
LAYER
  5
1FD
100
AcDbSymbolTableRecord
100
AcDbLayerTableRecord
  2
DEFAULT_COORDINATE_SYSTEM
 70
0
 62
7
  6
CONTINUOUS
370
-3
390
F
  0
LAYER
  5
1FE
100
AcDbSymbolTableRecord
100
AcDbLayerTableRecord
  2
DEFAULT_DATUM_AXES
 70
0
 62
7
  6
CONTINUOUS
370
-3
390
F
  0
LAYER
  5
1FF
100
AcDbSymbolTableRecord
100
AcDbLayerTableRecord
  2
DEFAULT_DATUM_CURVES
 70
0
 62
7
  6
CONTINUOUS
370
-3
390
F
  0
LAYER
  5
200
100
AcDbSymbolTableRecord
100
AcDbLayerTableRecord
  2
DEFAULT_DATUM_PLANES
 70
0
 62
7
  6
CONTINUOUS
370
-3
390
F
  0
ENDTAB
  0
TABLE
  2
STYLE
  5
3
100
AcDbSymbolTable
 70
1
  0
STYLE
  5
11
100
AcDbSymbolTableRecord
100
AcDbTextStyleTableRecord
  2
STANDARD
 70
0
 40
0.0
 41
0.8
 50
0.0
 71
0
 42
0.2
  3
txt
  4

  0
STYLE
  5
201
100
AcDbSymbolTableRecord
100
AcDbTextStyleTableRecord
  2
TEXTSTYLE_1
 70
0
 40
0.0
 41
0.8
 50
0.0
 71
0
 42
0.2
  3
gdt
  4

  0
ENDTAB
  0
TABLE
  2
VIEW
  5
6
100
AcDbSymbolTable
 70
0
  0
ENDTAB
  0
TABLE
  2
UCS
  5
7
100
AcDbSymbolTable
 70
0
  0
ENDTAB
  0
TABLE
  2
APPID
  5
9
100
AcDbSymbolTable
 70
1
  0
APPID
  5
202
100
AcDbSymbolTableRecord
100
AcDbRegAppTableRecord
  2
ACAD
 70
0
  0
ENDTAB
  0
TABLE
  2
BLOCK_RECORD
  5
1
100
AcDbSymbolTable
 70
0
  0
BLOCK_RECORD
  5
203
100
AcDbSymbolTableRecord
100
AcDbBlockTableRecord
  2
*Model_Space
  0
BLOCK_RECORD
  5
204
100
AcDbSymbolTableRecord
100
AcDbBlockTableRecord
  2
*Paper_Space
  0
ENDTAB
  0
TABLE
  2
DIMSTYLE
  5
A
100
AcDbSymbolTable
 70
1
100
AcDbDimStyleTable
 71
0
  0
DIMSTYLE
105
205
100
AcDbSymbolTableRecord
100
AcDbDimStyleTableRecord
  2
STANDARD
 70
0
  3

  4

 40
1.0
 41
0.1875
 42
0.0625
 43
0.38
 44
0.18
 45
0.0
 46
0.0
 47
0.001
 48
0.001
140
0.15625
141
0.09
142
0.0
143
25.4
144
1.0
145
0.0
146
1.0
147
0.09
 71
0.0
 72
0.0
 73
1
 74
1
 75
0
 76
0
 77
0
 78
4
170
0
171
2
172
0
173
0
174
0
175
0
176
0
177
0
178
0
270
2
271
3
272
3
273
2
274
2
275
0
280
0
281
0
282
0
283
1
284
4
285
0
286
0
287
3
288
0
340
11
  0
ENDTAB
  0
ENDSEC
  0
SECTION
  2
BLOCKS
  0
BLOCK
  5
20
100
AcDbEntity
  8
0
100
AcDbBlockBegin
  2
*Model_Space
 70
0
 10
0.0
 20
0.0
 30
0.0
  3
*Model_Space
  1

  0
ENDBLK
  5
21
100
AcDbEntity
  8
0
100
AcDbBlockEnd
  0
BLOCK
  5
1C
100
AcDbEntity
  8
0
100
AcDbBlockBegin
  2
*Paper_Space
 70
0
 10
0.0
 20
0.0
 30
0.0
  3
*Paper_Space
  1

  0
ENDBLK
  5
1D
100
AcDbEntity
  8
0
100
AcDbBlockEnd
  0
ENDSEC
  0
SECTION
  2
ENTITIES
  0
LINE
  5
206
100
AcDbEntity
  8
0
100
AcDbLine
 62
6
  6
CONTINUOUS
 10
5.6136813087
 20
17.3011709061
 11
5.6136813087
 21
17.6761709061
  0
LINE
  5
207
100
AcDbEntity
  8
0
100
AcDbLine
 62
6
  6
CONTINUOUS
 10
6.1449313087
 20
17.3011709061
 11
6.1449313087
 21
14.4106709061
  0
LINE
  5
208
100
AcDbEntity
  8
0
100
AcDbLine
 62
6
  6
CONTINUOUS
 10
7.4574313087
 20
17.3011709061
 11
7.4574313087
 21
16.8431709061
  0
LINE
  5
209
100
AcDbEntity
  8
0
100
AcDbLine
 62
6
  6
CONTINUOUS
 10
7.4574313087
 20
16.6431709061
 11
7.4574313087
 21
15.2906709061
  0
LINE
  5
20A
100
AcDbEntity
  8
0
100
AcDbLine
 62
6
  6
CONTINUOUS
 10
7.4574313087
 20
14.6556709061
 11
7.4574313087
 21
14.4106709061
  0
LINE
  5
20B
100
AcDbEntity
  8
0
100
AcDbLine
 62
6
  6
CONTINUOUS
 10
7.9886813087
 20
17.3011709061
 11
7.9886813087
 21
17.6761709061
  0
LINE
  5
20C
100
AcDbEntity
  8
0
100
AcDbLine
 62
6
  6
CONTINUOUS
 10
7.4574313087
 20
14.4106709061
 11
6.1449313087
 21
14.4106709061
  0
LINE
  5
20D
100
AcDbEntity
  8
0
100
AcDbLine
 62
6
  6
CONTINUOUS
 10
36.9574313087
 20
14.4106709061
 11
38.2699313087
 21
14.4106709061
  0
LINE
  5
20E
100
AcDbEntity
  8
0
100
AcDbLine
 62
6
  6
CONTINUOUS
 10
7.455026944
 20
14.6606709061
 11
36.9598356767
 21
14.6606709061
  0
LINE
  5
20F
100
AcDbEntity
  8
0
100
AcDbLine
 62
6
  6
CONTINUOUS
 10
7.4550269413
 20
15.2856709061
 11
36.9598356677
 21
15.2856709061
  0
LINE
  5
210
100
AcDbEntity
  8
0
100
AcDbLine
 62
6
  6
CONTINUOUS
 10
5.6136831142
 20
17.3011709061
 11
7.9886795033
 21
17.3011709061
  0
LINE
  5
211
100
AcDbEntity
  8
0
100
AcDbLine
 62
6
  6
CONTINUOUS
 10
36.4261831142
 20
17.3011709061
 11
38.8011795033
 21
17.3011709061
  0
LINE
  5
212
100
AcDbEntity
  8
0
100
AcDbLine
 62
6
  6
CONTINUOUS
 10
5.6136831142
 20
17.6761709061
 11
7.9886795033
 21
17.6761709061
  0
LINE
  5
213
100
AcDbEntity
  8
0
100
AcDbLine
 62
6
  6
CONTINUOUS
 10
36.4261831142
 20
17.6761709061
 11
38.8011795033
 21
17.6761709061
  0
LINE
  5
214
100
AcDbEntity
  8
0
100
AcDbLine
 62
6
  6
CONTINUOUS
 10
38.6586813087
 20
17.6776709061
 11
36.5686813087
 21
17.6776709061
  0
LINE
  5
215
100
AcDbEntity
  8
0
100
AcDbLine
 62
6
  6
CONTINUOUS
 10
7.8461813087
 20
17.6776709061
 11
5.7561813087
 21
17.6776709061
  0
LINE
  5
216
100
AcDbEntity
  8
0
100
AcDbLine
 62
6
  6
CONTINUOUS
 10
36.4261813087
 20
17.3011709061
 11
36.4261813087
 21
17.6761709061
  0
LINE
  5
217
100
AcDbEntity
  8
0
100
AcDbLine
 62
6
  6
CONTINUOUS
 10
36.9574313087
 20
17.3011709061
 11
36.9574313087
 21
16.8431709061
  0
LINE
  5
218
100
AcDbEntity
  8
0
100
AcDbLine
 62
6
  6
CONTINUOUS
 10
36.9574313087
 20
16.6431709061
 11
36.9574313087
 21
15.2906709061
  0
LINE
  5
219
100
AcDbEntity
  8
0
100
AcDbLine
 62
6
  6
CONTINUOUS
 10
36.9574313087
 20
14.6556709061
 11
36.9574313087
 21
14.4106709061
  0
LINE
  5
21A
100
AcDbEntity
  8
0
100
AcDbLine
 62
6
  6
CONTINUOUS
 10
38.2699313087
 20
17.3011709061
 11
38.2699313087
 21
14.4106709061
  0
LINE
  5
21B
100
AcDbEntity
  8
0
100
AcDbLine
 62
6
  6
CONTINUOUS
 10
38.8011813087
 20
17.3011709061
 11
38.8011813087
 21
17.6761709061
  0
ARC
  5
21C
100
AcDbEntity
  8
0
100
AcDbCircle
 62
6
  6
CONTINUOUS
 10
38.6586813087
 20
17.6261709061
 40
0.0515
100
AcDbArc
 50
76.8688656495
 51
90.0
  0
ARC
  5
21D
100
AcDbEntity
  8
0
100
AcDbCircle
 62
6
  6
CONTINUOUS
 10
36.5686813087
 20
17.6261709061
 40
0.0515
100
AcDbArc
 50
90.0
 51
103.1311343505
  0
ARC
  5
21E
100
AcDbEntity
  8
0
100
AcDbCircle
 62
6
  6
CONTINUOUS
 10
7.8461813087
 20
17.6261709061
 40
0.0515
100
AcDbArc
 50
76.8688656495
 51
90.0
  0
ARC
  5
21F
100
AcDbEntity
  8
0
100
AcDbCircle
 62
6
  6
CONTINUOUS
 10
5.7561813087
 20
17.6261709061
 40
0.0515
100
AcDbArc
 50
90.0
 51
103.1311343505
  0
SPLINE
  5
220
100
AcDbEntity
  8
0
100
AcDbSpline
 62
6
  6
CONTINUOUS
 70
0
 71
3
 72
13
 73
9
 74
7
 42
0.0000001
 43
0.0000001
 44
0.0000000001
 12
-0.0263107436
 22
0.1988474745
 32
0.0
 13
0.0263107635
 23
0.198847475
 33
0.0
 40
0.0
 40
0.0
 40
0.0
 40
0.0
 40
0.1532993796
 40
0.3145679581
 40
0.4999957907
 40
0.6854258949
 40
0.84669551
 40
1.0
 40
1.0
 40
1.0
 40
1.0
 10
7.4574313087
 20
16.6431709061
 30
0.0
 10
7.4560868352
 20
16.653331971
 30
0.0
 10
7.4537301466
 20
16.6742365587
 30
0.0
 10
7.4513421874
 20
16.7075895089
 30
0.0
 10
7.4504506727
 20
16.7431702131
 30
0.0
 10
7.451342124
 20
16.7787509886
 30
0.0
 10
7.4537300697
 20
16.8121045043
 30
0.0
 10
7.4560867893
 20
16.8330095026
 30
0.0
 10
7.4574313087
 20
16.8431709061
 30
0.0
 11
7.4574313087
 21
16.6431709061
 31
0.0
 11
7.4539927472
 21
16.6737257586
 31
0.0
 11
7.4516901619
 21
16.7059898325
 31
0.0
 11
7.4507613256
 21
16.7431700616
 31
0.0
 11
7.4516901037
 21
16.7803507479
 31
0.0
 11
7.4539926534
 21
16.8126150328
 31
0.0
 11
7.4574313087
 21
16.8431709061
 31
0.0
  0
SPLINE
  5
221
100
AcDbEntity
  8
0
100
AcDbSpline
 62
7
  6
CONTINUOUS
 70
0
 71
3
 72
25
 73
21
 74
19
 42
0.0000001
 43
0.0000001
 44
0.0000000001
 12
-0.2879660088
 22
0.5953036869
 32
0.0
 13
0.2879659729
 23
0.5953037045
 33
0.0
 40
0.0
 40
0.0
 40
0.0
 40
0.0
 40
0.0412364607
 40
0.1530973869
 40
0.2284921714
 40
0.2698771293
 40
0.3132921436
 40
0.3583967461
 40
0.4048299377
 40
0.4521790499
 40
0.4999998761
 40
0.5478206992
 40
0.5951698404
 40
0.6416030379
 40
0.6867076673
 40
0.7301227077
 40
0.7715077009
 40
0.8469023898
 40
0.9587634648
 40
1.0
 40
1.0
 40
1.0
 40
1.0
 10
7.4574313087
 20
14.6556709061
 30
0.0
 10
7.4534730757
 20
14.6638536452
 30
0.0
 10
7.4391220683
 20
14.6944121895
 30
0.0
 10
7.4198519995
 20
14.7410184394
 30
0.0
 10
7.4039915431
 20
14.7889052586
 30
0.0
 10
7.3946340676
 20
14.8229710949
 30
0.0
 10
7.3881676297
 20
14.8508819072
 30
0.0
 10
7.3827467603
 20
14.8801494766
 30
0.0
 10
7.3786552505
 20
14.9105098819
 30
0.0
 10
7.3760902483
 20
14.9416400412
 30
0.0
 10
7.3752287488
 20
14.9731708232
 30
0.0
 10
7.3760902449
 20
15.0047016115
 30
0.0
 10
7.3786552305
 20
15.0358317793
 30
0.0
 10
7.3827467428
 20
15.066192198
 30
0.0
 10
7.3881676012
 20
15.0954597826
 30
0.0
 10
7.3946340425
 20
15.1233706142
 30
0.0
 10
7.4039915101
 20
15.1574364449
 30
0.0
 10
7.4198519692
 20
15.2053232837
 30
0.0
 10
7.4391220431
 20
15.251929562
 30
0.0
 10
7.4534730691
 20
15.2824881521
 30
0.0
 10
7.4574313087
 20
15.2906709061
 30
0.0
 11
7.4574313087
 21
14.6556709061
 31
0.0
 11
7.4458466754
 21
14.6803639544
 31
0.0
 11
7.4177767494
 21
14.7488219562
 31
0.0
 11
7.4021655966
 21
14.7961846344
 31
0.0
 11
7.3949270466
 21
14.8225839052
 31
0.0
 11
7.3884563565
 21
14.8505618231
 31
0.0
 11
7.3830381427
 21
14.8798996894
 31
0.0
 11
7.3789430589
 21
14.9103382366
 31
0.0
 11
7.3763835798
 21
14.9415520831
 31
0.0
 11
7.375516862
 21
14.9731708239
 31
0.0
 11
7.3763835738
 21
15.0047895628
 31
0.0
 11
7.3789430424
 21
15.0360034293
 31
0.0
 11
7.3830381221
 21
15.0664419811
 31
0.0
 11
7.3884563301
 21
15.0957798665
 31
0.0
 11
7.3949270204
 21
15.1237578021
 31
0.0
 11
7.4021655731
 21
15.1501570964
 31
0.0
 11
7.4177767011
 21
15.1975197162
 31
0.0
 11
7.4458466564
 21
15.2659778124
 31
0.0
 11
7.4574313087
 21
15.2906709061
 31
0.0
  0
SPLINE
  5
222
100
AcDbEntity
  8
0
100
AcDbSpline
 62
7
  6
CONTINUOUS
 70
0
 71
3
 72
25
 73
21
 74
19
 42
0.0000001
 43
0.0000001
 44
0.0000000001
 12
0.2879659848
 22
-0.5953036981
 32
0.0
 13
-0.287965975
 23
-0.5953037035
 33
0.0
 40
0.0
 40
0.0
 40
0.0
 40
0.0
 40
0.0412364929
 40
0.1530974275
 40
0.2284922035
 40
0.2698771682
 40
0.3132921849
 40
0.3583967904
 40
0.4048299794
 40
0.4521790934
 40
0.4999999154
 40
0.5478207362
 40
0.5951698716
 40
0.6416030668
 40
0.6867076912
 40
0.7301227284
 40
0.771507717
 40
0.8469024034
 40
0.9587634691
 40
1.0
 40
1.0
 40
1.0
 40
1.0
 10
36.9574313087
 20
15.2906709061
 30
0.0
 10
36.9613895445
 20
15.2824881606
 30
0.0
 10
36.9757405547
 20
15.2519296076
 30
0.0
 10
36.9950106258
 20
15.205323351
 30
0.0
 10
37.0108710815
 20
15.1574365301
 30
0.0
 10
37.0202285556
 20
15.1233706932
 30
0.0
 10
37.0266949942
 20
15.0954598783
 30
0.0
 10
37.0321158605
 20
15.0661923077
 30
0.0
 10
37.0362073712
 20
15.035831902
 30
0.0
 10
37.0387723694
 20
15.0047017435
 30
0.0
 10
37.0396338693
 20
14.9731709625
 30
0.0
 10
37.0387723719
 20
14.941640177
 30
0.0
 10
37.0362073842
 20
14.9105100117
 30
0.0
 10
37.0321158724
 20
14.8801495958
 30
0.0
 10
37.0266950126
 20
14.8508820138
 30
0.0
 10
37.0202285717
 20
14.822971185
 30
0.0
 10
37.0108711041
 20
14.7889053567
 30
0.0
 10
36.9950106457
 20
14.7410185215
 30
0.0
 10
36.9757405729
 20
14.6944122466
 30
0.0
 10
36.961389548
 20
14.6638536593
 30
0.0
 10
36.9574313087
 20
14.6556709061
 30
0.0
 11
36.9574313087
 21
15.2906709061
 31
0.0
 11
36.9690159502
 21
15.2659778382
 31
0.0
 11
36.9970858769
 21
15.1975198307
 31
0.0
 11
37.0126970268
 21
15.1501571575
 31
0.0
 11
37.0199355771
 21
15.123757882
 31
0.0
 11
37.0264062668
 21
15.0957799624
 31
0.0
 11
37.031824479
 21
15.0664420938
 31
0.0
 11
37.0359195619
 21
15.0360035482
 31
0.0
 11
37.0384790387
 21
15.0047897003
 31
0.0
 11
37.0393457558
 21
14.9731709623
 31
0.0
 11
37.0384790428
 21
14.941552225
 31
0.0
 11
37.0359195727
 21
14.9103383624
 31
0.0
 11
37.0318244927
 21
14.8798998122
 31
0.0
 11
37.0264062841
 21
14.8505619302
 31
0.0
 11
37.0199355937
 21
14.8225839969
 31
0.0
 11
37.0126970414
 21
14.7961847056
 31
0.0
 11
36.9970859134
 21
14.7488220875
 31
0.0
 11
36.96901596
 21
14.6803639973
 31
0.0
 11
36.9574313087
 21
14.6556709061
 31
0.0
  0
SPLINE
  5
223
100
AcDbEntity
  8
0
100
AcDbSpline
 62
6
  6
CONTINUOUS
 70
0
 71
3
 72
13
 73
9
 74
7
 42
0.0000001
 43
0.0000001
 44
0.0000000001
 12
0.0263107556
 22
-0.1988474741
 32
0.0
 13
-0.0263107768
 23
-0.1988474745
 33
0.0
 40
0.0
 40
0.0
 40
0.0
 40
0.0
 40
0.1532999676
 40
0.3145682908
 40
0.4999957205
 40
0.6854254305
 40
0.8466948359
 40
1.0
 40
1.0
 40
1.0
 40
1.0
 10
36.9574313087
 20
16.8431709061
 30
0.0
 10
36.9587757881
 20
16.8330098024
 30
0.0
 10
36.9611324773
 20
16.8121051923
 30
0.0
 10
36.963520431
 20
16.7787522464
 30
0.0
 10
36.9644119454
 20
16.7431716127
 30
0.0
 10
36.9635204954
 20
16.7075909046
 30
0.0
 10
36.9611325558
 20
16.6742373837
 30
0.0
 10
36.9587758347
 20
16.6533323544
 30
0.0
 10
36.9574313087
 20
16.6431709061
 30
0.0
 11
36.9574313087
 21
16.8431709061
 31
0.0
 11
36.9608698814
 21
16.8126159362
 31
0.0
 11
36.9631724587
 21
16.7803519131
 31
0.0
 11
36.9641012929
 21
16.7431717648
 31
0.0
 11
36.9631725181
 21
16.7059911575
 31
0.0
 11
36.9608699768
 21
16.6737269142
 31
0.0
 11
36.9574313087
 21
16.6431709061
 31
0.0
  0
ENDSEC
  0
SECTION
  2
OBJECTS
  0
DICTIONARY
  5
C
100
AcDbDictionary
280
0
281
1
  3
ACAD_GROUP
350
D
  3
ACAD_MLINESTYLE
350
17
  3
ACAD_LAYOUT
350
1A
  3
ACAD_PLOTSETTINGS
350
19
  3
ACAD_PLOTSTYLENAME
350
E
  0
DICTIONARY
  5
D
102
{ACAD_REACTORS
330
C
102
}
100
AcDbDictionary
280
0
281
1
  0
ACDBDICTIONARYWDFLT
  5
E
102
{ACAD_REACTORS
330
C
102
}
100
AcDbDictionary
281
1
  3
Normal
350
F
100
AcDbDictionaryWithDefault
340
F
  0
DICTIONARY
  5
17
102
{ACAD_REACTORS
330
C
102
}
100
AcDbDictionary
280
0
281
1
  3
Standard
350
18
  0
DICTIONARY
  5
19
102
{ACAD_REACTORS
330
C
102
}
100
AcDbDictionary
281
1
  0
DICTIONARY
  5
1A
102
{ACAD_REACTORS
330
C
102
}
100
AcDbDictionary
281
1
  3
Model
350
224
  3
Layout1
350
225
  0
ACDBPLACEHOLDER
  5
F
102
{ACAD_REACTORS
330
E
102
}
  0
MLINESTYLE
  5
18
102
{ACAD_REACTORS
330
17
102
}
100
AcDbMlineStyle
  2
STANDARD
 70
0
  3

 62
256
 51
90.0
 52
90.0
 71
2
 49
0.5
 62
256
  6
BYLAYER
 49
-0.5
 62
256
  6
BYLAYER
  0
LAYOUT
  5
224
102
{ACAD_REACTORS
330
1A
102
}
100
AcDbPlotSettings
  1

  2
none_device
  4
ISO_A0_(1189.00_x_841.00_MM)
  6

 40
0.0
 41
0.0
 42
0.0
 43
0.0
 44
1189.0
 45
841.0
 46
0.0
 47
0.0
 48
0.0
 49
0.0
140
0.0
141
0.0
142
1.0
143
1.0
 70
1024
 72
0
 73
0
 74
0
  7

 75
0
147
1.0
148
0.0
149
0.0
100
AcDbLayout
  1
Model
 70
0
 71
0
 10
0.0
 20
0.0
 11
46.811023622
 21
33.1102362205
 12
0.0
 22
0.0
 32
0.0
 14
0.0
 24
0.0
 34
0.0
 15
0.0
 25
0.0
 35
0.0
146
0.0
 13
0.0
 23
0.0
 33
0.0
 16
1.0
 26
0.0
 36
0.0
 17
0.0
 27
1.0
 37
0.0
 76
0
330
203
345
0
346
0
  0
LAYOUT
  5
225
102
{ACAD_REACTORS
330
1A
102
}
100
AcDbPlotSettings
  1

  2
none_device
  4
ISO_A0_(1189.00_x_841.00_MM)
  6

 40
0.0
 41
0.0
 42
0.0
 43
0.0
 44
1189.0
 45
841.0
 46
0.0
 47
0.0
 48
0.0
 49
0.0
140
0.0
141
0.0
142
1.0
143
1.0
 70
0
 72
0
 73
0
 74
0
  7

 75
0
147
1.0
148
0.0
149
0.0
100
AcDbLayout
  1
Layout1
 70
0
 71
1
 10
0.0
 20
0.0
 11
46.811023622
 21
33.1102362205
 12
0.0
 22
0.0
 32
0.0
 14
0.0
 24
0.0
 34
0.0
 15
0.0
 25
0.0
 35
0.0
146
0.0
 13
0.0
 23
0.0
 33
0.0
 16
1.0
 26
0.0
 36
0.0
 17
0.0
 27
1.0
 37
0.0
 76
0
330
204
345
0
346
0
  0
ENDSEC
  0
EOF
