  0
SECTION
  2
HEADER
  9
$ACADVER
  1
AC1021
  9
$DWGCODEPAGE
  3
ANSI_1252
  9
$EXTMAX
 10
11.6929133858
 20
8.2677165354
 30
0.0
  9
$EXTMIN
 10
0.0
 20
0.0
 30
0.0
  9
$LIMMIN
 10
0.0
 20
0.0
  9
$LIMMAX
 10
11.6929133858
 20
8.2677165354
  9
$VIEWCTR
 10
5.8464566929
 20
4.1338582677
  9
$VIEWSIZE
 40
8.2677165354
  9
$CLAYER
  8
0
  9
$LTSCALE
 40
0.6431102362
  9
$CELTYPE
  6
BYLAYER
  9
$DIMSCALE
 40
1.0
  9
$DIMASZ
 40
0.1875
  9
$DIMEXO
 40
0.0730807087
  9
$DIMDLI
 40
0.4443307087
  9
$DIMEXE
 40
0.2104724409
  9
$DIMCEN
 40
0.1052362205
  9
$DIMLFAC
 40
1.0
  9
$DIMBLK
  1
_CLOSED
  9
$DIMTXT
 40
0.15625
  9
$DIMTOL
 70
0
  9
$DIMLIM
 70
0
  9
$DIMTFAC
 40
1.0
  9
$PDMODE
 70
3
  9
$PDSIZE
 40
0.3125
  9
$HANDSEED
  5
21C
  9
$TILEMODE
 70
1
  9
$MEASUREMENT
 70
0
  9
$INSUNITS
 70
1
  0
ENDSEC
  0
SECTION
  2
CLASSES
  0
CLASS
  1
ACDBDICTIONARYWDFLT
  2
AcDbDictionaryWithDefault
  3
AutoCAD 2000
 90
0
 91
1
280
0
281
0
  0
CLASS
  1
ACDBPLACEHOLDER
  2
AcDbPlaceHolder
  3
AutoCAD 2000
 90
0
 91
1
280
0
281
0
  0
CLASS
  1
LAYOUT
  2
AcDbLayout
  3
AutoCAD 2000
 90
0
 91
0
280
0
281
0
  0
ENDSEC
  0
SECTION
  2
TABLES
  0
TABLE
  2
VPORT
  5
8
100
AcDbSymbolTable
 70
2
  0
VPORT
  5
1F4
100
AcDbSymbolTableRecord
100
AcDbViewportTableRecord
  2
*ACTIVE
 70
0
 10
0.0
 20
0.0
 11
1.0
 21
1.0
 12
5.8464566929
 22
4.1338582677
 13
0.0
 23
0.0
 14
1.0
 24
1.0
 15
0.0
 25
0.0
 16
0.0
 26
0.0
 36
1.0
 17
0.0
 27
0.0
 37
0.0
 40
8.2677165354
 41
1.4142857143
 42
50.0
 43
0.0
 44
0.0
 50
0.0
 51
0.0
 71
0
 72
100
 73
1
 74
1
 75
0
 76
0
 77
0
 78
0
  0
ENDTAB
  0
TABLE
  2
LTYPE
  5
5
100
AcDbSymbolTable
 70
6
  0
LTYPE
  5
14
100
AcDbSymbolTableRecord
100
AcDbLinetypeTableRecord
  2
BYBLOCK
 70
0
  3

 72
65
 73
0
 40
0.0
  0
LTYPE
  5
15
100
AcDbSymbolTableRecord
100
AcDbLinetypeTableRecord
  2
BYLAYER
 70
0
  3

 72
65
 73
0
 40
0.0
  0
LTYPE
  5
16
100
AcDbSymbolTableRecord
100
AcDbLinetypeTableRecord
  2
CONTINUOUS
 70
64
  3
Solid line
 72
65
 73
0
 40
0.0
  0
LTYPE
  5
1F5
100
AcDbSymbolTableRecord
100
AcDbLinetypeTableRecord
  2
CENTER
 70
64
  3
____ _ ____ _ ____ _ ____ _ ____ _ ____ _ ____
 72
65
 73
4
 40
0.6
 49
0.375
 74
0
 49
-0.075
 74
0
 49
0.075
 74
0
 49
-0.075
 74
0
  0
LTYPE
  5
1F6
100
AcDbSymbolTableRecord
100
AcDbLinetypeTableRecord
  2
HIDDEN
 70
64
  3
- - - - - - - - - - - - - - - - - - - -
 72
65
 73
2
 40
0.2
 49
0.1
 74
0
 49
-0.1
 74
0
  0
LTYPE
  5
1F7
100
AcDbSymbolTableRecord
100
AcDbLinetypeTableRecord
  2
PHANTOM
 70
64
  3
_____ _ _ _____ _ _ _____ _ _ _____
 72
65
 73
6
 40
0.8
 49
0.45
 74
0
 49
-0.05
 74
0
 49
0.1
 74
0
 49
-0.05
 74
0
 49
0.1
 74
0
 49
-0.05
 74
0
  0
LTYPE
  5
1F8
100
AcDbSymbolTableRecord
100
AcDbLinetypeTableRecord
  2
DOT
 70
64
  3
. . . . . . . . . . . . . . . . . . . .
 72
65
 73
2
 40
0.2
 49
0.1
 74
0
 49
-0.1
 74
0
  0
LTYPE
  5
1F9
100
AcDbSymbolTableRecord
100
AcDbLinetypeTableRecord
  2
DASHED
 70
64
  3
- - - - - - - - - - - - - - - - - - - -
 72
65
 73
2
 40
0.2
 49
0.1
 74
0
 49
-0.1
 74
0
  0
ENDTAB
  0
TABLE
  2
LAYER
  5
2
100
AcDbSymbolTable
 70
36
  0
LAYER
  5
10
100
AcDbSymbolTableRecord
100
AcDbLayerTableRecord
  2
0
 70
0
 62
7
  6
CONTINUOUS
370
-3
390
F
  0
LAYER
  5
1FA
100
AcDbSymbolTableRecord
100
AcDbLayerTableRecord
  2
DEFAULT_1
 70
0
 62
7
  6
CENTER
370
-3
390
F
  0
LAYER
  5
1FB
100
AcDbSymbolTableRecord
100
AcDbLayerTableRecord
  2
DEFAULT_2
 70
0
 62
8
  6
HIDDEN
370
-3
390
F
  0
LAYER
  5
1FC
100
AcDbSymbolTableRecord
100
AcDbLayerTableRecord
  2
DEFAULT_3
 70
0
 62
7
  6
PHANTOM
370
-3
390
F
  0
LAYER
  5
1FD
100
AcDbSymbolTableRecord
100
AcDbLayerTableRecord
  2
DEFAULT_COORDINATE_SYSTEM
 70
0
 62
7
  6
CONTINUOUS
370
-3
390
F
  0
LAYER
  5
1FE
100
AcDbSymbolTableRecord
100
AcDbLayerTableRecord
  2
DEFAULT_DATUM_AXES
 70
0
 62
7
  6
CONTINUOUS
370
-3
390
F
  0
LAYER
  5
1FF
100
AcDbSymbolTableRecord
100
AcDbLayerTableRecord
  2
DEFAULT_DATUM_CURVES
 70
0
 62
7
  6
CONTINUOUS
370
-3
390
F
  0
LAYER
  5
200
100
AcDbSymbolTableRecord
100
AcDbLayerTableRecord
  2
DEFAULT_DATUM_PLANES
 70
0
 62
7
  6
CONTINUOUS
370
-3
390
F
  0
ENDTAB
  0
TABLE
  2
STYLE
  5
3
100
AcDbSymbolTable
 70
1
  0
STYLE
  5
11
100
AcDbSymbolTableRecord
100
AcDbTextStyleTableRecord
  2
STANDARD
 70
0
 40
0.0
 41
0.8
 50
0.0
 71
0
 42
0.2
  3
txt
  4

  0
STYLE
  5
201
100
AcDbSymbolTableRecord
100
AcDbTextStyleTableRecord
  2
TEXTSTYLE_1
 70
0
 40
0.0
 41
0.8
 50
0.0
 71
0
 42
0.2
  3
gdt
  4

  0
ENDTAB
  0
TABLE
  2
VIEW
  5
6
100
AcDbSymbolTable
 70
0
  0
ENDTAB
  0
TABLE
  2
UCS
  5
7
100
AcDbSymbolTable
 70
0
  0
ENDTAB
  0
TABLE
  2
APPID
  5
9
100
AcDbSymbolTable
 70
1
  0
APPID
  5
202
100
AcDbSymbolTableRecord
100
AcDbRegAppTableRecord
  2
ACAD
 70
0
  0
ENDTAB
  0
TABLE
  2
BLOCK_RECORD
  5
1
100
AcDbSymbolTable
 70
0
  0
BLOCK_RECORD
  5
203
100
AcDbSymbolTableRecord
100
AcDbBlockTableRecord
  2
*Model_Space
  0
BLOCK_RECORD
  5
204
100
AcDbSymbolTableRecord
100
AcDbBlockTableRecord
  2
*Paper_Space
  0
ENDTAB
  0
TABLE
  2
DIMSTYLE
  5
A
100
AcDbSymbolTable
 70
1
100
AcDbDimStyleTable
 71
0
  0
DIMSTYLE
105
205
100
AcDbSymbolTableRecord
100
AcDbDimStyleTableRecord
  2
STANDARD
 70
0
  3

  4

 40
1.0
 41
0.1875
 42
0.0625
 43
0.38
 44
0.18
 45
0.0
 46
0.0
 47
0.001
 48
0.001
140
0.15625
141
0.09
142
0.0
143
25.4
144
1.0
145
0.0
146
1.0
147
0.09
 71
0.0
 72
0.0
 73
1
 74
1
 75
0
 76
0
 77
0
 78
4
170
0
171
2
172
0
173
0
174
0
175
0
176
0
177
0
178
0
270
2
271
3
272
3
273
2
274
2
275
0
280
0
281
0
282
0
283
1
284
4
285
0
286
0
287
3
288
0
340
11
  0
ENDTAB
  0
ENDSEC
  0
SECTION
  2
BLOCKS
  0
BLOCK
  5
20
100
AcDbEntity
  8
0
100
AcDbBlockBegin
  2
*Model_Space
 70
0
 10
0.0
 20
0.0
 30
0.0
  3
*Model_Space
  1

  0
ENDBLK
  5
21
100
AcDbEntity
  8
0
100
AcDbBlockEnd
  0
BLOCK
  5
1C
100
AcDbEntity
  8
0
100
AcDbBlockBegin
  2
*Paper_Space
 70
0
 10
0.0
 20
0.0
 30
0.0
  3
*Paper_Space
  1

  0
ENDBLK
  5
1D
100
AcDbEntity
  8
0
100
AcDbBlockEnd
  0
ENDSEC
  0
SECTION
  2
ENTITIES
  0
LINE
  5
206
100
AcDbEntity
  8
0
100
AcDbLine
 62
6
  6
CONTINUOUS
 10
5.0549154361
 20
2.9282113333
 11
6.3673924955
 21
2.9282113333
  0
LINE
  5
207
100
AcDbEntity
  8
0
100
AcDbLine
 62
6
  6
CONTINUOUS
 10
4.5236539658
 20
5.7412113333
 11
4.5236539658
 21
6.1162113333
  0
LINE
  5
208
100
AcDbEntity
  8
0
100
AcDbLine
 62
6
  6
CONTINUOUS
 10
5.0549039658
 20
2.9282113333
 11
5.0549039658
 21
5.7412113333
  0
LINE
  5
209
100
AcDbEntity
  8
0
100
AcDbLine
 62
6
  6
CONTINUOUS
 10
6.3674039658
 20
2.9282113333
 11
6.3674039658
 21
5.7412113333
  0
LINE
  5
20A
100
AcDbEntity
  8
0
100
AcDbLine
 62
6
  6
CONTINUOUS
 10
6.8986539658
 20
5.7412113333
 11
6.8986539658
 21
6.1162113333
  0
LINE
  5
20B
100
AcDbEntity
  8
0
100
AcDbLine
 62
6
  6
CONTINUOUS
 10
4.5236557712
 20
5.7412113333
 11
6.8986521604
 21
5.7412113333
  0
LINE
  5
20C
100
AcDbEntity
  8
0
100
AcDbLine
 62
6
  6
CONTINUOUS
 10
4.5236557712
 20
6.1162113333
 11
6.8986521604
 21
6.1162113333
  0
LINE
  5
20D
100
AcDbEntity
  8
0
100
AcDbLine
 62
6
  6
CONTINUOUS
 10
6.7561539658
 20
6.1177113333
 11
4.6661539658
 21
6.1177113333
  0
CIRCLE
  5
20E
100
AcDbEntity
  8
0
100
AcDbCircle
 62
7
  6
CONTINUOUS
 10
5.7111545159
 20
3.4132113333
 40
0.2349991198
  0
CIRCLE
  5
20F
100
AcDbEntity
  8
0
100
AcDbCircle
 62
6
  6
CONTINUOUS
 10
5.7111539658
 20
3.4132113333
 40
0.23
  0
ARC
  5
210
100
AcDbEntity
  8
0
100
AcDbCircle
 62
7
  6
CONTINUOUS
 10
5.7111539658
 20
5.1832113333
 40
0.08201
100
AcDbArc
 50
202.7578477045
 51
292.7291694811
  0
ARC
  5
211
100
AcDbEntity
  8
0
100
AcDbCircle
 62
7
  6
CONTINUOUS
 10
5.722754089
 20
5.1845883762
 40
0.0795944918
100
AcDbArc
 50
268.6065874802
 51
284.6172673897
  0
ARC
  5
212
100
AcDbEntity
  8
0
100
AcDbCircle
 62
7
  6
CONTINUOUS
 10
5.7111539658
 20
5.1832113333
 40
0.0651
100
AcDbArc
 50
210.3955360736
 51
255.4849023393
  0
ARC
  5
213
100
AcDbEntity
  8
0
100
AcDbCircle
 62
6
  6
CONTINUOUS
 10
4.6661539658
 20
6.0662113333
 40
0.0515
100
AcDbArc
 50
90.0
 51
103.6970054582
  0
ARC
  5
214
100
AcDbEntity
  8
0
100
AcDbCircle
 62
6
  6
CONTINUOUS
 10
6.7561539658
 20
6.0662113333
 40
0.0515
100
AcDbArc
 50
76.3029945418
 51
90.0
  0
SPLINE
  5
215
100
AcDbEntity
  8
0
100
AcDbSpline
 62
7
  6
CONTINUOUS
 70
0
 71
3
 72
24
 73
20
 74
18
 42
0.0000001
 43
0.0000001
 44
0.0000000001
 12
-0.0545358952
 22
0.1454292555
 32
0.0
 13
0.1551842958
 23
-0.0064549627
 33
0.0
 40
0.0
 40
0.0
 40
0.0
 40
0.0
 40
0.0624495138
 40
0.1249919209
 40
0.1562666894
 40
0.1875306777
 40
0.2500166129
 40
0.3125131614
 40
0.3750169241
 40
0.4375223838
 40
0.5000248286
 40
0.562523694
 40
0.6250197338
 40
0.6875169243
 40
0.7500097602
 40
0.8124982311
 40
0.8750089352
 40
0.9375553124
 40
1.0
 40
1.0
 40
1.0
 40
1.0
 10
5.6355286087
 20
5.1514868088
 30
0.0
 10
5.634393362
 20
5.1545141375
 30
0.0
 10
5.6324811201
 20
5.1607146297
 30
0.0
 10
5.6310225549
 20
5.1686926165
 30
0.0
 10
5.6304355813
 20
5.175145321
 30
0.0
 10
5.6302366768
 20
5.1816184279
 30
0.0
 10
5.630716747
 20
5.1897148817
 30
0.0
 10
5.6324621441
 20
5.1992868595
 30
0.0
 10
5.6353485444
 20
5.2085807786
 30
0.0
 10
5.6393487291
 20
5.2174528717
 30
0.0
 10
5.6443991601
 20
5.225772034
 30
0.0
 10
5.6504360749
 20
5.2334052699
 30
0.0
 10
5.6573658611
 20
5.2402381672
 30
0.0
 10
5.6650922426
 20
5.2461552457
 30
0.0
 10
5.6734932385
 20
5.2510673744
 30
0.0
 10
5.6824454891
 20
5.2548858058
 30
0.0
 10
5.6918100114
 20
5.2575501993
 30
0.0
 10
5.7014336279
 20
5.2590013174
 30
0.0
 10
5.7079238208
 20
5.2591503488
 30
0.0
 10
5.7111539658
 20
5.2590159895
 30
0.0
 11
5.6355286087
 21
5.1514868088
 31
0.0
 11
5.6326686617
 21
5.1607551551
 31
0.0
 11
5.6309242105
 21
5.1703112281
 31
0.0
 11
5.6304840434
 21
5.1751487938
 31
0.0
 11
5.6303349695
 21
5.1800023804
 31
0.0
 11
5.6309115586
 21
5.1896904585
 31
0.0
 11
5.6326521865
 21
5.1992399886
 31
0.0
 11
5.635534131
 21
5.2085103426
 31
0.0
 11
5.6395238651
 21
5.2173608909
 31
0.0
 11
5.6445637262
 21
5.225657932
 31
0.0
 11
5.6505850129
 21
5.2332720246
 31
0.0
 11
5.6574986218
 21
5.2400855252
 31
0.0
 11
5.6652049215
 21
5.2459879138
 31
0.0
 11
5.6735852055
 21
5.2508851537
 31
0.0
 11
5.6825126721
 21
5.2546929481
 31
0.0
 11
5.6918517715
 21
5.2573476085
 31
0.0
 11
5.7014576196
 21
5.2587971958
 31
0.0
 11
5.7111539658
 21
5.2590159895
 31
0.0
  0
SPLINE
  5
216
100
AcDbEntity
  8
0
100
AcDbSpline
 62
7
  6
CONTINUOUS
 70
0
 71
3
 72
21
 73
17
 74
15
 42
0.0000001
 43
0.0000001
 44
0.0000000001
 12
-0.0847438801
 22
0.0021433057
 32
0.0
 13
-0.0292007967
 23
0.0795828653
 33
0.0
 40
0.0
 40
0.0
 40
0.0
 40
0.0
 40
0.1251177239
 40
0.1877676397
 40
0.2503897102
 40
0.3129713967
 40
0.3755212055
 40
0.4380573852
 40
0.5005894856
 40
0.5631023588
 40
0.625588498
 40
0.6880522091
 40
0.7504999338
 40
0.8129491166
 40
0.875411427
 40
1.0
 40
1.0
 40
1.0
 40
1.0
 10
5.7208185707
 20
5.1050174211
 30
0.0
 10
5.7172842503
 20
5.1051068096
 30
0.0
 10
5.7119798129
 20
5.1056056643
 30
0.0
 10
5.7050381333
 20
5.1069940438
 30
0.0
 10
5.6999145277
 20
5.1083999772
 30
0.0
 10
5.6949069898
 20
5.1101657977
 30
0.0
 10
5.6900407563
 20
5.1122847224
 30
0.0
 10
5.6853424438
 20
5.1147509388
 30
0.0
 10
5.6808389257
 20
5.1175552943
 30
0.0
 10
5.6765560727
 20
5.1206840522
 30
0.0
 10
5.6725212022
 20
5.1241239793
 30
0.0
 10
5.6687616676
 20
5.1278604778
 30
0.0
 10
5.6653011912
 20
5.1318740376
 30
0.0
 10
5.6621639934
 20
5.136146105
 30
0.0
 10
5.6584526029
 20
5.1421458636
 30
0.0
 10
5.6562144547
 20
5.1469678714
 30
0.0
 10
5.6550017595
 20
5.15027291
 30
0.0
 11
5.7208185707
 21
5.1050174211
 31
0.0
 11
5.7102589923
 21
5.1060124122
 31
0.0
 11
5.705051431
 21
5.1070549608
 31
0.0
 11
5.6999323333
 21
5.108460441
 31
0.0
 11
5.694929324
 21
5.1102251222
 31
0.0
 11
5.6900681831
 21
5.1123428675
 31
0.0
 11
5.685374659
 21
5.1148074399
 31
0.0
 11
5.6808750597
 21
5.1176098007
 31
0.0
 11
5.6765965576
 21
5.1207365821
 31
0.0
 11
5.6725663981
 21
5.1241740437
 31
0.0
 11
5.6688110808
 21
5.1279071097
 31
0.0
 11
5.6653550884
 21
5.1319170917
 31
0.0
 11
5.6622225654
 21
5.1361846963
 31
0.0
 11
5.6594374446
 21
5.1406880322
 31
0.0
 11
5.6550017595
 21
5.15027291
 31
0.0
  0
SPLINE
  5
217
100
AcDbEntity
  8
0
100
AcDbSpline
 62
7
  6
CONTINUOUS
 70
0
 71
3
 72
49
 73
45
 74
43
 42
0.0000001
 43
0.0000001
 44
0.0000000001
 12
0.2285205437
 22
-0.0711240018
 32
0.0
 13
-0.2391261767
 23
0.0099465641
 33
0.0
 40
0.0
 40
0.0
 40
0.0
 40
0.0
 40
0.031205851
 40
0.0468435885
 40
0.0624874006
 40
0.0781277283
 40
0.0937604843
 40
0.1250011631
 40
0.1406255662
 40
0.1562507514
 40
0.1874942591
 40
0.2187407452
 40
0.2499853011
 40
0.2812306486
 40
0.296858865
 40
0.3124868142
 40
0.3437325455
 40
0.3749784115
 40
0.3906066307
 40
0.4062352693
 40
0.4374820975
 40
0.4531106223
 40
0.4687390155
 40
0.4999860746
 40
0.5312328523
 40
0.5624796428
 40
0.5937275585
 40
0.6093563589
 40
0.6249851225
 40
0.6562333466
 40
0.6874810248
 40
0.7031097208
 40
0.7187388565
 40
0.7499878878
 40
0.7656174735
 40
0.781247224
 40
0.8124971224
 40
0.8437428177
 40
0.8749845679
 40
0.9062359352
 40
0.9218740366
 40
0.9375174485
 40
0.9687874993
 40
1.0
 40
1.0
 40
1.0
 40
1.0
 10
5.6948376204
 20
5.1201892191
 30
0.0
 10
5.6972146797
 20
5.1194493908
 30
0.0
 10
5.700851825
 20
5.1185449773
 30
0.0
 10
5.7057761762
 20
5.1177579165
 30
0.0
 10
5.709502286
 20
5.1173774289
 30
0.0
 10
5.7132435793
 20
5.1172099403
 30
0.0
 10
5.7182324518
 20
5.1172716491
 30
0.0
 10
5.7232073806
 20
5.1177570234
 30
0.0
 10
5.7281127805
 20
5.1186577072
 30
0.0
 10
5.7329601941
 20
5.1198331515
 30
0.0
 10
5.7388851134
 20
5.1218093213
 30
0.0
 10
5.7456872707
 20
5.1249520831
 30
0.0
 10
5.7520980356
 20
5.1288314133
 30
0.0
 10
5.7570543973
 20
5.1326317039
 30
0.0
 10
5.7607503587
 20
5.1359819084
 30
0.0
 10
5.7642566743
 20
5.139530215
 30
0.0
 10
5.7682690131
 20
5.1443160035
 30
0.0
 10
5.7717403747
 20
5.1495075233
 30
0.0
 10
5.7741665764
 20
5.1538662736
 30
0.0
 10
5.7763547946
 20
5.1583489924
 30
0.0
 10
5.7781795231
 20
5.1630017595
 30
0.0
 10
5.7796218937
 20
5.1677769844
 30
0.0
 10
5.7808064524
 20
5.1726228207
 30
0.0
 10
5.7818017919
 20
5.1787880352
 30
0.0
 10
5.7822077724
 20
5.186269228
 30
0.0
 10
5.7818206395
 20
5.1937512786
 30
0.0
 10
5.7808487924
 20
5.1999200179
 30
0.0
 10
5.7796879492
 20
5.2047715865
 30
0.0
 10
5.7782749365
 20
5.209555839
 30
0.0
 10
5.7760459375
 20
5.2153889016
 30
0.0
 10
5.7732265684
 20
5.2209605967
 30
0.0
 10
5.7706355739
 20
5.2252234745
 30
0.0
 10
5.7678294163
 20
5.2293477163
 30
0.0
 10
5.7647098717
 20
5.2332514863
 30
0.0
 10
5.7613056745
 20
5.2368979471
 30
0.0
 10
5.7577191641
 20
5.2403656007
 30
0.0
 10
5.7529129762
 20
5.2443518687
 30
0.0
 10
5.7466944141
 20
5.2485280236
 30
0.0
 10
5.7400856611
 20
5.2520543778
 30
0.0
 10
5.7343099503
 20
5.2544280045
 30
0.0
 10
5.7295645168
 20
5.2559727477
 30
0.0
 10
5.724746018
 20
5.2572777519
 30
0.0
 10
5.7186151583
 20
5.2584568933
 30
0.0
 10
5.7136418744
 20
5.2589125038
 30
0.0
 10
5.7111539658
 20
5.2590159895
 30
0.0
 11
5.6948376204
 21
5.1201892191
 31
0.0
 11
5.7020847391
 21
5.1183839256
 31
0.0
 11
5.7057804303
 21
5.117793066
 31
0.0
 11
5.7095051603
 21
5.1174129087
 31
0.0
 11
5.7132446633
 21
5.1172455585
 31
0.0
 11
5.7169858139
 21
5.1172915864
 31
0.0
 11
5.7244274912
 21
5.1180167278
 31
0.0
 11
5.7281054427
 21
5.1186920375
 31
0.0
 11
5.7317397719
 21
5.1195731856
 31
0.0
 11
5.7388336475
 21
5.1219378094
 31
0.0
 11
5.7456221523
 21
5.1250749067
 31
0.0
 11
5.7520207396
 21
5.1289448355
 31
0.0
 11
5.7579554262
 21
5.1334946263
 31
0.0
 11
5.7607266616
 21
5.1360066875
 31
0.0
 11
5.7633558408
 21
5.1386669761
 31
0.0
 11
5.7681608158
 21
5.1443971323
 31
0.0
 11
5.7723173359
 21
5.1506137471
 31
0.0
 11
5.7741368036
 21
5.1538817341
 31
0.0
 11
5.7757777072
 21
5.1572430417
 31
0.0
 11
5.7785080648
 21
5.1642051928
 31
0.0
 11
5.7795896642
 21
5.1677858201
 31
0.0
 11
5.7804780893
 21
5.1714191677
 31
0.0
 11
5.7816704025
 21
5.1788019597
 31
0.0
 11
5.7820755878
 21
5.1862693586
 31
0.0
 11
5.7816908147
 21
5.1937378401
 31
0.0
 11
5.7805267646
 21
5.2011253486
 31
0.0
 11
5.7796564233
 21
5.2047631706
 31
0.0
 11
5.7785971578
 21
5.208350528
 31
0.0
 11
5.7759278526
 21
5.2153366721
 31
0.0
 11
5.7725511757
 21
5.2220095648
 31
0.0
 11
5.7706087007
 21
5.2252061015
 31
0.0
 11
5.7685045284
 21
5.2282987221
 31
0.0
 11
5.7638355114
 21
5.2341412018
 31
0.0
 11
5.7612828971
 21
5.2368755771
 31
0.0
 11
5.7585937905
 21
5.2394758943
 31
0.0
 11
5.7528373792
 21
5.2442509464
 31
0.0
 11
5.7466291339
 21
5.2484198835
 31
0.0
 11
5.7400329015
 21
5.251940955
 31
0.0
 11
5.7331148641
 21
5.2547840886
 31
0.0
 11
5.7295559652
 21
5.2559425961
 31
0.0
 11
5.725942256
 21
5.2569216372
 31
0.0
 11
5.7185931034
 21
5.2583356804
 31
0.0
 11
5.7111539658
 21
5.2590159895
 31
0.0
  0
SPLINE
  5
218
100
AcDbEntity
  8
0
100
AcDbSpline
 62
6
  6
CONTINUOUS
 70
0
 71
3
 72
49
 73
45
 74
43
 42
0.0000001
 43
0.0000001
 44
0.0000000001
 12
-0.3036080233
 22
0.0
 32
0.0
 13
0.3036080233
 23
0.0
 33
0.0
 40
0.0
 40
0.0
 40
0.0
 40
0.0
 40
0.0312525595
 40
0.0469076574
 40
0.0625655495
 40
0.0782170479
 40
0.0938594849
 40
0.1094955773
 40
0.1251268025
 40
0.1407534414
 40
0.1563751812
 40
0.1876003126
 40
0.2188193599
 40
0.2500270076
 40
0.2812357384
 40
0.3124516653
 40
0.343678599
 40
0.3593020181
 40
0.3749288746
 40
0.4061827262
 40
0.4374479948
 40
0.4687209215
 40
0.4999971854
 40
0.531273577
 40
0.5625468855
 40
0.5938125529
 40
0.6250667072
 40
0.6563087938
 40
0.6719282285
 40
0.6875439497
 40
0.7187598101
 40
0.7499685111
 40
0.7811767353
 40
0.8123967239
 40
0.8436227402
 40
0.8592449481
 40
0.8748720253
 40
0.8905036298
 40
0.9061400351
 40
0.9217827131
 40
0.9374343743
 40
0.9530923438
 40
0.9687474603
 40
1.0
 40
1.0
 40
1.0
 40
1.0
 10
5.7111539658
 20
5.0832113333
 30
0.0
 10
5.7079911232
 20
5.0832113333
 30
0.0
 10
5.7032386924
 20
5.0834742941
 30
0.0
 10
5.6969638755
 20
5.0843368034
 30
0.0
 10
5.6922946228
 20
5.0852382889
 30
0.0
 10
5.6876828065
 20
5.0863920337
 30
0.0
 10
5.6831424223
 20
5.0877934955
 30
0.0
 10
5.6786854133
 20
5.089434862
 30
0.0
 10
5.6743230777
 20
5.0913092236
 30
0.0
 10
5.670066421
 20
5.093409514
 30
0.0
 10
5.6645486793
 20
5.0965012064
 30
0.0
 10
5.6579641204
 20
5.1008942266
 30
0.0
 10
5.6506373856
 20
5.1069308328
 30
0.0
 10
5.6439472386
 20
5.1136636534
 30
0.0
 10
5.6379413589
 20
5.1210119801
 30
0.0
 10
5.6326605443
 20
5.1288989113
 30
0.0
 10
5.6288927943
 20
5.135857127
 30
0.0
 10
5.6262716181
 20
5.1416131522
 30
0.0
 10
5.6239153378
 20
5.1474855731
 30
0.0
 10
5.6214757552
 20
5.1550208754
 30
0.0
 10
5.6193730546
 20
5.1642897637
 30
0.0
 10
5.6181060928
 20
5.1737119738
 30
0.0
 10
5.6176842037
 20
5.1832105124
 30
0.0
 10
5.6181059196
 20
5.1927091358
 30
0.0
 10
5.6193728139
 20
5.2021313413
 30
0.0
 10
5.62147547
 20
5.2114007492
 30
0.0
 10
5.6244019682
 20
5.2204404931
 30
0.0
 10
5.6275168703
 20
5.2277195884
 30
0.0
 10
5.6304000558
 20
5.2333490217
 30
0.0
 10
5.6335396109
 20
5.2388365486
 30
0.0
 10
5.6379407412
 20
5.2454098417
 30
0.0
 10
5.6439462675
 20
5.2527580127
 30
0.0
 10
5.6506365745
 20
5.2594910391
 30
0.0
 10
5.6579634099
 20
5.265527854
 30
0.0
 10
5.6645480886
 20
5.2699211309
 30
0.0
 10
5.6700659862
 20
5.2730129164
 30
0.0
 10
5.6743227546
 20
5.2751132741
 30
0.0
 10
5.6786851885
 20
5.2769876969
 30
0.0
 10
5.6831422798
 20
5.2786291132
 30
0.0
 10
5.6876827293
 20
5.2800306103
 30
0.0
 10
5.692294592
 20
5.2811843705
 30
0.0
 10
5.6969638698
 20
5.2820858643
 30
0.0
 10
5.7032386944
 20
5.2829483753
 30
0.0
 10
5.7079911252
 20
5.2832113333
 30
0.0
 10
5.7111539658
 20
5.2832113333
 30
0.0
 11
5.7111539658
 21
5.0832113333
 31
0.0
 11
5.701679737
 21
5.0837320533
 31
0.0
 11
5.6969709726
 21
5.0843791031
 31
0.0
 11
5.6923033563
 21
5.0852805235
 31
0.0
 11
5.6876934743
 21
5.0864336654
 31
0.0
 11
5.6831553853
 21
5.0878337931
 31
0.0
 11
5.6787004867
 21
5.0894739749
 31
0.0
 11
5.6743400494
 21
5.0913471742
 31
0.0
 11
5.6700853442
 21
5.0934463545
 31
0.0
 11
5.6659474989
 21
5.0957643708
 31
0.0
 11
5.6580590464
 21
5.1010223664
 31
0.0
 11
5.6507424218
 21
5.1070478277
 31
0.0
 11
5.64406131
 21
5.1137661852
 31
0.0
 11
5.6380628241
 21
5.1211008959
 31
0.0
 11
5.632787948
 21
5.1289747072
 31
0.0
 11
5.6282710345
 21
5.1373102976
 31
0.0
 11
5.6263050063
 21
5.1416270711
 31
0.0
 11
5.6245381967
 21
5.1460302614
 31
0.0
 11
5.621613596
 21
5.1550572385
 31
0.0
 11
5.619512555
 21
5.1643141833
 31
0.0
 11
5.6182469906
 21
5.1737241723
 31
0.0
 11
5.6178248093
 21
5.1832105071
 31
0.0
 11
5.6182468322
 21
5.1926968879
 31
0.0
 11
5.6195123176
 21
5.2021070045
 31
0.0
 11
5.6216132285
 21
5.2113641029
 31
0.0
 11
5.624537756
 21
5.2203912003
 31
0.0
 11
5.628270475
 21
5.229111214
 31
0.0
 11
5.6304324423
 21
5.2333319038
 31
0.0
 11
5.6327872404
 21
5.2374468229
 31
0.0
 11
5.6380620191
 21
5.2453206751
 31
0.0
 11
5.6440603718
 21
5.2526554831
 31
0.0
 11
5.6507415625
 21
5.259374009
 31
0.0
 11
5.6580583431
 21
5.2653997304
 31
0.0
 11
5.6659469498
 21
5.270657979
 31
0.0
 11
5.6700849121
 21
5.2729760773
 31
0.0
 11
5.674339732
 21
5.275075326
 31
0.0
 11
5.6787002686
 21
5.2769485858
 31
0.0
 11
5.6831552503
 21
5.2785888167
 31
0.0
 11
5.6876934054
 21
5.2799889785
 31
0.0
 11
5.6923033341
 21
5.2811421374
 31
0.0
 11
5.696970973
 21
5.282043565
 31
0.0
 11
5.7016797429
 21
5.282690616
 31
0.0
 11
5.7111539658
 21
5.2832113333
 31
0.0
  0
SPLINE
  5
219
100
AcDbEntity
  8
0
100
AcDbSpline
 62
6
  6
CONTINUOUS
 70
0
 71
3
 72
49
 73
45
 74
43
 42
0.0000001
 43
0.0000001
 44
0.0000000001
 12
0.3036080863
 22
0.0
 32
0.0
 13
-0.3036080863
 23
0.0
 33
0.0
 40
0.0
 40
0.0
 40
0.0
 40
0.0
 40
0.031252611
 40
0.0469077768
 40
0.0625657591
 40
0.0782173575
 40
0.0938598654
 40
0.109496005
 40
0.125127264
 40
0.1407539312
 40
0.1563756913
 40
0.1876008092
 40
0.2188198436
 40
0.2500274697
 40
0.2812361262
 40
0.3124519811
 40
0.328067748
 40
0.3436872304
 40
0.3749292371
 40
0.4061830148
 40
0.4374482091
 40
0.4687210613
 40
0.4999972481
 40
0.5312735633
 40
0.5625467985
 40
0.5938123912
 40
0.6250664703
 40
0.65630847
 40
0.6719278595
 40
0.6875435402
 40
0.7187593379
 40
0.7499679774
 40
0.7811761934
 40
0.8123961688
 40
0.8436221686
 40
0.8592444001
 40
0.8748715112
 40
0.8905031565
 40
0.906139617
 40
0.9217823753
 40
0.9374341469
 40
0.9530922149
 40
0.9687474047
 40
1.0
 40
1.0
 40
1.0
 40
1.0
 10
5.7111539658
 20
5.2832113333
 30
0.0
 10
5.7143168143
 20
5.2832113333
 30
0.0
 10
5.719069258
 20
5.2829483644
 30
0.0
 10
5.7253440961
 20
5.2820858449
 30
0.0
 10
5.730013375
 20
5.2811843529
 30
0.0
 10
5.7346252202
 20
5.2800306104
 30
0.0
 10
5.7391656254
 20
5.2786291376
 30
0.0
 10
5.7436226461
 20
5.2769877554
 30
0.0
 10
5.7479849878
 20
5.2751133776
 30
0.0
 10
5.7522416491
 20
5.2730130756
 30
0.0
 10
5.7577593957
 20
5.2699213832
 30
0.0
 10
5.7643439458
 20
5.2655283353
 30
0.0
 10
5.7716706481
 20
5.2594917386
 30
0.0
 10
5.778360844
 20
5.2527588327
 30
0.0
 10
5.784366487
 20
5.2454108405
 30
0.0
 10
5.7887676576
 20
5.23883757
 30
0.0
 10
5.7919072863
 20
5.2333500745
 30
0.0
 10
5.7947905602
 20
5.2277206836
 30
0.0
 10
5.7979055429
 20
5.2204416637
 30
0.0
 10
5.8008320819
 20
5.2114020328
 30
0.0
 10
5.8029349103
 20
5.202132797
 30
0.0
 10
5.8042018312
 20
5.1927107059
 30
0.0
 10
5.8046237309
 20
5.1832121621
 30
0.0
 10
5.8042020145
 20
5.1737135667
 30
0.0
 10
5.8029351258
 20
5.1642913798
 30
0.0
 10
5.8008324839
 20
5.1550219902
 30
0.0
 10
5.7979059951
 20
5.1459822664
 30
0.0
 10
5.7947911109
 20
5.1387031848
 30
0.0
 10
5.7919079421
 20
5.1330737611
 30
0.0
 10
5.7887684012
 20
5.1275862417
 30
0.0
 10
5.7843672833
 20
5.121012959
 30
0.0
 10
5.7783617858
 20
5.113664779
 30
0.0
 10
5.7716714843
 20
5.1069317558
 30
0.0
 10
5.7643446685
 20
5.1008949218
 30
0.0
 10
5.757760003
 20
5.0965016215
 30
0.0
 10
5.7522420991
 20
5.093409836
 30
0.0
 10
5.747985325
 20
5.0913094655
 30
0.0
 10
5.7436228836
 20
5.0894350244
 30
0.0
 10
5.7391657787
 20
5.0877935904
 30
0.0
 10
5.7346253057
 20
5.0863920808
 30
0.0
 10
5.7300134112
 20
5.0852383227
 30
0.0
 10
5.7253441049
 20
5.0843368218
 30
0.0
 10
5.7190692574
 20
5.0834742999
 30
0.0
 10
5.7143168127
 20
5.0832113333
 30
0.0
 10
5.7111539658
 20
5.0832113333
 30
0.0
 11
5.7111539658
 21
5.2832113333
 31
0.0
 11
5.7206282117
 21
5.2826906035
 31
0.0
 11
5.7253369968
 21
5.282043546
 31
0.0
 11
5.7300046409
 21
5.2811421199
 31
0.0
 11
5.7346145546
 21
5.2799889755
 31
0.0
 11
5.7391526642
 21
5.2785888381
 31
0.0
 11
5.7436075736
 21
5.2769486416
 31
0.0
 11
5.7479680167
 21
5.2750754273
 31
0.0
 11
5.7522227273
 21
5.2729762362
 31
0.0
 11
5.7563605779
 21
5.2706582146
 31
0.0
 11
5.7642490166
 21
5.2654002023
 31
0.0
 11
5.7715656269
 21
5.2593747266
 31
0.0
 11
5.7782467292
 21
5.2526563661
 31
0.0
 11
5.7842451885
 21
5.2453216603
 31
0.0
 11
5.7895200458
 21
5.2374478603
 31
0.0
 11
5.791874902
 21
5.2333329574
 31
0.0
 11
5.7940369383
 21
5.2291122855
 31
0.0
 11
5.7977697589
 21
5.2203923396
 31
0.0
 11
5.8006943497
 21
5.2113653808
 31
0.0
 11
5.8027953817
 21
5.2021084551
 31
0.0
 11
5.804060942
 21
5.1926984864
 31
0.0
 11
5.8044831234
 21
5.183212173
 31
0.0
 11
5.804061103
 21
5.1737258134
 31
0.0
 11
5.8027956235
 21
5.1643157165
 31
0.0
 11
5.8006947245
 21
5.1550586366
 31
0.0
 11
5.7977702088
 21
5.1460315573
 31
0.0
 11
5.7940375105
 21
5.1373115613
 31
0.0
 11
5.7918755557
 21
5.1330908794
 31
0.0
 11
5.7895207687
 21
5.128975967
 31
0.0
 11
5.7842460085
 21
5.1211021229
 31
0.0
 11
5.7782476818
 21
5.1137673153
 31
0.0
 11
5.7715664988
 21
5.1070487824
 31
0.0
 11
5.7642497348
 21
5.101023044
 31
0.0
 11
5.7563611435
 21
5.0957647777
 31
0.0
 11
5.752223175
 21
5.093446674
 31
0.0
 11
5.7479683485
 21
5.0913474132
 31
0.0
 11
5.7436078046
 21
5.0894741364
 31
0.0
 11
5.7391528101
 21
5.087833889
 31
0.0
 11
5.7346146319
 21
5.0864337161
 31
0.0
 11
5.7300046684
 21
5.085280554
 31
0.0
 11
5.7253369993
 21
5.0843791203
 31
0.0
 11
5.720628207
 21
5.083732061
 31
0.0
 11
5.7111539658
 21
5.0832113333
 31
0.0
  0
ENDSEC
  0
SECTION
  2
OBJECTS
  0
DICTIONARY
  5
C
100
AcDbDictionary
280
0
281
1
  3
ACAD_GROUP
350
D
  3
ACAD_MLINESTYLE
350
17
  3
ACAD_LAYOUT
350
1A
  3
ACAD_PLOTSETTINGS
350
19
  3
ACAD_PLOTSTYLENAME
350
E
  0
DICTIONARY
  5
D
102
{ACAD_REACTORS
330
C
102
}
100
AcDbDictionary
280
0
281
1
  0
ACDBDICTIONARYWDFLT
  5
E
102
{ACAD_REACTORS
330
C
102
}
100
AcDbDictionary
281
1
  3
Normal
350
F
100
AcDbDictionaryWithDefault
340
F
  0
DICTIONARY
  5
17
102
{ACAD_REACTORS
330
C
102
}
100
AcDbDictionary
280
0
281
1
  3
Standard
350
18
  0
DICTIONARY
  5
19
102
{ACAD_REACTORS
330
C
102
}
100
AcDbDictionary
281
1
  0
DICTIONARY
  5
1A
102
{ACAD_REACTORS
330
C
102
}
100
AcDbDictionary
281
1
  3
Model
350
21A
  3
Layout1
350
21B
  0
ACDBPLACEHOLDER
  5
F
102
{ACAD_REACTORS
330
E
102
}
  0
MLINESTYLE
  5
18
102
{ACAD_REACTORS
330
17
102
}
100
AcDbMlineStyle
  2
STANDARD
 70
0
  3

 62
256
 51
90.0
 52
90.0
 71
2
 49
0.5
 62
256
  6
BYLAYER
 49
-0.5
 62
256
  6
BYLAYER
  0
LAYOUT
  5
21A
102
{ACAD_REACTORS
330
1A
102
}
100
AcDbPlotSettings
  1

  2
none_device
  4
ISO_A4_(297.00_x_210.00_MM)
  6

 40
0.0
 41
0.0
 42
0.0
 43
0.0
 44
297.0
 45
210.0
 46
0.0
 47
0.0
 48
0.0
 49
0.0
140
0.0
141
0.0
142
1.0
143
1.0
 70
1024
 72
0
 73
0
 74
0
  7

 75
0
147
1.0
148
0.0
149
0.0
100
AcDbLayout
  1
Model
 70
0
 71
0
 10
0.0
 20
0.0
 11
11.6929133858
 21
8.2677165354
 12
0.0
 22
0.0
 32
0.0
 14
0.0
 24
0.0
 34
0.0
 15
0.0
 25
0.0
 35
0.0
146
0.0
 13
0.0
 23
0.0
 33
0.0
 16
1.0
 26
0.0
 36
0.0
 17
0.0
 27
1.0
 37
0.0
 76
0
330
203
345
0
346
0
  0
LAYOUT
  5
21B
102
{ACAD_REACTORS
330
1A
102
}
100
AcDbPlotSettings
  1

  2
none_device
  4
ISO_A4_(297.00_x_210.00_MM)
  6

 40
0.0
 41
0.0
 42
0.0
 43
0.0
 44
297.0
 45
210.0
 46
0.0
 47
0.0
 48
0.0
 49
0.0
140
0.0
141
0.0
142
1.0
143
1.0
 70
0
 72
0
 73
0
 74
0
  7

 75
0
147
1.0
148
0.0
149
0.0
100
AcDbLayout
  1
Layout1
 70
0
 71
1
 10
0.0
 20
0.0
 11
11.6929133858
 21
8.2677165354
 12
0.0
 22
0.0
 32
0.0
 14
0.0
 24
0.0
 34
0.0
 15
0.0
 25
0.0
 35
0.0
146
0.0
 13
0.0
 23
0.0
 33
0.0
 16
1.0
 26
0.0
 36
0.0
 17
0.0
 27
1.0
 37
0.0
 76
0
330
204
345
0
346
0
  0
ENDSEC
  0
EOF
