  0
SECTION
  2
HEADER
  9
$ACADVER
  1
AC1021
  9
$DWGCODEPAGE
  3
ANSI_1252
  9
$EXTMAX
 10
11.6929133858
 20
8.2677165354
 30
0.0
  9
$EXTMIN
 10
0.0
 20
0.0
 30
0.0
  9
$LIMMIN
 10
0.0
 20
0.0
  9
$LIMMAX
 10
11.6929133858
 20
8.2677165354
  9
$VIEWCTR
 10
5.8464566929
 20
4.1338582677
  9
$VIEWSIZE
 40
8.2677165354
  9
$CLAYER
  8
0
  9
$LTSCALE
 40
0.6431102362
  9
$CELTYPE
  6
BYLAYER
  9
$DIMSCALE
 40
1.0
  9
$DIMASZ
 40
0.1875
  9
$DIMEXO
 40
0.0730807087
  9
$DIMDLI
 40
0.4443307087
  9
$DIMEXE
 40
0.2104724409
  9
$DIMCEN
 40
0.1052362205
  9
$DIMLFAC
 40
1.0
  9
$DIMBLK
  1
_CLOSED
  9
$DIMTXT
 40
0.15625
  9
$DIMTOL
 70
0
  9
$DIMLIM
 70
0
  9
$DIMTFAC
 40
1.0
  9
$PDMODE
 70
3
  9
$PDSIZE
 40
0.3125
  9
$HANDSEED
  5
226
  9
$TILEMODE
 70
1
  9
$MEASUREMENT
 70
0
  9
$INSUNITS
 70
1
  0
ENDSEC
  0
SECTION
  2
CLASSES
  0
CLASS
  1
ACDBDICTIONARYWDFLT
  2
AcDbDictionaryWithDefault
  3
AutoCAD 2000
 90
0
 91
1
280
0
281
0
  0
CLASS
  1
ACDBPLACEHOLDER
  2
AcDbPlaceHolder
  3
AutoCAD 2000
 90
0
 91
1
280
0
281
0
  0
CLASS
  1
LAYOUT
  2
AcDbLayout
  3
AutoCAD 2000
 90
0
 91
0
280
0
281
0
  0
ENDSEC
  0
SECTION
  2
TABLES
  0
TABLE
  2
VPORT
  5
8
100
AcDbSymbolTable
 70
2
  0
VPORT
  5
1F4
100
AcDbSymbolTableRecord
100
AcDbViewportTableRecord
  2
*ACTIVE
 70
0
 10
0.0
 20
0.0
 11
1.0
 21
1.0
 12
5.8464566929
 22
4.1338582677
 13
0.0
 23
0.0
 14
1.0
 24
1.0
 15
0.0
 25
0.0
 16
0.0
 26
0.0
 36
1.0
 17
0.0
 27
0.0
 37
0.0
 40
8.2677165354
 41
1.4142857143
 42
50.0
 43
0.0
 44
0.0
 50
0.0
 51
0.0
 71
0
 72
100
 73
1
 74
1
 75
0
 76
0
 77
0
 78
0
  0
ENDTAB
  0
TABLE
  2
LTYPE
  5
5
100
AcDbSymbolTable
 70
6
  0
LTYPE
  5
14
100
AcDbSymbolTableRecord
100
AcDbLinetypeTableRecord
  2
BYBLOCK
 70
0
  3

 72
65
 73
0
 40
0.0
  0
LTYPE
  5
15
100
AcDbSymbolTableRecord
100
AcDbLinetypeTableRecord
  2
BYLAYER
 70
0
  3

 72
65
 73
0
 40
0.0
  0
LTYPE
  5
16
100
AcDbSymbolTableRecord
100
AcDbLinetypeTableRecord
  2
CONTINUOUS
 70
64
  3
Solid line
 72
65
 73
0
 40
0.0
  0
LTYPE
  5
1F5
100
AcDbSymbolTableRecord
100
AcDbLinetypeTableRecord
  2
CENTER
 70
64
  3
____ _ ____ _ ____ _ ____ _ ____ _ ____ _ ____
 72
65
 73
4
 40
0.6
 49
0.375
 74
0
 49
-0.075
 74
0
 49
0.075
 74
0
 49
-0.075
 74
0
  0
LTYPE
  5
1F6
100
AcDbSymbolTableRecord
100
AcDbLinetypeTableRecord
  2
HIDDEN
 70
64
  3
- - - - - - - - - - - - - - - - - - - -
 72
65
 73
2
 40
0.2
 49
0.1
 74
0
 49
-0.1
 74
0
  0
LTYPE
  5
1F7
100
AcDbSymbolTableRecord
100
AcDbLinetypeTableRecord
  2
PHANTOM
 70
64
  3
_____ _ _ _____ _ _ _____ _ _ _____
 72
65
 73
6
 40
0.8
 49
0.45
 74
0
 49
-0.05
 74
0
 49
0.1
 74
0
 49
-0.05
 74
0
 49
0.1
 74
0
 49
-0.05
 74
0
  0
LTYPE
  5
1F8
100
AcDbSymbolTableRecord
100
AcDbLinetypeTableRecord
  2
DOT
 70
64
  3
. . . . . . . . . . . . . . . . . . . .
 72
65
 73
2
 40
0.2
 49
0.1
 74
0
 49
-0.1
 74
0
  0
LTYPE
  5
1F9
100
AcDbSymbolTableRecord
100
AcDbLinetypeTableRecord
  2
DASHED
 70
64
  3
- - - - - - - - - - - - - - - - - - - -
 72
65
 73
2
 40
0.2
 49
0.1
 74
0
 49
-0.1
 74
0
  0
ENDTAB
  0
TABLE
  2
LAYER
  5
2
100
AcDbSymbolTable
 70
36
  0
LAYER
  5
10
100
AcDbSymbolTableRecord
100
AcDbLayerTableRecord
  2
0
 70
0
 62
7
  6
CONTINUOUS
370
-3
390
F
  0
LAYER
  5
1FA
100
AcDbSymbolTableRecord
100
AcDbLayerTableRecord
  2
DEFAULT_1
 70
0
 62
7
  6
CENTER
370
-3
390
F
  0
LAYER
  5
1FB
100
AcDbSymbolTableRecord
100
AcDbLayerTableRecord
  2
DEFAULT_2
 70
0
 62
8
  6
HIDDEN
370
-3
390
F
  0
LAYER
  5
1FC
100
AcDbSymbolTableRecord
100
AcDbLayerTableRecord
  2
DEFAULT_3
 70
0
 62
7
  6
PHANTOM
370
-3
390
F
  0
LAYER
  5
1FD
100
AcDbSymbolTableRecord
100
AcDbLayerTableRecord
  2
DEFAULT_COORDINATE_SYSTEM
 70
0
 62
7
  6
CONTINUOUS
370
-3
390
F
  0
LAYER
  5
1FE
100
AcDbSymbolTableRecord
100
AcDbLayerTableRecord
  2
DEFAULT_DATUM_AXES
 70
0
 62
7
  6
CONTINUOUS
370
-3
390
F
  0
LAYER
  5
1FF
100
AcDbSymbolTableRecord
100
AcDbLayerTableRecord
  2
DEFAULT_DATUM_CURVES
 70
0
 62
7
  6
CONTINUOUS
370
-3
390
F
  0
LAYER
  5
200
100
AcDbSymbolTableRecord
100
AcDbLayerTableRecord
  2
DEFAULT_DATUM_PLANES
 70
0
 62
7
  6
CONTINUOUS
370
-3
390
F
  0
ENDTAB
  0
TABLE
  2
STYLE
  5
3
100
AcDbSymbolTable
 70
1
  0
STYLE
  5
11
100
AcDbSymbolTableRecord
100
AcDbTextStyleTableRecord
  2
STANDARD
 70
0
 40
0.0
 41
0.8
 50
0.0
 71
0
 42
0.2
  3
txt
  4

  0
STYLE
  5
201
100
AcDbSymbolTableRecord
100
AcDbTextStyleTableRecord
  2
TEXTSTYLE_1
 70
0
 40
0.0
 41
0.8
 50
0.0
 71
0
 42
0.2
  3
gdt
  4

  0
ENDTAB
  0
TABLE
  2
VIEW
  5
6
100
AcDbSymbolTable
 70
0
  0
ENDTAB
  0
TABLE
  2
UCS
  5
7
100
AcDbSymbolTable
 70
0
  0
ENDTAB
  0
TABLE
  2
APPID
  5
9
100
AcDbSymbolTable
 70
1
  0
APPID
  5
202
100
AcDbSymbolTableRecord
100
AcDbRegAppTableRecord
  2
ACAD
 70
0
  0
ENDTAB
  0
TABLE
  2
BLOCK_RECORD
  5
1
100
AcDbSymbolTable
 70
0
  0
BLOCK_RECORD
  5
203
100
AcDbSymbolTableRecord
100
AcDbBlockTableRecord
  2
*Model_Space
  0
BLOCK_RECORD
  5
204
100
AcDbSymbolTableRecord
100
AcDbBlockTableRecord
  2
*Paper_Space
  0
ENDTAB
  0
TABLE
  2
DIMSTYLE
  5
A
100
AcDbSymbolTable
 70
1
100
AcDbDimStyleTable
 71
0
  0
DIMSTYLE
105
205
100
AcDbSymbolTableRecord
100
AcDbDimStyleTableRecord
  2
STANDARD
 70
0
  3

  4

 40
1.0
 41
0.1875
 42
0.0625
 43
0.38
 44
0.18
 45
0.0
 46
0.0
 47
0.001
 48
0.001
140
0.15625
141
0.09
142
0.0
143
25.4
144
1.0
145
0.0
146
1.0
147
0.09
 71
0.0
 72
0.0
 73
1
 74
1
 75
0
 76
0
 77
0
 78
4
170
0
171
2
172
0
173
0
174
0
175
0
176
0
177
0
178
0
270
2
271
3
272
3
273
2
274
2
275
0
280
0
281
0
282
0
283
1
284
4
285
0
286
0
287
3
288
0
340
11
  0
ENDTAB
  0
ENDSEC
  0
SECTION
  2
BLOCKS
  0
BLOCK
  5
20
100
AcDbEntity
  8
0
100
AcDbBlockBegin
  2
*Model_Space
 70
0
 10
0.0
 20
0.0
 30
0.0
  3
*Model_Space
  1

  0
ENDBLK
  5
21
100
AcDbEntity
  8
0
100
AcDbBlockEnd
  0
BLOCK
  5
1C
100
AcDbEntity
  8
0
100
AcDbBlockBegin
  2
*Paper_Space
 70
0
 10
0.0
 20
0.0
 30
0.0
  3
*Paper_Space
  1

  0
ENDBLK
  5
1D
100
AcDbEntity
  8
0
100
AcDbBlockEnd
  0
ENDSEC
  0
SECTION
  2
ENTITIES
  0
LINE
  5
206
100
AcDbEntity
  8
0
100
AcDbLine
 62
6
  6
CONTINUOUS
 10
5.0549154361
 20
2.9187113333
 11
6.3673924955
 21
2.9187113333
  0
LINE
  5
207
100
AcDbEntity
  8
0
100
AcDbLine
 62
9
  6
CONTINUOUS
 10
4.3359039658
 20
3.2357113333
 11
4.3359039658
 21
3.4857113333
  0
LINE
  5
208
100
AcDbEntity
  8
0
100
AcDbLine
 62
6
  6
CONTINUOUS
 10
5.0549039658
 20
3.2357113333
 11
4.0520457132
 21
3.2357113333
  0
LINE
  5
209
100
AcDbEntity
  8
0
100
AcDbLine
 62
6
  6
CONTINUOUS
 10
6.3674039658
 20
3.2357113333
 11
7.3702622184
 21
3.2357113333
  0
LINE
  5
20A
100
AcDbEntity
  8
0
100
AcDbLine
 62
6
  6
CONTINUOUS
 10
4.5236539658
 20
5.7507113333
 11
4.5236539658
 21
6.1257113333
  0
LINE
  5
20B
100
AcDbEntity
  8
0
100
AcDbLine
 62
6
  6
CONTINUOUS
 10
5.0549039658
 20
3.4857113333
 11
4.0520457132
 21
3.4857113333
  0
LINE
  5
20C
100
AcDbEntity
  8
0
100
AcDbLine
 62
6
  6
CONTINUOUS
 10
6.3674039658
 20
3.4857113333
 11
7.3702622184
 21
3.4857113333
  0
LINE
  5
20D
100
AcDbEntity
  8
0
100
AcDbLine
 62
6
  6
CONTINUOUS
 10
5.0549039658
 20
2.9187113333
 11
5.0549039658
 21
3.2357113333
  0
LINE
  5
20E
100
AcDbEntity
  8
0
100
AcDbLine
 62
6
  6
CONTINUOUS
 10
5.0549039658
 20
3.4857113333
 11
5.0549039658
 21
5.7507113333
  0
LINE
  5
20F
100
AcDbEntity
  8
0
100
AcDbLine
 62
6
  6
CONTINUOUS
 10
6.3674039658
 20
2.9187113333
 11
6.3674039658
 21
3.2347113333
  0
LINE
  5
210
100
AcDbEntity
  8
0
100
AcDbLine
 62
6
  6
CONTINUOUS
 10
6.3674039658
 20
3.4867113333
 11
6.3674039658
 21
5.7507113333
  0
LINE
  5
211
100
AcDbEntity
  8
0
100
AcDbLine
 62
6
  6
CONTINUOUS
 10
6.8986539658
 20
5.7507113333
 11
6.8986539658
 21
6.1257113333
  0
LINE
  5
212
100
AcDbEntity
  8
0
100
AcDbLine
 62
6
  6
CONTINUOUS
 10
4.5236557712
 20
5.7507113333
 11
6.8986521604
 21
5.7507113333
  0
LINE
  5
213
100
AcDbEntity
  8
0
100
AcDbLine
 62
9
  6
CONTINUOUS
 10
7.0864039658
 20
3.4857113333
 11
7.0864039658
 21
3.2357113333
  0
LINE
  5
214
100
AcDbEntity
  8
0
100
AcDbLine
 62
6
  6
CONTINUOUS
 10
4.5236557712
 20
6.1257113333
 11
6.8986521604
 21
6.1257113333
  0
LINE
  5
215
100
AcDbEntity
  8
0
100
AcDbLine
 62
6
  6
CONTINUOUS
 10
6.7561539658
 20
6.1272113333
 11
4.6661539658
 21
6.1272113333
  0
CIRCLE
  5
216
100
AcDbEntity
  8
0
100
AcDbCircle
 62
6
  6
CONTINUOUS
 10
3.8359039658
 20
3.3607113333
 40
0.25
  0
CIRCLE
  5
217
100
AcDbEntity
  8
0
100
AcDbCircle
 62
6
  6
CONTINUOUS
 10
7.5864039658
 20
3.3607113333
 40
0.25
  0
ARC
  5
218
100
AcDbEntity
  8
0
100
AcDbCircle
 62
7
  6
CONTINUOUS
 10
5.7111539658
 20
4.1257113333
 40
0.0820099999
100
AcDbArc
 50
51.8342427028
 51
141.805611117
  0
ARC
  5
219
100
AcDbEntity
  8
0
100
AcDbCircle
 62
7
  6
CONTINUOUS
 10
5.7111539658
 20
4.1257113333
 40
0.0651
100
AcDbArc
 50
59.4719363841
 51
104.5611560103
  0
ARC
  5
21A
100
AcDbEntity
  8
0
100
AcDbCircle
 62
6
  6
CONTINUOUS
 10
4.6661539658
 20
6.0757113333
 40
0.0515
100
AcDbArc
 50
90.0
 51
102.5288124383
  0
ARC
  5
21B
100
AcDbEntity
  8
0
100
AcDbCircle
 62
6
  6
CONTINUOUS
 10
6.7561539658
 20
6.0757113333
 40
0.0515
100
AcDbArc
 50
77.4711875617
 51
90.0
  0
SPLINE
  5
21C
100
AcDbEntity
  8
0
100
AcDbSpline
 62
7
  6
CONTINUOUS
 70
0
 71
3
 72
11
 73
7
 74
5
 42
0.0000001
 43
0.0000001
 44
0.0000000001
 12
0.0389627117
 22
-0.0050550187
 32
0.0
 13
0.0297532735
 23
-0.0256590886
 33
0.0
 40
0.0
 40
0.0
 40
0.0
 40
0.0
 40
0.2502105838
 40
0.5003453521
 40
0.75030177
 40
1.0
 40
1.0
 40
1.0
 40
1.0
 10
5.7087495709
 20
4.1974353484
 30
0.0
 10
5.7119991985
 20
4.197013742
 30
0.0
 10
5.718447958
 20
4.1957163549
 30
0.0
 10
5.7277416198
 20
4.1924253333
 30
0.0
 10
5.7364539109
 20
4.1878219021
 30
0.0
 10
5.7417457367
 20
4.1839228778
 30
0.0
 10
5.7442221833
 20
4.1817872015
 30
0.0
 11
5.7087495709
 21
4.1974353484
 31
0.0
 11
5.7183861163
 21
4.1954917754
 31
0.0
 11
5.7276478787
 21
4.1922051836
 31
0.0
 11
5.7363282814
 21
4.18761227
 31
0.0
 11
5.7442221833
 21
4.1817872015
 31
0.0
  0
SPLINE
  5
21D
100
AcDbEntity
  8
0
100
AcDbSpline
 62
7
  6
CONTINUOUS
 70
0
 71
3
 72
38
 73
34
 74
32
 42
0.0000001
 43
0.0000001
 44
0.0000000001
 12
-0.2010609189
 22
0.0085435633
 32
0.0
 13
0.196998057
 23
0.0411126636
 33
0.0
 40
0.0
 40
0.0
 40
0.0
 40
0.0
 40
0.0624217442
 40
0.0937052061
 40
0.1249739685
 40
0.1562284892
 40
0.1874765686
 40
0.2187274282
 40
0.2499810861
 40
0.2812339076
 40
0.3124865477
 40
0.3437394057
 40
0.3749920535
 40
0.40624741
 40
0.4375039152
 40
0.4687582613
 40
0.5000115383
 40
0.5312634557
 40
0.5625130022
 40
0.5937628679
 40
0.6250122034
 40
0.6562601327
 40
0.6875091359
 40
0.7187576473
 40
0.7500056694
 40
0.781254735
 40
0.8125004374
 40
0.8437412135
 40
0.8749842893
 40
0.9062410232
 40
0.9375222784
 40
0.9687939731
 40
1.0
 40
1.0
 40
1.0
 40
1.0
 10
5.7111539658
 20
4.0515068192
 30
0.0
 10
5.7069704414
 20
4.0516845873
 30
0.0
 10
5.7006962448
 20
4.0524910987
 30
0.0
 10
5.6925775911
 20
4.054608562
 30
0.0
 10
5.686640162
 20
4.0567183714
 30
0.0
 10
5.6809092623
 20
4.0593297897
 30
0.0
 10
5.6754253335
 20
4.0624247344
 30
0.0
 10
5.6702315526
 20
4.0659850912
 30
0.0
 10
5.6653660133
 20
4.0699827737
 30
0.0
 10
5.6608665446
 20
4.0743888405
 30
0.0
 10
5.6567727063
 20
4.0791741883
 30
0.0
 10
5.6531150443
 20
4.0843005505
 30
0.0
 10
5.6499230322
 20
4.0897295203
 30
0.0
 10
5.6472275068
 20
4.095421688
 30
0.0
 10
5.6450480386
 20
4.1013307569
 30
0.0
 10
5.6434038011
 20
4.107410595
 30
0.0
 10
5.6423148592
 20
4.1136137565
 30
0.0
 10
5.6417879113
 20
4.1198893031
 30
0.0
 10
5.6418296273
 20
4.1261867716
 30
0.0
 10
5.6424460402
 20
4.1324540114
 30
0.0
 10
5.6436295385
 20
4.1386391382
 30
0.0
 10
5.6453741304
 20
4.1446901629
 30
0.0
 10
5.6476701984
 20
4.1505541202
 30
0.0
 10
5.6504959481
 20
4.1561820325
 30
0.0
 10
5.6538324715
 20
4.1615232608
 30
0.0
 10
5.6576534393
 20
4.1665290944
 30
0.0
 10
5.6619234938
 20
4.171157214
 30
0.0
 10
5.6666101959
 20
4.175362578
 30
0.0
 10
5.6716738881
 20
4.1791066923
 30
0.0
 10
5.6770716922
 20
4.1823562234
 30
0.0
 10
5.6827584405
 20
4.1850735728
 30
0.0
 10
5.6886743407
 20
4.187235241
 30
0.0
 10
5.6927377885
 20
4.1882926566
 30
0.0
 10
5.6947869641
 20
4.1887203109
 30
0.0
 11
5.7111539658
 21
4.0515068192
 31
0.0
 11
5.6986942413
 21
4.0531057464
 31
0.0
 11
5.6926027404
 21
4.0546956084
 31
0.0
 11
5.6866733293
 21
4.0568024761
 31
0.0
 11
5.6809498567
 21
4.0594106569
 31
0.0
 11
5.6754738392
 21
4.0625022057
 31
0.0
 11
5.6702864531
 21
4.0660578355
 31
0.0
 11
5.6654269991
 21
4.070050863
 31
0.0
 11
5.6609341348
 21
4.0744520691
 31
0.0
 11
5.6568454101
 21
4.0792310141
 31
0.0
 11
5.6531926605
 21
4.0843509708
 31
0.0
 11
5.6500058835
 21
4.0897731896
 31
0.0
 11
5.6473135558
 21
4.0954577505
 31
0.0
 11
5.6451371937
 21
4.1013593789
 31
0.0
 11
5.6434963233
 21
4.1074312689
 31
0.0
 11
5.6424085069
 21
4.1136259645
 31
0.0
 11
5.6418826802
 21
4.1198931538
 31
0.0
 11
5.6419254096
 21
4.126181741
 31
0.0
 11
5.642540563
 21
4.1324403789
 31
0.0
 11
5.6437230775
 21
4.1386168892
 31
0.0
 11
5.6454660224
 21
4.1446589256
 31
0.0
 11
5.6477584924
 21
4.1505148082
 31
0.0
 11
5.6505810921
 21
4.1561342802
 31
0.0
 11
5.6539131915
 21
4.161467329
 31
0.0
 11
5.6577284867
 21
4.1664663749
 31
0.0
 11
5.661993216
 21
4.171087036
 31
0.0
 11
5.6666728061
 21
4.1752855352
 31
0.0
 11
5.6717284286
 21
4.1790235105
 31
0.0
 11
5.6771181247
 21
4.1822665837
 31
0.0
 11
5.6827977653
 21
4.1849813833
 31
0.0
 11
5.6887088724
 21
4.1871407924
 31
0.0
 11
5.6947869641
 21
4.1887203109
 31
0.0
  0
SPLINE
  5
21E
100
AcDbEntity
  8
0
100
AcDbSpline
 62
7
  6
CONTINUOUS
 70
0
 71
3
 72
11
 73
7
 74
5
 42
0.0000001
 43
0.0000001
 44
0.0000000001
 12
-0.0670221244
 22
0.0086954447
 32
0.0
 13
-0.0489097927
 23
-0.0466412704
 33
0.0
 40
0.0
 40
0.0
 40
0.0
 40
0.0
 40
0.2496782132
 40
0.4995959831
 40
0.7497192475
 40
1.0
 40
1.0
 40
1.0
 40
1.0
 10
5.7087495709
 20
4.1974353484
 30
0.0
 10
5.7031715828
 20
4.1981590361
 30
0.0
 10
5.6917950463
 20
4.1982722204
 30
0.0
 10
5.6751789609
 20
4.1945500102
 30
0.0
 10
5.659782433
 20
4.1872620599
 30
0.0
 10
5.650781269
 20
4.1803118312
 30
0.0
 10
5.6467008758
 20
4.1764206938
 30
0.0
 11
5.7087495709
 21
4.1974353484
 31
0.0
 11
5.6918764166
 21
4.1976243925
 31
0.0
 11
5.6753887605
 21
4.1939579327
 31
0.0
 11
5.6601022344
 21
4.1867414797
 31
0.0
 11
5.6467008758
 21
4.1764206938
 31
0.0
  0
SPLINE
  5
21F
100
AcDbEntity
  8
0
100
AcDbSpline
 62
7
  6
CONTINUOUS
 70
0
 71
3
 72
37
 73
33
 74
31
 42
0.0000001
 43
0.0000001
 44
0.0000000001
 12
0.1473846961
 22
-0.1252904967
 32
0.0
 13
-0.1932679832
 23
0.0082124227
 33
0.0
 40
0.0
 40
0.0
 40
0.0
 40
0.0
 40
0.0624317186
 40
0.0937109653
 40
0.1249796053
 40
0.1562334564
 40
0.1874796351
 40
0.2187263699
 40
0.2499779372
 40
0.2812311365
 40
0.3124837078
 40
0.3437362908
 40
0.3749885703
 40
0.4062404611
 40
0.4374940866
 40
0.4687490525
 40
0.5000040613
 40
0.5312604086
 40
0.5625180378
 40
0.5937744587
 40
0.6250293028
 40
0.6562836704
 40
0.6875364402
 40
0.7187879084
 40
0.7500397113
 40
0.7812897079
 40
0.8125362484
 40
0.8437822887
 40
0.8750338822
 40
0.9062989472
 40
0.937578943
 40
1.0
 40
1.0
 40
1.0
 40
1.0
 10
5.761831112
 20
4.1901897557
 30
0.0
 10
5.7648982719
 20
4.1875823887
 30
0.0
 10
5.7692198175
 20
4.1833175594
 30
0.0
 10
5.7742994889
 20
4.1770549267
 30
0.0
 10
5.777752077
 20
4.1720812572
 30
0.0
 10
5.7808216366
 20
4.166865727
 30
0.0
 10
5.7834929189
 20
4.1614367803
 30
0.0
 10
5.785748679
 20
4.1558225671
 30
0.0
 10
5.7875752727
 20
4.1500539664
 30
0.0
 10
5.7889633375
 20
4.144164046
 30
0.0
 10
5.7899018361
 20
4.1381858061
 30
0.0
 10
5.7903818873
 20
4.1321534711
 30
0.0
 10
5.790402545
 20
4.1261021737
 30
0.0
 10
5.7899617688
 20
4.1200667318
 30
0.0
 10
5.789057941
 20
4.1140828838
 30
0.0
 10
5.7876979204
 20
4.108185802
 30
0.0
 10
5.7858886614
 20
4.1024104016
 30
0.0
 10
5.783636299
 20
4.0967927118
 30
0.0
 10
5.7809550506
 20
4.0913665748
 30
0.0
 10
5.7778613639
 20
4.0861645769
 30
0.0
 10
5.774370298
 20
4.0812206039
 30
0.0
 10
5.7705022024
 20
4.0765660302
 30
0.0
 10
5.7662818525
 20
4.0722285765
 30
0.0
 10
5.7617325893
 20
4.0682375138
 30
0.0
 10
5.7568812173
 20
4.0646200241
 30
0.0
 10
5.7517595075
 20
4.0613972617
 30
0.0
 10
5.7463980803
 20
4.0585918913
 30
0.0
 10
5.7408290268
 20
4.0562248735
 30
0.0
 10
5.7350876888
 20
4.0543101338
 30
0.0
 10
5.7292079015
 20
4.0528627928
 30
0.0
 10
5.7212474712
 20
4.051576376
 30
0.0
 10
5.7151752964
 20
4.0513359432
 30
0.0
 10
5.7111539658
 20
4.0515068192
 30
0.0
 11
5.761831112
 21
4.1901897557
 31
0.0
 11
5.7704288514
 21
4.1817085192
 31
0.0
 11
5.7742399052
 21
4.177008814
 31
0.0
 11
5.7776889458
 21
4.172039845
 31
0.0
 11
5.7807556092
 21
4.1668295177
 31
0.0
 11
5.7834236652
 21
4.1614059149
 31
0.0
 11
5.785677021
 21
4.1557972004
 31
0.0
 11
5.7875021378
 21
4.1500339078
 31
0.0
 11
5.7888884149
 21
4.1441492969
 31
0.0
 11
5.7898254294
 21
4.1381767812
 31
0.0
 11
5.7903053227
 21
4.1321502838
 31
0.0
 11
5.7903256397
 21
4.1261048024
 31
0.0
 11
5.7898846099
 21
4.1200754706
 31
0.0
 11
5.7889819306
 21
4.1140974628
 31
0.0
 11
5.7876230557
 21
4.1082061132
 31
0.0
 11
5.7858148499
 21
4.1024367948
 31
0.0
 11
5.7835648569
 21
4.0968247271
 31
0.0
 11
5.7808862649
 21
4.0914038492
 31
0.0
 11
5.7777950599
 21
4.0862074662
 31
0.0
 11
5.7743074172
 21
4.0812687816
 31
0.0
 11
5.7704433999
 21
4.0766187802
 31
0.0
 11
5.7662269533
 21
4.0722862309
 31
0.0
 11
5.7616822313
 21
4.068299771
 31
0.0
 11
5.7568360203
 21
4.0646857175
 31
0.0
 11
5.7517193079
 21
4.0614666845
 31
0.0
 11
5.7463634639
 21
4.0586649401
 31
0.0
 11
5.740800836
 21
4.0563004449
 31
0.0
 11
5.7350658004
 21
4.0543883726
 31
0.0
 11
5.7291929872
 21
4.0529433005
 31
0.0
 11
5.7232196613
 21
4.0519776445
 31
0.0
 11
5.7111539658
 21
4.0515068192
 31
0.0
  0
SPLINE
  5
220
100
AcDbEntity
  8
0
100
AcDbSpline
 62
7
  6
CONTINUOUS
 70
0
 71
3
 72
27
 73
23
 74
21
 42
0.0000001
 43
0.0000001
 44
0.0000000001
 12
0.0497173649
 22
-0.2538175811
 32
0.0
 13
-0.0497173251
 23
-0.2538175886
 33
0.0
 40
0.0
 40
0.0
 40
0.0
 40
0.0
 40
0.0386083299
 40
0.1475662912
 40
0.183911799
 40
0.2232532162
 40
0.2652169725
 40
0.3094168115
 40
0.3554384426
 40
0.4028443024
 40
0.4511873983
 40
0.4999997342
 40
0.5488121821
 40
0.5971555328
 40
0.6445616766
 40
0.6905835321
 40
0.734783439
 40
0.7767470358
 40
0.8160882244
 40
0.8524335752
 40
0.9613920023
 40
1.0
 40
1.0
 40
1.0
 40
1.0
 10
5.0549039658
 20
3.4892113333
 30
0.0
 10
5.0555438006
 20
3.4859448423
 30
0.0
 10
5.0579025349
 20
3.4734420728
 30
0.0
 10
5.0604221357
 20
3.4577817749
 30
0.0
 10
5.0625180494
 20
3.4420004579
 30
0.0
 10
5.0637065945
 20
3.4319263714
 30
0.0
 10
5.0648064837
 20
3.4211612342
 30
0.0
 10
5.0657720665
 20
3.409804965
 30
0.0
 10
5.0665672222
 20
3.3979651248
 30
0.0
 10
5.0671603775
 20
3.385755697
 30
0.0
 10
5.0675242372
 20
3.3732965441
 30
0.0
 10
5.0676496153
 20
3.3607113925
 30
0.0
 10
5.0675242315
 20
3.348126219
 30
0.0
 10
5.0671603813
 20
3.3356670097
 30
0.0
 10
5.0665672196
 20
3.3234575163
 30
0.0
 10
5.065772054
 20
3.311617627
 30
0.0
 10
5.06480648
 20
3.3002613455
 30
0.0
 10
5.0637065916
 20
3.289496236
 30
0.0
 10
5.0625180466
 20
3.2794221968
 30
0.0
 10
5.0604221319
 20
3.2636408729
 30
0.0
 10
5.0579025304
 20
3.2479805772
 30
0.0
 10
5.0555437946
 20
3.2354777963
 30
0.0
 10
5.0549039658
 20
3.2322113333
 30
0.0
 11
5.0549039658
 21
3.4892113333
 31
0.0
 11
5.0567549767
 21
3.4793982583
 31
0.0
 11
5.061225008
 21
3.4515728142
 31
0.0
 11
5.0624622481
 21
3.4422537452
 31
0.0
 11
5.0636546206
 21
3.4321481076
 31
0.0
 11
5.0647570705
 21
3.4213502287
 31
0.0
 11
5.0657256899
 21
3.4099589563
 31
0.0
 11
5.0665230959
 21
3.3980821048
 31
0.0
 11
5.0671173321
 21
3.3858348887
 31
0.0
 11
5.0674831721
 21
3.3733361999
 31
0.0
 11
5.0676076873
 21
3.3607114021
 31
0.0
 11
5.0674831693
 21
3.3480865755
 31
0.0
 11
5.0671173334
 21
3.3355878206
 31
0.0
 11
5.0665230921
 21
3.3233405313
 31
0.0
 11
5.065725679
 21
3.311463622
 31
0.0
 11
5.0647570632
 21
3.3000723318
 31
0.0
 11
5.0636546164
 21
3.2892744939
 31
0.0
 11
5.0624622469
 21
3.2791689155
 31
0.0
 11
5.0612250115
 21
3.2698498869
 31
0.0
 11
5.0567549603
 21
3.2420243239
 31
0.0
 11
5.0549039658
 21
3.2322113333
 31
0.0
  0
SPLINE
  5
221
100
AcDbEntity
  8
0
100
AcDbSpline
 62
7
  6
CONTINUOUS
 70
0
 71
3
 72
27
 73
23
 74
21
 42
0.0000001
 43
0.0000001
 44
0.0000000001
 12
-0.0478238457
 22
0.2489954048
 32
0.0
 13
0.0478238843
 23
0.2489953977
 33
0.0
 40
0.0
 40
0.0
 40
0.0
 40
0.0
 40
0.0385871666
 40
0.1475235663
 40
0.1838691221
 40
0.2232129951
 40
0.2651813084
 40
0.3093873209
 40
0.3554161322
 40
0.4028296365
 40
0.4511803896
 40
0.5000002671
 40
0.5488200312
 40
0.5971705256
 40
0.6445837405
 40
0.6906123229
 40
0.7348182662
 40
0.7767867426
 40
0.81613085
 40
0.8524765685
 40
0.961412492
 40
1.0
 40
1.0
 40
1.0
 40
1.0
 10
6.3674039658
 20
3.2347113333
 30
0.0
 10
6.3667888369
 20
3.237914009
 30
0.0
 10
6.3645208351
 20
3.2501750635
 30
0.0
 10
6.3620990481
 20
3.2655307078
 30
0.0
 10
6.3600847676
 20
3.2810048181
 30
0.0
 10
6.3589425125
 20
3.290883713
 30
0.0
 10
6.3578855704
 20
3.3014400433
 30
0.0
 10
6.3569578072
 20
3.3125756852
 30
0.0
 10
6.3561938682
 20
3.3241850805
 30
0.0
 10
6.3556240515
 20
3.3361564293
 30
0.0
 10
6.3552745445
 20
3.3483722588
 30
0.0
 10
6.3551541142
 20
3.3607113915
 30
0.0
 10
6.355274539
 20
3.3730505025
 30
0.0
 10
6.3556240551
 20
3.3852662758
 30
0.0
 10
6.3561938655
 20
3.397237559
 30
0.0
 10
6.3569577948
 20
3.4088469054
 30
0.0
 10
6.3578855667
 20
3.4199825351
 30
0.0
 10
6.3589425094
 20
3.4305388931
 30
0.0
 10
6.3600847647
 20
3.4404178357
 30
0.0
 10
6.3620990443
 20
3.4558919394
 30
0.0
 10
6.3645208307
 20
3.4712475861
 30
0.0
 10
6.366788831
 20
3.4835086293
 30
0.0
 10
6.3674039658
 20
3.4867113333
 30
0.0
 11
6.3674039658
 21
3.2347113333
 31
0.0
 11
6.3656246028
 21
3.244332214
 31
0.0
 11
6.3613276372
 21
3.271617512
 31
0.0
 11
6.360138454
 21
3.2807561305
 31
0.0
 11
6.3589925045
 21
3.2906660035
 31
0.0
 11
6.3579330879
 21
3.3012544913
 31
0.0
 11
6.357002386
 21
3.3124245239
 31
0.0
 11
6.3562362725
 21
3.3240702741
 31
0.0
 11
6.3556654086
 21
3.3360787335
 31
0.0
 11
6.3553139897
 21
3.3483333625
 31
0.0
 11
6.3551943857
 21
3.3607114011
 31
0.0
 11
6.355313987
 21
3.373089411
 31
0.0
 11
6.3556654098
 21
3.3853439743
 31
0.0
 11
6.3562362687
 21
3.3973523605
 31
0.0
 11
6.3570023752
 21
3.408998053
 31
0.0
 11
6.3579330805
 21
3.4201680676
 31
0.0
 11
6.3589925003
 21
3.4307565967
 31
0.0
 11
6.3601384528
 21
3.4406665292
 31
0.0
 11
6.3613276406
 21
3.4498051887
 31
0.0
 11
6.3656245866
 21
3.4770903675
 31
0.0
 11
6.3674039658
 21
3.4867113333
 31
0.0
  0
SPLINE
  5
222
100
AcDbEntity
  8
0
100
AcDbSpline
 62
6
  6
CONTINUOUS
 70
0
 71
3
 72
43
 73
39
 74
37
 42
0.0000001
 43
0.0000001
 44
0.0000000001
 12
-0.3035893414
 22
0.0
 32
0.0
 13
0.3035893414
 23
-0.0
 33
0.0
 40
0.0
 40
0.0
 40
0.0
 40
0.0
 40
0.0312544751
 40
0.0625578685
 40
0.0782103195
 40
0.0938537133
 40
0.1251119843
 40
0.1407395874
 40
0.1563622926
 40
0.1875893598
 40
0.218810342
 40
0.2500199166
 40
0.2812305698
 40
0.3124484178
 40
0.3436772739
 40
0.3749212884
 40
0.4061770683
 40
0.4374442684
 40
0.4687191283
 40
0.4999973252
 40
0.5312756485
 40
0.5625508858
 40
0.5938184802
 40
0.6250745592
 40
0.6563185702
 40
0.687547249
 40
0.7187650316
 40
0.7499756565
 40
0.7811858023
 40
0.8124077166
 40
0.8436356596
 40
0.8592588274
 40
0.8748868633
 40
0.906145817
 40
0.9217894481
 40
0.9374420588
 40
0.9687455451
 40
1.0
 40
1.0
 40
1.0
 40
1.0
 10
5.7111539658
 20
4.0257113333
 30
0.0
 10
5.707991124
 20
4.0257113333
 30
0.0
 10
5.7016555985
 20
4.026061831
 30
0.0
 10
5.6938309759
 20
4.0273539782
 30
0.0
 10
5.6876827691
 20
4.0288920546
 30
0.0
 10
5.681631731
 20
4.0307597154
 30
0.0
 10
5.6757412316
 20
4.0331093965
 30
0.0
 10
5.6700665453
 20
4.0359094688
 30
0.0
 10
5.6645486231
 20
4.039001224
 30
0.0
 10
5.6579641481
 20
4.0433942164
 30
0.0
 10
5.6506373842
 20
4.049430828
 30
0.0
 10
5.6439472329
 20
4.0561636677
 30
0.0
 10
5.6379413882
 20
4.0635119204
 30
0.0
 10
5.632660434
 20
4.0713991332
 30
0.0
 10
5.6281393956
 20
4.0797484242
 30
0.0
 10
5.6244025147
 20
4.0884807042
 30
0.0
 10
5.6214758359
 20
4.0975206515
 30
0.0
 10
5.6193730321
 20
4.1067898292
 30
0.0
 10
5.6181060976
 20
4.1162119644
 30
0.0
 10
5.6176842028
 20
4.1257105277
 30
0.0
 10
5.6181059193
 20
4.1352091418
 30
0.0
 10
5.6193728231
 20
4.1446313714
 30
0.0
 10
5.6214754462
 20
4.1539007003
 30
0.0
 10
5.6244020773
 20
4.1629407395
 30
0.0
 10
5.6281388376
 20
4.1716730804
 30
0.0
 10
5.6326597263
 20
4.1800224279
 30
0.0
 10
5.6379406161
 20
4.1879096476
 30
0.0
 10
5.643946317
 20
4.1952580813
 30
0.0
 10
5.6506365717
 20
4.201991035
 30
0.0
 10
5.6579634504
 20
4.208027877
 30
0.0
 10
5.6645480406
 20
4.2124211173
 30
0.0
 10
5.6700661173
 20
4.2155129654
 30
0.0
 10
5.6757409402
 20
4.2183131208
 30
0.0
 10
5.6816315566
 20
4.2206628788
 30
0.0
 10
5.6876826938
 20
4.2225305899
 30
0.0
 10
5.6938309476
 20
4.2240686834
 30
0.0
 10
5.7016555929
 20
4.2253608393
 30
0.0
 10
5.707991126
 20
4.2257113333
 30
0.0
 10
5.7111539658
 20
4.2257113333
 30
0.0
 11
5.7111539658
 21
4.0257113333
 31
0.0
 11
5.7016797393
 21
4.0262320521
 31
0.0
 11
5.6923033641
 21
4.0277805208
 31
0.0
 11
5.6876934853
 21
4.0289336625
 31
0.0
 11
5.6831553979
 21
4.0303337895
 31
0.0
 11
5.6743400616
 21
4.0338471685
 31
0.0
 11
5.6700853553
 21
4.0359463484
 31
0.0
 11
5.6659475089
 21
4.0382643653
 31
0.0
 11
5.6580590524
 21
4.0435223627
 31
0.0
 11
5.6507424238
 21
4.0495478258
 31
0.0
 11
5.6440613104
 21
4.0562661845
 31
0.0
 11
5.6380628241
 21
4.0636008957
 31
0.0
 11
5.6327879481
 21
4.0714747071
 31
0.0
 11
5.6282710345
 21
4.0798102977
 31
0.0
 11
5.6245381964
 21
4.0885302621
 31
0.0
 11
5.6216135955
 21
4.0975572408
 31
0.0
 11
5.6195125544
 21
4.1068141879
 31
0.0
 11
5.6182469899
 21
4.1162241795
 31
0.0
 11
5.6178248095
 21
4.125710517
 31
0.0
 11
5.6182468334
 21
4.1351968998
 31
0.0
 11
5.6195123198
 21
4.1446070176
 31
0.0
 11
5.6216132324
 21
4.1538641166
 31
0.0
 11
5.624537761
 21
4.1628912141
 31
0.0
 11
5.6282704816
 21
4.1716112277
 31
0.0
 11
5.6327872488
 21
4.1799468365
 31
0.0
 11
5.6380620287
 21
4.1878206884
 31
0.0
 11
5.6440603835
 21
4.1951554959
 31
0.0
 11
5.6507415753
 21
4.2018740213
 31
0.0
 11
5.6580583586
 21
4.2078997415
 31
0.0
 11
5.665946968
 21
4.213157989
 31
0.0
 11
5.6700849299
 21
4.215476087
 31
0.0
 11
5.6743397494
 21
4.2175753345
 31
0.0
 11
5.6831552659
 21
4.2210888214
 31
0.0
 11
5.6876934183
 21
4.2224889819
 31
0.0
 11
5.6923033429
 21
4.2236421404
 31
0.0
 11
5.7016797452
 21
4.2251906173
 31
0.0
 11
5.7111539658
 21
4.2257113333
 31
0.0
  0
SPLINE
  5
223
100
AcDbEntity
  8
0
100
AcDbSpline
 62
6
  6
CONTINUOUS
 70
0
 71
3
 72
43
 73
39
 74
37
 42
0.0000001
 43
0.0000001
 44
0.0000000001
 12
0.3035893395
 22
0.0
 32
0.0
 13
-0.3035893395
 23
0.0
 33
0.0
 40
0.0
 40
0.0
 40
0.0
 40
0.0
 40
0.0312545323
 40
0.062558088
 40
0.078210641
 40
0.0938541081
 40
0.1251124662
 40
0.1407401008
 40
0.1563628297
 40
0.1875898906
 40
0.2188108669
 40
0.2500204269
 40
0.2812310132
 40
0.3124487967
 40
0.3436775756
 40
0.3749215148
 40
0.4061772284
 40
0.4374443617
 40
0.4687191544
 40
0.4999972818
 40
0.531275536
 40
0.5625507075
 40
0.5938182347
 40
0.625074246
 40
0.6563181777
 40
0.6875467784
 40
0.7187645056
 40
0.7499750761
 40
0.7811852204
 40
0.8124071286
 40
0.8436350623
 40
0.8592582571
 40
0.87488633
 40
0.9061453855
 40
0.9217890991
 40
0.9374418219
 40
0.9687454839
 40
1.0
 40
1.0
 40
1.0
 40
1.0
 10
5.7111539658
 20
4.2257113333
 30
0.0
 10
5.7143168134
 20
4.2257113333
 30
0.0
 10
5.7206523611
 20
4.2253608249
 30
0.0
 10
5.7284770132
 20
4.224068663
 30
0.0
 10
5.734625256
 20
4.2225305899
 30
0.0
 10
5.7406763181
 20
4.2206629158
 30
0.0
 10
5.7465668289
 20
4.2183132101
 30
0.0
 10
5.752241523
 20
4.2155131219
 30
0.0
 10
5.7577594505
 20
4.2124213659
 30
0.0
 10
5.7643439134
 20
4.208028352
 30
0.0
 10
5.77167066
 20
4.2019917254
 30
0.0
 10
5.7783608046
 20
4.1952588912
 30
0.0
 10
5.784366621
 20
4.1879106344
 30
0.0
 10
5.7896475593
 20
4.1800234369
 30
0.0
 10
5.7941685762
 20
4.1716741591
 30
0.0
 10
5.7979054393
 20
4.1629418959
 30
0.0
 10
5.8008321102
 20
4.1539019683
 30
0.0
 10
5.8029349034
 20
4.1446328091
 30
0.0
 10
5.8042018343
 20
4.1352106945
 30
0.0
 10
5.8046237297
 20
4.1257121521
 30
0.0
 10
5.8042020153
 20
4.1162135587
 30
0.0
 10
5.8029351163
 20
4.1067913494
 30
0.0
 10
5.8008325075
 20
4.0975220381
 30
0.0
 10
5.7979058855
 20
4.0884820188
 30
0.0
 10
5.7941691466
 20
4.0797496941
 30
0.0
 10
5.7896482818
 20
4.0714003578
 30
0.0
 10
5.7843674072
 20
4.0635131515
 30
0.0
 10
5.7783617349
 20
4.0561647089
 30
0.0
 10
5.7716714856
 20
4.0494317584
 30
0.0
 10
5.7643446262
 20
4.0433948974
 30
0.0
 10
5.757760049
 20
4.039001634
 30
0.0
 10
5.7522419659
 20
4.0359097858
 30
0.0
 10
5.7465671335
 20
4.0331096126
 30
0.0
 10
5.7406765037
 20
4.0307598271
 30
0.0
 10
5.7346253394
 20
4.0288921008
 30
0.0
 10
5.7284770463
 20
4.0273540104
 30
0.0
 10
5.7206523688
 20
4.0260618386
 30
0.0
 10
5.7143168118
 20
4.0257113333
 30
0.0
 10
5.7111539658
 20
4.0257113333
 30
0.0
 11
5.7111539658
 21
4.2257113333
 31
0.0
 11
5.7206282091
 21
4.2251906049
 31
0.0
 11
5.730004632
 21
4.2236421231
 31
0.0
 11
5.734614542
 21
4.2224889788
 31
0.0
 11
5.7391526497
 21
4.2210888422
 31
0.0
 11
5.7479680028
 21
4.2175754339
 31
0.0
 11
5.7522227144
 21
4.2154762432
 31
0.0
 11
5.7563605661
 21
4.2131582211
 31
0.0
 11
5.7642490091
 21
4.2079002071
 31
0.0
 11
5.7715656235
 21
4.2018747297
 31
0.0
 11
5.7782467277
 21
4.1951563681
 31
0.0
 11
5.7842451876
 21
4.1878216617
 31
0.0
 11
5.789520045
 21
4.1799478614
 31
0.0
 11
5.7940369379
 21
4.1716122863
 31
0.0
 11
5.7977697589
 21
4.1628923395
 31
0.0
 11
5.8006943501
 21
4.1538653789
 31
0.0
 11
5.8027953824
 21
4.1446084507
 31
0.0
 11
5.8040609427
 21
4.1351984791
 31
0.0
 11
5.8044831233
 21
4.1257121629
 31
0.0
 11
5.8040611018
 21
4.1162258009
 31
0.0
 11
5.8027956212
 21
4.1068157026
 31
0.0
 11
5.8006947203
 21
4.097558622
 31
0.0
 11
5.7977702034
 21
4.0885315423
 31
0.0
 11
5.7940375032
 21
4.0798115462
 31
0.0
 11
5.7895207592
 21
4.0714759519
 31
0.0
 11
5.7842459977
 21
4.063602108
 31
0.0
 11
5.7782476686
 21
4.0562673009
 31
0.0
 11
5.7715664845
 21
4.0495487686
 31
0.0
 11
5.7642497175
 21
4.0435230315
 31
0.0
 11
5.7563611233
 21
4.0382647665
 31
0.0
 11
5.752223155
 21
4.0359466631
 31
0.0
 11
5.7479683289
 21
4.0338474037
 31
0.0
 11
5.7391527924
 21
4.0303338837
 31
0.0
 11
5.7346146172
 21
4.0289337122
 31
0.0
 11
5.7300046584
 21
4.0277805505
 31
0.0
 11
5.7206282043
 21
4.0262320595
 31
0.0
 11
5.7111539658
 21
4.0257113333
 31
0.0
  0
ENDSEC
  0
SECTION
  2
OBJECTS
  0
DICTIONARY
  5
C
100
AcDbDictionary
280
0
281
1
  3
ACAD_GROUP
350
D
  3
ACAD_MLINESTYLE
350
17
  3
ACAD_LAYOUT
350
1A
  3
ACAD_PLOTSETTINGS
350
19
  3
ACAD_PLOTSTYLENAME
350
E
  0
DICTIONARY
  5
D
102
{ACAD_REACTORS
330
C
102
}
100
AcDbDictionary
280
0
281
1
  0
ACDBDICTIONARYWDFLT
  5
E
102
{ACAD_REACTORS
330
C
102
}
100
AcDbDictionary
281
1
  3
Normal
350
F
100
AcDbDictionaryWithDefault
340
F
  0
DICTIONARY
  5
17
102
{ACAD_REACTORS
330
C
102
}
100
AcDbDictionary
280
0
281
1
  3
Standard
350
18
  0
DICTIONARY
  5
19
102
{ACAD_REACTORS
330
C
102
}
100
AcDbDictionary
281
1
  0
DICTIONARY
  5
1A
102
{ACAD_REACTORS
330
C
102
}
100
AcDbDictionary
281
1
  3
Model
350
224
  3
Layout1
350
225
  0
ACDBPLACEHOLDER
  5
F
102
{ACAD_REACTORS
330
E
102
}
  0
MLINESTYLE
  5
18
102
{ACAD_REACTORS
330
17
102
}
100
AcDbMlineStyle
  2
STANDARD
 70
0
  3

 62
256
 51
90.0
 52
90.0
 71
2
 49
0.5
 62
256
  6
BYLAYER
 49
-0.5
 62
256
  6
BYLAYER
  0
LAYOUT
  5
224
102
{ACAD_REACTORS
330
1A
102
}
100
AcDbPlotSettings
  1

  2
none_device
  4
ISO_A4_(297.00_x_210.00_MM)
  6

 40
0.0
 41
0.0
 42
0.0
 43
0.0
 44
297.0
 45
210.0
 46
0.0
 47
0.0
 48
0.0
 49
0.0
140
0.0
141
0.0
142
1.0
143
1.0
 70
1024
 72
0
 73
0
 74
0
  7

 75
0
147
1.0
148
0.0
149
0.0
100
AcDbLayout
  1
Model
 70
0
 71
0
 10
0.0
 20
0.0
 11
11.6929133858
 21
8.2677165354
 12
0.0
 22
0.0
 32
0.0
 14
0.0
 24
0.0
 34
0.0
 15
0.0
 25
0.0
 35
0.0
146
0.0
 13
0.0
 23
0.0
 33
0.0
 16
1.0
 26
0.0
 36
0.0
 17
0.0
 27
1.0
 37
0.0
 76
0
330
203
345
0
346
0
  0
LAYOUT
  5
225
102
{ACAD_REACTORS
330
1A
102
}
100
AcDbPlotSettings
  1

  2
none_device
  4
ISO_A4_(297.00_x_210.00_MM)
  6

 40
0.0
 41
0.0
 42
0.0
 43
0.0
 44
297.0
 45
210.0
 46
0.0
 47
0.0
 48
0.0
 49
0.0
140
0.0
141
0.0
142
1.0
143
1.0
 70
0
 72
0
 73
0
 74
0
  7

 75
0
147
1.0
148
0.0
149
0.0
100
AcDbLayout
  1
Layout1
 70
0
 71
1
 10
0.0
 20
0.0
 11
11.6929133858
 21
8.2677165354
 12
0.0
 22
0.0
 32
0.0
 14
0.0
 24
0.0
 34
0.0
 15
0.0
 25
0.0
 35
0.0
146
0.0
 13
0.0
 23
0.0
 33
0.0
 16
1.0
 26
0.0
 36
0.0
 17
0.0
 27
1.0
 37
0.0
 76
0
330
204
345
0
346
0
  0
ENDSEC
  0
EOF
