  0
SECTION
  2
HEADER
  9
$ACADVER
  1
AC1021
  9
$DWGCODEPAGE
  3
ANSI_1252
  9
$EXTMAX
 10
11.6929133858
 20
8.2677165354
 30
0.0
  9
$EXTMIN
 10
0.0
 20
-0.0
 30
0.0
  9
$LIMMIN
 10
0.0
 20
-0.0
  9
$LIMMAX
 10
11.6929133858
 20
8.2677165354
  9
$VIEWCTR
 10
5.8464566929
 20
4.1338582677
  9
$VIEWSIZE
 40
8.2677165354
  9
$CLAYER
  8
0
  9
$LTSCALE
 40
0.6431102362
  9
$CELTYPE
  6
BYLAYER
  9
$DIMSCALE
 40
1.0
  9
$DIMASZ
 40
0.1875
  9
$DIMEXO
 40
0.0730807087
  9
$DIMDLI
 40
0.4443307087
  9
$DIMEXE
 40
0.2104724409
  9
$DIMCEN
 40
0.1052362205
  9
$DIMLFAC
 40
1.0
  9
$DIMBLK
  1
_CLOSED
  9
$DIMTXT
 40
0.15625
  9
$DIMTOL
 70
0
  9
$DIMLIM
 70
0
  9
$DIMTFAC
 40
1.0
  9
$PDMODE
 70
3
  9
$PDSIZE
 40
0.3125
  9
$HANDSEED
  5
22E
  9
$TILEMODE
 70
1
  9
$MEASUREMENT
 70
0
  9
$INSUNITS
 70
1
  0
ENDSEC
  0
SECTION
  2
CLASSES
  0
CLASS
  1
ACDBDICTIONARYWDFLT
  2
AcDbDictionaryWithDefault
  3
AutoCAD 2000
 90
0
 91
1
280
0
281
0
  0
CLASS
  1
ACDBPLACEHOLDER
  2
AcDbPlaceHolder
  3
AutoCAD 2000
 90
0
 91
1
280
0
281
0
  0
CLASS
  1
LAYOUT
  2
AcDbLayout
  3
AutoCAD 2000
 90
0
 91
0
280
0
281
0
  0
ENDSEC
  0
SECTION
  2
TABLES
  0
TABLE
  2
VPORT
  5
8
100
AcDbSymbolTable
 70
2
  0
VPORT
  5
1F4
100
AcDbSymbolTableRecord
100
AcDbViewportTableRecord
  2
*ACTIVE
 70
0
 10
0.0
 20
0.0
 11
1.0
 21
1.0
 12
5.8464566929
 22
4.1338582677
 13
0.0
 23
0.0
 14
1.0
 24
1.0
 15
0.0
 25
0.0
 16
0.0
 26
0.0
 36
1.0
 17
0.0
 27
0.0
 37
0.0
 40
8.2677165354
 41
1.4142857143
 42
50.0
 43
0.0
 44
0.0
 50
0.0
 51
0.0
 71
0
 72
100
 73
1
 74
1
 75
0
 76
0
 77
0
 78
0
  0
ENDTAB
  0
TABLE
  2
LTYPE
  5
5
100
AcDbSymbolTable
 70
6
  0
LTYPE
  5
14
100
AcDbSymbolTableRecord
100
AcDbLinetypeTableRecord
  2
BYBLOCK
 70
0
  3

 72
65
 73
0
 40
0.0
  0
LTYPE
  5
15
100
AcDbSymbolTableRecord
100
AcDbLinetypeTableRecord
  2
BYLAYER
 70
0
  3

 72
65
 73
0
 40
0.0
  0
LTYPE
  5
16
100
AcDbSymbolTableRecord
100
AcDbLinetypeTableRecord
  2
CONTINUOUS
 70
64
  3
Solid line
 72
65
 73
0
 40
0.0
  0
LTYPE
  5
1F5
100
AcDbSymbolTableRecord
100
AcDbLinetypeTableRecord
  2
CENTER
 70
64
  3
____ _ ____ _ ____ _ ____ _ ____ _ ____ _ ____
 72
65
 73
4
 40
0.6
 49
0.375
 74
0
 49
-0.075
 74
0
 49
0.075
 74
0
 49
-0.075
 74
0
  0
LTYPE
  5
1F6
100
AcDbSymbolTableRecord
100
AcDbLinetypeTableRecord
  2
HIDDEN
 70
64
  3
- - - - - - - - - - - - - - - - - - - -
 72
65
 73
2
 40
0.2
 49
0.1
 74
0
 49
-0.1
 74
0
  0
LTYPE
  5
1F7
100
AcDbSymbolTableRecord
100
AcDbLinetypeTableRecord
  2
PHANTOM
 70
64
  3
_____ _ _ _____ _ _ _____ _ _ _____
 72
65
 73
6
 40
0.8
 49
0.45
 74
0
 49
-0.05
 74
0
 49
0.1
 74
0
 49
-0.05
 74
0
 49
0.1
 74
0
 49
-0.05
 74
0
  0
LTYPE
  5
1F8
100
AcDbSymbolTableRecord
100
AcDbLinetypeTableRecord
  2
DOT
 70
64
  3
. . . . . . . . . . . . . . . . . . . .
 72
65
 73
2
 40
0.2
 49
0.1
 74
0
 49
-0.1
 74
0
  0
LTYPE
  5
1F9
100
AcDbSymbolTableRecord
100
AcDbLinetypeTableRecord
  2
DASHED
 70
64
  3
- - - - - - - - - - - - - - - - - - - -
 72
65
 73
2
 40
0.2
 49
0.1
 74
0
 49
-0.1
 74
0
  0
ENDTAB
  0
TABLE
  2
LAYER
  5
2
100
AcDbSymbolTable
 70
36
  0
LAYER
  5
10
100
AcDbSymbolTableRecord
100
AcDbLayerTableRecord
  2
0
 70
0
 62
7
  6
CONTINUOUS
370
-3
390
F
  0
LAYER
  5
1FA
100
AcDbSymbolTableRecord
100
AcDbLayerTableRecord
  2
DEFAULT_1
 70
0
 62
7
  6
CENTER
370
-3
390
F
  0
LAYER
  5
1FB
100
AcDbSymbolTableRecord
100
AcDbLayerTableRecord
  2
DEFAULT_2
 70
0
 62
8
  6
HIDDEN
370
-3
390
F
  0
LAYER
  5
1FC
100
AcDbSymbolTableRecord
100
AcDbLayerTableRecord
  2
DEFAULT_3
 70
0
 62
7
  6
PHANTOM
370
-3
390
F
  0
LAYER
  5
1FD
100
AcDbSymbolTableRecord
100
AcDbLayerTableRecord
  2
DEFAULT_COORDINATE_SYSTEM
 70
0
 62
7
  6
CONTINUOUS
370
-3
390
F
  0
LAYER
  5
1FE
100
AcDbSymbolTableRecord
100
AcDbLayerTableRecord
  2
DEFAULT_DATUM_AXES
 70
0
 62
7
  6
CONTINUOUS
370
-3
390
F
  0
LAYER
  5
1FF
100
AcDbSymbolTableRecord
100
AcDbLayerTableRecord
  2
DEFAULT_DATUM_CURVES
 70
0
 62
7
  6
CONTINUOUS
370
-3
390
F
  0
LAYER
  5
200
100
AcDbSymbolTableRecord
100
AcDbLayerTableRecord
  2
DEFAULT_DATUM_PLANES
 70
0
 62
7
  6
CONTINUOUS
370
-3
390
F
  0
ENDTAB
  0
TABLE
  2
STYLE
  5
3
100
AcDbSymbolTable
 70
1
  0
STYLE
  5
11
100
AcDbSymbolTableRecord
100
AcDbTextStyleTableRecord
  2
STANDARD
 70
0
 40
0.0
 41
0.8
 50
0.0
 71
0
 42
0.2
  3
txt
  4

  0
STYLE
  5
201
100
AcDbSymbolTableRecord
100
AcDbTextStyleTableRecord
  2
TEXTSTYLE_1
 70
0
 40
0.0
 41
0.8
 50
0.0
 71
0
 42
0.2
  3
gdt
  4

  0
ENDTAB
  0
TABLE
  2
VIEW
  5
6
100
AcDbSymbolTable
 70
0
  0
ENDTAB
  0
TABLE
  2
UCS
  5
7
100
AcDbSymbolTable
 70
0
  0
ENDTAB
  0
TABLE
  2
APPID
  5
9
100
AcDbSymbolTable
 70
1
  0
APPID
  5
202
100
AcDbSymbolTableRecord
100
AcDbRegAppTableRecord
  2
ACAD
 70
0
  0
ENDTAB
  0
TABLE
  2
BLOCK_RECORD
  5
1
100
AcDbSymbolTable
 70
0
  0
BLOCK_RECORD
  5
203
100
AcDbSymbolTableRecord
100
AcDbBlockTableRecord
  2
*Model_Space
  0
BLOCK_RECORD
  5
204
100
AcDbSymbolTableRecord
100
AcDbBlockTableRecord
  2
*Paper_Space
  0
ENDTAB
  0
TABLE
  2
DIMSTYLE
  5
A
100
AcDbSymbolTable
 70
1
100
AcDbDimStyleTable
 71
0
  0
DIMSTYLE
105
205
100
AcDbSymbolTableRecord
100
AcDbDimStyleTableRecord
  2
STANDARD
 70
0
  3

  4

 40
1.0
 41
0.1875
 42
0.0625
 43
0.38
 44
0.18
 45
0.0
 46
0.0
 47
0.001
 48
0.001
140
0.15625
141
0.09
142
0.0
143
25.4
144
1.0
145
0.0
146
1.0
147
0.09
 71
0.0
 72
0.0
 73
1
 74
1
 75
0
 76
0
 77
0
 78
4
170
0
171
2
172
0
173
0
174
0
175
0
176
0
177
0
178
0
270
2
271
3
272
3
273
2
274
2
275
0
280
0
281
0
282
0
283
1
284
4
285
0
286
0
287
3
288
0
340
11
  0
ENDTAB
  0
ENDSEC
  0
SECTION
  2
BLOCKS
  0
BLOCK
  5
20
100
AcDbEntity
  8
0
100
AcDbBlockBegin
  2
*Model_Space
 70
0
 10
0.0
 20
0.0
 30
0.0
  3
*Model_Space
  1

  0
ENDBLK
  5
21
100
AcDbEntity
  8
0
100
AcDbBlockEnd
  0
BLOCK
  5
1C
100
AcDbEntity
  8
0
100
AcDbBlockBegin
  2
*Paper_Space
 70
0
 10
0.0
 20
0.0
 30
0.0
  3
*Paper_Space
  1

  0
ENDBLK
  5
1D
100
AcDbEntity
  8
0
100
AcDbBlockEnd
  0
ENDSEC
  0
SECTION
  2
ENTITIES
  0
LINE
  5
206
100
AcDbEntity
  8
0
100
AcDbLine
 62
6
  6
CONTINUOUS
 10
3.2344788743
 20
2.0096311677
 11
3.1107351875
 21
2.1333748545
  0
LINE
  5
207
100
AcDbEntity
  8
0
100
AcDbLine
 62
6
  6
CONTINUOUS
 10
3.1248773232
 20
2.1475169901
 11
3.1163920418
 21
2.1560022715
  0
LINE
  5
208
100
AcDbEntity
  8
0
100
AcDbLine
 62
6
  6
CONTINUOUS
 10
3.4996439172
 20
2.2747962107
 11
3.3674149491
 21
2.4070251788
  0
LINE
  5
209
100
AcDbEntity
  8
0
100
AcDbLine
 62
6
  6
CONTINUOUS
 10
7.7433623507
 20
1.6435146442
 11
4.1183623507
 21
1.6435146442
  0
LINE
  5
20A
100
AcDbEntity
  8
0
100
AcDbLine
 62
6
  6
CONTINUOUS
 10
7.7433623507
 20
2.0185146442
 11
4.1183623507
 21
2.0185146442
  0
LINE
  5
20B
100
AcDbEntity
  8
0
100
AcDbLine
 62
9
  6
CONTINUOUS
 10
4.1183623507
 20
1.6435146442
 11
4.1183623507
 21
2.0185146442
  0
LINE
  5
20C
100
AcDbEntity
  8
0
100
AcDbLine
 62
9
  6
CONTINUOUS
 10
8.9933623507
 20
2.8935146442
 11
8.6183623507
 21
2.8935146442
  0
LINE
  5
20D
100
AcDbEntity
  8
0
100
AcDbLine
 62
6
  6
CONTINUOUS
 10
5.6820145109
 20
5.0574168044
 11
5.680935767
 21
5.0563380605
  0
LINE
  5
20E
100
AcDbEntity
  8
0
100
AcDbLine
 62
6
  6
CONTINUOUS
 10
5.6866319029
 20
5.0570341964
 11
5.6854178165
 21
5.05582011
  0
LINE
  5
20F
100
AcDbEntity
  8
0
100
AcDbLine
 62
7
  6
CONTINUOUS
 10
3.1015427994
 20
2.141153029
 11
3.3681220559
 21
2.4077322856
  0
LINE
  5
210
100
AcDbEntity
  8
0
100
AcDbLine
 62
7
  6
CONTINUOUS
 10
3.1107351875
 20
2.1333748545
 11
3.1248773232
 21
2.1475169901
  0
LINE
  5
211
100
AcDbEntity
  8
0
100
AcDbLine
 62
9
  6
CONTINUOUS
 10
3.2344788743
 20
2.0096311677
 11
3.4996439172
 21
2.2747962107
  0
LINE
  5
212
100
AcDbEntity
  8
0
100
AcDbLine
 62
9
  6
CONTINUOUS
 10
8.9933623507
 20
4.6435146442
 11
8.6183623507
 21
4.6435146442
  0
LINE
  5
213
100
AcDbEntity
  8
0
100
AcDbLine
 62
6
  6
CONTINUOUS
 10
5.8620927986
 20
5.0570341964
 11
5.863306885
 21
5.05582011
  0
LINE
  5
214
100
AcDbEntity
  8
0
100
AcDbLine
 62
6
  6
CONTINUOUS
 10
5.8667101906
 20
5.0574168044
 11
5.8677890317
 21
5.0563379633
  0
LINE
  5
215
100
AcDbEntity
  8
0
100
AcDbLine
 62
6
  6
CONTINUOUS
 10
6.3995799403
 20
5.5130146442
 11
6.4019054981
 21
5.5130146442
  0
LINE
  5
216
100
AcDbEntity
  8
0
100
AcDbLine
 62
6
  6
CONTINUOUS
 10
6.4032412786
 20
5.5185146442
 11
7.7433623507
 21
5.5185146442
  0
LINE
  5
217
100
AcDbEntity
  8
0
100
AcDbLine
 62
6
  6
CONTINUOUS
 10
6.4032413057
 20
5.8935146442
 11
7.7433623507
 21
5.8935146442
  0
LINE
  5
218
100
AcDbEntity
  8
0
100
AcDbLine
 62
6
  6
CONTINUOUS
 10
6.3995799403
 20
5.8990146442
 11
6.4019054981
 21
5.8990146442
  0
LINE
  5
219
100
AcDbEntity
  8
0
100
AcDbLine
 62
9
  6
CONTINUOUS
 10
7.7433623507
 20
5.8935146442
 11
7.7433623507
 21
5.5185146442
  0
LINE
  5
21A
100
AcDbEntity
  8
0
100
AcDbLine
 62
9
  6
CONTINUOUS
 10
7.7433623507
 20
1.6435146442
 11
7.7433623507
 21
2.0185146442
  0
LINE
  5
21B
100
AcDbEntity
  8
0
100
AcDbLine
 62
6
  6
CONTINUOUS
 10
8.6183623507
 20
4.6435146442
 11
8.6183623507
 21
2.8935146442
  0
LINE
  5
21C
100
AcDbEntity
  8
0
100
AcDbLine
 62
6
  6
CONTINUOUS
 10
8.9933623507
 20
4.6435146442
 11
8.9933623507
 21
2.8935146442
  0
ARC
  5
21D
100
AcDbEntity
  8
0
100
AcDbCircle
 62
6
  6
CONTINUOUS
 10
4.1183623507
 20
2.8935146442
 40
1.25
100
AcDbArc
 50
225.0
 51
270.0
  0
ARC
  5
21E
100
AcDbEntity
  8
0
100
AcDbCircle
 62
6
  6
CONTINUOUS
 10
4.1183623507
 20
2.8935146442
 40
0.875
100
AcDbArc
 50
225.0
 51
270.0
  0
ARC
  5
21F
100
AcDbEntity
  8
0
100
AcDbCircle
 62
6
  6
CONTINUOUS
 10
3.0585882788
 20
2.4506868061
 40
0.3125
100
AcDbArc
 50
352.0994261891
 51
277.9005738109
  0
ARC
  5
220
100
AcDbEntity
  8
0
100
AcDbCircle
 62
6
  6
CONTINUOUS
 10
7.7433623507
 20
2.8935146442
 40
1.25
100
AcDbArc
 50
270.0
 51
360.0
  0
ARC
  5
221
100
AcDbEntity
  8
0
100
AcDbCircle
 62
6
  6
CONTINUOUS
 10
7.7433623507
 20
2.8935146442
 40
0.875
100
AcDbArc
 50
270.0
 51
360.0
  0
ARC
  5
222
100
AcDbEntity
  8
0
100
AcDbCircle
 62
6
  6
CONTINUOUS
 10
7.7433623507
 20
4.6435146442
 40
1.25
100
AcDbArc
 50
0.0
 51
90.0
  0
ARC
  5
223
100
AcDbEntity
  8
0
100
AcDbCircle
 62
6
  6
CONTINUOUS
 10
5.7743623507
 20
5.7060146442
 40
1.1875
100
AcDbArc
 50
9.0919643818
 51
350.9080356182
  0
ARC
  5
224
100
AcDbEntity
  8
0
100
AcDbCircle
 62
6
  6
CONTINUOUS
 10
7.7433623507
 20
4.6435146442
 40
0.875
100
AcDbArc
 50
0.0
 51
90.0
  0
ARC
  5
225
100
AcDbEntity
  8
0
100
AcDbCircle
 62
7
  6
CONTINUOUS
 10
5.7728587628
 20
5.7060715531
 40
0.6577535493
100
AcDbArc
 50
355.5069094452
 51
359.9950427677
  0
ARC
  5
226
100
AcDbEntity
  8
0
100
AcDbCircle
 62
7
  6
CONTINUOUS
 10
5.7737078402
 20
5.7059904887
 40
0.6569041185
100
AcDbArc
 50
0.0021068693
 51
4.4963327349
  0
ARC
  5
227
100
AcDbEntity
  8
0
100
AcDbCircle
 62
7
  6
CONTINUOUS
 10
5.7742823979
 20
5.7060242305
 40
0.6563300545
100
AcDbArc
 50
345.827680862
 51
354.9196642748
  0
ARC
  5
228
100
AcDbEntity
  8
0
100
AcDbCircle
 62
7
  6
CONTINUOUS
 10
5.7742962142
 20
5.7060073987
 40
0.6563160603
100
AcDbArc
 50
5.0803289095
 51
14.1723451984
  0
CIRCLE
  5
229
100
AcDbEntity
  8
0
100
AcDbCircle
 62
6
  6
CONTINUOUS
 10
5.7743623507
 20
5.7060146442
 40
0.65625
  0
SPLINE
  5
22A
100
AcDbEntity
  8
0
100
AcDbSpline
 62
7
  6
CONTINUOUS
 70
0
 71
3
 72
28
 73
24
 74
22
 42
0.0000001
 43
0.0000001
 44
0.0000000001
 12
-0.0078366018
 22
0.0306521277
 32
0.0
 13
-0.0096210695
 23
0.0301396795
 33
0.0
 40
0.0
 40
0.0
 40
0.0
 40
0.0
 40
0.2272380295
 40
0.4275224807
 40
0.5171633573
 40
0.5995932996
 40
0.6746539045
 40
0.7421914403
 40
0.8020927464
 40
0.8542632252
 40
0.8986081037
 40
0.9350323484
 40
0.9502444699
 40
0.9634406893
 40
0.9746100233
 40
0.9837489371
 40
0.9908574009
 40
0.9936502112
 40
0.9959354055
 40
0.9977129827
 40
0.9989829417
 40
0.9997452811
 40
1.0
 40
1.0
 40
1.0
 40
1.0
 10
6.410162994
 20
5.8685616036
 30
0.0
 10
6.4095694027
 20
5.8708833799
 30
0.0
 10
6.4084288838
 20
5.8752455071
 30
0.0
 10
6.406995198
 20
5.8805078
 30
0.0
 10
6.4059359958
 20
5.8842891265
 30
0.0
 10
6.4052224563
 20
5.8867958062
 30
0.0
 10
6.4045640814
 20
5.8890758062
 30
0.0
 10
6.4039650804
 20
5.8911256439
 30
0.0
 10
6.403428424
 20
5.8929421955
 30
0.0
 10
6.402956612
 20
5.894522856
 30
0.0
 10
6.4025521539
 20
5.8958652318
 30
0.0
 10
6.4022579621
 20
5.8968337567
 30
0.0
 10
6.4020584005
 20
5.8974877104
 30
0.0
 10
6.4019363541
 20
5.8978868548
 30
0.0
 10
6.4018330008
 20
5.8982247397
 30
0.0
 10
6.4017484318
 20
5.8985012325
 30
0.0
 10
6.4016897023
 20
5.89869325
 30
0.0
 10
6.4016521082
 20
5.8988161472
 30
0.0
 10
6.4016309683
 20
5.8988852866
 30
0.0
 10
6.4016145004
 20
5.8989390604
 30
0.0
 10
6.4016027896
 20
5.8989774952
 30
0.0
 10
6.4015956621
 20
5.8990005366
 30
0.0
 10
6.4015925999
 20
5.8990108169
 30
0.0
 10
6.401591783
 20
5.8990133759
 30
0.0
 11
6.410162994
 21
5.8685616036
 31
0.0
 11
6.4083443605
 21
5.8755171436
 31
0.0
 11
6.4066784549
 21
5.8816308446
 31
0.0
 11
6.4059134902
 21
5.8843617917
 31
0.0
 11
6.4051995197
 21
5.886870078
 31
0.0
 11
6.4045407949
 21
5.8891516596
 31
0.0
 11
6.403941423
 21
5.8912026289
 31
0.0
 11
6.4034044135
 21
5.8930201136
 31
0.0
 11
6.4029322726
 21
5.8946017169
 31
0.0
 11
6.4025275039
 21
5.8959450444
 31
0.0
 11
6.4021926106
 21
5.8970477015
 31
0.0
 11
6.4020521496
 21
5.8975080304
 31
0.0
 11
6.4019300963
 21
5.8979072939
 31
0.0
 11
6.4018267386
 21
5.8982452164
 31
0.0
 11
6.4017421691
 21
5.8985217094
 31
0.0
 11
6.4016763886
 21
5.898736772
 31
0.0
 11
6.4016505443
 21
5.898821267
 31
0.0
 11
6.4016293973
 21
5.8988904042
 31
0.0
 11
6.4016129476
 21
5.8989441837
 31
0.0
 11
6.4016011954
 21
5.8989826056
 31
0.0
 11
6.4015941405
 21
5.8990056696
 31
0.0
 11
6.401591783
 21
5.8990133759
 31
0.0
  0
SPLINE
  5
22B
100
AcDbEntity
  8
0
100
AcDbSpline
 62
7
  6
CONTINUOUS
 70
0
 71
3
 72
29
 73
25
 74
23
 42
0.0000001
 43
0.0000001
 44
0.0000000001
 12
-0.0096221326
 22
-0.0301430098
 32
0.0
 13
0.0078373034
 23
0.0306555566
 33
0.0
 40
0.0
 40
0.0
 40
0.0
 40
0.0
 40
0.0002529302
 40
0.0010135381
 40
0.0022818248
 40
0.0040577914
 40
0.0091327691
 40
0.0162384805
 40
0.025374935
 40
0.0365421186
 40
0.0497364387
 40
0.06494688
 40
0.101368415
 40
0.14571144
 40
0.197880908
 40
0.2577820327
 40
0.3253202052
 40
0.4003823052
 40
0.4828145531
 40
0.5724584564
 40
0.6691563323
 40
0.7727513618
 40
0.8830875679
 40
1.0
 40
1.0
 40
1.0
 40
1.0
 10
6.401591783
 20
5.5130159126
 30
0.0
 10
6.4015909718
 20
5.5130133712
 30
0.0
 10
6.4015979787
 20
5.513036012
 30
0.0
 10
6.4016012656
 20
5.5130470185
 30
0.0
 10
6.4016151294
 20
5.5130921987
 30
0.0
 10
6.4016388822
 20
5.5131699469
 30
0.0
 10
6.4016829008
 20
5.5133137954
 30
0.0
 10
6.4017481987
 20
5.513527311
 30
0.0
 10
6.4018329358
 20
5.5138043403
 30
0.0
 10
6.4019362177
 20
5.5141419862
 30
0.0
 10
6.4020582845
 20
5.514541188
 30
0.0
 10
6.4022578417
 20
5.5151951189
 30
0.0
 10
6.4025520546
 20
5.516163706
 30
0.0
 10
6.4029565387
 20
5.517506166
 30
0.0
 10
6.4034283936
 20
5.5190869733
 30
0.0
 10
6.4039651052
 20
5.5209037198
 30
0.0
 10
6.4045641748
 20
5.522953805
 30
0.0
 10
6.4052226322
 20
5.5252341028
 30
0.0
 10
6.4059362684
 20
5.527741129
 30
0.0
 10
6.4067008987
 20
5.530470877
 30
0.0
 10
6.4075122674
 20
5.5334193012
 30
0.0
 10
6.4083661253
 20
5.5365823534
 30
0.0
 10
6.4092582171
 20
5.5399558762
 30
0.0
 10
6.4098584225
 20
5.5422763561
 30
0.0
 10
6.4101638486
 20
5.543471028
 30
0.0
 11
6.401591783
 21
5.5130159126
 31
0.0
 11
6.4015941235
 21
5.5130235658
 31
0.0
 11
6.4016011625
 21
5.5130465802
 31
0.0
 11
6.4016129001
 21
5.5130849558
 31
0.0
 11
6.4016293361
 21
5.5131386927
 31
0.0
 11
6.401676304
 21
5.5132922504
 31
0.0
 11
6.4017420664
 21
5.5135072536
 31
0.0
 11
6.4018266235
 21
5.5137837024
 31
0.0
 11
6.401929975
 21
5.5141215965
 31
0.0
 11
6.4020520265
 21
5.5145208459
 31
0.0
 11
6.4021924894
 21
5.5149811742
 31
0.0
 11
6.4025273971
 21
5.5160838704
 31
0.0
 11
6.4029321945
 21
5.5174272899
 31
0.0
 11
6.4034043776
 21
5.5190090376
 31
0.0
 11
6.4039414427
 21
5.5208267183
 31
0.0
 11
6.4045408834
 21
5.5228779344
 31
0.0
 11
6.405199691
 21
5.5251598144
 31
0.0
 11
6.4059137572
 21
5.5276684489
 31
0.0
 11
6.4066788279
 21
5.5303997912
 31
0.0
 11
6.4074906492
 21
5.5333497945
 31
0.0
 11
6.4083449671
 21
5.5365144121
 31
0.0
 11
6.4092375261
 21
5.5398895952
 31
0.0
 11
6.4101638486
 21
5.543471028
 31
0.0
  0
ENDSEC
  0
SECTION
  2
OBJECTS
  0
DICTIONARY
  5
C
100
AcDbDictionary
280
0
281
1
  3
ACAD_GROUP
350
D
  3
ACAD_MLINESTYLE
350
17
  3
ACAD_LAYOUT
350
1A
  3
ACAD_PLOTSETTINGS
350
19
  3
ACAD_PLOTSTYLENAME
350
E
  0
DICTIONARY
  5
D
102
{ACAD_REACTORS
330
C
102
}
100
AcDbDictionary
280
0
281
1
  0
ACDBDICTIONARYWDFLT
  5
E
102
{ACAD_REACTORS
330
C
102
}
100
AcDbDictionary
281
1
  3
Normal
350
F
100
AcDbDictionaryWithDefault
340
F
  0
DICTIONARY
  5
17
102
{ACAD_REACTORS
330
C
102
}
100
AcDbDictionary
280
0
281
1
  3
Standard
350
18
  0
DICTIONARY
  5
19
102
{ACAD_REACTORS
330
C
102
}
100
AcDbDictionary
281
1
  0
DICTIONARY
  5
1A
102
{ACAD_REACTORS
330
C
102
}
100
AcDbDictionary
281
1
  3
Model
350
22C
  3
Layout1
350
22D
  0
ACDBPLACEHOLDER
  5
F
102
{ACAD_REACTORS
330
E
102
}
  0
MLINESTYLE
  5
18
102
{ACAD_REACTORS
330
17
102
}
100
AcDbMlineStyle
  2
STANDARD
 70
0
  3

 62
256
 51
90.0
 52
90.0
 71
2
 49
0.5
 62
256
  6
BYLAYER
 49
-0.5
 62
256
  6
BYLAYER
  0
LAYOUT
  5
22C
102
{ACAD_REACTORS
330
1A
102
}
100
AcDbPlotSettings
  1

  2
none_device
  4
ISO_A4_(297.00_x_210.00_MM)
  6

 40
0.0
 41
0.0
 42
0.0
 43
0.0
 44
297.0
 45
210.0
 46
0.0
 47
0.0
 48
0.0
 49
0.0
140
0.0
141
0.0
142
1.0
143
1.0
 70
1024
 72
0
 73
0
 74
0
  7

 75
0
147
1.0
148
0.0
149
0.0
100
AcDbLayout
  1
Model
 70
0
 71
0
 10
0.0
 20
0.0
 11
11.6929133858
 21
8.2677165354
 12
0.0
 22
0.0
 32
0.0
 14
0.0
 24
0.0
 34
0.0
 15
0.0
 25
0.0
 35
0.0
146
0.0
 13
0.0
 23
0.0
 33
0.0
 16
1.0
 26
0.0
 36
0.0
 17
0.0
 27
1.0
 37
0.0
 76
0
330
203
345
0
346
0
  0
LAYOUT
  5
22D
102
{ACAD_REACTORS
330
1A
102
}
100
AcDbPlotSettings
  1

  2
none_device
  4
ISO_A4_(297.00_x_210.00_MM)
  6

 40
0.0
 41
0.0
 42
0.0
 43
0.0
 44
297.0
 45
210.0
 46
0.0
 47
0.0
 48
0.0
 49
0.0
140
0.0
141
0.0
142
1.0
143
1.0
 70
0
 72
0
 73
0
 74
0
  7

 75
0
147
1.0
148
0.0
149
0.0
100
AcDbLayout
  1
Layout1
 70
0
 71
1
 10
0.0
 20
0.0
 11
11.6929133858
 21
8.2677165354
 12
0.0
 22
0.0
 32
0.0
 14
0.0
 24
0.0
 34
0.0
 15
0.0
 25
0.0
 35
0.0
146
0.0
 13
0.0
 23
0.0
 33
0.0
 16
1.0
 26
0.0
 36
0.0
 17
0.0
 27
1.0
 37
0.0
 76
0
330
204
345
0
346
0
  0
ENDSEC
  0
EOF
