  0
SECTION
  2
HEADER
  9
$ACADVER
  1
AC1021
  9
$DWGCODEPAGE
  3
ANSI_1252
  9
$EXTMAX
 10
16.5354330709
 20
11.6929133858
 30
0.0
  9
$EXTMIN
 10
0.0
 20
0.0
 30
0.0
  9
$LIMMIN
 10
0.0
 20
0.0
  9
$LIMMAX
 10
16.5354330709
 20
11.6929133858
  9
$VIEWCTR
 10
8.2677165354
 20
5.8464566929
  9
$VIEWSIZE
 40
11.6929133858
  9
$CLAYER
  8
0
  9
$LTSCALE
 40
0.9094488189
  9
$CELTYPE
  6
BYLAYER
  9
$DIMSCALE
 40
1.0
  9
$DIMASZ
 40
0.1875
  9
$DIMEXO
 40
0.1033464567
  9
$DIMDLI
 40
0.6283464567
  9
$DIMEXE
 40
0.2976377953
  9
$DIMCEN
 40
0.1488188976
  9
$DIMLFAC
 40
1.0
  9
$DIMBLK
  1
_CLOSED
  9
$DIMTXT
 40
0.15625
  9
$DIMTOL
 70
0
  9
$DIMLIM
 70
0
  9
$DIMTFAC
 40
1.0
  9
$PDMODE
 70
3
  9
$PDSIZE
 40
0.3125
  9
$HANDSEED
  5
222
  9
$TILEMODE
 70
1
  9
$MEASUREMENT
 70
0
  9
$INSUNITS
 70
1
  0
ENDSEC
  0
SECTION
  2
CLASSES
  0
CLASS
  1
ACDBDICTIONARYWDFLT
  2
AcDbDictionaryWithDefault
  3
AutoCAD 2000
 90
0
 91
1
280
0
281
0
  0
CLASS
  1
ACDBPLACEHOLDER
  2
AcDbPlaceHolder
  3
AutoCAD 2000
 90
0
 91
1
280
0
281
0
  0
CLASS
  1
LAYOUT
  2
AcDbLayout
  3
AutoCAD 2000
 90
0
 91
0
280
0
281
0
  0
ENDSEC
  0
SECTION
  2
TABLES
  0
TABLE
  2
VPORT
  5
8
100
AcDbSymbolTable
 70
2
  0
VPORT
  5
1F4
100
AcDbSymbolTableRecord
100
AcDbViewportTableRecord
  2
*ACTIVE
 70
0
 10
0.0
 20
0.0
 11
1.0
 21
1.0
 12
8.2677165354
 22
5.8464566929
 13
0.0
 23
0.0
 14
1.0
 24
1.0
 15
0.0
 25
0.0
 16
0.0
 26
0.0
 36
1.0
 17
0.0
 27
0.0
 37
0.0
 40
11.6929133858
 41
1.4141414141
 42
50.0
 43
0.0
 44
0.0
 50
0.0
 51
0.0
 71
0
 72
100
 73
1
 74
1
 75
0
 76
0
 77
0
 78
0
  0
ENDTAB
  0
TABLE
  2
LTYPE
  5
5
100
AcDbSymbolTable
 70
6
  0
LTYPE
  5
14
100
AcDbSymbolTableRecord
100
AcDbLinetypeTableRecord
  2
BYBLOCK
 70
0
  3

 72
65
 73
0
 40
0.0
  0
LTYPE
  5
15
100
AcDbSymbolTableRecord
100
AcDbLinetypeTableRecord
  2
BYLAYER
 70
0
  3

 72
65
 73
0
 40
0.0
  0
LTYPE
  5
16
100
AcDbSymbolTableRecord
100
AcDbLinetypeTableRecord
  2
CONTINUOUS
 70
64
  3
Solid line
 72
65
 73
0
 40
0.0
  0
LTYPE
  5
1F5
100
AcDbSymbolTableRecord
100
AcDbLinetypeTableRecord
  2
CENTER
 70
64
  3
____ _ ____ _ ____ _ ____ _ ____ _ ____ _ ____
 72
65
 73
4
 40
0.6
 49
0.375
 74
0
 49
-0.075
 74
0
 49
0.075
 74
0
 49
-0.075
 74
0
  0
LTYPE
  5
1F6
100
AcDbSymbolTableRecord
100
AcDbLinetypeTableRecord
  2
HIDDEN
 70
64
  3
- - - - - - - - - - - - - - - - - - - -
 72
65
 73
2
 40
0.2
 49
0.1
 74
0
 49
-0.1
 74
0
  0
LTYPE
  5
1F7
100
AcDbSymbolTableRecord
100
AcDbLinetypeTableRecord
  2
PHANTOM
 70
64
  3
_____ _ _ _____ _ _ _____ _ _ _____
 72
65
 73
6
 40
0.8
 49
0.45
 74
0
 49
-0.05
 74
0
 49
0.1
 74
0
 49
-0.05
 74
0
 49
0.1
 74
0
 49
-0.05
 74
0
  0
LTYPE
  5
1F8
100
AcDbSymbolTableRecord
100
AcDbLinetypeTableRecord
  2
DOT
 70
64
  3
. . . . . . . . . . . . . . . . . . . .
 72
65
 73
2
 40
0.2
 49
0.1
 74
0
 49
-0.1
 74
0
  0
LTYPE
  5
1F9
100
AcDbSymbolTableRecord
100
AcDbLinetypeTableRecord
  2
DASHED
 70
64
  3
- - - - - - - - - - - - - - - - - - - -
 72
65
 73
2
 40
0.2
 49
0.1
 74
0
 49
-0.1
 74
0
  0
ENDTAB
  0
TABLE
  2
LAYER
  5
2
100
AcDbSymbolTable
 70
36
  0
LAYER
  5
10
100
AcDbSymbolTableRecord
100
AcDbLayerTableRecord
  2
0
 70
0
 62
7
  6
CONTINUOUS
370
-3
390
F
  0
LAYER
  5
1FA
100
AcDbSymbolTableRecord
100
AcDbLayerTableRecord
  2
DEFAULT_1
 70
0
 62
7
  6
CENTER
370
-3
390
F
  0
LAYER
  5
1FB
100
AcDbSymbolTableRecord
100
AcDbLayerTableRecord
  2
DEFAULT_2
 70
0
 62
8
  6
HIDDEN
370
-3
390
F
  0
LAYER
  5
1FC
100
AcDbSymbolTableRecord
100
AcDbLayerTableRecord
  2
DEFAULT_3
 70
0
 62
7
  6
PHANTOM
370
-3
390
F
  0
LAYER
  5
1FD
100
AcDbSymbolTableRecord
100
AcDbLayerTableRecord
  2
DEFAULT_COORDINATE_SYSTEM
 70
0
 62
7
  6
CONTINUOUS
370
-3
390
F
  0
LAYER
  5
1FE
100
AcDbSymbolTableRecord
100
AcDbLayerTableRecord
  2
DEFAULT_DATUM_AXES
 70
0
 62
7
  6
CONTINUOUS
370
-3
390
F
  0
LAYER
  5
1FF
100
AcDbSymbolTableRecord
100
AcDbLayerTableRecord
  2
DEFAULT_DATUM_CURVES
 70
0
 62
7
  6
CONTINUOUS
370
-3
390
F
  0
LAYER
  5
200
100
AcDbSymbolTableRecord
100
AcDbLayerTableRecord
  2
DEFAULT_DATUM_PLANES
 70
0
 62
7
  6
CONTINUOUS
370
-3
390
F
  0
ENDTAB
  0
TABLE
  2
STYLE
  5
3
100
AcDbSymbolTable
 70
1
  0
STYLE
  5
11
100
AcDbSymbolTableRecord
100
AcDbTextStyleTableRecord
  2
STANDARD
 70
0
 40
0.0
 41
0.8
 50
0.0
 71
0
 42
0.2
  3
txt
  4

  0
STYLE
  5
201
100
AcDbSymbolTableRecord
100
AcDbTextStyleTableRecord
  2
TEXTSTYLE_1
 70
0
 40
0.0
 41
0.8
 50
0.0
 71
0
 42
0.2
  3
gdt
  4

  0
ENDTAB
  0
TABLE
  2
VIEW
  5
6
100
AcDbSymbolTable
 70
0
  0
ENDTAB
  0
TABLE
  2
UCS
  5
7
100
AcDbSymbolTable
 70
0
  0
ENDTAB
  0
TABLE
  2
APPID
  5
9
100
AcDbSymbolTable
 70
1
  0
APPID
  5
202
100
AcDbSymbolTableRecord
100
AcDbRegAppTableRecord
  2
ACAD
 70
0
  0
ENDTAB
  0
TABLE
  2
BLOCK_RECORD
  5
1
100
AcDbSymbolTable
 70
0
  0
BLOCK_RECORD
  5
203
100
AcDbSymbolTableRecord
100
AcDbBlockTableRecord
  2
*Model_Space
  0
BLOCK_RECORD
  5
204
100
AcDbSymbolTableRecord
100
AcDbBlockTableRecord
  2
*Paper_Space
  0
ENDTAB
  0
TABLE
  2
DIMSTYLE
  5
A
100
AcDbSymbolTable
 70
1
100
AcDbDimStyleTable
 71
0
  0
DIMSTYLE
105
205
100
AcDbSymbolTableRecord
100
AcDbDimStyleTableRecord
  2
STANDARD
 70
0
  3

  4

 40
1.0
 41
0.1875
 42
0.0625
 43
0.38
 44
0.18
 45
0.0
 46
0.0
 47
0.001
 48
0.001
140
0.15625
141
0.09
142
0.0
143
25.4
144
1.0
145
0.0
146
1.0
147
0.09
 71
0.0
 72
0.0
 73
1
 74
1
 75
0
 76
0
 77
0
 78
4
170
0
171
2
172
0
173
0
174
0
175
0
176
0
177
0
178
0
270
2
271
3
272
3
273
2
274
2
275
0
280
0
281
0
282
0
283
1
284
4
285
0
286
0
287
3
288
0
340
11
  0
ENDTAB
  0
ENDSEC
  0
SECTION
  2
BLOCKS
  0
BLOCK
  5
20
100
AcDbEntity
  8
0
100
AcDbBlockBegin
  2
*Model_Space
 70
0
 10
0.0
 20
0.0
 30
0.0
  3
*Model_Space
  1

  0
ENDBLK
  5
21
100
AcDbEntity
  8
0
100
AcDbBlockEnd
  0
BLOCK
  5
1C
100
AcDbEntity
  8
0
100
AcDbBlockBegin
  2
*Paper_Space
 70
0
 10
0.0
 20
0.0
 30
0.0
  3
*Paper_Space
  1

  0
ENDBLK
  5
1D
100
AcDbEntity
  8
0
100
AcDbBlockEnd
  0
ENDSEC
  0
SECTION
  2
ENTITIES
  0
LINE
  5
206
100
AcDbEntity
  8
0
100
AcDbLine
 62
6
  6
CONTINUOUS
 10
9.8808451204
 20
1.8149194422
 11
9.5058451204
 21
1.8149194422
  0
LINE
  5
207
100
AcDbEntity
  8
0
100
AcDbLine
 62
6
  6
CONTINUOUS
 10
9.5058451204
 20
2.3461694422
 11
8.0428451204
 21
2.3461694422
  0
LINE
  5
208
100
AcDbEntity
  8
0
100
AcDbLine
 62
6
  6
CONTINUOUS
 10
7.8428451204
 20
2.3461694422
 11
6.6153451204
 21
2.3461694422
  0
LINE
  5
209
100
AcDbEntity
  8
0
100
AcDbLine
 62
6
  6
CONTINUOUS
 10
9.5058451204
 20
3.6586694422
 11
7.4953451204
 21
3.6586694422
  0
LINE
  5
20A
100
AcDbEntity
  8
0
100
AcDbLine
 62
6
  6
CONTINUOUS
 10
6.8603451204
 20
3.6586694422
 11
6.6153451204
 21
3.6586694422
  0
LINE
  5
20B
100
AcDbEntity
  8
0
100
AcDbLine
 62
6
  6
CONTINUOUS
 10
6.1778451204
 20
4.3936694422
 11
6.1778451204
 21
4.3136694422
  0
LINE
  5
20C
100
AcDbEntity
  8
0
100
AcDbLine
 62
6
  6
CONTINUOUS
 10
9.8808451204
 20
4.1899194422
 11
9.5058451204
 21
4.1899194422
  0
LINE
  5
20D
100
AcDbEntity
  8
0
100
AcDbLine
 62
6
  6
CONTINUOUS
 10
6.1778451204
 20
4.3136694422
 11
8.1778451204
 21
4.3136694422
  0
LINE
  5
20E
100
AcDbEntity
  8
0
100
AcDbLine
 62
6
  6
CONTINUOUS
 10
6.1778451204
 20
4.3936694422
 11
8.1778451204
 21
4.3936694422
  0
LINE
  5
20F
100
AcDbEntity
  8
0
100
AcDbLine
 62
6
  6
CONTINUOUS
 10
6.6153451204
 20
3.6586694422
 11
6.6153451204
 21
2.3461694422
  0
LINE
  5
210
100
AcDbEntity
  8
0
100
AcDbLine
 62
6
  6
CONTINUOUS
 10
6.6778451204
 20
10.0816694422
 11
6.6778451204
 21
9.1436694422
  0
LINE
  5
211
100
AcDbEntity
  8
0
100
AcDbLine
 62
6
  6
CONTINUOUS
 10
6.8653451204
 20
9.1436694422
 11
6.8653451204
 21
4.3936694422
  0
LINE
  5
212
100
AcDbEntity
  8
0
100
AcDbLine
 62
6
  6
CONTINUOUS
 10
6.8653451204
 20
3.6562650743
 11
6.8653451204
 21
4.3136694422
  0
LINE
  5
213
100
AcDbEntity
  8
0
100
AcDbLine
 62
6
  6
CONTINUOUS
 10
7.4903451204
 20
9.1436694422
 11
7.4903451204
 21
4.3936694422
  0
LINE
  5
214
100
AcDbEntity
  8
0
100
AcDbLine
 62
6
  6
CONTINUOUS
 10
7.4903451204
 20
3.6562650833
 11
7.4903451204
 21
4.3136694422
  0
LINE
  5
215
100
AcDbEntity
  8
0
100
AcDbLine
 62
6
  6
CONTINUOUS
 10
7.6778451204
 20
10.0816694422
 11
7.6778451204
 21
9.1436694422
  0
LINE
  5
216
100
AcDbEntity
  8
0
100
AcDbLine
 62
6
  6
CONTINUOUS
 10
8.1778451204
 20
4.3936694422
 11
8.1778451204
 21
4.3136694422
  0
LINE
  5
217
100
AcDbEntity
  8
0
100
AcDbLine
 62
6
  6
CONTINUOUS
 10
9.5058451204
 20
4.1899194422
 11
9.5058451204
 21
1.8149194422
  0
LINE
  5
218
100
AcDbEntity
  8
0
100
AcDbLine
 62
6
  6
CONTINUOUS
 10
9.8808451204
 20
4.1899194422
 11
9.8808451204
 21
1.8149194422
  0
LINE
  5
219
100
AcDbEntity
  8
0
100
AcDbLine
 62
6
  6
CONTINUOUS
 10
9.8823451204
 20
1.9574194422
 11
9.8823451204
 21
4.0474194422
  0
LINE
  5
21A
100
AcDbEntity
  8
0
100
AcDbLine
 62
6
  6
CONTINUOUS
 10
6.6778451204
 20
9.1436694422
 11
7.6778451204
 21
9.1436694422
  0
LINE
  5
21B
100
AcDbEntity
  8
0
100
AcDbLine
 62
6
  6
CONTINUOUS
 10
6.6778451204
 20
10.0816694422
 11
7.6778451204
 21
10.0816694422
  0
ARC
  5
21C
100
AcDbEntity
  8
0
100
AcDbCircle
 62
6
  6
CONTINUOUS
 10
9.8308451204
 20
4.0474194422
 40
0.0515
100
AcDbArc
 50
0.0
 51
13.4840790488
  0
ARC
  5
21D
100
AcDbEntity
  8
0
100
AcDbCircle
 62
6
  6
CONTINUOUS
 10
9.8308451204
 20
1.9574194422
 40
0.0515
100
AcDbArc
 50
346.5159209512
 51
360.0
  0
SPLINE
  5
21E
100
AcDbEntity
  8
0
100
AcDbSpline
 62
7
  6
CONTINUOUS
 70
0
 71
3
 72
63
 73
59
 74
57
 42
0.0000001
 43
0.0000001
 44
0.0000000001
 12
-0.595021655
 22
-0.2890490152
 32
0.0
 13
-0.5950222453
 23
0.2890477995
 33
0.0
 40
0.0
 40
0.0
 40
0.0
 40
0.0
 40
0.0006655433
 40
0.0026529837
 40
0.0059485488
 40
0.010538178
 40
0.016397799
 40
0.0234913309
 40
0.0317820977
 40
0.0412329321
 40
0.0518003126
 40
0.0634371539
 40
0.0760966838
 40
0.0897323971
 40
0.1197451568
 40
0.1360305342
 40
0.1531085227
 40
0.1894708033
 40
0.2285041827
 40
0.2698845776
 40
0.2913566881
 40
0.3132972674
 40
0.3356602044
 40
0.3583999738
 40
0.3814732441
 40
0.4048317795
 40
0.4284191682
 40
0.4521798605
 40
0.4760595095
 40
0.4999999151
 40
0.5239403202
 40
0.5478199688
 40
0.5715806696
 40
0.5951680709
 40
0.6185266135
 40
0.641599883
 40
0.6643396597
 40
0.6867026083
 40
0.7086431975
 40
0.7301153186
 40
0.7714957374
 40
0.8105290868
 40
0.8468913079
 40
0.8639692832
 40
0.8802546676
 40
0.9102674769
 40
0.9239032185
 40
0.9365627728
 40
0.9481996342
 40
0.9587670298
 40
0.968217874
 40
0.9765086514
 40
0.9836021965
 40
0.9894618322
 40
0.9940514731
 40
0.9973470338
 40
0.999334463
 40
1.0
 40
1.0
 40
1.0
 40
1.0
 10
7.4953451204
 20
3.6586694422
 30
0.0
 10
7.4952131162
 20
3.6586053173
 30
0.0
 10
7.4946867696
 20
3.6583500174
 30
0.0
 10
7.4935054417
 20
3.6577799511
 30
0.0
 10
7.4915431371
 20
3.656837339
 30
0.0
 10
7.4888087203
 20
3.655530173
 30
0.0
 10
7.4853141507
 20
3.6538714131
 30
0.0
 10
7.4810741557
 20
3.6518799338
 30
0.0
 10
7.476106535
 20
3.6495750763
 30
0.0
 10
7.4704306768
 20
3.6469768488
 30
0.0
 10
7.464066289
 20
3.6441103518
 30
0.0
 10
7.4570345212
 20
3.641003152
 30
0.0
 10
7.4493574672
 20
3.6376828682
 30
0.0
 10
7.4379196513
 20
3.6328516946
 30
0.0
 10
7.4256691152
 20
3.6278908855
 30
0.0
 10
7.4126295374
 20
3.6228639379
 30
0.0
 10
7.3982162876
 20
3.6175110358
 30
0.0
 10
7.3789554876
 20
3.6108076491
 30
0.0
 10
7.354379768
 20
3.6031062847
 30
0.0
 10
7.3327100866
 20
3.5971540332
 30
0.0
 10
7.3145395383
 20
3.5927425278
 30
0.0
 10
7.3003741383
 20
3.5896221404
 30
0.0
 10
7.2858683556
 20
3.5867643592
 30
0.0
 10
7.2710535367
 20
3.5842033599
 30
0.0
 10
7.2559629313
 20
3.5819750183
 30
0.0
 10
7.240634835
 20
3.5801091489
 30
0.0
 10
7.2251126243
 20
3.5786261295
 30
0.0
 10
7.2094417078
 20
3.5775480024
 30
0.0
 10
7.1936691738
 20
3.5768988801
 30
0.0
 10
7.1778451767
 20
3.5766829643
 30
0.0
 10
7.1620211794
 20
3.5768988681
 30
0.0
 10
7.1462486441
 20
3.577548
 30
0.0
 10
7.1305777232
 20
3.5786261272
 30
0.0
 10
7.1150555053
 20
3.5801091375
 30
0.0
 10
7.0997274039
 20
3.5819750002
 30
0.0
 10
7.0846367963
 20
3.5842033479
 30
0.0
 10
7.069821973
 20
3.586764345
 30
0.0
 10
7.0553161832
 20
3.5896221228
 30
0.0
 10
7.0411507757
 20
3.5927425089
 30
0.0
 10
7.0229802181
 20
3.5971540178
 30
0.0
 10
7.0013105351
 20
3.6031062668
 30
0.0
 10
6.9767348281
 20
3.6108076232
 30
0.0
 10
6.9574740504
 20
3.6175110051
 30
0.0
 10
6.943060812
 20
3.6228638963
 30
0.0
 10
6.9300212235
 20
3.627890843
 30
0.0
 10
6.9177706718
 20
3.6328516633
 30
0.0
 10
6.9063328336
 20
3.6376828418
 30
0.0
 10
6.8986557642
 20
3.6410031304
 30
0.0
 10
6.8916239848
 20
3.6441103368
 30
0.0
 10
6.8852595886
 20
3.6469768392
 30
0.0
 10
6.8795837223
 20
3.649575068
 30
0.0
 10
6.874616094
 20
3.6518799266
 30
0.0
 10
6.8703760911
 20
3.653871409
 30
0.0
 10
6.866881514
 20
3.6555301735
 30
0.0
 10
6.8641470947
 20
3.6568373455
 30
0.0
 10
6.862184791
 20
3.6577799576
 30
0.0
 10
6.8610034671
 20
3.6583500209
 30
0.0
 10
6.8604771235
 20
3.6586053182
 30
0.0
 10
6.8603451204
 20
3.6586694422
 30
0.0
 11
7.4953451204
 21
3.6586694422
 31
0.0
 11
7.4949489991
 21
3.6584772917
 31
0.0
 11
7.4937650955
 21
3.6579055783
 31
0.0
 11
7.4918001004
 21
3.6569614089
 31
0.0
 11
7.4890608485
 21
3.6556520558
 31
0.0
 11
7.4855589323
 21
3.6539902371
 31
0.0
 11
7.4813116759
 21
3.651995232
 31
0.0
 11
7.4763367445
 21
3.6496867103
 31
0.0
 11
7.4706520525
 21
3.6470848007
 31
0.0
 11
7.4642780981
 21
3.6442143881
 31
0.0
 11
7.4572369073
 21
3.6411031698
 31
0.0
 11
7.4495505261
 21
3.6377788797
 31
0.0
 11
7.4412408963
 21
3.6342697269
 31
0.0
 11
7.4228369969
 21
3.6268218149
 31
0.0
 11
7.4127849478
 21
3.6229470646
 31
0.0
 11
7.402194045
 21
3.619014874
 31
0.0
 11
7.3794738237
 21
3.6111159655
 31
0.0
 11
7.3548313717
 21
3.6034037242
 31
0.0
 11
7.3284320963
 21
3.5961651739
 31
0.0
 11
7.3146286003
 21
3.5928156138
 31
0.0
 11
7.3004541767
 21
3.5896944841
 31
0.0
 11
7.285939486
 21
3.5868365428
 31
0.0
 11
7.2711163081
 21
3.584276272
 31
0.0
 11
7.2560165564
 21
3.5820480348
 31
0.0
 11
7.2406777624
 21
3.580181189
 31
0.0
 11
7.2251450101
 21
3.5786983631
 31
0.0
 11
7.2094639146
 21
3.5776217123
 31
0.0
 11
7.1936805898
 21
3.5769716891
 31
0.0
 11
7.1778451766
 21
3.5767549952
 31
0.0
 11
7.1620097636
 21
3.5769716807
 31
0.0
 11
7.1462264392
 21
3.5776217081
 31
0.0
 11
7.1305453381
 21
3.5786983592
 31
0.0
 11
7.1150125767
 21
3.5801811782
 31
0.0
 11
7.0996737773
 21
3.5820480191
 31
0.0
 11
7.0845740264
 21
3.5842762583
 31
0.0
 11
7.0697508435
 21
3.5868365281
 31
0.0
 11
7.0552361445
 21
3.5896944669
 31
0.0
 11
7.0410617139
 21
3.5928155956
 31
0.0
 11
7.0272582112
 21
3.5961651573
 31
0.0
 11
7.0008589199
 21
3.6034037095
 31
0.0
 11
6.9762164861
 21
3.6111159427
 31
0.0
 11
6.9534963018
 21
3.6190148376
 31
0.0
 11
6.9429054058
 21
3.6229470215
 31
0.0
 11
6.9328533513
 21
3.6268217707
 31
0.0
 11
6.9144494219
 21
3.6342696957
 31
0.0
 11
6.9061397739
 21
3.6377788538
 31
0.0
 11
6.8984533774
 21
3.6411031491
 31
0.0
 11
6.8914121748
 21
3.6442143736
 31
0.0
 11
6.8850382116
 21
3.647084791
 31
0.0
 11
6.879353513
 21
3.6496867017
 31
0.0
 11
6.8743785743
 21
3.6519952247
 31
0.0
 11
6.8701313099
 21
3.6539902331
 31
0.0
 11
6.8666293856
 21
3.6556520574
 31
0.0
 11
6.8638901281
 21
3.6569614166
 31
0.0
 11
6.8619251357
 21
3.657905585
 31
0.0
 11
6.8607412383
 21
3.6584772942
 31
0.0
 11
6.8603451204
 21
3.6586694422
 31
0.0
  0
SPLINE
  5
21F
100
AcDbEntity
  8
0
100
AcDbSpline
 62
6
  6
CONTINUOUS
 70
0
 71
3
 72
15
 73
11
 74
9
 42
0.0000001
 43
0.0000001
 44
0.0000000001
 12
0.1988419161
 22
0.0263036021
 32
0.0
 13
0.1988419491
 23
-0.0263033404
 33
0.0
 40
0.0
 40
0.0
 40
0.0
 40
0.0
 40
0.0408894964
 40
0.1533084481
 40
0.3145762223
 40
0.5000042099
 40
0.6854299258
 40
0.8466966633
 40
0.9591113691
 40
1.0
 40
1.0
 40
1.0
 40
1.0
 10
7.8428451204
 20
2.3461694422
 30
0.0
 10
7.8455553023
 20
2.3465279559
 30
0.0
 10
7.8557236993
 20
2.3478200185
 30
0.0
 10
7.8766384477
 20
2.3500660455
 30
0.0
 10
7.907265145
 20
2.3522585861
 30
0.0
 10
7.9428458135
 20
2.3531501005
 30
0.0
 10
7.9784264103
 20
2.3522585209
 30
0.0
 10
8.009052601
 20
2.3500659741
 30
0.0
 10
8.0299669367
 20
2.3478199582
 30
0.0
 10
8.0401349954
 20
2.3465279447
 30
0.0
 10
8.0428451204
 20
2.3461694422
 30
0.0
 11
7.8428451204
 21
2.3461694422
 31
0.0
 11
7.8509811431
 21
2.3472031312
 31
0.0
 11
7.8734009938
 21
2.3496080976
 31
0.0
 11
7.9056652787
 21
2.3519106472
 31
0.0
 11
7.942845965
 21
2.3528394254
 31
0.0
 11
7.9800261941
 21
2.351910589
 31
0.0
 11
8.012290268
 21
2.3496080038
 31
0.0
 11
8.0347092692
 21
2.3472031039
 31
0.0
 11
8.0428451204
 21
2.3461694422
 31
0.0
  0
ENDSEC
  0
SECTION
  2
OBJECTS
  0
DICTIONARY
  5
C
100
AcDbDictionary
280
0
281
1
  3
ACAD_GROUP
350
D
  3
ACAD_MLINESTYLE
350
17
  3
ACAD_LAYOUT
350
1A
  3
ACAD_PLOTSETTINGS
350
19
  3
ACAD_PLOTSTYLENAME
350
E
  0
DICTIONARY
  5
D
102
{ACAD_REACTORS
330
C
102
}
100
AcDbDictionary
280
0
281
1
  0
ACDBDICTIONARYWDFLT
  5
E
102
{ACAD_REACTORS
330
C
102
}
100
AcDbDictionary
281
1
  3
Normal
350
F
100
AcDbDictionaryWithDefault
340
F
  0
DICTIONARY
  5
17
102
{ACAD_REACTORS
330
C
102
}
100
AcDbDictionary
280
0
281
1
  3
Standard
350
18
  0
DICTIONARY
  5
19
102
{ACAD_REACTORS
330
C
102
}
100
AcDbDictionary
281
1
  0
DICTIONARY
  5
1A
102
{ACAD_REACTORS
330
C
102
}
100
AcDbDictionary
281
1
  3
Model
350
220
  3
Layout1
350
221
  0
ACDBPLACEHOLDER
  5
F
102
{ACAD_REACTORS
330
E
102
}
  0
MLINESTYLE
  5
18
102
{ACAD_REACTORS
330
17
102
}
100
AcDbMlineStyle
  2
STANDARD
 70
0
  3

 62
256
 51
90.0
 52
90.0
 71
2
 49
0.5
 62
256
  6
BYLAYER
 49
-0.5
 62
256
  6
BYLAYER
  0
LAYOUT
  5
220
102
{ACAD_REACTORS
330
1A
102
}
100
AcDbPlotSettings
  1

  2
none_device
  4
ISO_A3_(420.00_x_297.00_MM)
  6

 40
0.0
 41
0.0
 42
0.0
 43
0.0
 44
420.0
 45
297.0
 46
0.0
 47
0.0
 48
0.0
 49
0.0
140
0.0
141
0.0
142
1.0
143
1.0
 70
1024
 72
0
 73
0
 74
0
  7

 75
0
147
1.0
148
0.0
149
0.0
100
AcDbLayout
  1
Model
 70
0
 71
0
 10
0.0
 20
0.0
 11
16.5354330709
 21
11.6929133858
 12
0.0
 22
0.0
 32
0.0
 14
0.0
 24
0.0
 34
0.0
 15
0.0
 25
0.0
 35
0.0
146
0.0
 13
0.0
 23
0.0
 33
0.0
 16
1.0
 26
0.0
 36
0.0
 17
0.0
 27
1.0
 37
0.0
 76
0
330
203
345
0
346
0
  0
LAYOUT
  5
221
102
{ACAD_REACTORS
330
1A
102
}
100
AcDbPlotSettings
  1

  2
none_device
  4
ISO_A3_(420.00_x_297.00_MM)
  6

 40
0.0
 41
0.0
 42
0.0
 43
0.0
 44
420.0
 45
297.0
 46
0.0
 47
0.0
 48
0.0
 49
0.0
140
0.0
141
0.0
142
1.0
143
1.0
 70
0
 72
0
 73
0
 74
0
  7

 75
0
147
1.0
148
0.0
149
0.0
100
AcDbLayout
  1
Layout1
 70
0
 71
1
 10
0.0
 20
0.0
 11
16.5354330709
 21
11.6929133858
 12
0.0
 22
0.0
 32
0.0
 14
0.0
 24
0.0
 34
0.0
 15
0.0
 25
0.0
 35
0.0
146
0.0
 13
0.0
 23
0.0
 33
0.0
 16
1.0
 26
0.0
 36
0.0
 17
0.0
 27
1.0
 37
0.0
 76
0
330
204
345
0
346
0
  0
ENDSEC
  0
EOF
