999
DXF file: 1600-1200_Front.dxf
999
Pro/ENGINEER 2023134 by Parametric Technology Corporation
  0
SECTION
  2
HEADER
  9
$ACADVER
  1
AC1032
  9
$DWGCODEPAGE
  3
ANSI_1252
  9
$EXTMAX
 10
11.0
 20
8.5
 30
0.0
  9
$EXTMIN
 10
0.0
 20
0.0
 30
0.0
  9
$LIMMIN
 10
0.0
 20
0.0
  9
$LIMMAX
 10
11.0
 20
8.5
  9
$VIEWCTR
 10
5.5
 20
4.25
  9
$VIEWSIZE
 40
8.5
  9
$CLAYER
  8
0
  9
$LTSCALE
 40
0.605
  9
$CELTYPE
  6
BYLAYER
  9
$DIMSCALE
 40
1.0
  9
$DIMASZ
 40
0.1
  9
$DIMEXO
 40
0.0625
  9
$DIMDLI
 40
0.418
  9
$DIMEXE
 40
0.125
  9
$DIMCEN
 40
0.099
  9
$DIMLFAC
 40
1.0
  9
$DIMBLK
  1
_FILLED
  9
$DIMALT
 70
1
  9
$DIMALTD
 70
2
  9
$DIMALTTD
 70
2
  9
$DIMALTF
 40
25.4
  9
$DIMTXT
 40
0.08
  9
$DIMTOL
 70
1
  9
$DIMLIM
 70
0
  9
$DIMTFAC
 40
1.0
  9
$DIMTP
 40
0.001
  9
$DIMTM
 40
0.001
  9
$DIMGAP
 40
0.09
  9
$DIMDSEP
 70
46
  9
$AUNITS
 70
0
  9
$PDMODE
 70
3
  9
$PDSIZE
 40
0.3125
  9
$HANDSEED
  5
229
  9
$TILEMODE
 70
1
  9
$MEASUREMENT
 70
0
  9
$INSUNITS
 70
1
  0
ENDSEC
  0
SECTION
  2
CLASSES
  0
CLASS
  1
ACDBDICTIONARYWDFLT
  2
AcDbDictionaryWithDefault
  3
AutoCAD 2000
 90
0
 91
1
280
0
281
0
  0
CLASS
  1
ACDBPLACEHOLDER
  2
AcDbPlaceHolder
  3
AutoCAD 2000
 90
0
 91
1
280
0
281
0
  0
CLASS
  1
LAYOUT
  2
AcDbLayout
  3
AutoCAD 2000
 90
0
 91
0
280
0
281
0
  0
ENDSEC
  0
SECTION
  2
TABLES
  0
TABLE
  2
VPORT
  5
8
100
AcDbSymbolTable
 70
2
  0
VPORT
  5
1F4
100
AcDbSymbolTableRecord
100
AcDbViewportTableRecord
  2
*ACTIVE
 70
0
 10
0.0
 20
0.0
 11
1.0
 21
1.0
 12
5.5
 22
4.25
 13
0.0
 23
0.0
 14
1.0
 24
1.0
 15
0.0
 25
0.0
 16
0.0
 26
0.0
 36
1.0
 17
0.0
 27
0.0
 37
0.0
 40
8.5
 41
1.2941176471
 42
50.0
 43
0.0
 44
0.0
 50
0.0
 51
0.0
 71
0
 72
100
 73
1
 74
1
 75
0
 76
0
 77
0
 78
0
  0
ENDTAB
  0
TABLE
  2
LTYPE
  5
5
100
AcDbSymbolTable
 70
6
  0
LTYPE
  5
14
100
AcDbSymbolTableRecord
100
AcDbLinetypeTableRecord
  2
BYBLOCK
 70
0
  3

 72
65
 73
0
 40
0.0
  0
LTYPE
  5
15
100
AcDbSymbolTableRecord
100
AcDbLinetypeTableRecord
  2
BYLAYER
 70
0
  3

 72
65
 73
0
 40
0.0
  0
LTYPE
  5
16
100
AcDbSymbolTableRecord
100
AcDbLinetypeTableRecord
  2
CONTINUOUS
 70
64
  3
Solid line
 72
65
 73
0
 40
0.0
  0
LTYPE
  5
1F5
100
AcDbSymbolTableRecord
100
AcDbLinetypeTableRecord
  2
CENTER
 70
64
  3
____ _ ____ _ ____ _ ____ _ ____ _ ____ _ ____
 72
65
 73
4
 40
0.6
 49
0.375
 74
0
 49
-0.075
 74
0
 49
0.075
 74
0
 49
-0.075
 74
0
  0
LTYPE
  5
1F6
100
AcDbSymbolTableRecord
100
AcDbLinetypeTableRecord
  2
HIDDEN
 70
64
  3
- - - - - - - - - - - - - - - - - - - -
 72
65
 73
2
 40
0.2
 49
0.1
 74
0
 49
-0.1
 74
0
  0
LTYPE
  5
1F7
100
AcDbSymbolTableRecord
100
AcDbLinetypeTableRecord
  2
PHANTOM
 70
64
  3
_____ _ _ _____ _ _ _____ _ _ _____
 72
65
 73
6
 40
0.8
 49
0.45
 74
0
 49
-0.05
 74
0
 49
0.1
 74
0
 49
-0.05
 74
0
 49
0.1
 74
0
 49
-0.05
 74
0
  0
LTYPE
  5
1F8
100
AcDbSymbolTableRecord
100
AcDbLinetypeTableRecord
  2
DOT
 70
64
  3
. . . . . . . . . . . . . . . . . . . .
 72
65
 73
2
 40
0.2
 49
0.1
 74
0
 49
-0.1
 74
0
  0
LTYPE
  5
1F9
100
AcDbSymbolTableRecord
100
AcDbLinetypeTableRecord
  2
DASHED
 70
64
  3
- - - - - - - - - - - - - - - - - - - -
 72
65
 73
2
 40
0.2
 49
0.1
 74
0
 49
-0.1
 74
0
  0
ENDTAB
  0
TABLE
  2
LAYER
  5
2
100
AcDbSymbolTable
 70
36
  0
LAYER
  5
10
100
AcDbSymbolTableRecord
100
AcDbLayerTableRecord
  2
0
 70
0
 62
7
  6
CONTINUOUS
370
-3
390
F
  0
LAYER
  5
1FA
100
AcDbSymbolTableRecord
100
AcDbLayerTableRecord
  2
DEFAULT_1
 70
0
 62
7
  6
CENTER
370
-3
390
F
  0
LAYER
  5
1FB
100
AcDbSymbolTableRecord
100
AcDbLayerTableRecord
  2
DEFAULT_2
 70
0
 62
8
  6
HIDDEN
370
-3
390
F
  0
LAYER
  5
1FC
100
AcDbSymbolTableRecord
100
AcDbLayerTableRecord
  2
DEFAULT_3
 70
0
 62
7
  6
PHANTOM
370
-3
390
F
  0
LAYER
  5
1FD
100
AcDbSymbolTableRecord
100
AcDbLayerTableRecord
  2
DEFAULT_COORDINATE_SYSTEM
 70
0
 62
7
  6
CONTINUOUS
370
-3
390
F
  0
LAYER
  5
1FE
100
AcDbSymbolTableRecord
100
AcDbLayerTableRecord
  2
DEFAULT_DATUM_AXES
 70
0
 62
7
  6
CONTINUOUS
370
-3
390
F
  0
LAYER
  5
1FF
100
AcDbSymbolTableRecord
100
AcDbLayerTableRecord
  2
DEFAULT_DATUM_CURVES
 70
0
 62
7
  6
CONTINUOUS
370
-3
390
F
  0
LAYER
  5
200
100
AcDbSymbolTableRecord
100
AcDbLayerTableRecord
  2
DEFAULT_DATUM_PLANES
 70
0
 62
7
  6
CONTINUOUS
370
-3
390
F
  0
ENDTAB
  0
TABLE
  2
STYLE
  5
3
100
AcDbSymbolTable
 70
1
  0
STYLE
  5
11
100
AcDbSymbolTableRecord
100
AcDbTextStyleTableRecord
  2
STANDARD
 70
0
 40
0.0
 41
0.8
 50
0.0
 71
0
 42
0.2
  3
txt
  4

  0
STYLE
  5
201
100
AcDbSymbolTableRecord
100
AcDbTextStyleTableRecord
  2
TEXTSTYLE_1
 70
0
 40
0.0
 41
0.8
 50
0.0
 71
0
 42
0.2
  3
gdt
  4

  0
ENDTAB
  0
TABLE
  2
VIEW
  5
6
100
AcDbSymbolTable
 70
0
  0
ENDTAB
  0
TABLE
  2
UCS
  5
7
100
AcDbSymbolTable
 70
0
  0
ENDTAB
  0
TABLE
  2
APPID
  5
9
100
AcDbSymbolTable
 70
1
  0
APPID
  5
202
100
AcDbSymbolTableRecord
100
AcDbRegAppTableRecord
  2
ACAD
 70
0
  0
ENDTAB
  0
TABLE
  2
BLOCK_RECORD
  5
1
100
AcDbSymbolTable
 70
0
  0
BLOCK_RECORD
  5
203
100
AcDbSymbolTableRecord
100
AcDbBlockTableRecord
  2
*Model_Space
  0
BLOCK_RECORD
  5
204
100
AcDbSymbolTableRecord
100
AcDbBlockTableRecord
  2
*Paper_Space
  0
BLOCK_RECORD
  5
205
100
AcDbSymbolTableRecord
100
AcDbBlockTableRecord
  2
_FILLED
  0
ENDTAB
  0
TABLE
  2
DIMSTYLE
  5
A
100
AcDbSymbolTable
 70
1
100
AcDbDimStyleTable
 71
0
  0
DIMSTYLE
105
206
100
AcDbSymbolTableRecord
100
AcDbDimStyleTableRecord
  2
STANDARD
 70
0
  3

  4

 40
1.0
 41
0.1
 42
0.0625
 43
0.38
 44
0.125
 45
0.0
 46
0.0
 47
0.001
 48
0.001
140
0.08
141
0.09
142
0.0
143
25.4
144
1.0
145
0.0
146
1.0
147
0.09
 71
1
 72
0
 73
1
 74
1
 75
0
 76
0
 77
0
 78
4
 79
1
170
1
171
2
172
0
173
0
174
0
175
0
176
0
177
0
178
0
270
2
179
3
271
3
272
3
273
2
274
2
275
0
280
0
281
0
282
0
283
1
284
4
285
0
286
0
287
3
288
0
340
11
278
46
341
205
342
205
343
205
344
205
  0
ENDTAB
  0
ENDSEC
  0
SECTION
  2
BLOCKS
  0
BLOCK
  5
20
100
AcDbEntity
  8
0
100
AcDbBlockBegin
  2
*Model_Space
 70
0
 10
0.0
 20
0.0
 30
0.0
  3
*Model_Space
  1

  0
ENDBLK
  5
21
100
AcDbEntity
  8
0
100
AcDbBlockEnd
  0
BLOCK
  5
1C
100
AcDbEntity
  8
0
100
AcDbBlockBegin
  2
*Paper_Space
 70
0
 10
0.0
 20
0.0
 30
0.0
  3
*Paper_Space
  1

  0
ENDBLK
  5
1D
100
AcDbEntity
  8
0
100
AcDbBlockEnd
  0
BLOCK
  5
207
100
AcDbEntity
  8
0
100
AcDbBlockBegin
  2
_FILLED
 70
64
 10
0.0
 20
0.0
  3
_FILLED
  1

  0
SOLID
  5
208
100
AcDbEntity
  8
0
  6
BYBLOCK
 62
0
100
AcDbTrace
 10
0.0
 20
0.0
 11
-1.0
 21
0.2
 12
-1.0
 22
-0.2
 13
-1.0
 23
-0.2
  0
ENDBLK
  5
209
100
AcDbEntity
  8
0
  6
BYBLOCK
 62
0
100
AcDbBlockEnd
  0
ENDSEC
  0
SECTION
  2
ENTITIES
  0
MTEXT
  5
20A
100
AcDbEntity
  8
0
100
AcDbMText
 62
2
  6
CONTINUOUS
  7
STANDARD
 71
2
 72
1
 10
5.5942007212
 20
3.0455467033
 30
0.0
 11
1.0
 21
0.0
 31
0.0
 73
2
 44
0.9
  1
SCALE 0.500
 40
0.08
 41
0.704
  0
LINE
  5
20B
100
AcDbEntity
  8
0
100
AcDbLine
 62
7
  6
CONTINUOUS
 10
0.0
 20
0.0
 11
0.0
 21
8.5
  0
LINE
  5
20C
100
AcDbEntity
  8
0
100
AcDbLine
 62
7
  6
CONTINUOUS
 10
0.0
 20
0.0
 11
11.0
 21
0.0
  0
LINE
  5
20D
100
AcDbEntity
  8
0
100
AcDbLine
 62
7
  6
CONTINUOUS
 10
0.0
 20
8.5
 11
11.0
 21
8.5
  0
LINE
  5
20E
100
AcDbEntity
  8
0
100
AcDbLine
 62
7
  6
CONTINUOUS
 10
11.0
 20
0.0
 11
11.0
 21
8.5
  0
LINE
  5
20F
100
AcDbEntity
  8
0
100
AcDbLine
 62
7
  6
CONTINUOUS
 10
3.6634953004
 20
4.1684986264
 11
7.4398915272
 21
4.1684986264
  0
LINE
  5
210
100
AcDbEntity
  8
0
100
AcDbLine
 62
7
  6
CONTINUOUS
 10
3.6635165302
 20
4.3654986264
 11
7.4399126036
 21
4.3654986264
  0
ARC
  5
211
100
AcDbEntity
  8
0
100
AcDbCircle
 62
7
  6
CONTINUOUS
 10
7.5517041552
 20
4.2669986264
 40
0.5315
100
AcDbArc
 50
190.6854676861
 51
169.3145323139
  0
ARC
  5
212
100
AcDbEntity
  8
0
100
AcDbCircle
 62
7
  6
CONTINUOUS
 10
3.5517041552
 20
4.2669986264
 40
0.5315
100
AcDbArc
 50
10.6854676861
 51
349.3145323139
  0
ARC
  5
213
100
AcDbEntity
  8
0
100
AcDbCircle
 62
7
  6
CONTINUOUS
 10
7.5517041552
 20
4.2669986264
 40
0.5182678511
100
AcDbArc
 50
190.9663330359
 51
169.0336669641
  0
ARC
  5
214
100
AcDbEntity
  8
0
100
AcDbCircle
 62
7
  6
CONTINUOUS
 10
3.5517041552
 20
4.2669986264
 40
0.5182678511
100
AcDbArc
 50
10.9757206863
 51
349.0242793137
  0
ARC
  5
215
100
AcDbEntity
  8
0
100
AcDbCircle
 62
7
  6
CONTINUOUS
 10
3.5517041552
 20
4.2669986264
 40
0.45275
100
AcDbArc
 50
12.5847663852
 51
347.4152336148
  0
ARC
  5
216
100
AcDbEntity
  8
0
100
AcDbCircle
 62
7
  6
CONTINUOUS
 10
7.5517041552
 20
4.2669986264
 40
0.45275
100
AcDbArc
 50
192.5785248377
 51
167.4214751624
  0
ARC
  5
217
100
AcDbEntity
  8
0
100
AcDbCircle
 62
7
  6
CONTINUOUS
 10
3.5517041552
 20
4.2669986264
 40
0.38775
100
AcDbArc
 50
14.7200122198
 51
345.2799877802
  0
ARC
  5
218
100
AcDbEntity
  8
0
100
AcDbCircle
 62
7
  6
CONTINUOUS
 10
7.5517041552
 20
4.2669986264
 40
0.38775
100
AcDbArc
 50
194.7297286624
 51
165.2702713376
  0
ARC
  5
219
100
AcDbEntity
  8
0
100
AcDbCircle
 62
7
  6
CONTINUOUS
 10
7.5517041552
 20
4.2669986264
 40
0.2165
100
AcDbArc
 50
207.1033950305
 51
152.8966049695
  0
ARC
  5
21A
100
AcDbEntity
  8
0
100
AcDbCircle
 62
7
  6
CONTINUOUS
 10
3.5517041552
 20
4.2669986264
 40
0.2165
100
AcDbArc
 50
27.1033950305
 51
332.8966049695
  0
ARC
  5
21B
100
AcDbEntity
  8
0
100
AcDbCircle
 62
7
  6
CONTINUOUS
 10
3.6499760479
 20
4.2210352195
 40
0.0580144923
100
AcDbArc
 50
289.0008103129
 51
294.6251417705
  0
ARC
  5
21C
100
AcDbEntity
  8
0
100
AcDbCircle
 62
7
  6
CONTINUOUS
 10
7.453432185
 20
4.312962212
 40
0.0580142975
100
AcDbArc
 50
108.9999944941
 51
114.6251456289
  0
ARC
  5
21D
100
AcDbEntity
  8
0
100
AcDbCircle
 62
7
  6
CONTINUOUS
 10
3.6499821268
 20
4.3129760344
 40
0.0579992316
100
AcDbArc
 50
65.3745540646
 51
71.0632113647
  0
ARC
  5
21E
100
AcDbEntity
  8
0
100
AcDbCircle
 62
7
  6
CONTINUOUS
 10
7.4534260683
 20
4.2210209527
 40
0.057998942
100
AcDbArc
 50
245.374548257
 51
251.0644280638
  0
SPLINE
  5
21F
100
AcDbEntity
  8
0
100
AcDbSpline
 62
7
  6
CONTINUOUS
 70
0
 71
3
 72
22
 73
18
 74
0
 42
0.0000001
 43
0.0000001
 44
0.0000000001
 40
0.0
 40
0.0
 40
0.0
 40
0.0
 40
0.0514771343
 40
0.1034431104
 40
0.1563550796
 40
0.2106110047
 40
0.2665295416
 40
0.3243388638
 40
0.3841765015
 40
0.4460934266
 40
0.5100609973
 40
0.5759788621
 40
0.6436838982
 40
0.7129595657
 40
0.7835452929
 40
0.8551463494
 40
1.0
 40
1.0
 40
1.0
 40
1.0
 10
7.4173386323
 20
4.3707486253
 30
0.0
 10
7.419741939
 20
4.370748643
 30
0.0
 10
7.4245779722
 20
4.3704110347
 30
0.0
 10
7.4317416984
 20
4.3689004024
 30
0.0
 10
7.4387614296
 20
4.3664017631
 30
0.0
 10
7.4455663176
 20
4.362942402
 30
0.0
 10
7.4520912135
 20
4.3585587805
 30
0.0
 10
7.4582742609
 20
4.353296078
 30
0.0
 10
7.4640575249
 20
4.3472068439
 30
0.0
 10
7.4693871809
 20
4.3403507496
 30
0.0
 10
7.4742138119
 20
4.3327940698
 30
0.0
 10
7.478492601
 20
4.3246092422
 30
0.0
 10
7.4821836629
 20
4.3158742791
 30
0.0
 10
7.485252388
 20
4.3066726613
 30
0.0
 10
7.4876700753
 20
4.2970908866
 30
0.0
 10
7.4900030025
 20
4.2838865186
 30
0.0
 10
7.4907009608
 20
4.2737613911
 30
0.0
 10
7.4907009608
 20
4.2669986264
 30
0.0
  0
SPLINE
  5
220
100
AcDbEntity
  8
0
100
AcDbSpline
 62
7
  6
CONTINUOUS
 70
0
 71
3
 72
22
 73
18
 74
0
 42
0.0000001
 43
0.0000001
 44
0.0000000001
 40
0.0
 40
0.0
 40
0.0
 40
0.0
 40
0.0514771428
 40
0.1034431263
 40
0.1563551074
 40
0.2106110454
 40
0.266529569
 40
0.3243388525
 40
0.3841764537
 40
0.446093368
 40
0.5100609444
 40
0.5759788151
 40
0.6436838574
 40
0.7129595316
 40
0.7835452661
 40
0.8551463305
 40
1.0
 40
1.0
 40
1.0
 40
1.0
 10
3.6860696781
 20
4.1632486275
 30
0.0
 10
3.6836663711
 20
4.1632486094
 30
0.0
 10
3.6788303371
 20
4.1635862187
 30
0.0
 10
3.6716666096
 20
4.1650968508
 30
0.0
 10
3.6646468771
 20
4.1675954909
 30
0.0
 10
3.6578419891
 20
4.1710548532
 30
0.0
 10
3.651317095
 20
4.1754384741
 30
0.0
 10
3.6451340506
 20
4.1807011736
 30
0.0
 10
3.6393507893
 20
4.1867904047
 30
0.0
 10
3.6340211339
 20
4.1936464971
 30
0.0
 10
3.6291945023
 20
4.2012031765
 30
0.0
 10
3.6249157122
 20
4.2093880046
 30
0.0
 10
3.6212246495
 20
4.2181229683
 30
0.0
 10
3.6181559237
 20
4.2273245868
 30
0.0
 10
3.6157382359
 20
4.2369063625
 30
0.0
 10
3.6134053081
 20
4.250110732
 30
0.0
 10
3.6127073496
 20
4.2602358608
 30
0.0
 10
3.6127073496
 20
4.2669986264
 30
0.0
  0
SPLINE
  5
221
100
AcDbEntity
  8
0
100
AcDbSpline
 62
7
  6
CONTINUOUS
 70
0
 71
3
 72
22
 73
18
 74
0
 42
0.0000001
 43
0.0000001
 44
0.0000000001
 40
0.0
 40
0.0
 40
0.0
 40
0.0
 40
0.1448472082
 40
0.216446356
 40
0.2870308656
 40
0.3563060486
 40
0.4240113653
 40
0.4899303566
 40
0.5539000424
 40
0.615819604
 40
0.6756606194
 40
0.7334728618
 40
0.7893919712
 40
0.8436470109
 40
0.89655812
 40
0.9485235063
 40
1.0
 40
1.0
 40
1.0
 40
1.0
 10
3.6127073496
 20
4.2669986264
 30
0.0
 10
3.6127073496
 20
4.2737610904
 30
0.0
 10
3.613405255
 20
4.283885825
 30
0.0
 10
3.6157380052
 20
4.2970897698
 30
0.0
 10
3.6181555569
 20
4.3066714042
 30
0.0
 10
3.6212241604
 20
4.3158729927
 30
0.0
 10
3.6249151463
 20
4.3246080342
 30
0.0
 10
3.6291939064
 20
4.3327930632
 30
0.0
 10
3.6340206107
 20
4.3403500222
 30
0.0
 10
3.6393504347
 20
4.3472064706
 30
0.0
 10
3.6451339958
 20
4.3532959986
 30
0.0
 10
3.6513172574
 20
4.3585589475
 30
0.0
 10
3.6578422973
 20
4.3629425786
 30
0.0
 10
3.6646471604
 20
4.3664018648
 30
0.0
 10
3.6716667943
 20
4.3689004406
 30
0.0
 10
3.6788304236
 20
4.3704110812
 30
0.0
 10
3.6836664013
 20
4.370748615
 30
0.0
 10
3.6860696781
 20
4.370748626
 30
0.0
  0
SPLINE
  5
222
100
AcDbEntity
  8
0
100
AcDbSpline
 62
7
  6
CONTINUOUS
 70
0
 71
3
 72
22
 73
18
 74
0
 42
0.0000001
 43
0.0000001
 44
0.0000000001
 40
0.0
 40
0.0
 40
0.0
 40
0.0
 40
0.1448471842
 40
0.2164463215
 40
0.2870308214
 40
0.3563059954
 40
0.4240113037
 40
0.4899302864
 40
0.5538999687
 40
0.6158195466
 40
0.6756606172
 40
0.7334729127
 40
0.7893920209
 40
0.843647046
 40
0.896558142
 40
0.9485235176
 40
1.0
 40
1.0
 40
1.0
 40
1.0
 10
7.4907009608
 20
4.2669986264
 30
0.0
 10
7.4907009608
 20
4.2602361635
 30
0.0
 10
7.4900030557
 20
4.2501114305
 30
0.0
 10
7.4876703062
 20
4.2369074877
 30
0.0
 10
7.4852527552
 20
4.2273258545
 30
0.0
 10
7.4821841527
 20
4.2181242671
 30
0.0
 10
7.4784931678
 20
4.2093892264
 30
0.0
 10
7.4742144089
 20
4.2012041978
 30
0.0
 10
7.4693877051
 20
4.1936472383
 30
0.0
 10
7.4640578802
 20
4.1867907866
 30
0.0
 10
7.4582743144
 20
4.180701255
 30
0.0
 10
7.4520910499
 20
4.1754383017
 30
0.0
 10
7.4455660075
 20
4.1710546712
 30
0.0
 10
7.4387611453
 20
4.1675953863
 30
0.0
 10
7.4317415131
 20
4.1650968114
 30
0.0
 10
7.4245778853
 20
4.1635861707
 30
0.0
 10
7.4197419086
 20
4.1632486383
 30
0.0
 10
7.4173386323
 20
4.1632486268
 30
0.0
  0
SPLINE
  5
223
100
AcDbEntity
  8
0
100
AcDbSpline
 62
7
  6
CONTINUOUS
 70
0
 71
3
 72
11
 73
7
 74
0
 42
0.0000001
 43
0.0000001
 44
0.0000000001
 40
0.0
 40
0.0
 40
0.0
 40
0.0
 40
0.2463499648
 40
0.4941966948
 40
0.744975445
 40
1.0
 40
1.0
 40
1.0
 40
1.0
 10
7.4173386323
 20
4.1632486268
 30
0.0
 10
7.4154220098
 20
4.1632486177
 30
0.0
 10
7.4115737885
 20
4.1634626004
 30
0.0
 10
7.4058464171
 20
4.1644216698
 30
0.0
 10
7.4001916953
 20
4.1660128058
 30
0.0
 10
7.3965289907
 20
4.1674739475
 30
0.0
 10
7.3947252479
 20
4.1683005127
 30
0.0
  0
SPLINE
  5
224
100
AcDbEntity
  8
0
100
AcDbSpline
 62
7
  6
CONTINUOUS
 70
0
 71
3
 72
11
 73
7
 74
0
 42
0.0000001
 43
0.0000001
 44
0.0000000001
 40
0.0
 40
0.0
 40
0.0
 40
0.0
 40
0.2550167803
 40
0.5057940271
 40
0.7536441172
 40
1.0
 40
1.0
 40
1.0
 40
1.0
 10
3.7086647867
 20
4.1682921482
 30
0.0
 10
3.7068623676
 20
4.1674669355
 30
0.0
 10
3.7032024624
 20
4.1660081531
 30
0.0
 10
3.6975522908
 20
4.1644197319
 30
0.0
 10
3.6918296794
 20
4.1634622134
 30
0.0
 10
3.6879846984
 20
4.1632486419
 30
0.0
 10
3.6860696781
 20
4.1632486275
 30
0.0
  0
SPLINE
  5
225
100
AcDbEntity
  8
0
100
AcDbSpline
 62
7
  6
CONTINUOUS
 70
0
 71
3
 72
11
 73
7
 74
0
 42
0.0000001
 43
0.0000001
 44
0.0000000001
 40
0.0
 40
0.0
 40
0.0
 40
0.0
 40
0.2463500803
 40
0.4941968759
 40
0.7449755979
 40
1.0
 40
1.0
 40
1.0
 40
1.0
 10
3.6860696781
 20
4.370748626
 30
0.0
 10
3.687986269
 20
4.3707486347
 30
0.0
 10
3.6918344264
 20
4.3705346598
 30
0.0
 10
3.6975617039
 20
4.3695756213
 30
0.0
 10
3.7032163358
 20
4.3679845387
 30
0.0
 10
3.7068789852
 20
4.3665234437
 30
0.0
 10
3.708682702
 20
4.3656969052
 30
0.0
  0
SPLINE
  5
226
100
AcDbEntity
  8
0
100
AcDbSpline
 62
7
  6
CONTINUOUS
 70
0
 71
3
 72
11
 73
7
 74
0
 42
0.0000001
 43
0.0000001
 44
0.0000000001
 40
0.0
 40
0.0
 40
0.0
 40
0.0
 40
0.2550168762
 40
0.505794142
 40
0.7536441902
 40
1.0
 40
1.0
 40
1.0
 40
1.0
 10
7.394743297
 20
4.3657050009
 30
0.0
 10
7.3965457326
 20
4.3665302304
 30
0.0
 10
7.4002056725
 20
4.3679890419
 30
0.0
 10
7.4058559005
 20
4.3695774969
 30
0.0
 10
7.411578571
 20
4.3705350345
 30
0.0
 10
7.4154235922
 20
4.3707486112
 30
0.0
 10
7.4173386323
 20
4.3707486253
 30
0.0
  0
ENDSEC
  0
SECTION
  2
OBJECTS
  0
DICTIONARY
  5
C
100
AcDbDictionary
280
0
281
1
  3
ACAD_GROUP
350
D
  3
ACAD_MLINESTYLE
350
17
  3
ACAD_LAYOUT
350
1A
  3
ACAD_PLOTSETTINGS
350
19
  3
ACAD_PLOTSTYLENAME
350
E
  0
DICTIONARY
  5
D
102
{ACAD_REACTORS
330
C
102
}
100
AcDbDictionary
280
0
281
1
  0
ACDBDICTIONARYWDFLT
  5
E
102
{ACAD_REACTORS
330
C
102
}
100
AcDbDictionary
281
1
  3
Normal
350
F
100
AcDbDictionaryWithDefault
340
F
  0
DICTIONARY
  5
17
102
{ACAD_REACTORS
330
C
102
}
100
AcDbDictionary
280
0
281
1
  3
Standard
350
18
  0
DICTIONARY
  5
19
102
{ACAD_REACTORS
330
C
102
}
100
AcDbDictionary
281
1
  0
DICTIONARY
  5
1A
102
{ACAD_REACTORS
330
C
102
}
100
AcDbDictionary
281
1
  3
Model
350
227
  3
Layout1
350
228
  0
ACDBPLACEHOLDER
  5
F
102
{ACAD_REACTORS
330
E
102
}
  0
MLINESTYLE
  5
18
102
{ACAD_REACTORS
330
17
102
}
100
AcDbMlineStyle
  2
STANDARD
 70
0
  3

 62
256
 51
90.0
 52
90.0
 71
2
 49
0.5
 62
256
  6
BYLAYER
 49
-0.5
 62
256
  6
BYLAYER
  0
LAYOUT
  5
227
102
{ACAD_REACTORS
330
1A
102
}
100
AcDbPlotSettings
  1

  2
none_device
  4
ANSI_A_(11.00_x_8.50_Inches)
  6

 40
0.0
 41
0.0
 42
0.0
 43
0.0
 44
279.4
 45
215.9
 46
0.0
 47
0.0
 48
0.0
 49
0.0
140
0.0
141
0.0
142
1.0
143
1.0
 70
1024
 72
0
 73
0
 74
0
  7

 75
0
147
1.0
148
0.0
149
0.0
100
AcDbLayout
  1
Model
 70
0
 71
0
 10
0.0
 20
0.0
 11
11.0
 21
8.5
 12
0.0
 22
0.0
 32
0.0
 14
0.0
 24
0.0
 34
0.0
 15
0.0
 25
0.0
 35
0.0
146
0.0
 13
0.0
 23
0.0
 33
0.0
 16
1.0
 26
0.0
 36
0.0
 17
0.0
 27
1.0
 37
0.0
 76
0
330
203
345
0
346
0
  0
LAYOUT
  5
228
102
{ACAD_REACTORS
330
1A
102
}
100
AcDbPlotSettings
  1

  2
none_device
  4
ANSI_A_(11.00_x_8.50_Inches)
  6

 40
0.0
 41
0.0
 42
0.0
 43
0.0
 44
279.4
 45
215.9
 46
0.0
 47
0.0
 48
0.0
 49
0.0
140
0.0
141
0.0
142
1.0
143
1.0
 70
0
 72
0
 73
0
 74
0
  7

 75
0
147
1.0
148
0.0
149
0.0
100
AcDbLayout
  1
Layout1
 70
0
 71
1
 10
0.0
 20
0.0
 11
11.0
 21
8.5
 12
0.0
 22
0.0
 32
0.0
 14
0.0
 24
0.0
 34
0.0
 15
0.0
 25
0.0
 35
0.0
146
0.0
 13
0.0
 23
0.0
 33
0.0
 16
1.0
 26
0.0
 36
0.0
 17
0.0
 27
1.0
 37
0.0
 76
0
330
204
345
0
346
0
  0
ENDSEC
  0
EOF
