999
DXF file: 1600-1230_Top.dxf
999
Pro/ENGINEER 2023134 by Parametric Technology Corporation
  0
SECTION
  2
HEADER
  9
$ACADVER
  1
AC1032
  9
$DWGCODEPAGE
  3
ANSI_1252
  9
$EXTMAX
 10
11.0
 20
8.5
 30
0.0
  9
$EXTMIN
 10
0.0
 20
0.0
 30
0.0
  9
$LIMMIN
 10
0.0
 20
0.0
  9
$LIMMAX
 10
11.0
 20
8.5
  9
$VIEWCTR
 10
5.5
 20
4.25
  9
$VIEWSIZE
 40
8.5
  9
$CLAYER
  8
0
  9
$LTSCALE
 40
0.605
  9
$CELTYPE
  6
BYLAYER
  9
$DIMSCALE
 40
1.0
  9
$DIMASZ
 40
0.1
  9
$DIMEXO
 40
0.0625
  9
$DIMDLI
 40
0.418
  9
$DIMEXE
 40
0.125
  9
$DIMCEN
 40
0.099
  9
$DIMLFAC
 40
1.0
  9
$DIMBLK
  1
_FILLED
  9
$DIMALT
 70
1
  9
$DIMALTD
 70
2
  9
$DIMALTTD
 70
2
  9
$DIMALTF
 40
25.4
  9
$DIMTXT
 40
0.08
  9
$DIMTOL
 70
1
  9
$DIMLIM
 70
0
  9
$DIMTFAC
 40
1.0
  9
$DIMTP
 40
0.001
  9
$DIMTM
 40
0.001
  9
$DIMGAP
 40
0.09
  9
$DIMDSEP
 70
46
  9
$AUNITS
 70
0
  9
$PDMODE
 70
3
  9
$PDSIZE
 40
0.3125
  9
$HANDSEED
  5
321
  9
$TILEMODE
 70
1
  9
$MEASUREMENT
 70
0
  9
$INSUNITS
 70
1
  0
ENDSEC
  0
SECTION
  2
CLASSES
  0
CLASS
  1
ACDBDICTIONARYWDFLT
  2
AcDbDictionaryWithDefault
  3
AutoCAD 2000
 90
0
 91
1
280
0
281
0
  0
CLASS
  1
ACDBPLACEHOLDER
  2
AcDbPlaceHolder
  3
AutoCAD 2000
 90
0
 91
1
280
0
281
0
  0
CLASS
  1
LAYOUT
  2
AcDbLayout
  3
AutoCAD 2000
 90
0
 91
0
280
0
281
0
  0
ENDSEC
  0
SECTION
  2
TABLES
  0
TABLE
  2
VPORT
  5
8
100
AcDbSymbolTable
 70
2
  0
VPORT
  5
1F4
100
AcDbSymbolTableRecord
100
AcDbViewportTableRecord
  2
*ACTIVE
 70
0
 10
0.0
 20
0.0
 11
1.0
 21
1.0
 12
5.5
 22
4.25
 13
0.0
 23
0.0
 14
1.0
 24
1.0
 15
0.0
 25
0.0
 16
0.0
 26
0.0
 36
1.0
 17
0.0
 27
0.0
 37
0.0
 40
8.5
 41
1.2941176471
 42
50.0
 43
0.0
 44
0.0
 50
0.0
 51
0.0
 71
0
 72
100
 73
1
 74
1
 75
0
 76
0
 77
0
 78
0
  0
ENDTAB
  0
TABLE
  2
LTYPE
  5
5
100
AcDbSymbolTable
 70
6
  0
LTYPE
  5
14
100
AcDbSymbolTableRecord
100
AcDbLinetypeTableRecord
  2
BYBLOCK
 70
0
  3

 72
65
 73
0
 40
0.0
  0
LTYPE
  5
15
100
AcDbSymbolTableRecord
100
AcDbLinetypeTableRecord
  2
BYLAYER
 70
0
  3

 72
65
 73
0
 40
0.0
  0
LTYPE
  5
16
100
AcDbSymbolTableRecord
100
AcDbLinetypeTableRecord
  2
CONTINUOUS
 70
64
  3
Solid line
 72
65
 73
0
 40
0.0
  0
LTYPE
  5
1F5
100
AcDbSymbolTableRecord
100
AcDbLinetypeTableRecord
  2
CENTER
 70
64
  3
____ _ ____ _ ____ _ ____ _ ____ _ ____ _ ____
 72
65
 73
4
 40
0.6
 49
0.375
 74
0
 49
-0.075
 74
0
 49
0.075
 74
0
 49
-0.075
 74
0
  0
LTYPE
  5
1F6
100
AcDbSymbolTableRecord
100
AcDbLinetypeTableRecord
  2
HIDDEN
 70
64
  3
- - - - - - - - - - - - - - - - - - - -
 72
65
 73
2
 40
0.2
 49
0.1
 74
0
 49
-0.1
 74
0
  0
LTYPE
  5
1F7
100
AcDbSymbolTableRecord
100
AcDbLinetypeTableRecord
  2
PHANTOM
 70
64
  3
_____ _ _ _____ _ _ _____ _ _ _____
 72
65
 73
6
 40
0.8
 49
0.45
 74
0
 49
-0.05
 74
0
 49
0.1
 74
0
 49
-0.05
 74
0
 49
0.1
 74
0
 49
-0.05
 74
0
  0
LTYPE
  5
1F8
100
AcDbSymbolTableRecord
100
AcDbLinetypeTableRecord
  2
DOT
 70
64
  3
. . . . . . . . . . . . . . . . . . . .
 72
65
 73
2
 40
0.2
 49
0.1
 74
0
 49
-0.1
 74
0
  0
LTYPE
  5
1F9
100
AcDbSymbolTableRecord
100
AcDbLinetypeTableRecord
  2
DASHED
 70
64
  3
- - - - - - - - - - - - - - - - - - - -
 72
65
 73
2
 40
0.2
 49
0.1
 74
0
 49
-0.1
 74
0
  0
ENDTAB
  0
TABLE
  2
LAYER
  5
2
100
AcDbSymbolTable
 70
36
  0
LAYER
  5
10
100
AcDbSymbolTableRecord
100
AcDbLayerTableRecord
  2
0
 70
0
 62
7
  6
CONTINUOUS
370
-3
390
F
  0
LAYER
  5
1FA
100
AcDbSymbolTableRecord
100
AcDbLayerTableRecord
  2
DEFAULT_1
 70
0
 62
7
  6
CENTER
370
-3
390
F
  0
LAYER
  5
1FB
100
AcDbSymbolTableRecord
100
AcDbLayerTableRecord
  2
DEFAULT_2
 70
0
 62
8
  6
HIDDEN
370
-3
390
F
  0
LAYER
  5
1FC
100
AcDbSymbolTableRecord
100
AcDbLayerTableRecord
  2
DEFAULT_3
 70
0
 62
7
  6
PHANTOM
370
-3
390
F
  0
LAYER
  5
1FD
100
AcDbSymbolTableRecord
100
AcDbLayerTableRecord
  2
DEFAULT_COORDINATE_SYSTEM
 70
0
 62
7
  6
CONTINUOUS
370
-3
390
F
  0
LAYER
  5
1FE
100
AcDbSymbolTableRecord
100
AcDbLayerTableRecord
  2
DEFAULT_DATUM_AXES
 70
0
 62
7
  6
CONTINUOUS
370
-3
390
F
  0
LAYER
  5
1FF
100
AcDbSymbolTableRecord
100
AcDbLayerTableRecord
  2
DEFAULT_DATUM_CURVES
 70
0
 62
7
  6
CONTINUOUS
370
-3
390
F
  0
LAYER
  5
200
100
AcDbSymbolTableRecord
100
AcDbLayerTableRecord
  2
DEFAULT_DATUM_PLANES
 70
0
 62
7
  6
CONTINUOUS
370
-3
390
F
  0
ENDTAB
  0
TABLE
  2
STYLE
  5
3
100
AcDbSymbolTable
 70
1
  0
STYLE
  5
11
100
AcDbSymbolTableRecord
100
AcDbTextStyleTableRecord
  2
STANDARD
 70
0
 40
0.0
 41
0.8
 50
0.0
 71
0
 42
0.2
  3
txt
  4

  0
STYLE
  5
201
100
AcDbSymbolTableRecord
100
AcDbTextStyleTableRecord
  2
TEXTSTYLE_1
 70
0
 40
0.0
 41
0.8
 50
0.0
 71
0
 42
0.2
  3
gdt
  4

  0
ENDTAB
  0
TABLE
  2
VIEW
  5
6
100
AcDbSymbolTable
 70
0
  0
ENDTAB
  0
TABLE
  2
UCS
  5
7
100
AcDbSymbolTable
 70
0
  0
ENDTAB
  0
TABLE
  2
APPID
  5
9
100
AcDbSymbolTable
 70
1
  0
APPID
  5
202
100
AcDbSymbolTableRecord
100
AcDbRegAppTableRecord
  2
ACAD
 70
0
  0
ENDTAB
  0
TABLE
  2
BLOCK_RECORD
  5
1
100
AcDbSymbolTable
 70
0
  0
BLOCK_RECORD
  5
203
100
AcDbSymbolTableRecord
100
AcDbBlockTableRecord
  2
*Model_Space
  0
BLOCK_RECORD
  5
204
100
AcDbSymbolTableRecord
100
AcDbBlockTableRecord
  2
*Paper_Space
  0
BLOCK_RECORD
  5
205
100
AcDbSymbolTableRecord
100
AcDbBlockTableRecord
  2
_FILLED
  0
ENDTAB
  0
TABLE
  2
DIMSTYLE
  5
A
100
AcDbSymbolTable
 70
1
100
AcDbDimStyleTable
 71
0
  0
DIMSTYLE
105
206
100
AcDbSymbolTableRecord
100
AcDbDimStyleTableRecord
  2
STANDARD
 70
0
  3

  4

 40
1.0
 41
0.1
 42
0.0625
 43
0.38
 44
0.125
 45
0.0
 46
0.0
 47
0.001
 48
0.001
140
0.08
141
0.09
142
0.0
143
25.4
144
1.0
145
0.0
146
1.0
147
0.09
 71
1
 72
0
 73
1
 74
1
 75
0
 76
0
 77
0
 78
4
 79
1
170
1
171
2
172
0
173
0
174
0
175
0
176
0
177
0
178
0
270
2
179
3
271
3
272
3
273
2
274
2
275
0
280
0
281
0
282
0
283
1
284
4
285
0
286
0
287
3
288
0
340
11
278
46
341
205
342
205
343
205
344
205
  0
ENDTAB
  0
ENDSEC
  0
SECTION
  2
BLOCKS
  0
BLOCK
  5
20
100
AcDbEntity
  8
0
100
AcDbBlockBegin
  2
*Model_Space
 70
0
 10
0.0
 20
0.0
 30
0.0
  3
*Model_Space
  1

  0
ENDBLK
  5
21
100
AcDbEntity
  8
0
100
AcDbBlockEnd
  0
BLOCK
  5
1C
100
AcDbEntity
  8
0
100
AcDbBlockBegin
  2
*Paper_Space
 70
0
 10
0.0
 20
0.0
 30
0.0
  3
*Paper_Space
  1

  0
ENDBLK
  5
1D
100
AcDbEntity
  8
0
100
AcDbBlockEnd
  0
BLOCK
  5
207
100
AcDbEntity
  8
0
100
AcDbBlockBegin
  2
_FILLED
 70
64
 10
0.0
 20
0.0
  3
_FILLED
  1

  0
SOLID
  5
208
100
AcDbEntity
  8
0
  6
BYBLOCK
 62
0
100
AcDbTrace
 10
0.0
 20
0.0
 11
-1.0
 21
0.2
 12
-1.0
 22
-0.2
 13
-1.0
 23
-0.2
  0
ENDBLK
  5
209
100
AcDbEntity
  8
0
  6
BYBLOCK
 62
0
100
AcDbBlockEnd
  0
ENDSEC
  0
SECTION
  2
ENTITIES
  0
MTEXT
  5
20A
100
AcDbEntity
  8
0
100
AcDbMText
 62
2
  6
CONTINUOUS
  7
STANDARD
 71
2
 72
1
 10
5.5481627747
 20
2.7532391338
 30
0.0
 11
1.0
 21
0.0
 31
0.0
 73
2
 44
0.9
  1
SCALE 0.500
 40
0.08
 41
0.704
  0
LINE
  5
20B
100
AcDbEntity
  8
0
100
AcDbLine
 62
7
  6
CONTINUOUS
 10
0.0
 20
0.0
 11
0.0
 21
8.5
  0
LINE
  5
20C
100
AcDbEntity
  8
0
100
AcDbLine
 62
7
  6
CONTINUOUS
 10
0.0
 20
0.0
 11
11.0
 21
0.0
  0
LINE
  5
20D
100
AcDbEntity
  8
0
100
AcDbLine
 62
7
  6
CONTINUOUS
 10
0.0
 20
8.5
 11
11.0
 21
8.5
  0
LINE
  5
20E
100
AcDbEntity
  8
0
100
AcDbLine
 62
7
  6
CONTINUOUS
 10
11.0
 20
0.0
 11
11.0
 21
8.5
  0
LINE
  5
20F
100
AcDbEntity
  8
0
100
AcDbLine
 62
7
  6
CONTINUOUS
 10
0.6357067759
 20
4.8579403343
 11
0.6357067759
 21
4.8272139843
  0
LINE
  5
210
100
AcDbEntity
  8
0
100
AcDbLine
 62
7
  6
CONTINUOUS
 10
0.8462067759
 20
4.7661904843
 11
0.8462067759
 21
4.7461904843
  0
LINE
  5
211
100
AcDbEntity
  8
0
100
AcDbLine
 62
7
  6
CONTINUOUS
 10
0.8462067759
 20
4.6602051464
 11
0.8462067759
 21
4.6402051464
  0
LINE
  5
212
100
AcDbEntity
  8
0
100
AcDbLine
 62
7
  6
CONTINUOUS
 10
0.9053465259
 20
3.6994806464
 11
0.9053465259
 21
4.6402051464
  0
LINE
  5
213
100
AcDbEntity
  8
0
100
AcDbLine
 62
7
  6
CONTINUOUS
 10
0.9556261375
 20
4.6602051464
 11
0.9556261375
 21
4.7461904843
  0
LINE
  5
214
100
AcDbEntity
  8
0
100
AcDbLine
 62
7
  6
CONTINUOUS
 10
0.9686835136
 20
4.6602051464
 11
0.9686835136
 21
4.7461904843
  0
LINE
  5
215
100
AcDbEntity
  8
0
100
AcDbLine
 62
7
  6
CONTINUOUS
 10
0.9820785852
 20
4.6602051464
 11
0.9820785852
 21
4.7461904843
  0
LINE
  5
216
100
AcDbEntity
  8
0
100
AcDbLine
 62
7
  6
CONTINUOUS
 10
0.995728767
 20
4.6602051464
 11
0.995728767
 21
4.7461904843
  0
LINE
  5
217
100
AcDbEntity
  8
0
100
AcDbLine
 62
7
  6
CONTINUOUS
 10
1.0095499012
 20
4.6602051464
 11
1.0095499012
 21
4.7461904843
  0
LINE
  5
218
100
AcDbEntity
  8
0
100
AcDbLine
 62
7
  6
CONTINUOUS
 10
1.0234567759
 20
4.6602051464
 11
1.0234567759
 21
4.7461904843
  0
LINE
  5
219
100
AcDbEntity
  8
0
100
AcDbLine
 62
7
  6
CONTINUOUS
 10
1.0373636506
 20
4.6602051464
 11
1.0373636506
 21
4.7461904843
  0
LINE
  5
21A
100
AcDbEntity
  8
0
100
AcDbLine
 62
7
  6
CONTINUOUS
 10
1.0511847848
 20
4.6602051464
 11
1.0511847848
 21
4.7461904843
  0
LINE
  5
21B
100
AcDbEntity
  8
0
100
AcDbLine
 62
7
  6
CONTINUOUS
 10
1.0648349666
 20
4.6602051464
 11
1.0648349666
 21
4.7461904843
  0
LINE
  5
21C
100
AcDbEntity
  8
0
100
AcDbLine
 62
7
  6
CONTINUOUS
 10
1.0782300381
 20
4.6602051464
 11
1.0782300381
 21
4.7461904843
  0
LINE
  5
21D
100
AcDbEntity
  8
0
100
AcDbLine
 62
7
  6
CONTINUOUS
 10
1.0912874143
 20
4.6602051464
 11
1.0912874143
 21
4.7461904843
  0
LINE
  5
21E
100
AcDbEntity
  8
0
100
AcDbLine
 62
7
  6
CONTINUOUS
 10
1.1415670259
 20
3.6994806464
 11
1.1415670259
 21
4.6402051464
  0
LINE
  5
21F
100
AcDbEntity
  8
0
100
AcDbLine
 62
7
  6
CONTINUOUS
 10
0.8467531785
 20
4.7461904843
 11
0.8466849554
 21
4.7460098663
  0
LINE
  5
220
100
AcDbEntity
  8
0
100
AcDbLine
 62
7
  6
CONTINUOUS
 10
0.8467531785
 20
4.7461904843
 11
0.8466698526
 21
4.7460191122
  0
LINE
  5
221
100
AcDbEntity
  8
0
100
AcDbLine
 62
7
  6
CONTINUOUS
 10
1.1965817308
 20
3.3880358371
 11
1.1965817308
 21
3.6480358371
  0
LINE
  5
222
100
AcDbEntity
  8
0
100
AcDbLine
 62
7
  6
CONTINUOUS
 10
1.2007067759
 20
4.7661904843
 11
1.2007067759
 21
4.7461904843
  0
LINE
  5
223
100
AcDbEntity
  8
0
100
AcDbLine
 62
7
  6
CONTINUOUS
 10
1.2007067759
 20
4.6602051464
 11
1.2007067759
 21
4.6402051464
  0
LINE
  5
224
100
AcDbEntity
  8
0
100
AcDbLine
 62
7
  6
CONTINUOUS
 10
1.4112067759
 20
4.8579403343
 11
1.4112067759
 21
4.8272139843
  0
LINE
  5
225
100
AcDbEntity
  8
0
100
AcDbLine
 62
7
  6
CONTINUOUS
 10
1.2001603733
 20
4.6602051464
 11
1.2002285963
 21
4.6603857644
  0
LINE
  5
226
100
AcDbEntity
  8
0
100
AcDbLine
 62
7
  6
CONTINUOUS
 10
1.2001603733
 20
4.6602051464
 11
1.2002436991
 21
4.6603765185
  0
LINE
  5
227
100
AcDbEntity
  8
0
100
AcDbLine
 62
7
  6
CONTINUOUS
 10
0.8466849555
 20
4.6603857644
 11
0.8467531785
 21
4.6602051464
  0
LINE
  5
228
100
AcDbEntity
  8
0
100
AcDbLine
 62
7
  6
CONTINUOUS
 10
0.8466698527
 20
4.6603765185
 11
0.8467531785
 21
4.6602051464
  0
LINE
  5
229
100
AcDbEntity
  8
0
100
AcDbLine
 62
7
  6
CONTINUOUS
 10
1.2002285964
 20
4.7460098663
 11
1.2001603733
 21
4.7461904843
  0
LINE
  5
22A
100
AcDbEntity
  8
0
100
AcDbLine
 62
7
  6
CONTINUOUS
 10
1.2002436992
 20
4.7460191122
 11
1.2001603733
 21
4.7461904843
  0
LINE
  5
22B
100
AcDbEntity
  8
0
100
AcDbLine
 62
7
  6
CONTINUOUS
 10
1.1965817308
 20
3.3930358371
 11
9.8430817308
 21
3.3930358371
  0
LINE
  5
22C
100
AcDbEntity
  8
0
100
AcDbLine
 62
7
  6
CONTINUOUS
 10
1.1965817308
 20
3.6430358371
 11
9.8430817308
 21
3.6430358371
  0
LINE
  5
22D
100
AcDbEntity
  8
0
100
AcDbLine
 62
7
  6
CONTINUOUS
 10
0.9053465259
 20
3.6994806464
 11
1.1415670259
 21
3.6994806464
  0
LINE
  5
22E
100
AcDbEntity
  8
0
100
AcDbLine
 62
7
  6
CONTINUOUS
 10
9.8980964356
 20
3.6994806464
 11
10.1343169356
 21
3.6994806464
  0
LINE
  5
22F
100
AcDbEntity
  8
0
100
AcDbLine
 62
7
  6
CONTINUOUS
 10
10.1934566856
 20
4.6402051464
 11
9.8389566856
 21
4.6402051464
  0
LINE
  5
230
100
AcDbEntity
  8
0
100
AcDbLine
 62
7
  6
CONTINUOUS
 10
1.2007067759
 20
4.6402051464
 11
0.8462067759
 21
4.6402051464
  0
LINE
  5
231
100
AcDbEntity
  8
0
100
AcDbLine
 62
7
  6
CONTINUOUS
 10
10.1934566856
 20
4.6602051464
 11
9.8389566856
 21
4.6602051464
  0
LINE
  5
232
100
AcDbEntity
  8
0
100
AcDbLine
 62
7
  6
CONTINUOUS
 10
1.2007067759
 20
4.6602051464
 11
0.8462067759
 21
4.6602051464
  0
LINE
  5
233
100
AcDbEntity
  8
0
100
AcDbLine
 62
7
  6
CONTINUOUS
 10
10.1934566856
 20
4.7461904843
 11
9.8389566856
 21
4.7461904843
  0
LINE
  5
234
100
AcDbEntity
  8
0
100
AcDbLine
 62
7
  6
CONTINUOUS
 10
1.2007067759
 20
4.7461904843
 11
0.8462067759
 21
4.7461904843
  0
LINE
  5
235
100
AcDbEntity
  8
0
100
AcDbLine
 62
7
  6
CONTINUOUS
 10
10.1934566856
 20
4.7661904843
 11
9.8389566856
 21
4.7661904843
  0
LINE
  5
236
100
AcDbEntity
  8
0
100
AcDbLine
 62
7
  6
CONTINUOUS
 10
1.2007067759
 20
4.7661904843
 11
0.8462067759
 21
4.7661904843
  0
LINE
  5
237
100
AcDbEntity
  8
0
100
AcDbLine
 62
7
  6
CONTINUOUS
 10
10.4039566856
 20
4.8272139843
 11
9.6284566856
 21
4.8272139843
  0
LINE
  5
238
100
AcDbEntity
  8
0
100
AcDbLine
 62
7
  6
CONTINUOUS
 10
1.4112067759
 20
4.8272139843
 11
0.6357067759
 21
4.8272139843
  0
LINE
  5
239
100
AcDbEntity
  8
0
100
AcDbLine
 62
7
  6
CONTINUOUS
 10
10.4039566856
 20
4.8579403343
 11
9.6284566856
 21
4.8579403343
  0
LINE
  5
23A
100
AcDbEntity
  8
0
100
AcDbLine
 62
7
  6
CONTINUOUS
 10
1.4112067759
 20
4.8579403343
 11
0.6357067759
 21
4.8579403343
  0
LINE
  5
23B
100
AcDbEntity
  8
0
100
AcDbLine
 62
7
  6
CONTINUOUS
 10
10.5344745367
 20
4.9354806464
 11
9.4979388346
 21
4.9354806464
  0
LINE
  5
23C
100
AcDbEntity
  8
0
100
AcDbLine
 62
7
  6
CONTINUOUS
 10
1.541724627
 20
4.9354806464
 11
0.5051889248
 21
4.9354806464
  0
LINE
  5
23D
100
AcDbEntity
  8
0
100
AcDbLine
 62
7
  6
CONTINUOUS
 10
10.5344745367
 20
4.9944806464
 11
9.4979388346
 21
4.9944806464
  0
LINE
  5
23E
100
AcDbEntity
  8
0
100
AcDbLine
 62
7
  6
CONTINUOUS
 10
1.541724627
 20
4.9944806464
 11
0.5051889248
 21
4.9944806464
  0
LINE
  5
23F
100
AcDbEntity
  8
0
100
AcDbLine
 62
7
  6
CONTINUOUS
 10
9.8395030882
 20
4.7461904843
 11
9.8394194306
 21
4.7459937303
  0
LINE
  5
240
100
AcDbEntity
  8
0
100
AcDbLine
 62
7
  6
CONTINUOUS
 10
9.8395030882
 20
4.7461904843
 11
9.8394101947
 21
4.7459993813
  0
LINE
  5
241
100
AcDbEntity
  8
0
100
AcDbLine
 62
7
  6
CONTINUOUS
 10
9.6284566856
 20
4.8579403343
 11
9.6284566856
 21
4.8272139843
  0
LINE
  5
242
100
AcDbEntity
  8
0
100
AcDbLine
 62
7
  6
CONTINUOUS
 10
10.192910283
 20
4.6602051464
 11
10.1929939407
 21
4.6604019004
  0
LINE
  5
243
100
AcDbEntity
  8
0
100
AcDbLine
 62
7
  6
CONTINUOUS
 10
10.192910283
 20
4.6602051464
 11
10.1930031765
 21
4.6603962495
  0
LINE
  5
244
100
AcDbEntity
  8
0
100
AcDbLine
 62
7
  6
CONTINUOUS
 10
9.8394101948
 20
4.6603962495
 11
9.8395030882
 21
4.6602051464
  0
LINE
  5
245
100
AcDbEntity
  8
0
100
AcDbLine
 62
7
  6
CONTINUOUS
 10
9.8389566856
 20
4.7661904843
 11
9.8389566856
 21
4.7461904843
  0
LINE
  5
246
100
AcDbEntity
  8
0
100
AcDbLine
 62
7
  6
CONTINUOUS
 10
9.8389566856
 20
4.6602051464
 11
9.8389566856
 21
4.6402051464
  0
LINE
  5
247
100
AcDbEntity
  8
0
100
AcDbLine
 62
7
  6
CONTINUOUS
 10
9.8430817308
 20
3.6480358371
 11
9.8430817308
 21
3.3880358371
  0
LINE
  5
248
100
AcDbEntity
  8
0
100
AcDbLine
 62
7
  6
CONTINUOUS
 10
9.8980964356
 20
3.6994806464
 11
9.8980964356
 21
4.6402051464
  0
LINE
  5
249
100
AcDbEntity
  8
0
100
AcDbLine
 62
7
  6
CONTINUOUS
 10
9.9483760473
 20
4.6602051464
 11
9.9483760473
 21
4.7461904843
  0
LINE
  5
24A
100
AcDbEntity
  8
0
100
AcDbLine
 62
7
  6
CONTINUOUS
 10
9.9614334234
 20
4.6602051464
 11
9.9614334234
 21
4.7461904843
  0
LINE
  5
24B
100
AcDbEntity
  8
0
100
AcDbLine
 62
7
  6
CONTINUOUS
 10
9.9748284949
 20
4.6602051464
 11
9.9748284949
 21
4.7461904843
  0
LINE
  5
24C
100
AcDbEntity
  8
0
100
AcDbLine
 62
7
  6
CONTINUOUS
 10
10.1930031766
 20
4.7459993812
 11
10.192910283
 21
4.7461904843
  0
LINE
  5
24D
100
AcDbEntity
  8
0
100
AcDbLine
 62
7
  6
CONTINUOUS
 10
9.8394194306
 20
4.6604019005
 11
9.8395030882
 21
4.6602051464
  0
LINE
  5
24E
100
AcDbEntity
  8
0
100
AcDbLine
 62
7
  6
CONTINUOUS
 10
9.9884786767
 20
4.6602051464
 11
9.9884786767
 21
4.7461904843
  0
LINE
  5
24F
100
AcDbEntity
  8
0
100
AcDbLine
 62
7
  6
CONTINUOUS
 10
10.0022998109
 20
4.6602051464
 11
10.0022998109
 21
4.7461904843
  0
LINE
  5
250
100
AcDbEntity
  8
0
100
AcDbLine
 62
7
  6
CONTINUOUS
 10
10.0162066856
 20
4.6602051464
 11
10.0162066856
 21
4.7461904843
  0
LINE
  5
251
100
AcDbEntity
  8
0
100
AcDbLine
 62
7
  6
CONTINUOUS
 10
10.0301135604
 20
4.6602051464
 11
10.0301135604
 21
4.7461904843
  0
LINE
  5
252
100
AcDbEntity
  8
0
100
AcDbLine
 62
7
  6
CONTINUOUS
 10
10.0439346946
 20
4.6602051464
 11
10.0439346946
 21
4.7461904843
  0
LINE
  5
253
100
AcDbEntity
  8
0
100
AcDbLine
 62
7
  6
CONTINUOUS
 10
10.0575848764
 20
4.6602051464
 11
10.0575848764
 21
4.7461904843
  0
LINE
  5
254
100
AcDbEntity
  8
0
100
AcDbLine
 62
7
  6
CONTINUOUS
 10
10.0709799479
 20
4.6602051464
 11
10.0709799479
 21
4.7461904843
  0
LINE
  5
255
100
AcDbEntity
  8
0
100
AcDbLine
 62
7
  6
CONTINUOUS
 10
10.084037324
 20
4.6602051464
 11
10.084037324
 21
4.7461904843
  0
LINE
  5
256
100
AcDbEntity
  8
0
100
AcDbLine
 62
7
  6
CONTINUOUS
 10
10.1343169356
 20
3.6994806464
 11
10.1343169356
 21
4.6402051464
  0
LINE
  5
257
100
AcDbEntity
  8
0
100
AcDbLine
 62
7
  6
CONTINUOUS
 10
10.1934566856
 20
4.7661904843
 11
10.1934566856
 21
4.7461904843
  0
LINE
  5
258
100
AcDbEntity
  8
0
100
AcDbLine
 62
7
  6
CONTINUOUS
 10
10.1934566856
 20
4.6602051464
 11
10.1934566856
 21
4.6402051464
  0
LINE
  5
259
100
AcDbEntity
  8
0
100
AcDbLine
 62
7
  6
CONTINUOUS
 10
10.4039566856
 20
4.8579403343
 11
10.4039566856
 21
4.8272139843
  0
LINE
  5
25A
100
AcDbEntity
  8
0
100
AcDbLine
 62
7
  6
CONTINUOUS
 10
10.1929939407
 20
4.7459937303
 11
10.192910283
 21
4.7461904843
  0
ARC
  5
25B
100
AcDbEntity
  8
0
100
AcDbCircle
 62
7
  6
CONTINUOUS
 10
1.0234567759
 20
3.5180358371
 40
0.2165
100
AcDbArc
 50
36.9029855173
 51
56.9381616807
  0
ARC
  5
25C
100
AcDbEntity
  8
0
100
AcDbCircle
 62
7
  6
CONTINUOUS
 10
1.0234567759
 20
3.5180358371
 40
0.2165
100
AcDbArc
 50
123.0618383193
 51
323.0970144827
  0
ARC
  5
25D
100
AcDbEntity
  8
0
100
AcDbCircle
 62
7
  6
CONTINUOUS
 10
-38.9736251994
 20
4.7031978154
 40
39.9292744825
100
AcDbArc
 50
359.9383084469
 51
0.0616915531
  0
ARC
  5
25E
100
AcDbEntity
  8
0
100
AcDbCircle
 62
7
  6
CONTINUOUS
 10
-29.9782401035
 20
4.7031978154
 40
39.9266392978
100
AcDbArc
 50
359.9383043752
 51
0.0616956248
  0
ARC
  5
25F
100
AcDbEntity
  8
0
100
AcDbCircle
 62
7
  6
CONTINUOUS
 10
1.4112587671
 20
4.4334639878
 40
0.39375
100
AcDbArc
 50
90.0075653946
 51
122.3259561738
  0
ARC
  5
260
100
AcDbEntity
  8
0
100
AcDbCircle
 62
7
  6
CONTINUOUS
 10
0.6356547847
 20
4.4334639878
 40
0.39375
100
AcDbArc
 50
57.6740438262
 51
89.9924346054
  0
ARC
  5
261
100
AcDbEntity
  8
0
100
AcDbCircle
 62
7
  6
CONTINUOUS
 10
1.1052380686
 20
4.7061206222
 40
0.0990391328
100
AcDbArc
 50
23.3647942608
 51
23.8651962198
  0
ARC
  5
262
100
AcDbEntity
  8
0
100
AcDbCircle
 62
7
  6
CONTINUOUS
 10
0.9416754827
 20
4.7061206224
 40
0.0990391323
100
AcDbArc
 50
156.1348037802
 51
156.6352056713
  0
ARC
  5
263
100
AcDbEntity
  8
0
100
AcDbCircle
 62
7
  6
CONTINUOUS
 10
0.9416754803
 20
4.7002750073
 40
0.0990391296
100
AcDbArc
 50
203.3647945274
 51
203.8651962199
  0
ARC
  5
264
100
AcDbEntity
  8
0
100
AcDbCircle
 62
7
  6
CONTINUOUS
 10
1.105238072
 20
4.7002750071
 40
0.0990391292
100
AcDbArc
 50
336.1348037801
 51
336.6352054048
  0
ARC
  5
265
100
AcDbEntity
  8
0
100
AcDbCircle
 62
7
  6
CONTINUOUS
 10
1.1111641909
 20
4.705447134
 40
0.0963942435
100
AcDbArc
 50
24.678093476
 51
25.0035302287
  0
ARC
  5
266
100
AcDbEntity
  8
0
100
AcDbCircle
 62
7
  6
CONTINUOUS
 10
0.9357493604
 20
4.7054471342
 40
0.0963942431
100
AcDbArc
 50
154.9964697713
 51
155.3219064808
  0
ARC
  5
267
100
AcDbEntity
  8
0
100
AcDbCircle
 62
7
  6
CONTINUOUS
 10
0.9357493581
 20
4.7009484955
 40
0.0963942405
100
AcDbArc
 50
204.6780936456
 51
205.0035302286
  0
ARC
  5
268
100
AcDbEntity
  8
0
100
AcDbCircle
 62
7
  6
CONTINUOUS
 10
1.111164194
 20
4.7009484953
 40
0.0963942401
100
AcDbArc
 50
334.9964697714
 51
335.3219063112
  0
ARC
  5
269
100
AcDbEntity
  8
0
100
AcDbCircle
 62
7
  6
CONTINUOUS
 10
1.1174232724
 20
4.7031978154
 40
0.093242893
100
AcDbArc
 50
332.5422640086
 51
27.4577359914
  0
ARC
  5
26A
100
AcDbEntity
  8
0
100
AcDbCircle
 62
7
  6
CONTINUOUS
 10
0.9294902818
 20
4.7031978154
 40
0.093242893
100
AcDbArc
 50
152.5422646819
 51
207.4577353181
  0
ARC
  5
26B
100
AcDbEntity
  8
0
100
AcDbCircle
 62
7
  6
CONTINUOUS
 10
1.0756282384
 20
4.7031978154
 40
0.0931303686
100
AcDbArc
 50
332.5063482257
 51
27.4936517743
  0
ARC
  5
26C
100
AcDbEntity
  8
0
100
AcDbCircle
 62
7
  6
CONTINUOUS
 10
0.9712853156
 20
4.7031978154
 40
0.0931303686
100
AcDbArc
 50
152.5063488389
 51
207.4936511611
  0
ARC
  5
26D
100
AcDbEntity
  8
0
100
AcDbCircle
 62
7
  6
CONTINUOUS
 10
1.1178462419
 20
4.7031978154
 40
0.091417552
100
AcDbArc
 50
331.947285083
 51
28.052714917
  0
ARC
  5
26E
100
AcDbEntity
  8
0
100
AcDbCircle
 62
7
  6
CONTINUOUS
 10
0.9290673083
 20
4.7031978154
 40
0.091417552
100
AcDbArc
 50
151.9472846094
 51
208.0527153906
  0
ARC
  5
26F
100
AcDbEntity
  8
0
100
AcDbCircle
 62
7
  6
CONTINUOUS
 10
1.0862684582
 20
4.7031978154
 40
0.091336466
100
AcDbArc
 50
331.9202292422
 51
28.0797707578
  0
ARC
  5
270
100
AcDbEntity
  8
0
100
AcDbCircle
 62
7
  6
CONTINUOUS
 10
0.9606450918
 20
4.7031978154
 40
0.091336466
100
AcDbArc
 50
151.9202287082
 51
208.0797712918
  0
ARC
  5
271
100
AcDbEntity
  8
0
100
AcDbCircle
 62
7
  6
CONTINUOUS
 10
0.9303508341
 20
4.7031978154
 40
0.0901540475
100
AcDbArc
 50
151.5194013192
 51
208.4805986808
  0
ARC
  5
272
100
AcDbEntity
  8
0
100
AcDbCircle
 62
7
  6
CONTINUOUS
 10
1.1165627208
 20
4.7031978154
 40
0.0901540399
100
AcDbArc
 50
331.5194003954
 51
28.4805996046
  0
ARC
  5
273
100
AcDbEntity
  8
0
100
AcDbCircle
 62
7
  6
CONTINUOUS
 10
1.0954002816
 20
4.7031978154
 40
0.0901014947
100
AcDbArc
 50
331.5013099846
 51
28.4986900154
  0
ARC
  5
274
100
AcDbEntity
  8
0
100
AcDbCircle
 62
7
  6
CONTINUOUS
 10
0.9515132651
 20
4.7031978154
 40
0.0901014947
100
AcDbArc
 50
151.5013084148
 51
208.4986915852
  0
ARC
  5
275
100
AcDbEntity
  8
0
100
AcDbCircle
 62
7
  6
CONTINUOUS
 10
1.3974567759
 20
4.9354806464
 40
0.07875
100
AcDbArc
 50
280.0555661561
 51
360.0
  0
ARC
  5
276
100
AcDbEntity
  8
0
100
AcDbCircle
 62
7
  6
CONTINUOUS
 10
0.6494567759
 20
4.9354806464
 40
0.07875
100
AcDbArc
 50
180.0
 51
259.9444338439
  0
ARC
  5
277
100
AcDbEntity
  8
0
100
AcDbCircle
 62
7
  6
CONTINUOUS
 10
1.5154567759
 20
4.9649806464
 40
0.0395
100
AcDbArc
 50
311.6830072544
 51
48.3169927456
  0
ARC
  5
278
100
AcDbEntity
  8
0
100
AcDbCircle
 62
7
  6
CONTINUOUS
 10
0.5314567759
 20
4.9649806464
 40
0.0395
100
AcDbArc
 50
131.6830072544
 51
228.3169927456
  0
ARC
  5
279
100
AcDbEntity
  8
0
100
AcDbCircle
 62
7
  6
CONTINUOUS
 10
10.0162066856
 20
3.5180358371
 40
0.2165
100
AcDbArc
 50
123.0618383193
 51
143.0970144827
  0
ARC
  5
27A
100
AcDbEntity
  8
0
100
AcDbCircle
 62
7
  6
CONTINUOUS
 10
10.0162066856
 20
3.5180358371
 40
0.2165
100
AcDbArc
 50
216.9029855173
 51
56.9381616807
  0
ARC
  5
27B
100
AcDbEntity
  8
0
100
AcDbCircle
 62
7
  6
CONTINUOUS
 10
41.0205387509
 20
4.7031978154
 40
39.9292744822
100
AcDbArc
 50
179.9383084469
 51
180.0616915531
  0
ARC
  5
27C
100
AcDbEntity
  8
0
100
AcDbCircle
 62
7
  6
CONTINUOUS
 10
50.0106534747
 20
4.7031978154
 40
39.9266392978
100
AcDbArc
 50
179.9383043752
 51
180.0616956248
  0
ARC
  5
27D
100
AcDbEntity
  8
0
100
AcDbCircle
 62
7
  6
CONTINUOUS
 10
10.4040086768
 20
4.4334639878
 40
0.39375
100
AcDbArc
 50
90.0075653946
 51
122.3259561738
  0
ARC
  5
27E
100
AcDbEntity
  8
0
100
AcDbCircle
 62
7
  6
CONTINUOUS
 10
9.6284046945
 20
4.4334639878
 40
0.39375
100
AcDbArc
 50
57.6740438262
 51
89.9924346054
  0
ARC
  5
27F
100
AcDbEntity
  8
0
100
AcDbCircle
 62
7
  6
CONTINUOUS
 10
10.0975282017
 20
4.7059172243
 40
0.0995418905
100
AcDbArc
 50
23.3073057989
 51
23.8651893342
  0
ARC
  5
280
100
AcDbEntity
  8
0
100
AcDbCircle
 62
7
  6
CONTINUOUS
 10
9.9348851694
 20
4.7059172244
 40
0.0995418903
100
AcDbArc
 50
156.1348106656
 51
156.6926941624
  0
ARC
  5
281
100
AcDbEntity
  8
0
100
AcDbCircle
 62
7
  6
CONTINUOUS
 10
9.934885168
 20
4.7004784058
 40
0.0995418888
100
AcDbArc
 50
203.3073060363
 51
203.8651893343
  0
ARC
  5
282
100
AcDbEntity
  8
0
100
AcDbCircle
 62
7
  6
CONTINUOUS
 10
10.0975282034
 20
4.7004784057
 40
0.0995418886
100
AcDbArc
 50
336.1348106656
 51
336.692693925
  0
ARC
  5
283
100
AcDbEntity
  8
0
100
AcDbCircle
 62
7
  6
CONTINUOUS
 10
10.103466966
 20
4.705238595
 40
0.0968876175
100
AcDbArc
 50
24.6416646809
 51
25.0035319402
  0
ARC
  5
284
100
AcDbEntity
  8
0
100
AcDbCircle
 62
7
  6
CONTINUOUS
 10
9.9289464051
 20
4.705238595
 40
0.0968876174
100
AcDbArc
 50
154.9964680597
 51
155.3583352946
  0
ARC
  5
285
100
AcDbEntity
  8
0
100
AcDbCircle
 62
7
  6
CONTINUOUS
 10
10.1034669675
 20
4.7011570351
 40
0.0968876159
100
AcDbArc
 50
334.99646806
 51
335.3583351445
  0
ARC
  5
286
100
AcDbEntity
  8
0
100
AcDbCircle
 62
7
  6
CONTINUOUS
 10
9.9289464037
 20
4.7011570351
 40
0.0968876159
100
AcDbArc
 50
204.6416648305
 51
205.0035319402
  0
ARC
  5
287
100
AcDbEntity
  8
0
100
AcDbCircle
 62
7
  6
CONTINUOUS
 10
9.924624851
 20
4.7031978153
 40
0.0958720611
100
AcDbArc
 50
159.279014968
 51
200.7209655172
  0
ARC
  5
288
100
AcDbEntity
  8
0
100
AcDbCircle
 62
7
  6
CONTINUOUS
 10
10.1077885217
 20
4.7031978153
 40
0.0958720611
100
AcDbArc
 50
339.2790341926
 51
20.720985322
  0
ARC
  5
289
100
AcDbEntity
  8
0
100
AcDbCircle
 62
7
  6
CONTINUOUS
 10
9.9230755385
 20
4.7027166712
 40
0.0942507886
100
AcDbArc
 50
200.7806329706
 51
206.810871
  0
ARC
  5
28A
100
AcDbEntity
  8
0
100
AcDbCircle
 62
7
  6
CONTINUOUS
 10
10.1093378347
 20
4.7036789604
 40
0.0942507865
100
AcDbArc
 50
20.7806526978
 51
26.8108710647
  0
ARC
  5
28B
100
AcDbEntity
  8
0
100
AcDbCircle
 62
7
  6
CONTINUOUS
 10
10.109478263
 20
4.7026547466
 40
0.094097524
100
AcDbArc
 50
333.1842134712
 51
339.2242825589
  0
ARC
  5
28C
100
AcDbEntity
  8
0
100
AcDbCircle
 62
7
  6
CONTINUOUS
 10
9.9229351069
 20
4.7037408849
 40
0.0940975225
100
AcDbArc
 50
153.1842134413
 51
159.224262797
  0
ARC
  5
28D
100
AcDbEntity
  8
0
100
AcDbCircle
 62
7
  6
CONTINUOUS
 10
9.922234678
 20
4.7031978154
 40
0.0932374325
100
AcDbArc
 50
152.5407024055
 51
207.4592975945
  0
ARC
  5
28E
100
AcDbEntity
  8
0
100
AcDbCircle
 62
7
  6
CONTINUOUS
 10
10.1101786952
 20
4.7031978154
 40
0.0932374325
100
AcDbArc
 50
332.5407018538
 51
27.4592981462
  0
ARC
  5
28F
100
AcDbEntity
  8
0
100
AcDbCircle
 62
7
  6
CONTINUOUS
 10
9.9640296805
 20
4.7031978154
 40
0.0931249165
100
AcDbArc
 50
152.5047738959
 51
207.4952261041
  0
ARC
  5
290
100
AcDbEntity
  8
0
100
AcDbCircle
 62
7
  6
CONTINUOUS
 10
10.0683836925
 20
4.7031978154
 40
0.0931249165
100
AcDbArc
 50
332.5047734068
 51
27.4952265932
  0
ARC
  5
291
100
AcDbEntity
  8
0
100
AcDbCircle
 62
7
  6
CONTINUOUS
 10
9.9218111617
 20
4.7031978154
 40
0.0914122276
100
AcDbArc
 50
151.9454994235
 51
208.0545005765
  0
ARC
  5
292
100
AcDbEntity
  8
0
100
AcDbCircle
 62
7
  6
CONTINUOUS
 10
10.1106022074
 20
4.7031978154
 40
0.0914122276
100
AcDbArc
 50
331.9455000551
 51
28.0544999449
  0
ARC
  5
293
100
AcDbEntity
  8
0
100
AcDbCircle
 62
7
  6
CONTINUOUS
 10
9.9533889193
 20
4.7031978154
 40
0.0913311476
100
AcDbArc
 50
151.9184327065
 51
208.0815672935
  0
ARC
  5
294
100
AcDbEntity
  8
0
100
AcDbCircle
 62
7
  6
CONTINUOUS
 10
10.0790244497
 20
4.7031978154
 40
0.0913311476
100
AcDbArc
 50
331.9184333997
 51
28.0815666003
  0
ARC
  5
295
100
AcDbEntity
  8
0
100
AcDbCircle
 62
7
  6
CONTINUOUS
 10
10.1093190957
 20
4.7031978154
 40
0.0901488224
100
AcDbArc
 50
331.5174410068
 51
28.4825589932
  0
ARC
  5
296
100
AcDbEntity
  8
0
100
AcDbCircle
 62
7
  6
CONTINUOUS
 10
9.9230942651
 20
4.7031978154
 40
0.0901488178
100
AcDbArc
 50
151.5174378375
 51
208.4825621625
  0
ARC
  5
297
100
AcDbEntity
  8
0
100
AcDbCircle
 62
7
  6
CONTINUOUS
 10
10.3902066856
 20
4.9354806464
 40
0.07875
100
AcDbArc
 50
280.0555661561
 51
360.0
  0
ARC
  5
298
100
AcDbEntity
  8
0
100
AcDbCircle
 62
7
  6
CONTINUOUS
 10
9.6422066856
 20
4.9354806464
 40
0.07875
100
AcDbArc
 50
180.0
 51
259.9444338439
  0
ARC
  5
299
100
AcDbEntity
  8
0
100
AcDbCircle
 62
7
  6
CONTINUOUS
 10
10.5082066856
 20
4.9649806464
 40
0.0395
100
AcDbArc
 50
311.6830072544
 51
48.3169927456
  0
ARC
  5
29A
100
AcDbEntity
  8
0
100
AcDbCircle
 62
7
  6
CONTINUOUS
 10
9.5242066856
 20
4.9649806464
 40
0.0395
100
AcDbArc
 50
131.6830072544
 51
228.3169927456
  0
SPLINE
  5
29B
100
AcDbEntity
  8
0
100
AcDbSpline
 62
7
  6
CONTINUOUS
 70
0
 71
3
 72
17
 73
13
 74
0
 42
0.0000001
 43
0.0000001
 44
0.0000000001
 40
0.0
 40
0.0
 40
0.0
 40
0.0
 40
0.1239924559
 40
0.1863820071
 40
0.248928989
 40
0.3743156045
 40
0.4999999992
 40
0.625684394
 40
0.7510710097
 40
0.8136179921
 40
0.8760075437
 40
1.0
 40
1.0
 40
1.0
 40
1.0
 10
0.8462067759
 20
4.7461904843
 30
0.0
 10
0.8445444836
 20
4.7429024751
 30
0.0
 10
0.8423363961
 20
4.7378053223
 30
0.0
 10
0.839998525
 20
4.7307846697
 30
0.0
 10
0.838065946
 20
4.7235979993
 30
0.0
 10
0.8364398502
 20
4.7143987558
 30
0.0
 10
0.8357883422
 20
4.7031978155
 30
0.0
 10
0.8364398502
 20
4.6919968751
 30
0.0
 10
0.838065946
 20
4.6827976316
 30
0.0
 10
0.839998525
 20
4.6756109612
 30
0.0
 10
0.8423363961
 20
4.6685903085
 30
0.0
 10
0.8445444836
 20
4.6634931557
 30
0.0
 10
0.8462067759
 20
4.6602051464
 30
0.0
  0
SPLINE
  5
29C
100
AcDbEntity
  8
0
100
AcDbSpline
 62
7
  6
CONTINUOUS
 70
0
 71
3
 72
13
 73
9
 74
0
 42
0.0000001
 43
0.0000001
 44
0.0000000001
 40
0.0
 40
0.0
 40
0.0
 40
0.0
 40
0.1179783123
 40
0.2419705742
 40
0.4999999992
 40
0.7580294245
 40
0.8820216872
 40
1.0
 40
1.0
 40
1.0
 40
1.0
 10
0.9429869598
 20
4.7461904843
 30
0.0
 10
0.9428456082
 20
4.7428111164
 30
0.0
 10
0.942599053
 20
4.7358782517
 30
0.0
 10
0.9422454937
 20
4.7215478856
 30
0.0
 10
0.9420737209
 20
4.7031978155
 30
0.0
 10
0.9422454937
 20
4.6848477453
 30
0.0
 10
0.942599053
 20
4.6705173791
 30
0.0
 10
0.9428456082
 20
4.6635845144
 30
0.0
 10
0.9429869598
 20
4.6602051464
 30
0.0
  0
SPLINE
  5
29D
100
AcDbEntity
  8
0
100
AcDbSpline
 62
7
  6
CONTINUOUS
 70
0
 71
3
 72
15
 73
11
 74
0
 42
0.0000001
 43
0.0000001
 44
0.0000000001
 40
0.0
 40
0.0
 40
0.0
 40
0.0
 40
0.1181171268
 40
0.2421279093
 40
0.3700532611
 40
0.4999999992
 40
0.6299467372
 40
0.7578720895
 40
0.8818828728
 40
1.0
 40
1.0
 40
1.0
 40
1.0
 10
0.9308439053
 20
4.7461904843
 30
0.0
 10
0.9305583992
 20
4.7428135066
 30
0.0
 10
0.9300602172
 20
4.735883495
 30
0.0
 10
0.9295309493
 20
4.7252783654
 30
0.0
 10
0.9292095227
 20
4.7143253189
 30
0.0
 10
0.9291019312
 20
4.7031978155
 30
0.0
 10
0.9292095227
 20
4.692070312
 30
0.0
 10
0.9295309493
 20
4.6811172655
 30
0.0
 10
0.9300602172
 20
4.6705121358
 30
0.0
 10
0.9305583992
 20
4.6635821241
 30
0.0
 10
0.9308439053
 20
4.6602051464
 30
0.0
  0
SPLINE
  5
29E
100
AcDbEntity
  8
0
100
AcDbSpline
 62
7
  6
CONTINUOUS
 70
0
 71
3
 72
15
 73
11
 74
0
 42
0.0000001
 43
0.0000001
 44
0.0000000001
 40
0.0
 40
0.0
 40
0.0
 40
0.0
 40
0.1183464003
 40
0.242389045
 40
0.3702160978
 40
0.4999999992
 40
0.6297839005
 40
0.7576109538
 40
0.8816535993
 40
1.0
 40
1.0
 40
1.0
 40
1.0
 10
0.9192718399
 20
4.7461904843
 30
0.0
 10
0.9188443333
 20
4.7428174022
 30
0.0
 10
0.9180977677
 20
4.7358920915
 30
0.0
 10
0.917303903
 20
4.7252838854
 30
0.0
 10
0.9168218063
 20
4.714327981
 30
0.0
 10
0.9166604415
 20
4.7031978155
 30
0.0
 10
0.9168218063
 20
4.6920676499
 30
0.0
 10
0.917303903
 20
4.6811117455
 30
0.0
 10
0.9180977677
 20
4.6705035393
 30
0.0
 10
0.9188443333
 20
4.6635782286
 30
0.0
 10
0.9192718399
 20
4.6602051464
 30
0.0
  0
SPLINE
  5
29F
100
AcDbEntity
  8
0
100
AcDbSpline
 62
7
  6
CONTINUOUS
 70
0
 71
3
 72
15
 73
11
 74
0
 42
0.0000001
 43
0.0000001
 44
0.0000000001
 40
0.0
 40
0.0
 40
0.0
 40
0.0
 40
0.118658098
 40
0.2427443982
 40
0.3704378064
 40
0.4999999992
 40
0.6295621919
 40
0.7572556006
 40
0.8813419016
 40
1.0
 40
1.0
 40
1.0
 40
1.0
 10
0.9083421093
 20
4.7461904843
 30
0.0
 10
0.9077757887
 20
4.7428226359
 30
0.0
 10
0.9067857423
 20
4.7359037525
 30
0.0
 10
0.9057316754
 20
4.7252914156
 30
0.0
 10
0.9050915977
 20
4.7143316259
 30
0.0
 10
0.9048773675
 20
4.7031978155
 30
0.0
 10
0.9050915977
 20
4.692064005
 30
0.0
 10
0.9057316754
 20
4.6811042152
 30
0.0
 10
0.9067857423
 20
4.6704918783
 30
0.0
 10
0.9077757887
 20
4.6635729948
 30
0.0
 10
0.9083421093
 20
4.6602051464
 30
0.0
  0
SPLINE
  5
2A0
100
AcDbEntity
  8
0
100
AcDbSpline
 62
7
  6
CONTINUOUS
 70
0
 71
3
 72
15
 73
11
 74
0
 42
0.0000001
 43
0.0000001
 44
0.0000000001
 40
0.0
 40
0.0
 40
0.0
 40
0.0
 40
0.1190424957
 40
0.2431831715
 40
0.370711754
 40
0.4999999992
 40
0.6292882444
 40
0.7568168272
 40
0.8809575038
 40
1.0
 40
1.0
 40
1.0
 40
1.0
 10
0.8981220989
 20
4.7461904843
 30
0.0
 10
0.8974211183
 20
4.7428289937
 30
0.0
 10
0.8961940779
 20
4.7359180914
 30
0.0
 10
0.8948856976
 20
4.7253007431
 30
0.0
 10
0.8940912345
 20
4.7143361624
 30
0.0
 10
0.8938253511
 20
4.7031978155
 30
0.0
 10
0.8940912345
 20
4.6920594685
 30
0.0
 10
0.8948856976
 20
4.6810948878
 30
0.0
 10
0.8961940779
 20
4.6704775394
 30
0.0
 10
0.8974211183
 20
4.6635666371
 30
0.0
 10
0.8981220989
 20
4.6602051464
 30
0.0
  0
SPLINE
  5
2A1
100
AcDbEntity
  8
0
100
AcDbSpline
 62
7
  6
CONTINUOUS
 70
0
 71
3
 72
15
 73
11
 74
0
 42
0.0000001
 43
0.0000001
 44
0.0000000001
 40
0.0
 40
0.0
 40
0.0
 40
0.0
 40
0.119487922
 40
0.2436923494
 40
0.3710299259
 40
0.4999999992
 40
0.6289700725
 40
0.7563076493
 40
0.8805120776
 40
1.0
 40
1.0
 40
1.0
 40
1.0
 10
0.8886748185
 20
4.7461904843
 30
0.0
 10
0.8878442224
 20
4.7428362301
 30
0.0
 10
0.8863882013
 20
4.7359346473
 30
0.0
 10
0.8848328969
 20
4.7253116081
 30
0.0
 10
0.8838885501
 20
4.7143414768
 30
0.0
 10
0.8835725279
 20
4.7031978155
 30
0.0
 10
0.8838885501
 20
4.6920541541
 30
0.0
 10
0.8848328969
 20
4.6810840228
 30
0.0
 10
0.8863882013
 20
4.6704609835
 30
0.0
 10
0.8878442224
 20
4.6635594007
 30
0.0
 10
0.8886748185
 20
4.6602051464
 30
0.0
  0
SPLINE
  5
2A2
100
AcDbEntity
  8
0
100
AcDbSpline
 62
7
  6
CONTINUOUS
 70
0
 71
3
 72
15
 73
11
 74
0
 42
0.0000001
 43
0.0000001
 44
0.0000000001
 40
0.0
 40
0.0
 40
0.0
 40
0.0
 40
0.119981287
 40
0.2442572589
 40
0.3713832604
 40
0.4999999992
 40
0.6286167379
 40
0.7557427399
 40
0.8800187126
 40
1.0
 40
1.0
 40
1.0
 40
1.0
 10
0.8800585136
 20
4.7461904843
 30
0.0
 10
0.8791041544
 20
4.7428440858
 30
0.0
 10
0.8774286202
 20
4.7359529083
 30
0.0
 10
0.8756352818
 20
4.7253237135
 30
0.0
 10
0.8745464545
 20
4.7143474363
 30
0.0
 10
0.8741821079
 20
4.7031978155
 30
0.0
 10
0.8745464545
 20
4.6920481946
 30
0.0
 10
0.8756352818
 20
4.6810719174
 30
0.0
 10
0.8774286202
 20
4.6704427225
 30
0.0
 10
0.8791041544
 20
4.663551545
 30
0.0
 10
0.8800585136
 20
4.6602051464
 30
0.0
  0
SPLINE
  5
2A3
100
AcDbEntity
  8
0
100
AcDbSpline
 62
7
  6
CONTINUOUS
 70
0
 71
3
 72
15
 73
11
 74
0
 42
0.0000001
 43
0.0000001
 44
0.0000000001
 40
0.0
 40
0.0
 40
0.0
 40
0.0
 40
0.1205086257
 40
0.2448621517
 40
0.371761999
 40
0.4999999992
 40
0.6282379994
 40
0.7551378471
 40
0.8794913739
 40
1.0
 40
1.0
 40
1.0
 40
1.0
 10
0.8723263068
 20
4.7461904843
 30
0.0
 10
0.8712547606
 20
4.7428523025
 30
0.0
 10
0.8693705495
 20
4.735972335
 30
0.0
 10
0.867349558
 20
4.7253367351
 30
0.0
 10
0.8661225466
 20
4.7143538925
 30
0.0
 10
0.8657119856
 20
4.7031978155
 30
0.0
 10
0.8661225465
 20
4.6920417384
 30
0.0
 10
0.8673495579
 20
4.6810588957
 30
0.0
 10
0.8693705495
 20
4.6704232958
 30
0.0
 10
0.8712547606
 20
4.6635433283
 30
0.0
 10
0.8723263068
 20
4.6602051464
 30
0.0
  0
SPLINE
  5
2A4
100
AcDbEntity
  8
0
100
AcDbSpline
 62
7
  6
CONTINUOUS
 70
0
 71
3
 72
15
 73
11
 74
0
 42
0.0000001
 43
0.0000001
 44
0.0000000001
 40
0.0
 40
0.0
 40
0.0
 40
0.0
 40
0.1210556171
 40
0.2454907704
 40
0.3721560285
 40
0.4999999992
 40
0.6278439699
 40
0.7545092284
 40
0.8789443825
 40
1.0
 40
1.0
 40
1.0
 40
1.0
 10
0.8655258695
 20
4.7461904843
 30
0.0
 10
0.864344356
 20
4.7428606348
 30
0.0
 10
0.8622635768
 20
4.7359923826
 30
0.0
 10
0.8600267795
 20
4.7253503323
 30
0.0
 10
0.8586687579
 20
4.7143606848
 30
0.0
 10
0.8582143834
 20
4.7031978155
 30
0.0
 10
0.8586687579
 20
4.6920349461
 30
0.0
 10
0.8600267795
 20
4.6810452986
 30
0.0
 10
0.8622635768
 20
4.6704032482
 30
0.0
 10
0.864344356
 20
4.663534996
 30
0.0
 10
0.8655258695
 20
4.6602051464
 30
0.0
  0
SPLINE
  5
2A5
100
AcDbEntity
  8
0
100
AcDbSpline
 62
7
  6
CONTINUOUS
 70
0
 71
3
 72
15
 73
11
 74
0
 42
0.0000001
 43
0.0000001
 44
0.0000000001
 40
0.0
 40
0.0
 40
0.0
 40
0.0
 40
0.1216080514
 40
0.2461268674
 40
0.3725551999
 40
0.4999999992
 40
0.6274447985
 40
0.7538731313
 40
0.8783919481
 40
1.0
 40
1.0
 40
1.0
 40
1.0
 10
0.8596991288
 20
4.7461904843
 30
0.0
 10
0.8584154362
 20
4.7428688592
 30
0.0
 10
0.8561513655
 20
4.7360125202
 30
0.0
 10
0.8537120366
 20
4.725364158
 30
0.0
 10
0.8522310336
 20
4.7143676451
 30
0.0
 10
0.8517355292
 20
4.7031978155
 30
0.0
 10
0.8522310336
 20
4.6920279859
 30
0.0
 10
0.8537120366
 20
4.6810314728
 30
0.0
 10
0.8561513655
 20
4.6703831107
 30
0.0
 10
0.8584154362
 20
4.6635267716
 30
0.0
 10
0.8596991288
 20
4.6602051464
 30
0.0
  0
SPLINE
  5
2A6
100
AcDbEntity
  8
0
100
AcDbSpline
 62
7
  6
CONTINUOUS
 70
0
 71
3
 72
15
 73
11
 74
0
 42
0.0000001
 43
0.0000001
 44
0.0000000001
 40
0.0
 40
0.0
 40
0.0
 40
0.0
 40
0.1221522272
 40
0.2467546574
 40
0.372949609
 40
0.4999999992
 40
0.6270503894
 40
0.7532453414
 40
0.8778477723
 40
1.0
 40
1.0
 40
1.0
 40
1.0
 10
0.8548820084
 20
4.7461904843
 30
0.0
 10
0.8535044253
 20
4.742876779
 30
0.0
 10
0.8510713982
 20
4.7360322464
 30
0.0
 10
0.8484441815
 20
4.7253778686
 30
0.0
 10
0.8468490493
 20
4.7143746014
 30
0.0
 10
0.8463153716
 20
4.7031978155
 30
0.0
 10
0.8468490493
 20
4.6920210296
 30
0.0
 10
0.8484441814
 20
4.6810177623
 30
0.0
 10
0.8510713982
 20
4.6703633845
 30
0.0
 10
0.8535044253
 20
4.6635188518
 30
0.0
 10
0.8548820084
 20
4.6602051464
 30
0.0
  0
SPLINE
  5
2A7
100
AcDbEntity
  8
0
100
AcDbSpline
 62
7
  6
CONTINUOUS
 70
0
 71
3
 72
11
 73
7
 74
0
 42
0.0000001
 43
0.0000001
 44
0.0000000001
 40
0.0
 40
0.0
 40
0.0
 40
0.0
 40
0.2474598799
 40
0.4999999993
 40
0.7525401189
 40
1.0
 40
1.0
 40
1.0
 40
1.0
 10
0.8507577096
 20
4.7453979474
 30
0.0
 10
0.8479256141
 20
4.7388423862
 30
0.0
 10
0.8436117219
 20
4.7249462769
 30
0.0
 10
0.8414526926
 20
4.7031978153
 30
0.0
 10
0.843611722
 20
4.6814493536
 30
0.0
 10
0.8479256142
 20
4.6675532442
 30
0.0
 10
0.8507577097
 20
4.660997683
 30
0.0
  0
SPLINE
  5
2A8
100
AcDbEntity
  8
0
100
AcDbSpline
 62
7
  6
CONTINUOUS
 70
0
 71
3
 72
17
 73
13
 74
0
 42
0.0000001
 43
0.0000001
 44
0.0000000001
 40
0.0
 40
0.0
 40
0.0
 40
0.0
 40
0.1232053863
 40
0.1854547844
 40
0.24800479
 40
0.3737326057
 40
0.4999999993
 40
0.6262673928
 40
0.7519952088
 40
0.8145452148
 40
0.8767946134
 40
1.0
 40
1.0
 40
1.0
 40
1.0
 10
0.8481590081
 20
4.7456936281
 30
0.0
 10
0.8466570913
 20
4.7424249474
 30
0.0
 10
0.844668715
 20
4.7373732899
 30
0.0
 10
0.8425684873
 20
4.7304410184
 30
0.0
 10
0.8408290982
 20
4.7233328623
 30
0.0
 10
0.8393680046
 20
4.714246861
 30
0.0
 10
0.8387832396
 20
4.7031978153
 30
0.0
 10
0.8393680046
 20
4.6921487697
 30
0.0
 10
0.8408290982
 20
4.6830627683
 30
0.0
 10
0.8425684873
 20
4.6759546122
 30
0.0
 10
0.8446687151
 20
4.6690223407
 30
0.0
 10
0.8466570914
 20
4.6639706832
 30
0.0
 10
0.8481590082
 20
4.6607020025
 30
0.0
  0
SPLINE
  5
2A9
100
AcDbEntity
  8
0
100
AcDbSpline
 62
7
  6
CONTINUOUS
 70
0
 71
3
 72
17
 73
13
 74
0
 42
0.0000001
 43
0.0000001
 44
0.0000000001
 40
0.0
 40
0.0
 40
0.0
 40
0.0
 40
0.123613689
 40
0.1859359901
 40
0.2484845817
 40
0.3740351912
 40
0.4999999992
 40
0.6259648073
 40
0.7515154171
 40
0.8140640091
 40
0.8763863106
 40
1.0
 40
1.0
 40
1.0
 40
1.0
 10
0.8466698526
 20
4.7460191122
 30
0.0
 10
0.8450777528
 20
4.7427363003
 30
0.0
 10
0.8429661747
 20
4.7376539275
 30
0.0
 10
0.8407329379
 20
4.7306652037
 30
0.0
 10
0.8388851175
 20
4.7235049056
 30
0.0
 10
0.8373315556
 20
4.7143448168
 30
0.0
 10
0.836709413
 20
4.7031978154
 30
0.0
 10
0.8373315556
 20
4.692050814
 30
0.0
 10
0.8388851174
 20
4.6828907252
 30
0.0
 10
0.8407329379
 20
4.675730427
 30
0.0
 10
0.8429661747
 20
4.6687417032
 30
0.0
 10
0.8450777529
 20
4.6636593304
 30
0.0
 10
0.8466698527
 20
4.6603765185
 30
0.0
  0
SPLINE
  5
2AA
100
AcDbEntity
  8
0
100
AcDbSpline
 62
7
  6
CONTINUOUS
 70
0
 71
3
 72
17
 73
13
 74
0
 42
0.0000001
 43
0.0000001
 44
0.0000000001
 40
0.0
 40
0.0
 40
0.0
 40
0.0
 40
0.1239924564
 40
0.1863820082
 40
0.2489289907
 40
0.3743156069
 40
0.5000000017
 40
0.6256843964
 40
0.7510710114
 40
0.8136179931
 40
0.8760075442
 40
1.0
 40
1.0
 40
1.0
 40
1.0
 10
1.2007067759
 20
4.6602051464
 30
0.0
 10
1.2023690682
 20
4.6634931557
 30
0.0
 10
1.2045771557
 20
4.6685903085
 30
0.0
 10
1.2069150268
 20
4.6756109612
 30
0.0
 10
1.2088476058
 20
4.6827976316
 30
0.0
 10
1.2104737016
 20
4.6919968752
 30
0.0
 10
1.2111252096
 20
4.7031978155
 30
0.0
 10
1.2104737015
 20
4.7143987559
 30
0.0
 10
1.2088476058
 20
4.7235979994
 30
0.0
 10
1.2069150268
 20
4.7307846697
 30
0.0
 10
1.2045771557
 20
4.7378053223
 30
0.0
 10
1.2023690682
 20
4.7429024751
 30
0.0
 10
1.2007067759
 20
4.7461904843
 30
0.0
  0
SPLINE
  5
2AB
100
AcDbEntity
  8
0
100
AcDbSpline
 62
7
  6
CONTINUOUS
 70
0
 71
3
 72
17
 73
13
 74
0
 42
0.0000001
 43
0.0000001
 44
0.0000000001
 40
0.0
 40
0.0
 40
0.0
 40
0.0
 40
0.1236136895
 40
0.1859359912
 40
0.2484845834
 40
0.3740351936
 40
0.5000000017
 40
0.6259648097
 40
0.7515154188
 40
0.8140640102
 40
0.8763863111
 40
1.0
 40
1.0
 40
1.0
 40
1.0
 10
1.2002436991
 20
4.6603765185
 30
0.0
 10
1.2018357989
 20
4.6636593304
 30
0.0
 10
1.203947377
 20
4.6687417032
 30
0.0
 10
1.2061806139
 20
4.675730427
 30
0.0
 10
1.2080284344
 20
4.6828907252
 30
0.0
 10
1.2095819962
 20
4.6920508141
 30
0.0
 10
1.2102041388
 20
4.7031978155
 30
0.0
 10
1.2095819962
 20
4.7143448168
 30
0.0
 10
1.2080284343
 20
4.7235049057
 30
0.0
 10
1.2061806139
 20
4.7306652037
 30
0.0
 10
1.2039473771
 20
4.7376539275
 30
0.0
 10
1.201835799
 20
4.7427363003
 30
0.0
 10
1.2002436992
 20
4.7460191122
 30
0.0
  0
SPLINE
  5
2AC
100
AcDbEntity
  8
0
100
AcDbSpline
 62
7
  6
CONTINUOUS
 70
0
 71
3
 72
17
 73
13
 74
0
 42
0.0000001
 43
0.0000001
 44
0.0000000001
 40
0.0
 40
0.0
 40
0.0
 40
0.0
 40
0.1232053867
 40
0.1854547855
 40
0.2480047917
 40
0.3737326081
 40
0.5000000017
 40
0.6262673951
 40
0.7519952105
 40
0.8145452159
 40
0.8767946138
 40
1.0
 40
1.0
 40
1.0
 40
1.0
 10
1.1987545436
 20
4.6607020024
 30
0.0
 10
1.2002564603
 20
4.6639706831
 30
0.0
 10
1.2022448367
 20
4.6690223406
 30
0.0
 10
1.2043450645
 20
4.6759546122
 30
0.0
 10
1.2060844536
 20
4.6830627683
 30
0.0
 10
1.2075455472
 20
4.6921487697
 30
0.0
 10
1.2081303122
 20
4.7031978153
 30
0.0
 10
1.2075455472
 20
4.714246861
 30
0.0
 10
1.2060844536
 20
4.7233328623
 30
0.0
 10
1.2043450645
 20
4.7304410183
 30
0.0
 10
1.2022448368
 20
4.7373732898
 30
0.0
 10
1.2002564605
 20
4.7424249473
 30
0.0
 10
1.1987545437
 20
4.745693628
 30
0.0
  0
SPLINE
  5
2AD
100
AcDbEntity
  8
0
100
AcDbSpline
 62
7
  6
CONTINUOUS
 70
0
 71
3
 72
11
 73
7
 74
0
 42
0.0000001
 43
0.0000001
 44
0.0000000001
 40
0.0
 40
0.0
 40
0.0
 40
0.0
 40
0.2474598816
 40
0.5000000016
 40
0.7525401205
 40
1.0
 40
1.0
 40
1.0
 40
1.0
 10
1.196155842
 20
4.6609976829
 30
0.0
 10
1.1989879376
 20
4.6675532441
 30
0.0
 10
1.2033018298
 20
4.6814493536
 30
0.0
 10
1.2054608592
 20
4.7031978152
 30
0.0
 10
1.2033018299
 20
4.7249462768
 30
0.0
 10
1.1989879377
 20
4.7388423861
 30
0.0
 10
1.1961558422
 20
4.7453979473
 30
0.0
  0
SPLINE
  5
2AE
100
AcDbEntity
  8
0
100
AcDbSpline
 62
7
  6
CONTINUOUS
 70
0
 71
3
 72
15
 73
11
 74
0
 42
0.0000001
 43
0.0000001
 44
0.0000000001
 40
0.0
 40
0.0
 40
0.0
 40
0.0
 40
0.1221522278
 40
0.2467546591
 40
0.3729496115
 40
0.5000000017
 40
0.6270503918
 40
0.7532453431
 40
0.8778477729
 40
1.0
 40
1.0
 40
1.0
 40
1.0
 10
1.1920315434
 20
4.6602051464
 30
0.0
 10
1.1934091265
 20
4.6635188518
 30
0.0
 10
1.1958421536
 20
4.6703633845
 30
0.0
 10
1.1984693704
 20
4.6810177624
 30
0.0
 10
1.2000645025
 20
4.6920210296
 30
0.0
 10
1.2005981802
 20
4.7031978155
 30
0.0
 10
1.2000645025
 20
4.7143746014
 30
0.0
 10
1.1984693703
 20
4.7253778686
 30
0.0
 10
1.1958421536
 20
4.7360322464
 30
0.0
 10
1.1934091265
 20
4.742876779
 30
0.0
 10
1.1920315434
 20
4.7461904843
 30
0.0
  0
SPLINE
  5
2AF
100
AcDbEntity
  8
0
100
AcDbSpline
 62
7
  6
CONTINUOUS
 70
0
 71
3
 72
15
 73
11
 74
0
 42
0.0000001
 43
0.0000001
 44
0.0000000001
 40
0.0
 40
0.0
 40
0.0
 40
0.0
 40
0.121608052
 40
0.2461268692
 40
0.3725552024
 40
0.5000000017
 40
0.627444801
 40
0.753873133
 40
0.8783919487
 40
1.0
 40
1.0
 40
1.0
 40
1.0
 10
1.187214423
 20
4.6602051464
 30
0.0
 10
1.1884981156
 20
4.6635267716
 30
0.0
 10
1.1907621863
 20
4.6703831107
 30
0.0
 10
1.1932015152
 20
4.6810314729
 30
0.0
 10
1.1946825182
 20
4.6920279859
 30
0.0
 10
1.1951780226
 20
4.7031978155
 30
0.0
 10
1.1946825182
 20
4.7143676451
 30
0.0
 10
1.1932015152
 20
4.7253641581
 30
0.0
 10
1.1907621863
 20
4.7360125202
 30
0.0
 10
1.1884981156
 20
4.7428688592
 30
0.0
 10
1.187214423
 20
4.7461904843
 30
0.0
  0
SPLINE
  5
2B0
100
AcDbEntity
  8
0
100
AcDbSpline
 62
7
  6
CONTINUOUS
 70
0
 71
3
 72
15
 73
11
 74
0
 42
0.0000001
 43
0.0000001
 44
0.0000000001
 40
0.0
 40
0.0
 40
0.0
 40
0.0
 40
0.1210556176
 40
0.2454907721
 40
0.3721560309
 40
0.5000000018
 40
0.6278439724
 40
0.7545092301
 40
0.878944383
 40
1.0
 40
1.0
 40
1.0
 40
1.0
 10
1.1813876823
 20
4.6602051464
 30
0.0
 10
1.1825691958
 20
4.663534996
 30
0.0
 10
1.184649975
 20
4.6704032482
 30
0.0
 10
1.1868867723
 20
4.6810452986
 30
0.0
 10
1.1882447939
 20
4.6920349462
 30
0.0
 10
1.1886991684
 20
4.7031978155
 30
0.0
 10
1.1882447939
 20
4.7143606849
 30
0.0
 10
1.1868867723
 20
4.7253503324
 30
0.0
 10
1.184649975
 20
4.7359923826
 30
0.0
 10
1.1825691958
 20
4.7428606348
 30
0.0
 10
1.1813876823
 20
4.7461904843
 30
0.0
  0
SPLINE
  5
2B1
100
AcDbEntity
  8
0
100
AcDbSpline
 62
7
  6
CONTINUOUS
 70
0
 71
3
 72
15
 73
11
 74
0
 42
0.0000001
 43
0.0000001
 44
0.0000000001
 40
0.0
 40
0.0
 40
0.0
 40
0.0
 40
0.1205086262
 40
0.2448621534
 40
0.3717620014
 40
0.5000000018
 40
0.6282380019
 40
0.7551378488
 40
0.8794913744
 40
1.0
 40
1.0
 40
1.0
 40
1.0
 10
1.174587245
 20
4.6602051464
 30
0.0
 10
1.1756587912
 20
4.6635433283
 30
0.0
 10
1.1775430023
 20
4.6704232958
 30
0.0
 10
1.1795639939
 20
4.6810588958
 30
0.0
 10
1.1807910052
 20
4.6920417385
 30
0.0
 10
1.1812015662
 20
4.7031978155
 30
0.0
 10
1.1807910052
 20
4.7143538926
 30
0.0
 10
1.1795639938
 20
4.7253367352
 30
0.0
 10
1.1775430023
 20
4.735972335
 30
0.0
 10
1.1756587912
 20
4.7428523025
 30
0.0
 10
1.174587245
 20
4.7461904843
 30
0.0
  0
SPLINE
  5
2B2
100
AcDbEntity
  8
0
100
AcDbSpline
 62
7
  6
CONTINUOUS
 70
0
 71
3
 72
15
 73
11
 74
0
 42
0.0000001
 43
0.0000001
 44
0.0000000001
 40
0.0
 40
0.0
 40
0.0
 40
0.0
 40
0.1199812875
 40
0.2442572606
 40
0.3713832629
 40
0.5000000018
 40
0.6286167404
 40
0.7557427416
 40
0.8800187131
 40
1.0
 40
1.0
 40
1.0
 40
1.0
 10
1.1668550381
 20
4.6602051464
 30
0.0
 10
1.1678093974
 20
4.663551545
 30
0.0
 10
1.1694849316
 20
4.6704427225
 30
0.0
 10
1.17127827
 20
4.6810719174
 30
0.0
 10
1.1723670973
 20
4.6920481947
 30
0.0
 10
1.1727314439
 20
4.7031978155
 30
0.0
 10
1.1723670972
 20
4.7143474364
 30
0.0
 10
1.17127827
 20
4.7253237135
 30
0.0
 10
1.1694849316
 20
4.7359529083
 30
0.0
 10
1.1678093973
 20
4.7428440858
 30
0.0
 10
1.1668550381
 20
4.7461904843
 30
0.0
  0
SPLINE
  5
2B3
100
AcDbEntity
  8
0
100
AcDbSpline
 62
7
  6
CONTINUOUS
 70
0
 71
3
 72
15
 73
11
 74
0
 42
0.0000001
 43
0.0000001
 44
0.0000000001
 40
0.0
 40
0.0
 40
0.0
 40
0.0
 40
0.1194879225
 40
0.2436923512
 40
0.3710299284
 40
0.5000000018
 40
0.628970075
 40
0.7563076511
 40
0.8805120781
 40
1.0
 40
1.0
 40
1.0
 40
1.0
 10
1.1582387333
 20
4.6602051464
 30
0.0
 10
1.1590693293
 20
4.6635594007
 30
0.0
 10
1.1605253505
 20
4.6704609835
 30
0.0
 10
1.1620806549
 20
4.6810840228
 30
0.0
 10
1.1630250017
 20
4.6920541542
 30
0.0
 10
1.1633410239
 20
4.7031978155
 30
0.0
 10
1.1630250017
 20
4.7143414768
 30
0.0
 10
1.1620806548
 20
4.7253116081
 30
0.0
 10
1.1605253505
 20
4.7359346473
 30
0.0
 10
1.1590693293
 20
4.7428362301
 30
0.0
 10
1.1582387333
 20
4.7461904843
 30
0.0
  0
SPLINE
  5
2B4
100
AcDbEntity
  8
0
100
AcDbSpline
 62
7
  6
CONTINUOUS
 70
0
 71
3
 72
15
 73
11
 74
0
 42
0.0000001
 43
0.0000001
 44
0.0000000001
 40
0.0
 40
0.0
 40
0.0
 40
0.0
 40
0.1190424963
 40
0.2431831733
 40
0.3707117565
 40
0.5000000018
 40
0.6292882469
 40
0.7568168289
 40
0.8809575044
 40
1.0
 40
1.0
 40
1.0
 40
1.0
 10
1.1487914529
 20
4.6602051464
 30
0.0
 10
1.1494924335
 20
4.6635666371
 30
0.0
 10
1.1507194739
 20
4.6704775394
 30
0.0
 10
1.1520278542
 20
4.6810948878
 30
0.0
 10
1.1528223173
 20
4.6920594686
 30
0.0
 10
1.1530882007
 20
4.7031978155
 30
0.0
 10
1.1528223173
 20
4.7143361625
 30
0.0
 10
1.1520278542
 20
4.7253007432
 30
0.0
 10
1.1507194739
 20
4.7359180915
 30
0.0
 10
1.1494924335
 20
4.7428289937
 30
0.0
 10
1.1487914529
 20
4.7461904843
 30
0.0
  0
SPLINE
  5
2B5
100
AcDbEntity
  8
0
100
AcDbSpline
 62
7
  6
CONTINUOUS
 70
0
 71
3
 72
15
 73
11
 74
0
 42
0.0000001
 43
0.0000001
 44
0.0000000001
 40
0.0
 40
0.0
 40
0.0
 40
0.0
 40
0.1186580985
 40
0.2427443999
 40
0.3704378089
 40
0.5000000018
 40
0.6295621945
 40
0.7572556023
 40
0.8813419021
 40
1.0
 40
1.0
 40
1.0
 40
1.0
 10
1.1385714425
 20
4.6602051464
 30
0.0
 10
1.1391377631
 20
4.6635729949
 30
0.0
 10
1.1401278095
 20
4.6704918783
 30
0.0
 10
1.1411818764
 20
4.6811042153
 30
0.0
 10
1.1418219541
 20
4.692064005
 30
0.0
 10
1.1420361843
 20
4.7031978155
 30
0.0
 10
1.1418219541
 20
4.714331626
 30
0.0
 10
1.1411818764
 20
4.7252914157
 30
0.0
 10
1.1401278095
 20
4.7359037526
 30
0.0
 10
1.1391377631
 20
4.742822636
 30
0.0
 10
1.1385714425
 20
4.7461904843
 30
0.0
  0
SPLINE
  5
2B6
100
AcDbEntity
  8
0
100
AcDbSpline
 62
7
  6
CONTINUOUS
 70
0
 71
3
 72
15
 73
11
 74
0
 42
0.0000001
 43
0.0000001
 44
0.0000000001
 40
0.0
 40
0.0
 40
0.0
 40
0.0
 40
0.1183464008
 40
0.2423890467
 40
0.3702161004
 40
0.5000000018
 40
0.629783903
 40
0.7576109555
 40
0.8816535998
 40
1.0
 40
1.0
 40
1.0
 40
1.0
 10
1.1276417119
 20
4.6602051464
 30
0.0
 10
1.1280692185
 20
4.6635782286
 30
0.0
 10
1.1288157841
 20
4.6705035394
 30
0.0
 10
1.1296096488
 20
4.6811117455
 30
0.0
 10
1.1300917455
 20
4.69206765
 30
0.0
 10
1.1302531103
 20
4.7031978155
 30
0.0
 10
1.1300917455
 20
4.7143279811
 30
0.0
 10
1.1296096488
 20
4.7252838855
 30
0.0
 10
1.1288157841
 20
4.7358920915
 30
0.0
 10
1.1280692185
 20
4.7428174022
 30
0.0
 10
1.1276417119
 20
4.7461904843
 30
0.0
  0
SPLINE
  5
2B7
100
AcDbEntity
  8
0
100
AcDbSpline
 62
7
  6
CONTINUOUS
 70
0
 71
3
 72
15
 73
11
 74
0
 42
0.0000001
 43
0.0000001
 44
0.0000000001
 40
0.0
 40
0.0
 40
0.0
 40
0.0
 40
0.1181171273
 40
0.242127911
 40
0.3700532637
 40
0.5000000018
 40
0.6299467397
 40
0.7578720912
 40
0.8818828733
 40
1.0
 40
1.0
 40
1.0
 40
1.0
 10
1.1160696465
 20
4.6602051464
 30
0.0
 10
1.1163551526
 20
4.6635821242
 30
0.0
 10
1.1168533346
 20
4.6705121358
 30
0.0
 10
1.1173826025
 20
4.6811172655
 30
0.0
 10
1.1177040291
 20
4.6920703121
 30
0.0
 10
1.1178116206
 20
4.7031978155
 30
0.0
 10
1.1177040291
 20
4.714325319
 30
0.0
 10
1.1173826025
 20
4.7252783655
 30
0.0
 10
1.1168533346
 20
4.7358834951
 30
0.0
 10
1.1163551526
 20
4.7428135067
 30
0.0
 10
1.1160696465
 20
4.7461904843
 30
0.0
  0
SPLINE
  5
2B8
100
AcDbEntity
  8
0
100
AcDbSpline
 62
7
  6
CONTINUOUS
 70
0
 71
3
 72
13
 73
9
 74
0
 42
0.0000001
 43
0.0000001
 44
0.0000000001
 40
0.0
 40
0.0
 40
0.0
 40
0.0
 40
0.1179783129
 40
0.241970576
 40
0.5000000018
 40
0.7580294263
 40
0.8820216878
 40
1.0
 40
1.0
 40
1.0
 40
1.0
 10
1.103926592
 20
4.6602051464
 30
0.0
 10
1.1040679436
 20
4.6635845144
 30
0.0
 10
1.1043144988
 20
4.6705173791
 30
0.0
 10
1.1046680581
 20
4.6848477453
 30
0.0
 10
1.1048398309
 20
4.7031978155
 30
0.0
 10
1.104668058
 20
4.7215478856
 30
0.0
 10
1.1043144988
 20
4.7358782518
 30
0.0
 10
1.1040679436
 20
4.7428111164
 30
0.0
 10
1.103926592
 20
4.7461904843
 30
0.0
  0
SPLINE
  5
2B9
100
AcDbEntity
  8
0
100
AcDbSpline
 62
7
  6
CONTINUOUS
 70
0
 71
3
 72
13
 73
9
 74
0
 42
0.0000001
 43
0.0000001
 44
0.0000000001
 40
0.0
 40
0.0
 40
0.0
 40
0.0
 40
0.1180160395
 40
0.2419587824
 40
0.4999999998
 40
0.7580412172
 40
0.8819839602
 40
1.0
 40
1.0
 40
1.0
 40
1.0
 10
9.9357368696
 20
4.7461904843
 30
0.0
 10
9.9355954727
 20
4.7428100357
 30
0.0
 10
9.9353488022
 20
4.7358775127
 30
0.0
 10
9.9349955135
 20
4.7215471396
 30
0.0
 10
9.934823453
 20
4.7031978154
 30
0.0
 10
9.9349955135
 20
4.6848484912
 30
0.0
 10
9.9353488022
 20
4.6705181181
 30
0.0
 10
9.9355954727
 20
4.6635855951
 30
0.0
 10
9.9357368696
 20
4.6602051464
 30
0.0
  0
SPLINE
  5
2BA
100
AcDbEntity
  8
0
100
AcDbSpline
 62
7
  6
CONTINUOUS
 70
0
 71
3
 72
15
 73
11
 74
0
 42
0.0000001
 43
0.0000001
 44
0.0000000001
 40
0.0
 40
0.0
 40
0.0
 40
0.0
 40
0.1181549632
 40
0.2421161274
 40
0.3700508821
 40
0.4999999998
 40
0.6299491175
 40
0.7578838721
 40
0.8818450365
 40
1.0
 40
1.0
 40
1.0
 40
1.0
 10
9.923593815
 20
4.7461904843
 30
0.0
 10
9.9233082175
 20
4.7428124246
 30
0.0
 10
9.9228098059
 20
4.7358827663
 30
0.0
 10
9.9222809319
 20
4.7252776824
 30
0.0
 10
9.9219594823
 20
4.7143257258
 30
0.0
 10
9.9218516475
 20
4.7031978154
 30
0.0
 10
9.9219594823
 20
4.692069905
 30
0.0
 10
9.9222809319
 20
4.6811179484
 30
0.0
 10
9.9228098059
 20
4.6705128645
 30
0.0
 10
9.9233082175
 20
4.6635832062
 30
0.0
 10
9.923593815
 20
4.6602051464
 30
0.0
  0
SPLINE
  5
2BB
100
AcDbEntity
  8
0
100
AcDbSpline
 62
7
  6
CONTINUOUS
 70
0
 71
3
 72
15
 73
11
 74
0
 42
0.0000001
 43
0.0000001
 44
0.0000000001
 40
0.0
 40
0.0
 40
0.0
 40
0.0
 40
0.1183844152
 40
0.2423772767
 40
0.3702137177
 40
0.4999999998
 40
0.6297862819
 40
0.7576227229
 40
0.8816155845
 40
1.0
 40
1.0
 40
1.0
 40
1.0
 10
9.9120217497
 20
4.7461904843
 30
0.0
 10
9.9115941057
 20
4.742816318
 30
0.0
 10
9.9108471977
 20
4.7358913796
 30
0.0
 10
9.910053921
 20
4.7252831914
 30
0.0
 10
9.9095717911
 20
4.7143283889
 30
0.0
 10
9.9094100611
 20
4.7031978154
 30
0.0
 10
9.9095717911
 20
4.6920672419
 30
0.0
 10
9.910053921
 20
4.6811124395
 30
0.0
 10
9.9108471977
 20
4.6705042512
 30
0.0
 10
9.9115941057
 20
4.6635793128
 30
0.0
 10
9.9120217497
 20
4.6602051464
 30
0.0
  0
SPLINE
  5
2BC
100
AcDbEntity
  8
0
100
AcDbSpline
 62
7
  6
CONTINUOUS
 70
0
 71
3
 72
15
 73
11
 74
0
 42
0.0000001
 43
0.0000001
 44
0.0000000001
 40
0.0
 40
0.0
 40
0.0
 40
0.0
 40
0.1186963552
 40
0.2427326478
 40
0.3704354246
 40
0.4999999998
 40
0.629564575
 40
0.7572673517
 40
0.8813036445
 40
1.0
 40
1.0
 40
1.0
 40
1.0
 10
9.9010920191
 20
4.7461904843
 30
0.0
 10
9.9005255157
 20
4.7428215489
 30
0.0
 10
9.8995350182
 20
4.7359030635
 30
0.0
 10
9.898481727
 20
4.7252907066
 30
0.0
 10
9.8978416075
 20
4.7143320351
 30
0.0
 10
9.8976268921
 20
4.7031978154
 30
0.0
 10
9.8978416075
 20
4.6920635957
 30
0.0
 10
9.898481727
 20
4.6811049242
 30
0.0
 10
9.8995350182
 20
4.6704925674
 30
0.0
 10
9.9005255157
 20
4.6635740818
 30
0.0
 10
9.9010920191
 20
4.6602051464
 30
0.0
  0
SPLINE
  5
2BD
100
AcDbEntity
  8
0
100
AcDbSpline
 62
7
  6
CONTINUOUS
 70
0
 71
3
 72
15
 73
11
 74
0
 42
0.0000001
 43
0.0000001
 44
0.0000000001
 40
0.0
 40
0.0
 40
0.0
 40
0.0
 40
0.119081051
 40
0.2431714424
 40
0.3707093694
 40
0.4999999998
 40
0.6292906302
 40
0.7568285572
 40
0.8809189487
 40
1.0
 40
1.0
 40
1.0
 40
1.0
 10
9.8908720087
 20
4.7461904843
 30
0.0
 10
9.8901708006
 20
4.7428279032
 30
0.0
 10
9.8889432056
 20
4.7359174303
 30
0.0
 10
9.8876357804
 20
4.7253000157
 30
0.0
 10
9.8868412691
 20
4.7143365731
 30
0.0
 10
9.8865747829
 20
4.7031978154
 30
0.0
 10
9.8868412691
 20
4.6920590578
 30
0.0
 10
9.8876357804
 20
4.6810956151
 30
0.0
 10
9.8889432056
 20
4.6704782005
 30
0.0
 10
9.8901708006
 20
4.6635677276
 30
0.0
 10
9.8908720087
 20
4.6602051464
 30
0.0
  0
SPLINE
  5
2BE
100
AcDbEntity
  8
0
100
AcDbSpline
 62
7
  6
CONTINUOUS
 70
0
 71
3
 72
15
 73
11
 74
0
 42
0.0000001
 43
0.0000001
 44
0.0000000001
 40
0.0
 40
0.0
 40
0.0
 40
0.0
 40
0.1195268218
 40
0.2436806436
 40
0.3710275375
 40
0.4999999998
 40
0.6289724621
 40
0.756319356
 40
0.8804731779
 40
1.0
 40
1.0
 40
1.0
 40
1.0
 10
9.8814247282
 20
4.7461904843
 30
0.0
 10
9.8805938612
 20
4.7428351356
 30
0.0
 10
9.879137188
 20
4.7359340185
 30
0.0
 10
9.8775830083
 20
4.7253108594
 30
0.0
 10
9.8766386091
 20
4.7143418892
 30
0.0
 10
9.8763218697
 20
4.7031978154
 30
0.0
 10
9.8766386091
 20
4.6920537417
 30
0.0
 10
9.8775830083
 20
4.6810847714
 30
0.0
 10
9.879137188
 20
4.6704616123
 30
0.0
 10
9.8805938612
 20
4.6635604951
 30
0.0
 10
9.8814247282
 20
4.6602051464
 30
0.0
  0
SPLINE
  5
2BF
100
AcDbEntity
  8
0
100
AcDbSpline
 62
7
  6
CONTINUOUS
 70
0
 71
3
 72
15
 73
11
 74
0
 42
0.0000001
 43
0.0000001
 44
0.0000000001
 40
0.0
 40
0.0
 40
0.0
 40
0.0
 40
0.1200205672
 40
0.2442455774
 40
0.371380867
 40
0.4999999998
 40
0.6286191326
 40
0.7557544222
 40
0.8799794325
 40
1.0
 40
1.0
 40
1.0
 40
1.0
 10
9.8728084234
 20
4.7461904843
 30
0.0
 10
9.8718537508
 20
4.7428429871
 30
0.0
 10
9.8701774739
 20
4.7359523149
 30
0.0
 10
9.8683854189
 20
4.7253229414
 30
0.0
 10
9.8672965375
 20
4.7143478505
 30
0.0
 10
9.866931363
 20
4.7031978154
 30
0.0
 10
9.8672965375
 20
4.6920477803
 30
0.0
 10
9.8683854189
 20
4.6810726894
 30
0.0
 10
9.8701774739
 20
4.6704433159
 30
0.0
 10
9.8718537508
 20
4.6635526437
 30
0.0
 10
9.8728084234
 20
4.6602051464
 30
0.0
  0
SPLINE
  5
2C0
100
AcDbEntity
  8
0
100
AcDbSpline
 62
7
  6
CONTINUOUS
 70
0
 71
3
 72
15
 73
11
 74
0
 42
0.0000001
 43
0.0000001
 44
0.0000000001
 40
0.0
 40
0.0
 40
0.0
 40
0.0
 40
0.1205483112
 40
0.2448504944
 40
0.371759599
 40
0.4999999998
 40
0.6282404006
 40
0.7551495051
 40
0.8794516885
 40
1.0
 40
1.0
 40
1.0
 40
1.0
 10
9.8650762165
 20
4.7461904843
 30
0.0
 10
9.8640043162
 20
4.7428511992
 30
0.0
 10
9.862119279
 20
4.7359717793
 30
0.0
 10
9.8600997177
 20
4.7253359381
 30
0.0
 10
9.8588726529
 20
4.7143543086
 30
0.0
 10
9.8584611579
 20
4.7031978154
 30
0.0
 10
9.8588726529
 20
4.6920413222
 30
0.0
 10
9.8600997177
 20
4.6810596927
 30
0.0
 10
9.862119279
 20
4.6704238515
 30
0.0
 10
9.8640043162
 20
4.6635444315
 30
0.0
 10
9.8650762165
 20
4.6602051464
 30
0.0
  0
SPLINE
  5
2C1
100
AcDbEntity
  8
0
100
AcDbSpline
 62
7
  6
CONTINUOUS
 70
0
 71
3
 72
15
 73
11
 74
0
 42
0.0000001
 43
0.0000001
 44
0.0000000001
 40
0.0
 40
0.0
 40
0.0
 40
0.0
 40
0.1210957215
 40
0.2454791365
 40
0.3721536207
 40
0.4999999998
 40
0.6278463789
 40
0.7545208631
 40
0.8789042782
 40
1.0
 40
1.0
 40
1.0
 40
1.0
 10
9.8582757792
 20
4.7461904843
 30
0.0
 10
9.8570938727
 20
4.742859527
 30
0.0
 10
9.8550121914
 20
4.7359918657
 30
0.0
 10
9.8527769589
 20
4.7253495095
 30
0.0
 10
9.8514188867
 20
4.7143611028
 30
0.0
 10
9.8509634773
 20
4.7031978154
 30
0.0
 10
9.8514188867
 20
4.692034528
 30
0.0
 10
9.8527769589
 20
4.6810461213
 30
0.0
 10
9.8550121914
 20
4.6704037651
 30
0.0
 10
9.8570938727
 20
4.6635361038
 30
0.0
 10
9.8582757792
 20
4.6602051464
 30
0.0
  0
SPLINE
  5
2C2
100
AcDbEntity
  8
0
100
AcDbSpline
 62
7
  6
CONTINUOUS
 70
0
 71
3
 72
13
 73
9
 74
0
 42
0.0000001
 43
0.0000001
 44
0.0000000001
 40
0.0
 40
0.0
 40
0.0
 40
0.0
 40
0.2459762225
 40
0.3724829903
 40
0.4999999998
 40
0.6275170093
 40
0.7540237771
 40
1.0
 40
1.0
 40
1.0
 40
1.0
 10
9.8524490385
 20
4.7461904843
 30
0.0
 10
9.8498539344
 20
4.7394755098
 30
0.0
 10
9.8469356341
 20
4.7288836544
 30
0.0
 10
9.8449815365
 20
4.7143693187
 30
0.0
 10
9.8444843726
 20
4.7031978154
 30
0.0
 10
9.8449815365
 20
4.6920263121
 30
0.0
 10
9.8469356341
 20
4.6775119764
 30
0.0
 10
9.8498539344
 20
4.666920121
 30
0.0
 10
9.8524490385
 20
4.6602051464
 30
0.0
  0
SPLINE
  5
2C3
100
AcDbEntity
  8
0
100
AcDbSpline
 62
7
  6
CONTINUOUS
 70
0
 71
3
 72
15
 73
11
 74
0
 42
0.0000001
 43
0.0000001
 44
0.0000000001
 40
0.0
 40
0.0
 40
0.0
 40
0.0
 40
0.1221931674
 40
0.2467430646
 40
0.3729471822
 40
0.4999999998
 40
0.6270528174
 40
0.753256935
 40
0.8778068323
 40
1.0
 40
1.0
 40
1.0
 40
1.0
 10
9.8476319181
 20
4.7461904843
 30
0.0
 10
9.8462538707
 20
4.7428756621
 30
0.0
 10
9.8438198125
 20
4.7360318064
 30
0.0
 10
9.8411943916
 20
4.7253769943
 30
0.0
 10
9.8395992198
 20
4.7143750228
 30
0.0
 10
9.8390643239
 20
4.7031978154
 30
0.0
 10
9.8395992198
 20
4.692020608
 30
0.0
 10
9.8411943916
 20
4.6810186365
 30
0.0
 10
9.8438198125
 20
4.6703638244
 30
0.0
 10
9.8462538707
 20
4.6635199686
 30
0.0
 10
9.8476319181
 20
4.6602051464
 30
0.0
  0
SPLINE
  5
2C4
100
AcDbEntity
  8
0
100
AcDbSpline
 62
7
  6
CONTINUOUS
 70
0
 71
3
 72
15
 73
11
 74
0
 42
0.0000001
 43
0.0000001
 44
0.0000000001
 40
0.0
 40
0.0
 40
0.0
 40
0.0
 40
0.1228165331
 40
0.2474628495
 40
0.3734004881
 40
0.4999999999
 40
0.6265995117
 40
0.7525371502
 40
0.8771834666
 40
1.0
 40
1.0
 40
1.0
 40
1.0
 10
9.8434663018
 20
4.7453022287
 30
0.0
 10
9.8420655232
 20
4.7420508362
 30
0.0
 10
9.8395893569
 20
4.7353447412
 30
0.0
 10
9.836914034
 20
4.724900646
 30
0.0
 10
9.8352893287
 20
4.7141312945
 30
0.0
 10
9.8347446823
 20
4.7031978152
 30
0.0
 10
9.8352893287
 20
4.6922643359
 30
0.0
 10
9.8369140341
 20
4.6814949845
 30
0.0
 10
9.839589357
 20
4.6710508893
 30
0.0
 10
9.8420655233
 20
4.6643447942
 30
0.0
 10
9.8434663019
 20
4.6610934018
 30
0.0
  0
SPLINE
  5
2C5
100
AcDbEntity
  8
0
100
AcDbSpline
 62
7
  6
CONTINUOUS
 70
0
 71
3
 72
15
 73
11
 74
0
 42
0.0000001
 43
0.0000001
 44
0.0000000001
 40
0.0
 40
0.0
 40
0.0
 40
0.0
 40
0.1232567555
 40
0.2479720424
 40
0.3737207917
 40
0.4999999998
 40
0.626279208
 40
0.7520279572
 40
0.8767432442
 40
1.0
 40
1.0
 40
1.0
 40
1.0
 10
9.8408820374
 20
4.745635099
 30
0.0
 10
9.8393839109
 20
4.7423691955
 30
0.0
 10
9.8367323043
 20
4.7356259774
 30
0.0
 10
9.8338612615
 20
4.7250958177
 30
0.0
 10
9.832117259
 20
4.7142311769
 30
0.0
 10
9.8315325525
 20
4.7031978153
 30
0.0
 10
9.832117259
 20
4.6921644537
 30
0.0
 10
9.8338612616
 20
4.6812998129
 30
0.0
 10
9.8367323043
 20
4.6707696532
 30
0.0
 10
9.839383911
 20
4.6640264351
 30
0.0
 10
9.8408820374
 20
4.6607605316
 30
0.0
  0
SPLINE
  5
2C6
100
AcDbEntity
  8
0
100
AcDbSpline
 62
7
  6
CONTINUOUS
 70
0
 71
3
 72
15
 73
11
 74
0
 42
0.0000001
 43
0.0000001
 44
0.0000000001
 40
0.0
 40
0.0
 40
0.0
 40
0.0
 40
0.1236671187
 40
0.2484479064
 40
0.3740205122
 40
0.4999999998
 40
0.6259794874
 40
0.7515520932
 40
0.876332881
 40
1.0
 40
1.0
 40
1.0
 40
1.0
 10
9.8394101947
 20
4.7459993813
 30
0.0
 10
9.8378190741
 20
4.7427167446
 30
0.0
 10
9.8349995617
 20
4.7359317563
 30
0.0
 10
9.8319403924
 20
4.7253082841
 30
0.0
 10
9.8300815811
 20
4.7143399923
 30
0.0
 10
9.8294582965
 20
4.7031978154
 30
0.0
 10
9.8300815811
 20
4.6920556384
 30
0.0
 10
9.8319403924
 20
4.6810873466
 30
0.0
 10
9.8349995617
 20
4.6704638744
 30
0.0
 10
9.8378190741
 20
4.6636788861
 30
0.0
 10
9.8394101948
 20
4.6603962495
 30
0.0
  0
SPLINE
  5
2C7
100
AcDbEntity
  8
0
100
AcDbSpline
 62
7
  6
CONTINUOUS
 70
0
 71
3
 72
13
 73
9
 74
0
 42
0.0000001
 43
0.0000001
 44
0.0000000001
 40
0.0
 40
0.0
 40
0.0
 40
0.0
 40
0.1180160399
 40
0.241958783
 40
0.5000000005
 40
0.7580412177
 40
0.8819839606
 40
1.0
 40
1.0
 40
1.0
 40
1.0
 10
10.0966765017
 20
4.6602051464
 30
0.0
 10
10.0968178985
 20
4.6635855951
 30
0.0
 10
10.0970645691
 20
4.6705181182
 30
0.0
 10
10.0974178578
 20
4.6848484913
 30
0.0
 10
10.0975899183
 20
4.7031978154
 30
0.0
 10
10.0974178578
 20
4.7215471396
 30
0.0
 10
10.0970645691
 20
4.7358775127
 30
0.0
 10
10.0968178985
 20
4.7428100357
 30
0.0
 10
10.0966765017
 20
4.7461904843
 30
0.0
  0
SPLINE
  5
2C8
100
AcDbEntity
  8
0
100
AcDbSpline
 62
7
  6
CONTINUOUS
 70
0
 71
3
 72
15
 73
11
 74
0
 42
0.0000001
 43
0.0000001
 44
0.0000000001
 40
0.0
 40
0.0
 40
0.0
 40
0.0
 40
0.1181549636
 40
0.242116128
 40
0.3700508827
 40
0.5000000005
 40
0.6299491182
 40
0.7578838727
 40
0.8818450369
 40
1.0
 40
1.0
 40
1.0
 40
1.0
 10
10.1088195562
 20
4.6602051464
 30
0.0
 10
10.1091051538
 20
4.6635832062
 30
0.0
 10
10.1096035654
 20
4.6705128645
 30
0.0
 10
10.1101324394
 20
4.6811179485
 30
0.0
 10
10.110453889
 20
4.692069905
 30
0.0
 10
10.1105617238
 20
4.7031978154
 30
0.0
 10
10.110453889
 20
4.7143257259
 30
0.0
 10
10.1101324394
 20
4.7252776824
 30
0.0
 10
10.1096035654
 20
4.7358827663
 30
0.0
 10
10.1091051538
 20
4.7428124246
 30
0.0
 10
10.1088195562
 20
4.7461904843
 30
0.0
  0
SPLINE
  5
2C9
100
AcDbEntity
  8
0
100
AcDbSpline
 62
7
  6
CONTINUOUS
 70
0
 71
3
 72
15
 73
11
 74
0
 42
0.0000001
 43
0.0000001
 44
0.0000000001
 40
0.0
 40
0.0
 40
0.0
 40
0.0
 40
0.1183844156
 40
0.2423772773
 40
0.3702137184
 40
0.5000000004
 40
0.6297862825
 40
0.7576227234
 40
0.8816155848
 40
1.0
 40
1.0
 40
1.0
 40
1.0
 10
10.1203916216
 20
4.6602051464
 30
0.0
 10
10.1208192656
 20
4.6635793128
 30
0.0
 10
10.1215661736
 20
4.6705042512
 30
0.0
 10
10.1223594503
 20
4.6811124395
 30
0.0
 10
10.1228415802
 20
4.692067242
 30
0.0
 10
10.1230033102
 20
4.7031978154
 30
0.0
 10
10.1228415802
 20
4.7143283889
 30
0.0
 10
10.1223594503
 20
4.7252831914
 30
0.0
 10
10.1215661736
 20
4.7358913796
 30
0.0
 10
10.1208192656
 20
4.742816318
 30
0.0
 10
10.1203916216
 20
4.7461904843
 30
0.0
  0
SPLINE
  5
2CA
100
AcDbEntity
  8
0
100
AcDbSpline
 62
7
  6
CONTINUOUS
 70
0
 71
3
 72
15
 73
11
 74
0
 42
0.0000001
 43
0.0000001
 44
0.0000000001
 40
0.0
 40
0.0
 40
0.0
 40
0.0
 40
0.1186963556
 40
0.2427326484
 40
0.3704354252
 40
0.5000000004
 40
0.6295645757
 40
0.7572673523
 40
0.8813036449
 40
1.0
 40
1.0
 40
1.0
 40
1.0
 10
10.1313213522
 20
4.6602051464
 30
0.0
 10
10.1318878556
 20
4.6635740818
 30
0.0
 10
10.1328783531
 20
4.6704925674
 30
0.0
 10
10.1339316443
 20
4.6811049242
 30
0.0
 10
10.1345717638
 20
4.6920635957
 30
0.0
 10
10.1347864791
 20
4.7031978154
 30
0.0
 10
10.1345717638
 20
4.7143320351
 30
0.0
 10
10.1339316443
 20
4.7252907066
 30
0.0
 10
10.1328783531
 20
4.7359030635
 30
0.0
 10
10.1318878556
 20
4.7428215489
 30
0.0
 10
10.1313213522
 20
4.7461904843
 30
0.0
  0
SPLINE
  5
2CB
100
AcDbEntity
  8
0
100
AcDbSpline
 62
7
  6
CONTINUOUS
 70
0
 71
3
 72
15
 73
11
 74
0
 42
0.0000001
 43
0.0000001
 44
0.0000000001
 40
0.0
 40
0.0
 40
0.0
 40
0.0
 40
0.1190810514
 40
0.2431714429
 40
0.3707093701
 40
0.5000000004
 40
0.6292906308
 40
0.7568285578
 40
0.880918949
 40
1.0
 40
1.0
 40
1.0
 40
1.0
 10
10.1415413626
 20
4.6602051464
 30
0.0
 10
10.1422425706
 20
4.6635677276
 30
0.0
 10
10.1434701657
 20
4.6704782005
 30
0.0
 10
10.1447775909
 20
4.6810956151
 30
0.0
 10
10.1455721022
 20
4.6920590578
 30
0.0
 10
10.1458385884
 20
4.7031978154
 30
0.0
 10
10.1455721022
 20
4.7143365731
 30
0.0
 10
10.1447775909
 20
4.7253000157
 30
0.0
 10
10.1434701656
 20
4.7359174303
 30
0.0
 10
10.1422425706
 20
4.7428279032
 30
0.0
 10
10.1415413626
 20
4.7461904843
 30
0.0
  0
SPLINE
  5
2CC
100
AcDbEntity
  8
0
100
AcDbSpline
 62
7
  6
CONTINUOUS
 70
0
 71
3
 72
15
 73
11
 74
0
 42
0.0000001
 43
0.0000001
 44
0.0000000001
 40
0.0
 40
0.0
 40
0.0
 40
0.0
 40
0.1195268222
 40
0.2436806442
 40
0.3710275382
 40
0.5000000004
 40
0.6289724627
 40
0.7563193566
 40
0.8804731783
 40
1.0
 40
1.0
 40
1.0
 40
1.0
 10
10.150988643
 20
4.6602051464
 30
0.0
 10
10.1518195101
 20
4.6635604952
 30
0.0
 10
10.1532761832
 20
4.6704616124
 30
0.0
 10
10.154830363
 20
4.6810847714
 30
0.0
 10
10.1557747622
 20
4.6920537417
 30
0.0
 10
10.1560915016
 20
4.7031978154
 30
0.0
 10
10.1557747622
 20
4.7143418892
 30
0.0
 10
10.154830363
 20
4.7253108595
 30
0.0
 10
10.1532761832
 20
4.7359340185
 30
0.0
 10
10.1518195101
 20
4.7428351356
 30
0.0
 10
10.150988643
 20
4.7461904843
 30
0.0
  0
SPLINE
  5
2CD
100
AcDbEntity
  8
0
100
AcDbSpline
 62
7
  6
CONTINUOUS
 70
0
 71
3
 72
15
 73
11
 74
0
 42
0.0000001
 43
0.0000001
 44
0.0000000001
 40
0.0
 40
0.0
 40
0.0
 40
0.0
 40
0.1200205676
 40
0.2442455779
 40
0.3713808676
 40
0.5000000004
 40
0.6286191332
 40
0.7557544228
 40
0.8799794329
 40
1.0
 40
1.0
 40
1.0
 40
1.0
 10
10.1596049479
 20
4.6602051464
 30
0.0
 10
10.1605596204
 20
4.6635526437
 30
0.0
 10
10.1622358974
 20
4.6704433159
 30
0.0
 10
10.1640279524
 20
4.6810726894
 30
0.0
 10
10.1651168338
 20
4.6920477803
 30
0.0
 10
10.1654820083
 20
4.7031978154
 30
0.0
 10
10.1651168338
 20
4.7143478506
 30
0.0
 10
10.1640279524
 20
4.7253229414
 30
0.0
 10
10.1622358974
 20
4.7359523149
 30
0.0
 10
10.1605596204
 20
4.7428429871
 30
0.0
 10
10.1596049479
 20
4.7461904843
 30
0.0
  0
SPLINE
  5
2CE
100
AcDbEntity
  8
0
100
AcDbSpline
 62
7
  6
CONTINUOUS
 70
0
 71
3
 72
15
 73
11
 74
0
 42
0.0000001
 43
0.0000001
 44
0.0000000001
 40
0.0
 40
0.0
 40
0.0
 40
0.0
 40
0.1205483115
 40
0.244850495
 40
0.3717595997
 40
0.5000000004
 40
0.6282404012
 40
0.7551495057
 40
0.8794516889
 40
1.0
 40
1.0
 40
1.0
 40
1.0
 10
10.1673371548
 20
4.6602051464
 30
0.0
 10
10.1684090551
 20
4.6635444315
 30
0.0
 10
10.1702940923
 20
4.6704238515
 30
0.0
 10
10.1723136536
 20
4.6810596927
 30
0.0
 10
10.1735407184
 20
4.6920413223
 30
0.0
 10
10.1739522134
 20
4.7031978154
 30
0.0
 10
10.1735407184
 20
4.7143543086
 30
0.0
 10
10.1723136536
 20
4.7253359381
 30
0.0
 10
10.1702940923
 20
4.7359717793
 30
0.0
 10
10.1684090551
 20
4.7428511993
 30
0.0
 10
10.1673371548
 20
4.7461904843
 30
0.0
  0
SPLINE
  5
2CF
100
AcDbEntity
  8
0
100
AcDbSpline
 62
7
  6
CONTINUOUS
 70
0
 71
3
 72
15
 73
11
 74
0
 42
0.0000001
 43
0.0000001
 44
0.0000000001
 40
0.0
 40
0.0
 40
0.0
 40
0.0
 40
0.1210957219
 40
0.2454791371
 40
0.3721536213
 40
0.5000000004
 40
0.6278463795
 40
0.7545208637
 40
0.8789042785
 40
1.0
 40
1.0
 40
1.0
 40
1.0
 10
10.1741375921
 20
4.6602051464
 30
0.0
 10
10.1753194986
 20
4.6635361038
 30
0.0
 10
10.1774011799
 20
4.6704037651
 30
0.0
 10
10.1796364124
 20
4.6810461213
 30
0.0
 10
10.1809944846
 20
4.6920345281
 30
0.0
 10
10.181449894
 20
4.7031978154
 30
0.0
 10
10.1809944846
 20
4.7143611028
 30
0.0
 10
10.1796364124
 20
4.7253495095
 30
0.0
 10
10.1774011799
 20
4.7359918657
 30
0.0
 10
10.1753194986
 20
4.742859527
 30
0.0
 10
10.1741375921
 20
4.7461904843
 30
0.0
  0
SPLINE
  5
2D0
100
AcDbEntity
  8
0
100
AcDbSpline
 62
7
  6
CONTINUOUS
 70
0
 71
3
 72
13
 73
9
 74
0
 42
0.0000001
 43
0.0000001
 44
0.0000000001
 40
0.0
 40
0.0
 40
0.0
 40
0.0
 40
0.2459762231
 40
0.3724829909
 40
0.5000000004
 40
0.6275170099
 40
0.7540237777
 40
1.0
 40
1.0
 40
1.0
 40
1.0
 10
10.1799643328
 20
4.6602051464
 30
0.0
 10
10.1825594369
 20
4.666920121
 30
0.0
 10
10.1854777372
 20
4.6775119764
 30
0.0
 10
10.1874318348
 20
4.6920263122
 30
0.0
 10
10.1879289987
 20
4.7031978154
 30
0.0
 10
10.1874318348
 20
4.7143693187
 30
0.0
 10
10.1854777372
 20
4.7288836544
 30
0.0
 10
10.1825594369
 20
4.7394755098
 30
0.0
 10
10.1799643328
 20
4.7461904843
 30
0.0
  0
SPLINE
  5
2D1
100
AcDbEntity
  8
0
100
AcDbSpline
 62
7
  6
CONTINUOUS
 70
0
 71
3
 72
15
 73
11
 74
0
 42
0.0000001
 43
0.0000001
 44
0.0000000001
 40
0.0
 40
0.0
 40
0.0
 40
0.0
 40
0.1221931678
 40
0.2467430652
 40
0.3729471828
 40
0.5000000004
 40
0.6270528181
 40
0.7532569356
 40
0.8778068327
 40
1.0
 40
1.0
 40
1.0
 40
1.0
 10
10.1847814532
 20
4.6602051464
 30
0.0
 10
10.1861595005
 20
4.6635199686
 30
0.0
 10
10.1885935588
 20
4.6703638244
 30
0.0
 10
10.1912189797
 20
4.6810186365
 30
0.0
 10
10.1928141515
 20
4.692020608
 30
0.0
 10
10.1933490474
 20
4.7031978154
 30
0.0
 10
10.1928141515
 20
4.7143750228
 30
0.0
 10
10.1912189797
 20
4.7253769943
 30
0.0
 10
10.1885935587
 20
4.7360318064
 30
0.0
 10
10.1861595005
 20
4.7428756622
 30
0.0
 10
10.1847814532
 20
4.7461904843
 30
0.0
  0
SPLINE
  5
2D2
100
AcDbEntity
  8
0
100
AcDbSpline
 62
7
  6
CONTINUOUS
 70
0
 71
3
 72
15
 73
11
 74
0
 42
0.0000001
 43
0.0000001
 44
0.0000000001
 40
0.0
 40
0.0
 40
0.0
 40
0.0
 40
0.1228165334
 40
0.24746285
 40
0.3734004885
 40
0.5000000003
 40
0.6265995121
 40
0.7525371506
 40
0.877183467
 40
1.0
 40
1.0
 40
1.0
 40
1.0
 10
10.1889470694
 20
4.6610934017
 30
0.0
 10
10.190347848
 20
4.6643447942
 30
0.0
 10
10.1928240143
 20
4.6710508892
 30
0.0
 10
10.1954993372
 20
4.6814949844
 30
0.0
 10
10.1971240426
 20
4.6922643359
 30
0.0
 10
10.197668689
 20
4.7031978152
 30
0.0
 10
10.1971240426
 20
4.7141312945
 30
0.0
 10
10.1954993373
 20
4.7249006459
 30
0.0
 10
10.1928240144
 20
4.7353447411
 30
0.0
 10
10.1903478481
 20
4.7420508362
 30
0.0
 10
10.1889470696
 20
4.7453022286
 30
0.0
  0
SPLINE
  5
2D3
100
AcDbEntity
  8
0
100
AcDbSpline
 62
7
  6
CONTINUOUS
 70
0
 71
3
 72
15
 73
11
 74
0
 42
0.0000001
 43
0.0000001
 44
0.0000000001
 40
0.0
 40
0.0
 40
0.0
 40
0.0
 40
0.1232567559
 40
0.2479720429
 40
0.3737207922
 40
0.5000000004
 40
0.6262792085
 40
0.7520279577
 40
0.8767432445
 40
1.0
 40
1.0
 40
1.0
 40
1.0
 10
10.1915313338
 20
4.6607605315
 30
0.0
 10
10.1930294602
 20
4.6640264351
 30
0.0
 10
10.195681067
 20
4.6707696532
 30
0.0
 10
10.1985521097
 20
4.6812998129
 30
0.0
 10
10.2002961123
 20
4.6921644537
 30
0.0
 10
10.2008808188
 20
4.7031978153
 30
0.0
 10
10.2002961123
 20
4.7142311769
 30
0.0
 10
10.1985521097
 20
4.7250958177
 30
0.0
 10
10.195681067
 20
4.7356259774
 30
0.0
 10
10.1930294604
 20
4.7423691954
 30
0.0
 10
10.1915313339
 20
4.745635099
 30
0.0
  0
SPLINE
  5
2D4
100
AcDbEntity
  8
0
100
AcDbSpline
 62
7
  6
CONTINUOUS
 70
0
 71
3
 72
15
 73
11
 74
0
 42
0.0000001
 43
0.0000001
 44
0.0000000001
 40
0.0
 40
0.0
 40
0.0
 40
0.0
 40
0.1236671191
 40
0.248447907
 40
0.3740205128
 40
0.5000000004
 40
0.6259794881
 40
0.7515520938
 40
0.8763328814
 40
1.0
 40
1.0
 40
1.0
 40
1.0
 10
10.1930031765
 20
4.6603962495
 30
0.0
 10
10.1945942972
 20
4.6636788861
 30
0.0
 10
10.1974138096
 20
4.6704638744
 30
0.0
 10
10.2004729789
 20
4.6810873466
 30
0.0
 10
10.2023317902
 20
4.6920556384
 30
0.0
 10
10.2029550748
 20
4.7031978154
 30
0.0
 10
10.2023317902
 20
4.7143399923
 30
0.0
 10
10.2004729789
 20
4.7253082841
 30
0.0
 10
10.1974138096
 20
4.7359317563
 30
0.0
 10
10.1945942972
 20
4.7427167446
 30
0.0
 10
10.1930031766
 20
4.7459993812
 30
0.0
  0
SPLINE
  5
2D5
100
AcDbEntity
  8
0
100
AcDbSpline
 62
7
  6
CONTINUOUS
 70
0
 71
3
 72
17
 73
13
 74
0
 42
0.0000001
 43
0.0000001
 44
0.0000000001
 40
0.0
 40
0.0
 40
0.0
 40
0.0
 40
0.1249033281
 40
0.1874531972
 40
0.2499950837
 40
0.3749885802
 40
0.4999999992
 40
0.6250114182
 40
0.7500049151
 40
0.812546802
 40
0.8750966715
 40
1.0
 40
1.0
 40
1.0
 40
1.0
 10
1.1920315434
 20
4.7461904843
 30
0.0
 10
1.193819976
 20
4.7429144453
 30
0.0
 10
1.1962034938
 20
4.737824616
 30
0.0
 10
1.1987330089
 20
4.7307917417
 30
0.0
 10
1.2008187668
 20
4.7236109958
 30
0.0
 10
1.2025768015
 20
4.7144112143
 30
0.0
 10
1.2032818623
 20
4.7031978155
 30
0.0
 10
1.2025768015
 20
4.6919844167
 30
0.0
 10
1.2008187669
 20
4.6827846351
 30
0.0
 10
1.1987330089
 20
4.6756038891
 30
0.0
 10
1.1962034938
 20
4.6685710148
 30
0.0
 10
1.193819976
 20
4.6634811855
 30
0.0
 10
1.1920315434
 20
4.6602051464
 30
0.0
  0
SPLINE
  5
2D6
100
AcDbEntity
  8
0
100
AcDbSpline
 62
7
  6
CONTINUOUS
 70
0
 71
3
 72
17
 73
13
 74
0
 42
0.0000001
 43
0.0000001
 44
0.0000000001
 40
0.0
 40
0.0
 40
0.0
 40
0.0
 40
0.1249445032
 40
0.1875016601
 40
0.2500433511
 40
0.3750190808
 40
0.4999999992
 40
0.6249809176
 40
0.7499566477
 40
0.8124983391
 40
0.8750554964
 40
1.0
 40
1.0
 40
1.0
 40
1.0
 10
1.187214423
 20
4.7461904843
 30
0.0
 10
1.1890083908
 20
4.7429149762
 30
0.0
 10
1.1913996326
 20
4.7378254827
 30
0.0
 10
1.193937615
 20
4.7307920613
 30
0.0
 10
1.196030118
 20
4.7236115865
 30
0.0
 10
1.1977939773
 20
4.7144117847
 30
0.0
 10
1.1985014064
 20
4.7031978155
 30
0.0
 10
1.1977939773
 20
4.6919838462
 30
0.0
 10
1.196030118
 20
4.6827840444
 30
0.0
 10
1.1939376151
 20
4.6756035696
 30
0.0
 10
1.1913996326
 20
4.6685701481
 30
0.0
 10
1.1890083908
 20
4.6634806546
 30
0.0
 10
1.187214423
 20
4.6602051464
 30
0.0
  0
SPLINE
  5
2D7
100
AcDbEntity
  8
0
100
AcDbSpline
 62
7
  6
CONTINUOUS
 70
0
 71
3
 72
17
 73
13
 74
0
 42
0.0000001
 43
0.0000001
 44
0.0000000001
 40
0.0
 40
0.0
 40
0.0
 40
0.0
 40
0.1249074919
 40
0.1874580977
 40
0.2499999643
 40
0.3749916642
 40
0.4999999992
 40
0.6250083342
 40
0.7500000344
 40
0.8125419014
 40
0.8750925077
 40
1.0
 40
1.0
 40
1.0
 40
1.0
 10
1.1813876823
 20
4.7461904843
 30
0.0
 10
1.1831766753
 20
4.742914499
 30
0.0
 10
1.1855609749
 20
4.7378247037
 30
0.0
 10
1.1880913469
 20
4.7307917741
 30
0.0
 10
1.1901777876
 20
4.7236110555
 30
0.0
 10
1.1919364117
 20
4.7144112719
 30
0.0
 10
1.1926417122
 20
4.7031978155
 30
0.0
 10
1.1919364118
 20
4.691984359
 30
0.0
 10
1.1901777876
 20
4.6827845754
 30
0.0
 10
1.1880913469
 20
4.6756038568
 30
0.0
 10
1.1855609749
 20
4.6685709271
 30
0.0
 10
1.1831766753
 20
4.6634811318
 30
0.0
 10
1.1813876823
 20
4.6602051464
 30
0.0
  0
SPLINE
  5
2D8
100
AcDbEntity
  8
0
100
AcDbSpline
 62
7
  6
CONTINUOUS
 70
0
 71
3
 72
17
 73
13
 74
0
 42
0.0000001
 43
0.0000001
 44
0.0000000001
 40
0.0
 40
0.0
 40
0.0
 40
0.0
 40
0.124011781
 40
0.1864047156
 40
0.2489515741
 40
0.3743298476
 40
0.4999999992
 40
0.6256701509
 40
0.7510484246
 40
0.8135952836
 40
0.8759882186
 40
1.0
 40
1.0
 40
1.0
 40
1.0
 10
1.1487914529
 20
4.7461904843
 30
0.0
 10
1.150456501
 20
4.7429027336
 30
0.0
 10
1.1526684086
 20
4.737805734
 30
0.0
 10
1.1550104396
 20
4.7307848198
 30
0.0
 10
1.156946354
 20
4.7235982736
 30
0.0
 10
1.158575316
 20
4.7143990169
 30
0.0
 10
1.1592279855
 20
4.7031978155
 30
0.0
 10
1.158575316
 20
4.691996614
 30
0.0
 10
1.1569463541
 20
4.6827973572
 30
0.0
 10
1.1550104396
 20
4.6756108111
 30
0.0
 10
1.1526684086
 20
4.6685898968
 30
0.0
 10
1.150456501
 20
4.6634928972
 30
0.0
 10
1.1487914529
 20
4.6602051464
 30
0.0
  0
SPLINE
  5
2D9
100
AcDbEntity
  8
0
100
AcDbSpline
 62
7
  6
CONTINUOUS
 70
0
 71
3
 72
13
 73
9
 74
0
 42
0.0000001
 43
0.0000001
 44
0.0000000001
 40
0.0
 40
0.0
 40
0.0
 40
0.0
 40
0.1179834852
 40
0.2419765357
 40
0.4999999992
 40
0.7580234631
 40
0.8820165144
 40
1.0
 40
1.0
 40
1.0
 40
1.0
 10
0.9686835136
 20
4.7461904843
 30
0.0
 10
0.9688325903
 20
4.7428112039
 30
0.0
 10
0.969092625
 20
4.7358784426
 30
0.0
 10
0.9694655173
 20
4.7215481354
 30
0.0
 10
0.96964669
 20
4.7031978155
 30
0.0
 10
0.9694655173
 20
4.6848474955
 30
0.0
 10
0.969092625
 20
4.6705171882
 30
0.0
 10
0.9688325903
 20
4.6635844269
 30
0.0
 10
0.9686835136
 20
4.6602051464
 30
0.0
  0
SPLINE
  5
2DA
100
AcDbEntity
  8
0
100
AcDbSpline
 62
7
  6
CONTINUOUS
 70
0
 71
3
 72
15
 73
11
 74
0
 42
0.0000001
 43
0.0000001
 44
0.0000000001
 40
0.0
 40
0.0
 40
0.0
 40
0.0
 40
0.1210850676
 40
0.2455246511
 40
0.3721772796
 40
0.5000000018
 40
0.6278227238
 40
0.7544753511
 40
0.878914933
 40
1.0
 40
1.0
 40
1.0
 40
1.0
 10
0.9686835136
 20
4.6602051464
 30
0.0
 10
0.9674963493
 20
4.6635345527
 30
0.0
 10
0.9654054495
 20
4.6704021719
 30
0.0
 10
0.963157503
 20
4.6810445639
 30
0.0
 10
0.9617927123
 20
4.6920345777
 30
0.0
 10
0.9613360739
 20
4.7031978155
 30
0.0
 10
0.9617927123
 20
4.7143610534
 30
0.0
 10
0.963157503
 20
4.725351067
 30
0.0
 10
0.9654054495
 20
4.735993459
 30
0.0
 10
0.9674963493
 20
4.7428610781
 30
0.0
 10
0.9686835136
 20
4.7461904843
 30
0.0
  0
SPLINE
  5
2DB
100
AcDbEntity
  8
0
100
AcDbSpline
 62
7
  6
CONTINUOUS
 70
0
 71
3
 72
15
 73
11
 74
0
 42
0.0000001
 43
0.0000001
 44
0.0000000001
 40
0.0
 40
0.0
 40
0.0
 40
0.0
 40
0.1216374013
 40
0.2461606977
 40
0.3725764437
 40
0.5000000017
 40
0.6274235596
 40
0.7538393045
 40
0.8783625993
 40
1.0
 40
1.0
 40
1.0
 40
1.0
 10
0.9556261375
 20
4.6602051464
 30
0.0
 10
0.954337224
 20
4.6635263399
 30
0.0
 10
0.9520637716
 20
4.6703820439
 30
0.0
 10
0.9496140405
 20
4.6810307357
 30
0.0
 10
0.94812672
 20
4.6920276133
 30
0.0
 10
0.9476291027
 20
4.7031978155
 30
0.0
 10
0.9481267201
 20
4.7143680178
 30
0.0
 10
0.9496140406
 20
4.7253648952
 30
0.0
 10
0.9520637716
 20
4.7360135869
 30
0.0
 10
0.9543372241
 20
4.7428692909
 30
0.0
 10
0.9556261375
 20
4.7461904843
 30
0.0
  0
SPLINE
  5
2DC
100
AcDbEntity
  8
0
100
AcDbSpline
 62
7
  6
CONTINUOUS
 70
0
 71
3
 72
15
 73
11
 74
0
 42
0.0000001
 43
0.0000001
 44
0.0000000001
 40
0.0
 40
0.0
 40
0.0
 40
0.0
 40
0.1221807665
 40
0.2467876158
 40
0.372970329
 40
0.5000000017
 40
0.6270296744
 40
0.7532123864
 40
0.8778192341
 40
1.0
 40
1.0
 40
1.0
 40
1.0
 10
0.9429869598
 20
4.6602051464
 30
0.0
 10
0.9416046108
 20
4.6635184413
 30
0.0
 10
0.939162994
 20
4.670362353
 30
0.0
 10
0.9365261932
 20
4.6810170408
 30
0.0
 10
0.9349252381
 20
4.692020662
 30
0.0
 10
0.9343896126
 20
4.7031978155
 30
0.0
 10
0.9349252381
 20
4.714374969
 30
0.0
 10
0.9365261932
 20
4.7253785901
 30
0.0
 10
0.939162994
 20
4.7360332778
 30
0.0
 10
0.9416046108
 20
4.7428771895
 30
0.0
 10
0.9429869598
 20
4.7461904843
 30
0.0
  0
SPLINE
  5
2DD
100
AcDbEntity
  8
0
100
AcDbSpline
 62
7
  6
CONTINUOUS
 70
0
 71
3
 72
15
 73
11
 74
0
 42
0.0000001
 43
0.0000001
 44
0.0000000001
 40
0.0
 40
0.0
 40
0.0
 40
0.0
 40
0.118715132
 40
0.2427540516
 40
0.3704487825
 40
0.5000000004
 40
0.6295512183
 40
0.7572459492
 40
0.8812848684
 40
1.0
 40
1.0
 40
1.0
 40
1.0
 10
10.0301135604
 20
4.6602051464
 30
0.0
 10
10.0295397596
 20
4.6635737692
 30
0.0
 10
10.0285364392
 20
4.670491865
 30
0.0
 10
10.0274694325
 20
4.6811044709
 30
0.0
 10
10.0268209799
 20
4.6920633753
 30
0.0
 10
10.0266034701
 20
4.7031978154
 30
0.0
 10
10.0268209799
 20
4.7143322555
 30
0.0
 10
10.0274694325
 20
4.7252911599
 30
0.0
 10
10.0285364392
 20
4.7359037658
 30
0.0
 10
10.0295397596
 20
4.7428218616
 30
0.0
 10
10.0301135604
 20
4.7461904843
 30
0.0
  0
SPLINE
  5
2DE
100
AcDbEntity
  8
0
100
AcDbSpline
 62
7
  6
CONTINUOUS
 70
0
 71
3
 72
15
 73
11
 74
0
 42
0.0000001
 43
0.0000001
 44
0.0000000001
 40
0.0
 40
0.0
 40
0.0
 40
0.0
 40
0.1191033951
 40
0.2431969324
 40
0.3707253034
 40
0.5
 40
0.6292746966
 40
0.7568030676
 40
0.8808966049
 40
1.0
 40
1.0
 40
1.0
 40
1.0
 10
10.0162066856
 20
4.6602051464
 30
0.0
 10
10.0169149437
 20
4.6635673618
 30
0.0
 10
10.018154972
 20
4.6704773671
 30
0.0
 10
10.0194757566
 20
4.6810950728
 30
0.0
 10
10.0202783846
 20
4.6920587925
 30
0.0
 10
10.0205475907
 20
4.7031978154
 30
0.0
 10
10.0202783846
 20
4.7143368383
 30
0.0
 10
10.0194757566
 20
4.725300558
 30
0.0
 10
10.018154972
 20
4.7359182637
 30
0.0
 10
10.0169149437
 20
4.742828269
 30
0.0
 10
10.0162066856
 20
4.7461904843
 30
0.0
  0
SPLINE
  5
2DF
100
AcDbEntity
  8
0
100
AcDbSpline
 62
7
  6
CONTINUOUS
 70
0
 71
3
 72
17
 73
13
 74
0
 42
0.0000001
 43
0.0000001
 44
0.0000000001
 40
0.0
 40
0.0
 40
0.0
 40
0.0
 40
0.123621819
 40
0.1859466321
 40
0.2484961076
 40
0.3740427267
 40
0.4999999992
 40
0.6259572717
 40
0.7515038912
 40
0.8140533671
 40
0.8763781806
 40
1.0
 40
1.0
 40
1.0
 40
1.0
 10
1.1385714425
 20
4.7461904843
 30
0.0
 10
1.1401801331
 20
4.7428974786
 30
0.0
 10
1.1423140279
 20
4.7377974059
 30
0.0
 10
1.1445712239
 20
4.7307817902
 30
0.0
 10
1.1464390261
 20
4.7235927496
 30
0.0
 10
1.1480095166
 20
4.7143937734
 30
0.0
 10
1.1486385067
 20
4.7031978155
 30
0.0
 10
1.1480095166
 20
4.6920018575
 30
0.0
 10
1.1464390261
 20
4.6828028813
 30
0.0
 10
1.1445712239
 20
4.6756138407
 30
0.0
 10
1.1423140279
 20
4.6685982249
 30
0.0
 10
1.1401801331
 20
4.6634981521
 30
0.0
 10
1.1385714425
 20
4.6602051464
 30
0.0
  0
SPLINE
  5
2E0
100
AcDbEntity
  8
0
100
AcDbSpline
 62
7
  6
CONTINUOUS
 70
0
 71
3
 72
11
 73
7
 74
0
 42
0.0000001
 43
0.0000001
 44
0.0000000001
 40
0.0
 40
0.0
 40
0.0
 40
0.0
 40
0.2473811698
 40
0.5000000017
 40
0.7526188324
 40
1.0
 40
1.0
 40
1.0
 40
1.0
 10
0.9308439053
 20
4.6602051464
 30
0.0
 10
0.9278902217
 20
4.666861096
 30
0.0
 10
0.9233876444
 20
4.6810098682
 30
0.0
 10
0.9211329062
 20
4.7031978155
 30
0.0
 10
0.9233876444
 20
4.7253857627
 30
0.0
 10
0.9278902218
 20
4.7395345349
 30
0.0
 10
0.9308439053
 20
4.7461904843
 30
0.0
  0
SPLINE
  5
2E1
100
AcDbEntity
  8
0
100
AcDbSpline
 62
7
  6
CONTINUOUS
 70
0
 71
3
 72
11
 73
7
 74
0
 42
0.0000001
 43
0.0000001
 44
0.0000000001
 40
0.0
 40
0.0
 40
0.0
 40
0.0
 40
0.2479487655
 40
0.4999999992
 40
0.7520512332
 40
1.0
 40
1.0
 40
1.0
 40
1.0
 10
1.1276417119
 20
4.7461904843
 30
0.0
 10
1.1307419026
 20
4.7395602383
 30
0.0
 10
1.13548984
 20
4.7254355455
 30
0.0
 10
1.1378763048
 20
4.7031978155
 30
0.0
 10
1.1354898401
 20
4.6809600854
 30
0.0
 10
1.1307419027
 20
4.6668353925
 30
0.0
 10
1.1276417119
 20
4.6602051464
 30
0.0
  0
SPLINE
  5
2E2
100
AcDbEntity
  8
0
100
AcDbSpline
 62
7
  6
CONTINUOUS
 70
0
 71
3
 72
11
 73
7
 74
0
 42
0.0000001
 43
0.0000001
 44
0.0000000001
 40
0.0
 40
0.0
 40
0.0
 40
0.0
 40
0.2473811681
 40
0.4999999992
 40
0.7526188307
 40
1.0
 40
1.0
 40
1.0
 40
1.0
 10
1.1160696465
 20
4.7461904843
 30
0.0
 10
1.11902333
 20
4.7395345349
 30
0.0
 10
1.1235259074
 20
4.7253857627
 30
0.0
 10
1.1257806456
 20
4.7031978155
 30
0.0
 10
1.1235259074
 20
4.6810098682
 30
0.0
 10
1.1190233301
 20
4.666861096
 30
0.0
 10
1.1160696465
 20
4.6602051464
 30
0.0
  0
SPLINE
  5
2E3
100
AcDbEntity
  8
0
100
AcDbSpline
 62
7
  6
CONTINUOUS
 70
0
 71
3
 72
15
 73
11
 74
0
 42
0.0000001
 43
0.0000001
 44
0.0000000001
 40
0.0
 40
0.0
 40
0.0
 40
0.0
 40
0.1186768604
 40
0.242765802
 40
0.3704511664
 40
0.5000000018
 40
0.629548837
 40
0.7572342002
 40
0.8813231402
 40
1.0
 40
1.0
 40
1.0
 40
1.0
 10
1.0373636506
 20
4.6602051464
 30
0.0
 10
1.036790035
 20
4.6635726821
 30
0.0
 10
1.0357871713
 20
4.6704911774
 30
0.0
 10
1.0347193792
 20
4.6811037611
 30
0.0
 10
1.0340709688
 20
4.6920637847
 30
0.0
 10
1.0338539505
 20
4.7031978155
 30
0.0
 10
1.0340709688
 20
4.7143318464
 30
0.0
 10
1.0347193792
 20
4.7252918699
 30
0.0
 10
1.0357871713
 20
4.7359044535
 30
0.0
 10
1.036790035
 20
4.7428229487
 30
0.0
 10
1.0373636506
 20
4.7461904843
 30
0.0
  0
SPLINE
  5
2E4
100
AcDbEntity
  8
0
100
AcDbSpline
 62
7
  6
CONTINUOUS
 70
0
 71
3
 72
15
 73
11
 74
0
 42
0.0000001
 43
0.0000001
 44
0.0000000001
 40
0.0
 40
0.0
 40
0.0
 40
0.0
 40
0.122180766
 40
0.2467876141
 40
0.3729703265
 40
0.4999999992
 40
0.6270296719
 40
0.7532123847
 40
0.8778192336
 40
1.0
 40
1.0
 40
1.0
 40
1.0
 10
1.103926592
 20
4.7461904843
 30
0.0
 10
1.105308941
 20
4.7428771895
 30
0.0
 10
1.1077505578
 20
4.7360332778
 30
0.0
 10
1.1103873586
 20
4.7253785901
 30
0.0
 10
1.1119883137
 20
4.7143749689
 30
0.0
 10
1.1125239392
 20
4.7031978155
 30
0.0
 10
1.1119883137
 20
4.692020662
 30
0.0
 10
1.1103873586
 20
4.6810170408
 30
0.0
 10
1.1077505578
 20
4.670362353
 30
0.0
 10
1.105308941
 20
4.6635184413
 30
0.0
 10
1.103926592
 20
4.6602051464
 30
0.0
  0
SPLINE
  5
2E5
100
AcDbEntity
  8
0
100
AcDbSpline
 62
7
  6
CONTINUOUS
 70
0
 71
3
 72
11
 73
7
 74
0
 42
0.0000001
 43
0.0000001
 44
0.0000000001
 40
0.0
 40
0.0
 40
0.0
 40
0.0
 40
0.2479487672
 40
0.5000000017
 40
0.752051235
 40
1.0
 40
1.0
 40
1.0
 40
1.0
 10
0.9192718399
 20
4.6602051464
 30
0.0
 10
0.9161716491
 20
4.6668353925
 30
0.0
 10
0.9114237117
 20
4.6809600854
 30
0.0
 10
0.909037247
 20
4.7031978155
 30
0.0
 10
0.9114237118
 20
4.7254355455
 30
0.0
 10
0.9161716492
 20
4.7395602384
 30
0.0
 10
0.9192718399
 20
4.7461904843
 30
0.0
  0
SPLINE
  5
2E6
100
AcDbEntity
  8
0
100
AcDbSpline
 62
7
  6
CONTINUOUS
 70
0
 71
3
 72
15
 73
11
 74
0
 42
0.0000001
 43
0.0000001
 44
0.0000000001
 40
0.0
 40
0.0
 40
0.0
 40
0.0
 40
0.1216374008
 40
0.246160696
 40
0.3725764413
 40
0.4999999992
 40
0.6274235571
 40
0.7538393028
 40
0.8783625988
 40
1.0
 40
1.0
 40
1.0
 40
1.0
 10
1.0912874143
 20
4.7461904843
 30
0.0
 10
1.0925763277
 20
4.7428692909
 30
0.0
 10
1.0948497802
 20
4.7360135869
 30
0.0
 10
1.0972995112
 20
4.7253648952
 30
0.0
 10
1.0987868317
 20
4.7143680177
 30
0.0
 10
1.0992844491
 20
4.7031978155
 30
0.0
 10
1.0987868317
 20
4.6920276132
 30
0.0
 10
1.0972995113
 20
4.6810307357
 30
0.0
 10
1.0948497802
 20
4.6703820439
 30
0.0
 10
1.0925763277
 20
4.6635263399
 30
0.0
 10
1.0912874143
 20
4.6602051464
 30
0.0
  0
SPLINE
  5
2E7
100
AcDbEntity
  8
0
100
AcDbSpline
 62
7
  6
CONTINUOUS
 70
0
 71
3
 72
15
 73
11
 74
0
 42
0.0000001
 43
0.0000001
 44
0.0000000001
 40
0.0
 40
0.0
 40
0.0
 40
0.0
 40
0.1210850671
 40
0.2455246494
 40
0.3721772771
 40
0.4999999992
 40
0.6278227213
 40
0.7544753494
 40
0.8789149325
 40
1.0
 40
1.0
 40
1.0
 40
1.0
 10
1.0782300381
 20
4.7461904843
 30
0.0
 10
1.0794172025
 20
4.7428610781
 30
0.0
 10
1.0815081023
 20
4.7359934589
 30
0.0
 10
1.0837560488
 20
4.725351067
 30
0.0
 10
1.0851208395
 20
4.7143610533
 30
0.0
 10
1.0855774779
 20
4.7031978155
 30
0.0
 10
1.0851208395
 20
4.6920345776
 30
0.0
 10
1.0837560488
 20
4.6810445639
 30
0.0
 10
1.0815081023
 20
4.6704021719
 30
0.0
 10
1.0794172025
 20
4.6635345527
 30
0.0
 10
1.0782300381
 20
4.6602051464
 30
0.0
  0
SPLINE
  5
2E8
100
AcDbEntity
  8
0
100
AcDbSpline
 62
7
  6
CONTINUOUS
 70
0
 71
3
 72
13
 73
9
 74
0
 42
0.0000001
 43
0.0000001
 44
0.0000000001
 40
0.0
 40
0.0
 40
0.0
 40
0.0
 40
0.1179834857
 40
0.2419765374
 40
0.5000000018
 40
0.7580234648
 40
0.8820165149
 40
1.0
 40
1.0
 40
1.0
 40
1.0
 10
1.0782300381
 20
4.6602051464
 30
0.0
 10
1.0780809615
 20
4.6635844269
 30
0.0
 10
1.0778209268
 20
4.6705171882
 30
0.0
 10
1.0774480345
 20
4.6848474955
 30
0.0
 10
1.0772668618
 20
4.7031978155
 30
0.0
 10
1.0774480345
 20
4.7215481354
 30
0.0
 10
1.0778209268
 20
4.7358784426
 30
0.0
 10
1.0780809615
 20
4.7428112039
 30
0.0
 10
1.0782300381
 20
4.7461904843
 30
0.0
  0
SPLINE
  5
2E9
100
AcDbEntity
  8
0
100
AcDbSpline
 62
7
  6
CONTINUOUS
 70
0
 71
3
 72
15
 73
11
 74
0
 42
0.0000001
 43
0.0000001
 44
0.0000000001
 40
0.0
 40
0.0
 40
0.0
 40
0.0
 40
0.1205374296
 40
0.244895224
 40
0.3717827182
 40
0.4999999992
 40
0.6282172802
 40
0.7551047748
 40
0.87946257
 40
1.0
 40
1.0
 40
1.0
 40
1.0
 10
1.0648349666
 20
4.7461904843
 30
0.0
 10
1.0659125653
 20
4.7428527461
 30
0.0
 10
1.0678075766
 20
4.7359733934
 30
0.0
 10
1.0698403897
 20
4.7253374489
 30
0.0
 10
1.0710745771
 20
4.7143542477
 30
0.0
 10
1.0714875379
 20
4.7031978155
 30
0.0
 10
1.0710745771
 20
4.6920413832
 30
0.0
 10
1.0698403897
 20
4.681058182
 30
0.0
 10
1.0678075766
 20
4.6704222375
 30
0.0
 10
1.0659125653
 20
4.6635428847
 30
0.0
 10
1.0648349666
 20
4.6602051464
 30
0.0
  0
SPLINE
  5
2EA
100
AcDbEntity
  8
0
100
AcDbSpline
 62
7
  6
CONTINUOUS
 70
0
 71
3
 72
15
 73
11
 74
0
 42
0.0000001
 43
0.0000001
 44
0.0000000001
 40
0.0
 40
0.0
 40
0.0
 40
0.0
 40
0.1181271433
 40
0.2421393145
 40
0.370060373
 40
0.5000000018
 40
0.6299396304
 40
0.7578606877
 40
0.8818728573
 40
1.0
 40
1.0
 40
1.0
 40
1.0
 10
1.0648349666
 20
4.6602051464
 30
0.0
 10
1.0645418234
 20
4.6635819532
 30
0.0
 10
1.064030297
 20
4.6705117599
 30
0.0
 10
1.0634868307
 20
4.6811170247
 30
0.0
 10
1.063156782
 20
4.6920701961
 30
0.0
 10
1.0630463047
 20
4.7031978155
 30
0.0
 10
1.063156782
 20
4.7143254349
 30
0.0
 10
1.0634868307
 20
4.7252786063
 30
0.0
 10
1.064030297
 20
4.7358838709
 30
0.0
 10
1.0645418234
 20
4.7428136776
 30
0.0
 10
1.0648349666
 20
4.7461904843
 30
0.0
  0
SPLINE
  5
2EB
100
AcDbEntity
  8
0
100
AcDbSpline
 62
7
  6
CONTINUOUS
 70
0
 71
3
 72
15
 73
11
 74
0
 42
0.0000001
 43
0.0000001
 44
0.0000000001
 40
0.0
 40
0.0
 40
0.0
 40
0.0
 40
0.1200086804
 40
0.2442886533
 40
0.3714029072
 40
0.4999999992
 40
0.6285970912
 40
0.7557113454
 40
0.8799913192
 40
1.0
 40
1.0
 40
1.0
 40
1.0
 10
1.0511847848
 20
4.7461904843
 30
0.0
 10
1.052145566
 20
4.7428445172
 30
0.0
 10
1.053832515
 20
4.7359539198
 30
0.0
 10
1.0556382701
 20
4.7253243878
 30
0.0
 10
1.056734634
 20
4.7143477695
 30
0.0
 10
1.0571015013
 20
4.7031978155
 30
0.0
 10
1.056734634
 20
4.6920478614
 30
0.0
 10
1.0556382701
 20
4.6810712431
 30
0.0
 10
1.053832515
 20
4.670441711
 30
0.0
 10
1.0521455661
 20
4.6635511136
 30
0.0
 10
1.0511847848
 20
4.6602051464
 30
0.0
  0
SPLINE
  5
2EC
100
AcDbEntity
  8
0
100
AcDbSpline
 62
7
  6
CONTINUOUS
 70
0
 71
3
 72
15
 73
11
 74
0
 42
0.0000001
 43
0.0000001
 44
0.0000000001
 40
0.0
 40
0.0
 40
0.0
 40
0.0
 40
0.1183610205
 40
0.2424057052
 40
0.3702264907
 40
0.5000000018
 40
0.6297735127
 40
0.757594297
 40
0.8816389802
 40
1.0
 40
1.0
 40
1.0
 40
1.0
 10
1.0511847848
 20
4.6602051464
 30
0.0
 10
1.0507497855
 20
4.6635779816
 30
0.0
 10
1.0499900962
 20
4.6705029917
 30
0.0
 10
1.0491822299
 20
4.681111393
 30
0.0
 10
1.0486916317
 20
4.6920674797
 30
0.0
 10
1.0485274217
 20
4.7031978155
 30
0.0
 10
1.0486916317
 20
4.7143281513
 30
0.0
 10
1.0491822299
 20
4.725284238
 30
0.0
 10
1.0499900962
 20
4.7358926391
 30
0.0
 10
1.0507497855
 20
4.7428176492
 30
0.0
 10
1.0511847848
 20
4.7461904843
 30
0.0
  0
SPLINE
  5
2ED
100
AcDbEntity
  8
0
100
AcDbSpline
 62
7
  6
CONTINUOUS
 70
0
 71
3
 72
15
 73
11
 74
0
 42
0.0000001
 43
0.0000001
 44
0.0000000001
 40
0.0
 40
0.0
 40
0.0
 40
0.0
 40
0.1195131456
 40
0.243721207
 40
0.3710479668
 40
0.4999999992
 40
0.6289520316
 40
0.7562787918
 40
0.880486854
 40
1.0
 40
1.0
 40
1.0
 40
1.0
 10
1.0373636506
 20
4.7461904843
 30
0.0
 10
1.0382010019
 20
4.7428366357
 30
0.0
 10
1.0396689819
 20
4.7359355829
 30
0.0
 10
1.0412372191
 20
4.7253122252
 30
0.0
 10
1.042189416
 20
4.7143417796
 30
0.0
 10
1.0425080639
 20
4.7031978155
 30
0.0
 10
1.042189416
 20
4.6920538513
 30
0.0
 10
1.0412372191
 20
4.6810834057
 30
0.0
 10
1.0396689819
 20
4.6704600479
 30
0.0
 10
1.0382010019
 20
4.6635589951
 30
0.0
 10
1.0373636506
 20
4.6602051464
 30
0.0
  0
SPLINE
  5
2EE
100
AcDbEntity
  8
0
100
AcDbSpline
 62
7
  6
CONTINUOUS
 70
0
 71
3
 72
15
 73
11
 74
0
 42
0.0000001
 43
0.0000001
 44
0.0000000001
 40
0.0
 40
0.0
 40
0.0
 40
0.0
 40
0.1191033951
 40
0.2431969324
 40
0.3707253034
 40
0.5
 40
0.6292746966
 40
0.7568030676
 40
0.8808966049
 40
1.0
 40
1.0
 40
1.0
 40
1.0
 10
10.0162066856
 20
4.7461904843
 30
0.0
 10
10.0154984276
 20
4.742828269
 30
0.0
 10
10.0142583993
 20
4.7359182637
 30
0.0
 10
10.0129376147
 20
4.725300558
 30
0.0
 10
10.0121349867
 20
4.7143368383
 30
0.0
 10
10.0118657806
 20
4.7031978154
 30
0.0
 10
10.0121349867
 20
4.6920587925
 30
0.0
 10
10.0129376147
 20
4.6810950728
 30
0.0
 10
10.0142583993
 20
4.6704773671
 30
0.0
 10
10.0154984276
 20
4.6635673618
 30
0.0
 10
10.0162066856
 20
4.6602051464
 30
0.0
  0
SPLINE
  5
2EF
100
AcDbEntity
  8
0
100
AcDbSpline
 62
7
  6
CONTINUOUS
 70
0
 71
3
 72
15
 73
11
 74
0
 42
0.0000001
 43
0.0000001
 44
0.0000000001
 40
0.0
 40
0.0
 40
0.0
 40
0.0
 40
0.1187151316
 40
0.242754051
 40
0.3704487819
 40
0.4999999998
 40
0.6295512177
 40
0.7572459486
 40
0.881284868
 40
1.0
 40
1.0
 40
1.0
 40
1.0
 10
10.0022998109
 20
4.7461904843
 30
0.0
 10
10.0028736117
 20
4.7428218616
 30
0.0
 10
10.0038769321
 20
4.7359037658
 30
0.0
 10
10.0049439388
 20
4.7252911599
 30
0.0
 10
10.0055923914
 20
4.7143322555
 30
0.0
 10
10.0058099012
 20
4.7031978154
 30
0.0
 10
10.0055923914
 20
4.6920633753
 30
0.0
 10
10.0049439388
 20
4.6811044709
 30
0.0
 10
10.0038769321
 20
4.670491865
 30
0.0
 10
10.0028736117
 20
4.6635737692
 30
0.0
 10
10.0022998109
 20
4.6602051464
 30
0.0
  0
SPLINE
  5
2F0
100
AcDbEntity
  8
0
100
AcDbSpline
 62
7
  6
CONTINUOUS
 70
0
 71
3
 72
15
 73
11
 74
0
 42
0.0000001
 43
0.0000001
 44
0.0000000001
 40
0.0
 40
0.0
 40
0.0
 40
0.0
 40
0.1195520652
 40
0.243709503
 40
0.3710455789
 40
0.5000000004
 40
0.628954422
 40
0.7562904977
 40
0.8804479352
 40
1.0
 40
1.0
 40
1.0
 40
1.0
 10
10.0022998109
 20
4.6602051464
 30
0.0
 10
10.0014621864
 20
4.6635600897
 30
0.0
 10
9.9999935493
 20
4.670460675
 30
0.0
 10
9.9984264455
 20
4.6810841555
 30
0.0
 10
9.9974741961
 20
4.6920534388
 30
0.0
 10
9.997154825
 20
4.7031978154
 30
0.0
 10
9.9974741961
 20
4.7143421921
 30
0.0
 10
9.9984264455
 20
4.7253114753
 30
0.0
 10
9.9999935493
 20
4.7359349559
 30
0.0
 10
10.0014621864
 20
4.7428355411
 30
0.0
 10
10.0022998109
 20
4.7461904843
 30
0.0
  0
SPLINE
  5
2F1
100
AcDbEntity
  8
0
100
AcDbSpline
 62
7
  6
CONTINUOUS
 70
0
 71
3
 72
15
 73
11
 74
0
 42
0.0000001
 43
0.0000001
 44
0.0000000001
 40
0.0
 40
0.0
 40
0.0
 40
0.0
 40
0.1183990462
 40
0.2423939361
 40
0.370224108
 40
0.4999999998
 40
0.6297758916
 40
0.7576060635
 40
0.8816009534
 40
1.0
 40
1.0
 40
1.0
 40
1.0
 10
9.9884786767
 20
4.7461904843
 30
0.0
 10
9.9889138159
 20
4.7428165649
 30
0.0
 10
9.9896738535
 20
4.7358919283
 30
0.0
 10
9.9904811215
 20
4.7252835432
 30
0.0
 10
9.9909717535
 20
4.7143285592
 30
0.0
 10
9.9911363351
 20
4.7031978154
 30
0.0
 10
9.9909717535
 20
4.6920670716
 30
0.0
 10
9.9904811215
 20
4.6811120876
 30
0.0
 10
9.9896738535
 20
4.6705037025
 30
0.0
 10
9.9889138159
 20
4.6635790659
 30
0.0
 10
9.9884786767
 20
4.6602051464
 30
0.0
  0
SPLINE
  5
2F2
100
AcDbEntity
  8
0
100
AcDbSpline
 62
7
  6
CONTINUOUS
 70
0
 71
3
 72
15
 73
11
 74
0
 42
0.0000001
 43
0.0000001
 44
0.0000000001
 40
0.0
 40
0.0
 40
0.0
 40
0.0
 40
0.120047982
 40
0.2442769737
 40
0.3714005141
 40
0.5000000004
 40
0.6285994868
 40
0.755723027
 40
0.8799520184
 40
1.0
 40
1.0
 40
1.0
 40
1.0
 10
9.9884786767
 20
4.6602051464
 30
0.0
 10
9.9875175799
 20
4.6635522126
 30
0.0
 10
9.9858298836
 20
4.6704423024
 30
0.0
 10
9.9840254201
 20
4.6810720164
 30
0.0
 10
9.9829290021
 20
4.692047447
 30
0.0
 10
9.9825613011
 20
4.7031978154
 30
0.0
 10
9.9829290021
 20
4.7143481838
 30
0.0
 10
9.9840254201
 20
4.7253236144
 30
0.0
 10
9.9858298836
 20
4.7359533284
 30
0.0
 10
9.9875175799
 20
4.7428434182
 30
0.0
 10
9.9884786767
 20
4.7461904843
 30
0.0
  0
SPLINE
  5
2F3
100
AcDbEntity
  8
0
100
AcDbSpline
 62
7
  6
CONTINUOUS
 70
0
 71
3
 72
15
 73
11
 74
0
 42
0.0000001
 43
0.0000001
 44
0.0000000001
 40
0.0
 40
0.0
 40
0.0
 40
0.0
 40
0.118164987
 40
0.2421275316
 40
0.3700579914
 40
0.4999999998
 40
0.6299420082
 40
0.757872468
 40
0.8818350126
 40
1.0
 40
1.0
 40
1.0
 40
1.0
 10
9.9748284949
 20
4.7461904843
 30
0.0
 10
9.9751217321
 20
4.7428125955
 30
0.0
 10
9.9756334941
 20
4.7358831429
 30
0.0
 10
9.976176556
 20
4.7252779227
 30
0.0
 10
9.9765066284
 20
4.7143258418
 30
0.0
 10
9.9766173555
 20
4.7031978154
 30
0.0
 10
9.9765066284
 20
4.692069789
 30
0.0
 10
9.976176556
 20
4.6811177081
 30
0.0
 10
9.9756334941
 20
4.6705124879
 30
0.0
 10
9.9751217321
 20
4.6635830353
 30
0.0
 10
9.9748284949
 20
4.6602051464
 30
0.0
  0
SPLINE
  5
2F4
100
AcDbEntity
  8
0
100
AcDbSpline
 62
7
  6
CONTINUOUS
 70
0
 71
3
 72
15
 73
11
 74
0
 42
0.0000001
 43
0.0000001
 44
0.0000000001
 40
0.0
 40
0.0
 40
0.0
 40
0.0
 40
0.1205771376
 40
0.2448835686
 40
0.3717803185
 40
0.5000000004
 40
0.6282196824
 40
0.7551164321
 40
0.8794228629
 40
1.0
 40
1.0
 40
1.0
 40
1.0
 10
9.9748284949
 20
4.6602051464
 30
0.0
 10
9.9737505399
 20
4.6635439882
 30
0.0
 10
9.9718546984
 20
4.6704227911
 30
0.0
 10
9.969823323
 20
4.6810589804
 30
0.0
 10
9.9685890822
 20
4.6920409669
 30
0.0
 10
9.9681751819
 20
4.7031978154
 30
0.0
 10
9.9685890822
 20
4.7143546639
 30
0.0
 10
9.969823323
 20
4.7253366505
 30
0.0
 10
9.9718546984
 20
4.7359728397
 30
0.0
 10
9.9737505399
 20
4.7428516426
 30
0.0
 10
9.9748284949
 20
4.7461904843
 30
0.0
  0
SPLINE
  5
2F5
100
AcDbEntity
  8
0
100
AcDbSpline
 62
7
  6
CONTINUOUS
 70
0
 71
3
 72
13
 73
9
 74
0
 42
0.0000001
 43
0.0000001
 44
0.0000000001
 40
0.0
 40
0.0
 40
0.0
 40
0.0
 40
0.1180212163
 40
0.2419647441
 40
0.4999999998
 40
0.7580352555
 40
0.8819787834
 40
1.0
 40
1.0
 40
1.0
 40
1.0
 10
9.9614334234
 20
4.7461904843
 30
0.0
 10
9.9615825478
 20
4.7428101231
 30
0.0
 10
9.961842704
 20
4.7358777039
 30
0.0
 10
9.962215311
 20
4.7215473889
 30
0.0
 10
9.9623967871
 20
4.7031978154
 30
0.0
 10
9.962215311
 20
4.6848482419
 30
0.0
 10
9.961842704
 20
4.6705179269
 30
0.0
 10
9.9615825478
 20
4.6635855077
 30
0.0
 10
9.9614334234
 20
4.6602051464
 30
0.0
  0
SPLINE
  5
2F6
100
AcDbEntity
  8
0
100
AcDbSpline
 62
7
  6
CONTINUOUS
 70
0
 71
3
 72
15
 73
11
 74
0
 42
0.0000001
 43
0.0000001
 44
0.0000000001
 40
0.0
 40
0.0
 40
0.0
 40
0.0
 40
0.1211251944
 40
0.2455130173
 40
0.3721748695
 40
0.5000000004
 40
0.6278251314
 40
0.7544869835
 40
0.878874806
 40
1.0
 40
1.0
 40
1.0
 40
1.0
 10
9.9614334234
 20
4.6602051464
 30
0.0
 10
9.9602458639
 20
4.6635356608
 30
0.0
 10
9.9581540583
 20
4.6704026867
 30
0.0
 10
9.9559076834
 20
4.6810453881
 30
0.0
 10
9.9545428422
 20
4.6920341595
 30
0.0
 10
9.9540851638
 20
4.7031978154
 30
0.0
 10
9.9545428422
 20
4.7143614714
 30
0.0
 10
9.9559076834
 20
4.7253502428
 30
0.0
 10
9.9581540583
 20
4.7359929441
 30
0.0
 10
9.9602458639
 20
4.7428599699
 30
0.0
 10
9.9614334234
 20
4.7461904843
 30
0.0
  0
SPLINE
  5
2F7
100
AcDbEntity
  8
0
100
AcDbSpline
 62
7
  6
CONTINUOUS
 70
0
 71
3
 72
15
 73
11
 74
0
 42
0.0000001
 43
0.0000001
 44
0.0000000001
 40
0.0
 40
0.0
 40
0.0
 40
0.0
 40
0.119064821
 40
0.243208695
 40
0.3707277279
 40
0.5
 40
0.6292722721
 40
0.756791305
 40
0.880935179
 40
1.0
 40
1.0
 40
1.0
 40
1.0
 10
1.0234567759
 20
4.6602051464
 30
0.0
 10
1.0241648042
 20
4.6635662711
 30
0.0
 10
1.0254042727
 20
4.6704767085
 30
0.0
 10
1.026726022
 20
4.6810943464
 30
0.0
 10
1.0275286003
 20
4.6920592054
 30
0.0
 10
1.0277971994
 20
4.7031978154
 30
0.0
 10
1.0275286003
 20
4.7143364254
 30
0.0
 10
1.026726022
 20
4.7253012844
 30
0.0
 10
1.0254042727
 20
4.7359189223
 30
0.0
 10
1.0241648042
 20
4.7428293597
 30
0.0
 10
1.0234567759
 20
4.7461904843
 30
0.0
  0
SPLINE
  5
2F8
100
AcDbEntity
  8
0
100
AcDbSpline
 62
7
  6
CONTINUOUS
 70
0
 71
3
 72
17
 73
13
 74
0
 42
0.0000001
 43
0.0000001
 44
0.0000000001
 40
0.0
 40
0.0
 40
0.0
 40
0.0
 40
0.1236218195
 40
0.1859466332
 40
0.2484961093
 40
0.3740427292
 40
0.5000000017
 40
0.6259572741
 40
0.7515038929
 40
0.8140533681
 40
0.8763781811
 40
1.0
 40
1.0
 40
1.0
 40
1.0
 10
0.9083421093
 20
4.6602051464
 30
0.0
 10
0.9067334187
 20
4.6634981522
 30
0.0
 10
0.9045995239
 20
4.6685982249
 30
0.0
 10
0.9023423279
 20
4.6756138407
 30
0.0
 10
0.9004745257
 20
4.6828028813
 30
0.0
 10
0.8989040352
 20
4.6920018576
 30
0.0
 10
0.8982750451
 20
4.7031978155
 30
0.0
 10
0.8989040352
 20
4.7143937735
 30
0.0
 10
0.9004745257
 20
4.7235927496
 30
0.0
 10
0.9023423279
 20
4.7307817902
 30
0.0
 10
0.9045995239
 20
4.7377974059
 30
0.0
 10
0.9067334187
 20
4.7428974786
 30
0.0
 10
0.9083421093
 20
4.7461904843
 30
0.0
  0
SPLINE
  5
2F9
100
AcDbEntity
  8
0
100
AcDbSpline
 62
7
  6
CONTINUOUS
 70
0
 71
3
 72
13
 73
9
 74
0
 42
0.0000001
 43
0.0000001
 44
0.0000000001
 40
0.0
 40
0.0
 40
0.0
 40
0.0
 40
0.2460090546
 40
0.3725037331
 40
0.5000000004
 40
0.6274962678
 40
0.7539909462
 40
1.0
 40
1.0
 40
1.0
 40
1.0
 10
9.9483760473
 20
4.6602051464
 30
0.0
 10
9.9457706801
 20
4.6669184974
 30
0.0
 10
9.9428397751
 20
4.677510091
 30
0.0
 10
9.9408772311
 20
4.6920259332
 30
0.0
 10
9.9403779388
 20
4.7031978154
 30
0.0
 10
9.9408772311
 20
4.7143696977
 30
0.0
 10
9.9428397751
 20
4.7288855398
 30
0.0
 10
9.9457706801
 20
4.7394771334
 30
0.0
 10
9.9483760473
 20
4.7461904843
 30
0.0
  0
SPLINE
  5
2FA
100
AcDbEntity
  8
0
100
AcDbSpline
 62
7
  6
CONTINUOUS
 70
0
 71
3
 72
15
 73
11
 74
0
 42
0.0000001
 43
0.0000001
 44
0.0000000001
 40
0.0
 40
0.0
 40
0.0
 40
0.0
 40
0.1222217281
 40
0.2467760229
 40
0.3729678997
 40
0.5000000004
 40
0.6270321011
 40
0.7532239779
 40
0.8777782723
 40
1.0
 40
1.0
 40
1.0
 40
1.0
 10
9.9357368696
 20
4.6602051464
 30
0.0
 10
9.9343540544
 20
4.6635195584
 30
0.0
 10
9.9319114036
 20
4.670362791
 30
0.0
 10
9.929276404
 20
4.6810179163
 30
0.0
 10
9.9276754096
 20
4.6920202404
 30
0.0
 10
9.9271385614
 20
4.7031978154
 30
0.0
 10
9.9276754096
 20
4.7143753905
 30
0.0
 10
9.929276404
 20
4.7253777145
 30
0.0
 10
9.9319114036
 20
4.7360328399
 30
0.0
 10
9.9343540544
 20
4.7428760724
 30
0.0
 10
9.9357368696
 20
4.7461904843
 30
0.0
  0
SPLINE
  5
2FB
100
AcDbEntity
  8
0
100
AcDbSpline
 62
7
  6
CONTINUOUS
 70
0
 71
3
 72
15
 73
11
 74
0
 42
0.0000001
 43
0.0000001
 44
0.0000000001
 40
0.0
 40
0.0
 40
0.0
 40
0.0
 40
0.1227436965
 40
0.247378934
 40
0.3733471039
 40
0.5000000004
 40
0.6266528969
 40
0.7526210667
 40
0.877256304
 40
1.0
 40
1.0
 40
1.0
 40
1.0
 10
9.923593815
 20
4.6602051464
 30
0.0
 10
9.922126282
 20
4.6635121445
 30
0.0
 10
9.9195307435
 20
4.6703439587
 30
0.0
 10
9.9167247745
 20
4.68100471
 30
0.0
 10
9.9150198285
 20
4.6920134716
 30
0.0
 10
9.9144481218
 20
4.7031978154
 30
0.0
 10
9.9150198285
 20
4.7143821592
 30
0.0
 10
9.9167247745
 20
4.7253909208
 30
0.0
 10
9.9195307435
 20
4.7360516721
 30
0.0
 10
9.922126282
 20
4.7428834863
 30
0.0
 10
9.923593815
 20
4.7461904843
 30
0.0
  0
SPLINE
  5
2FC
100
AcDbEntity
  8
0
100
AcDbSpline
 62
7
  6
CONTINUOUS
 70
0
 71
3
 72
17
 73
13
 74
0
 42
0.0000001
 43
0.0000001
 44
0.0000000001
 40
0.0
 40
0.0
 40
0.0
 40
0.0
 40
0.1240117815
 40
0.1864047167
 40
0.2489515758
 40
0.37432985
 40
0.5000000017
 40
0.6256701533
 40
0.7510484263
 40
0.8135952847
 40
0.8759882191
 40
1.0
 40
1.0
 40
1.0
 40
1.0
 10
0.8981220989
 20
4.6602051464
 30
0.0
 10
0.8964570508
 20
4.6634928972
 30
0.0
 10
0.8942451432
 20
4.6685898968
 30
0.0
 10
0.8919031122
 20
4.6756108111
 30
0.0
 10
0.8899671977
 20
4.6827973573
 30
0.0
 10
0.8883382358
 20
4.691996614
 30
0.0
 10
0.8876855663
 20
4.7031978155
 30
0.0
 10
0.8883382358
 20
4.714399017
 30
0.0
 10
0.8899671978
 20
4.7235982737
 30
0.0
 10
0.8919031122
 20
4.7307848198
 30
0.0
 10
0.8942451432
 20
4.737805734
 30
0.0
 10
0.8964570508
 20
4.7429027336
 30
0.0
 10
0.8981220989
 20
4.7461904843
 30
0.0
  0
SPLINE
  5
2FD
100
AcDbEntity
  8
0
100
AcDbSpline
 62
7
  6
CONTINUOUS
 70
0
 71
3
 72
15
 73
11
 74
0
 42
0.0000001
 43
0.0000001
 44
0.0000000001
 40
0.0
 40
0.0
 40
0.0
 40
0.0
 40
0.1232320996
 40
0.2479440682
 40
0.3737029271
 40
0.5000000004
 40
0.6262970737
 40
0.7520559325
 40
0.8767679009
 40
1.0
 40
1.0
 40
1.0
 40
1.0
 10
9.9120217497
 20
4.6602051464
 30
0.0
 10
9.9104786312
 20
4.6635053483
 30
0.0
 10
9.9077463717
 20
4.6703264329
 30
0.0
 10
9.9047866225
 20
4.6809922777
 30
0.0
 10
9.9029881311
 20
4.6920070528
 30
0.0
 10
9.9023850481
 20
4.7031978154
 30
0.0
 10
9.9029881311
 20
4.714388578
 30
0.0
 10
9.9047866225
 20
4.7254033532
 30
0.0
 10
9.9077463718
 20
4.736069198
 30
0.0
 10
9.9104786312
 20
4.7428902825
 30
0.0
 10
9.9120217497
 20
4.7461904843
 30
0.0
  0
SPLINE
  5
2FE
100
AcDbEntity
  8
0
100
AcDbSpline
 62
7
  6
CONTINUOUS
 70
0
 71
3
 72
15
 73
11
 74
0
 42
0.0000001
 43
0.0000001
 44
0.0000000001
 40
0.0
 40
0.0
 40
0.0
 40
0.0
 40
0.1236764259
 40
0.2484590352
 40
0.3740274848
 40
0.5000000004
 40
0.625972516
 40
0.7515409655
 40
0.8763235746
 40
1.0
 40
1.0
 40
1.0
 40
1.0
 10
9.9010920191
 20
4.6602051464
 30
0.0
 10
9.8994827772
 20
4.6634992806
 30
0.0
 10
9.8966306845
 20
4.6703105701
 30
0.0
 10
9.8935354333
 20
4.6809809043
 30
0.0
 10
9.891654472
 20
4.6920011406
 30
0.0
 10
9.89102372
 20
4.7031978154
 30
0.0
 10
9.891654472
 20
4.7143944902
 30
0.0
 10
9.8935354333
 20
4.7254147265
 30
0.0
 10
9.8966306845
 20
4.7360850607
 30
0.0
 10
9.8994827772
 20
4.7428963502
 30
0.0
 10
9.9010920191
 20
4.7461904843
 30
0.0
  0
SPLINE
  5
2FF
100
AcDbEntity
  8
0
100
AcDbSpline
 62
7
  6
CONTINUOUS
 70
0
 71
3
 72
15
 73
11
 74
0
 42
0.0000001
 43
0.0000001
 44
0.0000000001
 40
0.0
 40
0.0
 40
0.0
 40
0.0
 40
0.1240675123
 40
0.2489129561
 40
0.3743138232
 40
0.5000000004
 40
0.6256861776
 40
0.7510870447
 40
0.8759324881
 40
1.0
 40
1.0
 40
1.0
 40
1.0
 10
9.8908720087
 20
4.6602051464
 30
0.0
 10
9.8892063876
 20
4.6634940286
 30
0.0
 10
9.8862519643
 20
4.6702966733
 30
0.0
 10
9.8830404572
 20
4.6809708442
 30
0.0
 10
9.8810887019
 20
4.6919958788
 30
0.0
 10
9.8804341912
 20
4.7031978154
 30
0.0
 10
9.8810887019
 20
4.7143997521
 30
0.0
 10
9.8830404572
 20
4.7254247866
 30
0.0
 10
9.8862519643
 20
4.7360989575
 30
0.0
 10
9.8892063876
 20
4.7429016022
 30
0.0
 10
9.8908720087
 20
4.7461904843
 30
0.0
  0
SPLINE
  5
300
100
AcDbEntity
  8
0
100
AcDbSpline
 62
7
  6
CONTINUOUS
 70
0
 71
3
 72
15
 73
11
 74
0
 42
0.0000001
 43
0.0000001
 44
0.0000000001
 40
0.0
 40
0.0
 40
0.0
 40
0.0
 40
0.1248509218
 40
0.2498240867
 40
0.3748893
 40
0.5000000004
 40
0.6251107009
 40
0.750175914
 40
0.8751490786
 40
1.0
 40
1.0
 40
1.0
 40
1.0
 10
9.8650762165
 20
4.6602051464
 30
0.0
 10
9.8633020725
 20
4.6634837504
 30
0.0
 10
9.8601503083
 20
4.6702690225
 30
0.0
 10
9.8567131462
 20
4.6809505534
 30
0.0
 10
9.85462386
 20
4.6919851723
 30
0.0
 10
9.853923172
 20
4.7031978154
 30
0.0
 10
9.85462386
 20
4.7144104585
 30
0.0
 10
9.8567131462
 20
4.7254450774
 30
0.0
 10
9.8601503083
 20
4.7361266083
 30
0.0
 10
9.8633020725
 20
4.7429118804
 30
0.0
 10
9.8650762165
 20
4.7461904843
 30
0.0
  0
SPLINE
  5
301
100
AcDbEntity
  8
0
100
AcDbSpline
 62
7
  6
CONTINUOUS
 70
0
 71
3
 72
15
 73
11
 74
0
 42
0.0000001
 43
0.0000001
 44
0.0000000001
 40
0.0
 40
0.0
 40
0.0
 40
0.0
 40
0.1249657865
 40
0.249957886
 40
0.3749738904
 40
0.5000000004
 40
0.6250261104
 40
0.7500421148
 40
0.875034214
 40
1.0
 40
1.0
 40
1.0
 40
1.0
 10
9.8582757792
 20
4.6602051464
 30
0.0
 10
9.8564861647
 20
4.6634822699
 30
0.0
 10
9.8533062327
 20
4.6702649895
 30
0.0
 10
9.8498367015
 20
4.6809475628
 30
0.0
 10
9.8477276727
 20
4.6919835837
 30
0.0
 10
9.8470203531
 20
4.7031978154
 30
0.0
 10
9.8477276727
 20
4.7144120472
 30
0.0
 10
9.8498367015
 20
4.725448068
 30
0.0
 10
9.8533062328
 20
4.7361306413
 30
0.0
 10
9.8564861648
 20
4.7429133609
 30
0.0
 10
9.8582757792
 20
4.7461904843
 30
0.0
  0
SPLINE
  5
302
100
AcDbEntity
  8
0
100
AcDbSpline
 62
7
  6
CONTINUOUS
 70
0
 71
3
 72
15
 73
11
 74
0
 42
0.0000001
 43
0.0000001
 44
0.0000000001
 40
0.0
 40
0.0
 40
0.0
 40
0.0
 40
0.1250029031
 40
0.2500011324
 40
0.3750012362
 40
0.5000000004
 40
0.6249987647
 40
0.7499988683
 40
0.8749970973
 40
1.0
 40
1.0
 40
1.0
 40
1.0
 10
9.8524490385
 20
4.6602051464
 30
0.0
 10
9.8506544473
 20
4.663481793
 30
0.0
 10
9.847465452
 20
4.6702636875
 30
0.0
 10
9.8439854971
 20
4.6809465956
 30
0.0
 10
9.8418701099
 20
4.6919830693
 30
0.0
 10
9.8411606544
 20
4.7031978154
 30
0.0
 10
9.8418701099
 20
4.7144125616
 30
0.0
 10
9.8439854971
 20
4.7254490352
 30
0.0
 10
9.847465452
 20
4.7361319433
 30
0.0
 10
9.8506544473
 20
4.7429138378
 30
0.0
 10
9.8524490385
 20
4.7461904843
 30
0.0
  0
SPLINE
  5
303
100
AcDbEntity
  8
0
100
AcDbSpline
 62
7
  6
CONTINUOUS
 70
0
 71
3
 72
15
 73
11
 74
0
 42
0.0000001
 43
0.0000001
 44
0.0000000001
 40
0.0
 40
0.0
 40
0.0
 40
0.0
 40
0.1249616108
 40
0.2499530211
 40
0.3749708144
 40
0.5000000004
 40
0.6250291865
 40
0.7500469797
 40
0.8750383896
 40
1.0
 40
1.0
 40
1.0
 40
1.0
 10
9.8476319181
 20
4.6602051464
 30
0.0
 10
9.8458428642
 20
4.6634823236
 30
0.0
 10
9.842663953
 20
4.670265136
 30
0.0
 10
9.8391955955
 20
4.6809476716
 30
0.0
 10
9.8370872826
 20
4.6919836415
 30
0.0
 10
9.8363802036
 20
4.7031978154
 30
0.0
 10
9.8370872826
 20
4.7144119893
 30
0.0
 10
9.8391955955
 20
4.7254479592
 30
0.0
 10
9.842663953
 20
4.7361304948
 30
0.0
 10
9.8458428642
 20
4.7429133072
 30
0.0
 10
9.8476319181
 20
4.7461904843
 30
0.0
  0
SPLINE
  5
304
100
AcDbEntity
  8
0
100
AcDbSpline
 62
7
  6
CONTINUOUS
 70
0
 71
3
 72
17
 73
13
 74
0
 42
0.0000001
 43
0.0000001
 44
0.0000000001
 40
0.0
 40
0.0
 40
0.0
 40
0.0
 40
0.1249074924
 40
0.1874580988
 40
0.249999966
 40
0.3749916666
 40
0.5000000017
 40
0.6250083366
 40
0.7500000361
 40
0.8125419025
 40
0.8750925082
 40
1.0
 40
1.0
 40
1.0
 40
1.0
 10
0.8655258695
 20
4.6602051464
 30
0.0
 10
0.8637368765
 20
4.6634811318
 30
0.0
 10
0.8613525769
 20
4.6685709271
 30
0.0
 10
0.8588222049
 20
4.6756038568
 30
0.0
 10
0.8567357642
 20
4.6827845754
 30
0.0
 10
0.85497714
 20
4.6919843591
 30
0.0
 10
0.8542718396
 20
4.7031978155
 30
0.0
 10
0.8549771401
 20
4.714411272
 30
0.0
 10
0.8567357642
 20
4.7236110556
 30
0.0
 10
0.8588222049
 20
4.7307917741
 30
0.0
 10
0.8613525769
 20
4.7378247037
 30
0.0
 10
0.8637368765
 20
4.742914499
 30
0.0
 10
0.8655258695
 20
4.7461904843
 30
0.0
  0
SPLINE
  5
305
100
AcDbEntity
  8
0
100
AcDbSpline
 62
7
  6
CONTINUOUS
 70
0
 71
3
 72
17
 73
13
 74
0
 42
0.0000001
 43
0.0000001
 44
0.0000000001
 40
0.0
 40
0.0
 40
0.0
 40
0.0
 40
0.1249445037
 40
0.1875016612
 40
0.2500433528
 40
0.3750190832
 40
0.5000000017
 40
0.62498092
 40
0.7499566494
 40
0.8124983401
 40
0.8750554969
 40
1.0
 40
1.0
 40
1.0
 40
1.0
 10
0.8596991288
 20
4.6602051464
 30
0.0
 10
0.857905161
 20
4.6634806546
 30
0.0
 10
0.8555139192
 20
4.6685701481
 30
0.0
 10
0.8529759367
 20
4.6756035696
 30
0.0
 10
0.8508834337
 20
4.6827840445
 30
0.0
 10
0.8491195745
 20
4.6919838463
 30
0.0
 10
0.8484121454
 20
4.7031978155
 30
0.0
 10
0.8491195745
 20
4.7144117848
 30
0.0
 10
0.8508834338
 20
4.7236115865
 30
0.0
 10
0.8529759368
 20
4.7307920613
 30
0.0
 10
0.8555139192
 20
4.7378254828
 30
0.0
 10
0.857905161
 20
4.7429149762
 30
0.0
 10
0.8596991288
 20
4.7461904843
 30
0.0
  0
SPLINE
  5
306
100
AcDbEntity
  8
0
100
AcDbSpline
 62
7
  6
CONTINUOUS
 70
0
 71
3
 72
17
 73
13
 74
0
 42
0.0000001
 43
0.0000001
 44
0.0000000001
 40
0.0
 40
0.0
 40
0.0
 40
0.0
 40
0.1249033286
 40
0.1874531982
 40
0.2499950854
 40
0.3749885826
 40
0.5000000017
 40
0.6250114207
 40
0.7500049168
 40
0.8125468031
 40
0.875096672
 40
1.0
 40
1.0
 40
1.0
 40
1.0
 10
0.8548820084
 20
4.6602051464
 30
0.0
 10
0.8530935758
 20
4.6634811855
 30
0.0
 10
0.850710058
 20
4.6685710148
 30
0.0
 10
0.8481805429
 20
4.6756038891
 30
0.0
 10
0.8460947849
 20
4.6827846351
 30
0.0
 10
0.8443367503
 20
4.6919844167
 30
0.0
 10
0.8436316895
 20
4.7031978155
 30
0.0
 10
0.8443367503
 20
4.7144112143
 30
0.0
 10
0.846094785
 20
4.7236109959
 30
0.0
 10
0.8481805429
 20
4.7307917418
 30
0.0
 10
0.850710058
 20
4.737824616
 30
0.0
 10
0.8530935758
 20
4.7429144453
 30
0.0
 10
0.8548820084
 20
4.7461904843
 30
0.0
  0
SPLINE
  5
307
100
AcDbEntity
  8
0
100
AcDbSpline
 62
7
  6
CONTINUOUS
 70
0
 71
3
 72
15
 73
11
 74
0
 42
0.0000001
 43
0.0000001
 44
0.0000000001
 40
0.0
 40
0.0
 40
0.0
 40
0.0
 40
0.119064821
 40
0.243208695
 40
0.3707277279
 40
0.5
 40
0.6292722721
 40
0.756791305
 40
0.880935179
 40
1.0
 40
1.0
 40
1.0
 40
1.0
 10
1.0234567759
 20
4.7461904843
 30
0.0
 10
1.0227487476
 20
4.7428293597
 30
0.0
 10
1.0215092791
 20
4.7359189223
 30
0.0
 10
1.0201875298
 20
4.7253012844
 30
0.0
 10
1.0193849515
 20
4.7143364254
 30
0.0
 10
1.0191163524
 20
4.7031978154
 30
0.0
 10
1.0193849515
 20
4.6920592054
 30
0.0
 10
1.0201875298
 20
4.6810943464
 30
0.0
 10
1.0215092791
 20
4.6704767085
 30
0.0
 10
1.0227487476
 20
4.6635662711
 30
0.0
 10
1.0234567759
 20
4.6602051464
 30
0.0
  0
SPLINE
  5
308
100
AcDbEntity
  8
0
100
AcDbSpline
 62
7
  6
CONTINUOUS
 70
0
 71
3
 72
15
 73
11
 74
0
 42
0.0000001
 43
0.0000001
 44
0.0000000001
 40
0.0
 40
0.0
 40
0.0
 40
0.0
 40
0.1186768599
 40
0.2427658003
 40
0.3704511639
 40
0.4999999992
 40
0.6295488345
 40
0.7572341985
 40
0.8813231397
 40
1.0
 40
1.0
 40
1.0
 40
1.0
 10
1.0095499012
 20
4.7461904843
 30
0.0
 10
1.0101235168
 20
4.7428229487
 30
0.0
 10
1.0111263804
 20
4.7359044535
 30
0.0
 10
1.0121941726
 20
4.7252918698
 30
0.0
 10
1.012842583
 20
4.7143318463
 30
0.0
 10
1.0130596013
 20
4.7031978155
 30
0.0
 10
1.012842583
 20
4.6920637846
 30
0.0
 10
1.0121941726
 20
4.681103761
 30
0.0
 10
1.0111263804
 20
4.6704911774
 30
0.0
 10
1.0101235168
 20
4.6635726821
 30
0.0
 10
1.0095499012
 20
4.6602051464
 30
0.0
  0
SPLINE
  5
309
100
AcDbEntity
  8
0
100
AcDbSpline
 62
7
  6
CONTINUOUS
 70
0
 71
3
 72
15
 73
11
 74
0
 42
0.0000001
 43
0.0000001
 44
0.0000000001
 40
0.0
 40
0.0
 40
0.0
 40
0.0
 40
0.1195131461
 40
0.2437212087
 40
0.3710479693
 40
0.5000000018
 40
0.6289520341
 40
0.7562787935
 40
0.8804868545
 40
1.0
 40
1.0
 40
1.0
 40
1.0
 10
1.0095499012
 20
4.6602051464
 30
0.0
 10
1.0087125499
 20
4.6635589951
 30
0.0
 10
1.0072445699
 20
4.6704600479
 30
0.0
 10
1.0056763327
 20
4.6810834057
 30
0.0
 10
1.0047241358
 20
4.6920538514
 30
0.0
 10
1.0044054879
 20
4.7031978155
 30
0.0
 10
1.0047241358
 20
4.7143417797
 30
0.0
 10
1.0056763327
 20
4.7253122252
 30
0.0
 10
1.0072445699
 20
4.7359355829
 30
0.0
 10
1.0087125499
 20
4.7428366357
 30
0.0
 10
1.0095499012
 20
4.7461904843
 30
0.0
  0
SPLINE
  5
30A
100
AcDbEntity
  8
0
100
AcDbSpline
 62
7
  6
CONTINUOUS
 70
0
 71
3
 72
15
 73
11
 74
0
 42
0.0000001
 43
0.0000001
 44
0.0000000001
 40
0.0
 40
0.0
 40
0.0
 40
0.0
 40
0.1183610199
 40
0.2424057035
 40
0.3702264881
 40
0.4999999992
 40
0.6297735102
 40
0.7575942953
 40
0.8816389796
 40
1.0
 40
1.0
 40
1.0
 40
1.0
 10
0.995728767
 20
4.7461904843
 30
0.0
 10
0.9961637663
 20
4.7428176492
 30
0.0
 10
0.9969234556
 20
4.7358926391
 30
0.0
 10
0.9977313219
 20
4.725284238
 30
0.0
 10
0.9982219201
 20
4.7143281513
 30
0.0
 10
0.9983861301
 20
4.7031978155
 30
0.0
 10
0.9982219201
 20
4.6920674796
 30
0.0
 10
0.9977313219
 20
4.6811113929
 30
0.0
 10
0.9969234556
 20
4.6705029917
 30
0.0
 10
0.9961637663
 20
4.6635779816
 30
0.0
 10
0.995728767
 20
4.6602051464
 30
0.0
  0
SPLINE
  5
30B
100
AcDbEntity
  8
0
100
AcDbSpline
 62
7
  6
CONTINUOUS
 70
0
 71
3
 72
15
 73
11
 74
0
 42
0.0000001
 43
0.0000001
 44
0.0000000001
 40
0.0
 40
0.0
 40
0.0
 40
0.0
 40
0.1200086809
 40
0.2442886551
 40
0.3714029097
 40
0.5000000018
 40
0.6285970937
 40
0.7557113471
 40
0.8799913197
 40
1.0
 40
1.0
 40
1.0
 40
1.0
 10
0.995728767
 20
4.6602051464
 30
0.0
 10
0.9947679857
 20
4.6635511136
 30
0.0
 10
0.9930810368
 20
4.670441711
 30
0.0
 10
0.9912752817
 20
4.6810712431
 30
0.0
 10
0.9901789178
 20
4.6920478615
 30
0.0
 10
0.9898120505
 20
4.7031978155
 30
0.0
 10
0.9901789178
 20
4.7143477696
 30
0.0
 10
0.9912752817
 20
4.7253243879
 30
0.0
 10
0.9930810368
 20
4.7359539199
 30
0.0
 10
0.9947679857
 20
4.7428445172
 30
0.0
 10
0.995728767
 20
4.7461904843
 30
0.0
  0
SPLINE
  5
30C
100
AcDbEntity
  8
0
100
AcDbSpline
 62
7
  6
CONTINUOUS
 70
0
 71
3
 72
15
 73
11
 74
0
 42
0.0000001
 43
0.0000001
 44
0.0000000001
 40
0.0
 40
0.0
 40
0.0
 40
0.0
 40
0.1181271428
 40
0.2421393128
 40
0.3700603705
 40
0.4999999992
 40
0.6299396279
 40
0.7578606859
 40
0.8818728568
 40
1.0
 40
1.0
 40
1.0
 40
1.0
 10
0.9820785852
 20
4.7461904843
 30
0.0
 10
0.9823717284
 20
4.7428136776
 30
0.0
 10
0.9828832548
 20
4.7358838709
 30
0.0
 10
0.9834267211
 20
4.7252786062
 30
0.0
 10
0.9837567698
 20
4.7143254349
 30
0.0
 10
0.9838672471
 20
4.7031978155
 30
0.0
 10
0.9837567698
 20
4.6920701961
 30
0.0
 10
0.9834267211
 20
4.6811170246
 30
0.0
 10
0.9828832548
 20
4.6705117599
 30
0.0
 10
0.9823717284
 20
4.6635819532
 30
0.0
 10
0.9820785852
 20
4.6602051464
 30
0.0
  0
SPLINE
  5
30D
100
AcDbEntity
  8
0
100
AcDbSpline
 62
7
  6
CONTINUOUS
 70
0
 71
3
 72
15
 73
11
 74
0
 42
0.0000001
 43
0.0000001
 44
0.0000000001
 40
0.0
 40
0.0
 40
0.0
 40
0.0
 40
0.1205374302
 40
0.2448952257
 40
0.3717827207
 40
0.5000000018
 40
0.6282172827
 40
0.7551047765
 40
0.8794625705
 40
1.0
 40
1.0
 40
1.0
 40
1.0
 10
0.9820785852
 20
4.6602051464
 30
0.0
 10
0.9810009865
 20
4.6635428847
 30
0.0
 10
0.9791059752
 20
4.6704222375
 30
0.0
 10
0.9770731621
 20
4.6810581821
 30
0.0
 10
0.9758389747
 20
4.6920413832
 30
0.0
 10
0.9754260139
 20
4.7031978155
 30
0.0
 10
0.9758389747
 20
4.7143542478
 30
0.0
 10
0.9770731621
 20
4.7253374489
 30
0.0
 10
0.9791059752
 20
4.7359733934
 30
0.0
 10
0.9810009865
 20
4.7428527461
 30
0.0
 10
0.9820785852
 20
4.7461904843
 30
0.0
  0
SPLINE
  5
30E
100
AcDbEntity
  8
0
100
AcDbSpline
 62
7
  6
CONTINUOUS
 70
0
 71
3
 72
15
 73
11
 74
0
 42
0.0000001
 43
0.0000001
 44
0.0000000001
 40
0.0
 40
0.0
 40
0.0
 40
0.0
 40
0.1195520648
 40
0.2437095024
 40
0.3710455782
 40
0.4999999998
 40
0.6289544214
 40
0.7562904971
 40
0.8804479348
 40
1.0
 40
1.0
 40
1.0
 40
1.0
 10
10.0301135604
 20
4.7461904843
 30
0.0
 10
10.0309511849
 20
4.7428355411
 30
0.0
 10
10.032419822
 20
4.7359349559
 30
0.0
 10
10.0339869258
 20
4.7253114753
 30
0.0
 10
10.0349391752
 20
4.7143421921
 30
0.0
 10
10.0352585463
 20
4.7031978154
 30
0.0
 10
10.0349391752
 20
4.6920534388
 30
0.0
 10
10.0339869258
 20
4.6810841555
 30
0.0
 10
10.032419822
 20
4.6704606749
 30
0.0
 10
10.0309511849
 20
4.6635600897
 30
0.0
 10
10.0301135604
 20
4.6602051464
 30
0.0
  0
SPLINE
  5
30F
100
AcDbEntity
  8
0
100
AcDbSpline
 62
7
  6
CONTINUOUS
 70
0
 71
3
 72
15
 73
11
 74
0
 42
0.0000001
 43
0.0000001
 44
0.0000000001
 40
0.0
 40
0.0
 40
0.0
 40
0.0
 40
0.1183990466
 40
0.2423939367
 40
0.3702241086
 40
0.5000000004
 40
0.6297758923
 40
0.7576060641
 40
0.8816009538
 40
1.0
 40
1.0
 40
1.0
 40
1.0
 10
10.0439346946
 20
4.6602051464
 30
0.0
 10
10.0434995554
 20
4.6635790659
 30
0.0
 10
10.0427395178
 20
4.6705037025
 30
0.0
 10
10.0419322498
 20
4.6811120876
 30
0.0
 10
10.0414416178
 20
4.6920670716
 30
0.0
 10
10.0412770362
 20
4.7031978154
 30
0.0
 10
10.0414416178
 20
4.7143285592
 30
0.0
 10
10.0419322498
 20
4.7252835432
 30
0.0
 10
10.0427395178
 20
4.7358919283
 30
0.0
 10
10.0434995554
 20
4.7428165649
 30
0.0
 10
10.0439346946
 20
4.7461904843
 30
0.0
  0
SPLINE
  5
310
100
AcDbEntity
  8
0
100
AcDbSpline
 62
7
  6
CONTINUOUS
 70
0
 71
3
 72
15
 73
11
 74
0
 42
0.0000001
 43
0.0000001
 44
0.0000000001
 40
0.0
 40
0.0
 40
0.0
 40
0.0
 40
0.1200479817
 40
0.2442769731
 40
0.3714005135
 40
0.4999999998
 40
0.6285994861
 40
0.7557230265
 40
0.879952018
 40
1.0
 40
1.0
 40
1.0
 40
1.0
 10
10.0439346946
 20
4.7461904843
 30
0.0
 10
10.0448957914
 20
4.7428434182
 30
0.0
 10
10.0465834877
 20
4.7359533284
 30
0.0
 10
10.0483879512
 20
4.7253236144
 30
0.0
 10
10.0494843692
 20
4.7143481838
 30
0.0
 10
10.0498520702
 20
4.7031978154
 30
0.0
 10
10.0494843692
 20
4.692047447
 30
0.0
 10
10.0483879512
 20
4.6810720164
 30
0.0
 10
10.0465834877
 20
4.6704423024
 30
0.0
 10
10.0448957914
 20
4.6635522126
 30
0.0
 10
10.0439346946
 20
4.6602051464
 30
0.0
  0
SPLINE
  5
311
100
AcDbEntity
  8
0
100
AcDbSpline
 62
7
  6
CONTINUOUS
 70
0
 71
3
 72
15
 73
11
 74
0
 42
0.0000001
 43
0.0000001
 44
0.0000000001
 40
0.0
 40
0.0
 40
0.0
 40
0.0
 40
0.1181649874
 40
0.2421275322
 40
0.370057992
 40
0.5000000005
 40
0.6299420088
 40
0.7578724686
 40
0.881835013
 40
1.0
 40
1.0
 40
1.0
 40
1.0
 10
10.0575848764
 20
4.6602051464
 30
0.0
 10
10.0572916392
 20
4.6635830353
 30
0.0
 10
10.0567798772
 20
4.6705124879
 30
0.0
 10
10.0562368153
 20
4.6811177081
 30
0.0
 10
10.0559067429
 20
4.692069789
 30
0.0
 10
10.0557960158
 20
4.7031978154
 30
0.0
 10
10.0559067429
 20
4.7143258419
 30
0.0
 10
10.0562368153
 20
4.7252779227
 30
0.0
 10
10.0567798772
 20
4.7358831429
 30
0.0
 10
10.0572916392
 20
4.7428125955
 30
0.0
 10
10.0575848764
 20
4.7461904843
 30
0.0
  0
SPLINE
  5
312
100
AcDbEntity
  8
0
100
AcDbSpline
 62
7
  6
CONTINUOUS
 70
0
 71
3
 72
15
 73
11
 74
0
 42
0.0000001
 43
0.0000001
 44
0.0000000001
 40
0.0
 40
0.0
 40
0.0
 40
0.0
 40
0.1205771372
 40
0.244883568
 40
0.3717803179
 40
0.4999999998
 40
0.6282196817
 40
0.7551164316
 40
0.8794228625
 40
1.0
 40
1.0
 40
1.0
 40
1.0
 10
10.0575848764
 20
4.7461904843
 30
0.0
 10
10.0586628313
 20
4.7428516426
 30
0.0
 10
10.0605586729
 20
4.7359728397
 30
0.0
 10
10.0625900483
 20
4.7253366504
 30
0.0
 10
10.063824289
 20
4.7143546639
 30
0.0
 10
10.0642381894
 20
4.7031978154
 30
0.0
 10
10.063824289
 20
4.6920409669
 30
0.0
 10
10.0625900483
 20
4.6810589804
 30
0.0
 10
10.0605586729
 20
4.6704227911
 30
0.0
 10
10.0586628313
 20
4.6635439882
 30
0.0
 10
10.0575848764
 20
4.6602051464
 30
0.0
  0
SPLINE
  5
313
100
AcDbEntity
  8
0
100
AcDbSpline
 62
7
  6
CONTINUOUS
 70
0
 71
3
 72
13
 73
9
 74
0
 42
0.0000001
 43
0.0000001
 44
0.0000000001
 40
0.0
 40
0.0
 40
0.0
 40
0.0
 40
0.1180212166
 40
0.2419647446
 40
0.5000000005
 40
0.7580352561
 40
0.8819787838
 40
1.0
 40
1.0
 40
1.0
 40
1.0
 10
10.0709799479
 20
4.6602051464
 30
0.0
 10
10.0708308235
 20
4.6635855077
 30
0.0
 10
10.0705706673
 20
4.6705179269
 30
0.0
 10
10.0701980602
 20
4.6848482419
 30
0.0
 10
10.0700165842
 20
4.7031978154
 30
0.0
 10
10.0701980602
 20
4.721547389
 30
0.0
 10
10.0705706673
 20
4.7358777039
 30
0.0
 10
10.0708308235
 20
4.7428101231
 30
0.0
 10
10.0709799479
 20
4.7461904843
 30
0.0
  0
SPLINE
  5
314
100
AcDbEntity
  8
0
100
AcDbSpline
 62
7
  6
CONTINUOUS
 70
0
 71
3
 72
15
 73
11
 74
0
 42
0.0000001
 43
0.0000001
 44
0.0000000001
 40
0.0
 40
0.0
 40
0.0
 40
0.0
 40
0.1211251941
 40
0.2455130167
 40
0.3721748689
 40
0.4999999998
 40
0.6278251307
 40
0.7544869829
 40
0.8788748056
 40
1.0
 40
1.0
 40
1.0
 40
1.0
 10
10.0709799479
 20
4.7461904843
 30
0.0
 10
10.0721675074
 20
4.7428599699
 30
0.0
 10
10.074259313
 20
4.7359929441
 30
0.0
 10
10.0765056879
 20
4.7253502428
 30
0.0
 10
10.077870529
 20
4.7143614714
 30
0.0
 10
10.0783282075
 20
4.7031978154
 30
0.0
 10
10.0778705291
 20
4.6920341595
 30
0.0
 10
10.0765056879
 20
4.681045388
 30
0.0
 10
10.074259313
 20
4.6704026867
 30
0.0
 10
10.0721675074
 20
4.6635356608
 30
0.0
 10
10.0709799479
 20
4.6602051464
 30
0.0
  0
SPLINE
  5
315
100
AcDbEntity
  8
0
100
AcDbSpline
 62
7
  6
CONTINUOUS
 70
0
 71
3
 72
13
 73
9
 74
0
 42
0.0000001
 43
0.0000001
 44
0.0000000001
 40
0.0
 40
0.0
 40
0.0
 40
0.0
 40
0.246009054
 40
0.3725037324
 40
0.4999999998
 40
0.6274962672
 40
0.7539909456
 40
1.0
 40
1.0
 40
1.0
 40
1.0
 10
10.084037324
 20
4.7461904843
 30
0.0
 10
10.0866426912
 20
4.7394771334
 30
0.0
 10
10.0895735962
 20
4.7288855398
 30
0.0
 10
10.0915361402
 20
4.7143696977
 30
0.0
 10
10.0920354325
 20
4.7031978154
 30
0.0
 10
10.0915361402
 20
4.6920259331
 30
0.0
 10
10.0895735962
 20
4.677510091
 30
0.0
 10
10.0866426912
 20
4.6669184974
 30
0.0
 10
10.084037324
 20
4.6602051464
 30
0.0
  0
SPLINE
  5
316
100
AcDbEntity
  8
0
100
AcDbSpline
 62
7
  6
CONTINUOUS
 70
0
 71
3
 72
15
 73
11
 74
0
 42
0.0000001
 43
0.0000001
 44
0.0000000001
 40
0.0
 40
0.0
 40
0.0
 40
0.0
 40
0.1222217278
 40
0.2467760223
 40
0.3729678991
 40
0.4999999998
 40
0.6270321005
 40
0.7532239773
 40
0.8777782719
 40
1.0
 40
1.0
 40
1.0
 40
1.0
 10
10.0966765017
 20
4.7461904843
 30
0.0
 10
10.0980593168
 20
4.7428760724
 30
0.0
 10
10.1005019677
 20
4.7360328398
 30
0.0
 10
10.1031369673
 20
4.7253777145
 30
0.0
 10
10.1047379617
 20
4.7143753905
 30
0.0
 10
10.1052748099
 20
4.7031978154
 30
0.0
 10
10.1047379617
 20
4.6920202404
 30
0.0
 10
10.1031369673
 20
4.6810179163
 30
0.0
 10
10.1005019677
 20
4.670362791
 30
0.0
 10
10.0980593168
 20
4.6635195584
 30
0.0
 10
10.0966765017
 20
4.6602051464
 30
0.0
  0
SPLINE
  5
317
100
AcDbEntity
  8
0
100
AcDbSpline
 62
7
  6
CONTINUOUS
 70
0
 71
3
 72
15
 73
11
 74
0
 42
0.0000001
 43
0.0000001
 44
0.0000000001
 40
0.0
 40
0.0
 40
0.0
 40
0.0
 40
0.1227436961
 40
0.2473789335
 40
0.3733471033
 40
0.4999999998
 40
0.6266528963
 40
0.7526210661
 40
0.8772563036
 40
1.0
 40
1.0
 40
1.0
 40
1.0
 10
10.1088195562
 20
4.7461904843
 30
0.0
 10
10.1102870893
 20
4.7428834863
 30
0.0
 10
10.1128826278
 20
4.7360516721
 30
0.0
 10
10.1156885968
 20
4.7253909208
 30
0.0
 10
10.1173935428
 20
4.7143821592
 30
0.0
 10
10.1179652494
 20
4.7031978154
 30
0.0
 10
10.1173935428
 20
4.6920134716
 30
0.0
 10
10.1156885968
 20
4.68100471
 30
0.0
 10
10.1128826278
 20
4.6703439587
 30
0.0
 10
10.1102870893
 20
4.6635121445
 30
0.0
 10
10.1088195562
 20
4.6602051464
 30
0.0
  0
SPLINE
  5
318
100
AcDbEntity
  8
0
100
AcDbSpline
 62
7
  6
CONTINUOUS
 70
0
 71
3
 72
15
 73
11
 74
0
 42
0.0000001
 43
0.0000001
 44
0.0000000001
 40
0.0
 40
0.0
 40
0.0
 40
0.0
 40
0.1232320992
 40
0.2479440676
 40
0.3737029265
 40
0.4999999998
 40
0.6262970731
 40
0.752055932
 40
0.8767679005
 40
1.0
 40
1.0
 40
1.0
 40
1.0
 10
10.1203916216
 20
4.7461904843
 30
0.0
 10
10.1219347401
 20
4.7428902825
 30
0.0
 10
10.1246669995
 20
4.736069198
 30
0.0
 10
10.1276267488
 20
4.7254033531
 30
0.0
 10
10.1294252402
 20
4.714388578
 30
0.0
 10
10.1300283232
 20
4.7031978154
 30
0.0
 10
10.1294252402
 20
4.6920070528
 30
0.0
 10
10.1276267488
 20
4.6809922777
 30
0.0
 10
10.1246669995
 20
4.6703264329
 30
0.0
 10
10.1219347401
 20
4.6635053483
 30
0.0
 10
10.1203916216
 20
4.6602051464
 30
0.0
  0
SPLINE
  5
319
100
AcDbEntity
  8
0
100
AcDbSpline
 62
7
  6
CONTINUOUS
 70
0
 71
3
 72
15
 73
11
 74
0
 42
0.0000001
 43
0.0000001
 44
0.0000000001
 40
0.0
 40
0.0
 40
0.0
 40
0.0
 40
0.1236764255
 40
0.2484590346
 40
0.3740274842
 40
0.4999999998
 40
0.6259725154
 40
0.7515409649
 40
0.8763235742
 40
1.0
 40
1.0
 40
1.0
 40
1.0
 10
10.1313213522
 20
4.7461904843
 30
0.0
 10
10.1329305941
 20
4.7428963502
 30
0.0
 10
10.1357826868
 20
4.7360850607
 30
0.0
 10
10.138877938
 20
4.7254147265
 30
0.0
 10
10.1407588992
 20
4.7143944902
 30
0.0
 10
10.1413896513
 20
4.7031978154
 30
0.0
 10
10.1407588993
 20
4.6920011406
 30
0.0
 10
10.138877938
 20
4.6809809043
 30
0.0
 10
10.1357826868
 20
4.6703105701
 30
0.0
 10
10.1329305941
 20
4.6634992806
 30
0.0
 10
10.1313213522
 20
4.6602051464
 30
0.0
  0
SPLINE
  5
31A
100
AcDbEntity
  8
0
100
AcDbSpline
 62
7
  6
CONTINUOUS
 70
0
 71
3
 72
15
 73
11
 74
0
 42
0.0000001
 43
0.0000001
 44
0.0000000001
 40
0.0
 40
0.0
 40
0.0
 40
0.0
 40
0.1240675119
 40
0.2489129555
 40
0.3743138226
 40
0.4999999998
 40
0.625686177
 40
0.7510870441
 40
0.8759324877
 40
1.0
 40
1.0
 40
1.0
 40
1.0
 10
10.1415413626
 20
4.7461904843
 30
0.0
 10
10.1432069837
 20
4.7429016022
 30
0.0
 10
10.146161407
 20
4.7360989575
 30
0.0
 10
10.1493729141
 20
4.7254247866
 30
0.0
 10
10.1513246694
 20
4.714399752
 30
0.0
 10
10.15197918
 20
4.7031978154
 30
0.0
 10
10.1513246694
 20
4.6919958788
 30
0.0
 10
10.1493729141
 20
4.6809708442
 30
0.0
 10
10.146161407
 20
4.6702966733
 30
0.0
 10
10.1432069837
 20
4.6634940286
 30
0.0
 10
10.1415413626
 20
4.6602051464
 30
0.0
  0
SPLINE
  5
31B
100
AcDbEntity
  8
0
100
AcDbSpline
 62
7
  6
CONTINUOUS
 70
0
 71
3
 72
15
 73
11
 74
0
 42
0.0000001
 43
0.0000001
 44
0.0000000001
 40
0.0
 40
0.0
 40
0.0
 40
0.0
 40
0.1248509214
 40
0.2498240861
 40
0.3748892993
 40
0.4999999998
 40
0.6251107003
 40
0.7501759134
 40
0.8751490782
 40
1.0
 40
1.0
 40
1.0
 40
1.0
 10
10.1673371548
 20
4.7461904843
 30
0.0
 10
10.1691112988
 20
4.7429118804
 30
0.0
 10
10.172263063
 20
4.7361266083
 30
0.0
 10
10.1757002251
 20
4.7254450774
 30
0.0
 10
10.1777895113
 20
4.7144104585
 30
0.0
 10
10.1784901993
 20
4.7031978154
 30
0.0
 10
10.1777895113
 20
4.6919851723
 30
0.0
 10
10.1757002251
 20
4.6809505534
 30
0.0
 10
10.172263063
 20
4.6702690225
 30
0.0
 10
10.1691112988
 20
4.6634837504
 30
0.0
 10
10.1673371548
 20
4.6602051464
 30
0.0
  0
SPLINE
  5
31C
100
AcDbEntity
  8
0
100
AcDbSpline
 62
7
  6
CONTINUOUS
 70
0
 71
3
 72
15
 73
11
 74
0
 42
0.0000001
 43
0.0000001
 44
0.0000000001
 40
0.0
 40
0.0
 40
0.0
 40
0.0
 40
0.1249657861
 40
0.2499578854
 40
0.3749738898
 40
0.4999999998
 40
0.6250261098
 40
0.7500421142
 40
0.8750342136
 40
1.0
 40
1.0
 40
1.0
 40
1.0
 10
10.1741375921
 20
4.7461904843
 30
0.0
 10
10.1759272065
 20
4.7429133609
 30
0.0
 10
10.1791071385
 20
4.7361306413
 30
0.0
 10
10.1825766698
 20
4.725448068
 30
0.0
 10
10.1846856986
 20
4.7144120472
 30
0.0
 10
10.1853930182
 20
4.7031978154
 30
0.0
 10
10.1846856986
 20
4.6919835837
 30
0.0
 10
10.1825766698
 20
4.6809475628
 30
0.0
 10
10.1791071385
 20
4.6702649895
 30
0.0
 10
10.1759272065
 20
4.6634822699
 30
0.0
 10
10.1741375921
 20
4.6602051464
 30
0.0
  0
SPLINE
  5
31D
100
AcDbEntity
  8
0
100
AcDbSpline
 62
7
  6
CONTINUOUS
 70
0
 71
3
 72
15
 73
11
 74
0
 42
0.0000001
 43
0.0000001
 44
0.0000000001
 40
0.0
 40
0.0
 40
0.0
 40
0.0
 40
0.1250029027
 40
0.2500011318
 40
0.3750012355
 40
0.4999999998
 40
0.6249987641
 40
0.7499988677
 40
0.8749970969
 40
1.0
 40
1.0
 40
1.0
 40
1.0
 10
10.1799643328
 20
4.7461904843
 30
0.0
 10
10.181758924
 20
4.7429138378
 30
0.0
 10
10.1849479192
 20
4.7361319433
 30
0.0
 10
10.1884278742
 20
4.7254490352
 30
0.0
 10
10.1905432614
 20
4.7144125616
 30
0.0
 10
10.1912527169
 20
4.7031978154
 30
0.0
 10
10.1905432614
 20
4.6919830693
 30
0.0
 10
10.1884278742
 20
4.6809465956
 30
0.0
 10
10.1849479193
 20
4.6702636875
 30
0.0
 10
10.181758924
 20
4.663481793
 30
0.0
 10
10.1799643328
 20
4.6602051464
 30
0.0
  0
SPLINE
  5
31E
100
AcDbEntity
  8
0
100
AcDbSpline
 62
7
  6
CONTINUOUS
 70
0
 71
3
 72
15
 73
11
 74
0
 42
0.0000001
 43
0.0000001
 44
0.0000000001
 40
0.0
 40
0.0
 40
0.0
 40
0.0
 40
0.1249616105
 40
0.2499530205
 40
0.3749708138
 40
0.4999999998
 40
0.6250291858
 40
0.7500469791
 40
0.8750383892
 40
1.0
 40
1.0
 40
1.0
 40
1.0
 10
10.1847814532
 20
4.7461904843
 30
0.0
 10
10.1865705071
 20
4.7429133072
 30
0.0
 10
10.1897494183
 20
4.7361304948
 30
0.0
 10
10.1932177758
 20
4.7254479592
 30
0.0
 10
10.1953260886
 20
4.7144119893
 30
0.0
 10
10.1960331677
 20
4.7031978154
 30
0.0
 10
10.1953260886
 20
4.6919836415
 30
0.0
 10
10.1932177758
 20
4.6809476716
 30
0.0
 10
10.1897494183
 20
4.670265136
 30
0.0
 10
10.1865705071
 20
4.6634823236
 30
0.0
 10
10.1847814532
 20
4.6602051464
 30
0.0
  0
ENDSEC
  0
SECTION
  2
OBJECTS
  0
DICTIONARY
  5
C
100
AcDbDictionary
280
0
281
1
  3
ACAD_GROUP
350
D
  3
ACAD_MLINESTYLE
350
17
  3
ACAD_LAYOUT
350
1A
  3
ACAD_PLOTSETTINGS
350
19
  3
ACAD_PLOTSTYLENAME
350
E
  0
DICTIONARY
  5
D
102
{ACAD_REACTORS
330
C
102
}
100
AcDbDictionary
280
0
281
1
  0
ACDBDICTIONARYWDFLT
  5
E
102
{ACAD_REACTORS
330
C
102
}
100
AcDbDictionary
281
1
  3
Normal
350
F
100
AcDbDictionaryWithDefault
340
F
  0
DICTIONARY
  5
17
102
{ACAD_REACTORS
330
C
102
}
100
AcDbDictionary
280
0
281
1
  3
Standard
350
18
  0
DICTIONARY
  5
19
102
{ACAD_REACTORS
330
C
102
}
100
AcDbDictionary
281
1
  0
DICTIONARY
  5
1A
102
{ACAD_REACTORS
330
C
102
}
100
AcDbDictionary
281
1
  3
Model
350
31F
  3
Layout1
350
320
  0
ACDBPLACEHOLDER
  5
F
102
{ACAD_REACTORS
330
E
102
}
  0
MLINESTYLE
  5
18
102
{ACAD_REACTORS
330
17
102
}
100
AcDbMlineStyle
  2
STANDARD
 70
0
  3

 62
256
 51
90.0
 52
90.0
 71
2
 49
0.5
 62
256
  6
BYLAYER
 49
-0.5
 62
256
  6
BYLAYER
  0
LAYOUT
  5
31F
102
{ACAD_REACTORS
330
1A
102
}
100
AcDbPlotSettings
  1

  2
none_device
  4
ANSI_A_(11.00_x_8.50_Inches)
  6

 40
0.0
 41
0.0
 42
0.0
 43
0.0
 44
279.4
 45
215.9
 46
0.0
 47
0.0
 48
0.0
 49
0.0
140
0.0
141
0.0
142
1.0
143
1.0
 70
1024
 72
0
 73
0
 74
0
  7

 75
0
147
1.0
148
0.0
149
0.0
100
AcDbLayout
  1
Model
 70
0
 71
0
 10
0.0
 20
0.0
 11
11.0
 21
8.5
 12
0.0
 22
0.0
 32
0.0
 14
0.0
 24
0.0
 34
0.0
 15
0.0
 25
0.0
 35
0.0
146
0.0
 13
0.0
 23
0.0
 33
0.0
 16
1.0
 26
0.0
 36
0.0
 17
0.0
 27
1.0
 37
0.0
 76
0
330
203
345
0
346
0
  0
LAYOUT
  5
320
102
{ACAD_REACTORS
330
1A
102
}
100
AcDbPlotSettings
  1

  2
none_device
  4
ANSI_A_(11.00_x_8.50_Inches)
  6

 40
0.0
 41
0.0
 42
0.0
 43
0.0
 44
279.4
 45
215.9
 46
0.0
 47
0.0
 48
0.0
 49
0.0
140
0.0
141
0.0
142
1.0
143
1.0
 70
0
 72
0
 73
0
 74
0
  7

 75
0
147
1.0
148
0.0
149
0.0
100
AcDbLayout
  1
Layout1
 70
0
 71
1
 10
0.0
 20
0.0
 11
11.0
 21
8.5
 12
0.0
 22
0.0
 32
0.0
 14
0.0
 24
0.0
 34
0.0
 15
0.0
 25
0.0
 35
0.0
146
0.0
 13
0.0
 23
0.0
 33
0.0
 16
1.0
 26
0.0
 36
0.0
 17
0.0
 27
1.0
 37
0.0
 76
0
330
204
345
0
346
0
  0
ENDSEC
  0
EOF
