999
DXF file: 1600-1250_Top.dxf
999
Pro/ENGINEER 2023134 by Parametric Technology Corporation
  0
SECTION
  2
HEADER
  9
$ACADVER
  1
AC1032
  9
$DWGCODEPAGE
  3
ANSI_1252
  9
$EXTMAX
 10
11.0
 20
8.5
 30
0.0
  9
$EXTMIN
 10
0.0
 20
0.0
 30
0.0
  9
$LIMMIN
 10
0.0
 20
0.0
  9
$LIMMAX
 10
11.0
 20
8.5
  9
$VIEWCTR
 10
5.5
 20
4.25
  9
$VIEWSIZE
 40
8.5
  9
$CLAYER
  8
0
  9
$LTSCALE
 40
0.605
  9
$CELTYPE
  6
BYLAYER
  9
$DIMSCALE
 40
1.0
  9
$DIMASZ
 40
0.1
  9
$DIMEXO
 40
0.0625
  9
$DIMDLI
 40
0.418
  9
$DIMEXE
 40
0.125
  9
$DIMCEN
 40
0.099
  9
$DIMLFAC
 40
1.0
  9
$DIMBLK
  1
_FILLED
  9
$DIMALT
 70
1
  9
$DIMALTD
 70
2
  9
$DIMALTTD
 70
2
  9
$DIMALTF
 40
25.4
  9
$DIMTXT
 40
0.08
  9
$DIMTOL
 70
1
  9
$DIMLIM
 70
0
  9
$DIMTFAC
 40
1.0
  9
$DIMTP
 40
0.001
  9
$DIMTM
 40
0.001
  9
$DIMGAP
 40
0.09
  9
$DIMDSEP
 70
46
  9
$AUNITS
 70
0
  9
$PDMODE
 70
3
  9
$PDSIZE
 40
0.3125
  9
$HANDSEED
  5
321
  9
$TILEMODE
 70
1
  9
$MEASUREMENT
 70
0
  9
$INSUNITS
 70
1
  0
ENDSEC
  0
SECTION
  2
CLASSES
  0
CLASS
  1
ACDBDICTIONARYWDFLT
  2
AcDbDictionaryWithDefault
  3
AutoCAD 2000
 90
0
 91
1
280
0
281
0
  0
CLASS
  1
ACDBPLACEHOLDER
  2
AcDbPlaceHolder
  3
AutoCAD 2000
 90
0
 91
1
280
0
281
0
  0
CLASS
  1
LAYOUT
  2
AcDbLayout
  3
AutoCAD 2000
 90
0
 91
0
280
0
281
0
  0
ENDSEC
  0
SECTION
  2
TABLES
  0
TABLE
  2
VPORT
  5
8
100
AcDbSymbolTable
 70
2
  0
VPORT
  5
1F4
100
AcDbSymbolTableRecord
100
AcDbViewportTableRecord
  2
*ACTIVE
 70
0
 10
0.0
 20
0.0
 11
1.0
 21
1.0
 12
5.5
 22
4.25
 13
0.0
 23
0.0
 14
1.0
 24
1.0
 15
0.0
 25
0.0
 16
0.0
 26
0.0
 36
1.0
 17
0.0
 27
0.0
 37
0.0
 40
8.5
 41
1.2941176471
 42
50.0
 43
0.0
 44
0.0
 50
0.0
 51
0.0
 71
0
 72
100
 73
1
 74
1
 75
0
 76
0
 77
0
 78
0
  0
ENDTAB
  0
TABLE
  2
LTYPE
  5
5
100
AcDbSymbolTable
 70
6
  0
LTYPE
  5
14
100
AcDbSymbolTableRecord
100
AcDbLinetypeTableRecord
  2
BYBLOCK
 70
0
  3

 72
65
 73
0
 40
0.0
  0
LTYPE
  5
15
100
AcDbSymbolTableRecord
100
AcDbLinetypeTableRecord
  2
BYLAYER
 70
0
  3

 72
65
 73
0
 40
0.0
  0
LTYPE
  5
16
100
AcDbSymbolTableRecord
100
AcDbLinetypeTableRecord
  2
CONTINUOUS
 70
64
  3
Solid line
 72
65
 73
0
 40
0.0
  0
LTYPE
  5
1F5
100
AcDbSymbolTableRecord
100
AcDbLinetypeTableRecord
  2
CENTER
 70
64
  3
____ _ ____ _ ____ _ ____ _ ____ _ ____ _ ____
 72
65
 73
4
 40
0.6
 49
0.375
 74
0
 49
-0.075
 74
0
 49
0.075
 74
0
 49
-0.075
 74
0
  0
LTYPE
  5
1F6
100
AcDbSymbolTableRecord
100
AcDbLinetypeTableRecord
  2
HIDDEN
 70
64
  3
- - - - - - - - - - - - - - - - - - - -
 72
65
 73
2
 40
0.2
 49
0.1
 74
0
 49
-0.1
 74
0
  0
LTYPE
  5
1F7
100
AcDbSymbolTableRecord
100
AcDbLinetypeTableRecord
  2
PHANTOM
 70
64
  3
_____ _ _ _____ _ _ _____ _ _ _____
 72
65
 73
6
 40
0.8
 49
0.45
 74
0
 49
-0.05
 74
0
 49
0.1
 74
0
 49
-0.05
 74
0
 49
0.1
 74
0
 49
-0.05
 74
0
  0
LTYPE
  5
1F8
100
AcDbSymbolTableRecord
100
AcDbLinetypeTableRecord
  2
DOT
 70
64
  3
. . . . . . . . . . . . . . . . . . . .
 72
65
 73
2
 40
0.2
 49
0.1
 74
0
 49
-0.1
 74
0
  0
LTYPE
  5
1F9
100
AcDbSymbolTableRecord
100
AcDbLinetypeTableRecord
  2
DASHED
 70
64
  3
- - - - - - - - - - - - - - - - - - - -
 72
65
 73
2
 40
0.2
 49
0.1
 74
0
 49
-0.1
 74
0
  0
ENDTAB
  0
TABLE
  2
LAYER
  5
2
100
AcDbSymbolTable
 70
36
  0
LAYER
  5
10
100
AcDbSymbolTableRecord
100
AcDbLayerTableRecord
  2
0
 70
0
 62
7
  6
CONTINUOUS
370
-3
390
F
  0
LAYER
  5
1FA
100
AcDbSymbolTableRecord
100
AcDbLayerTableRecord
  2
DEFAULT_1
 70
0
 62
7
  6
CENTER
370
-3
390
F
  0
LAYER
  5
1FB
100
AcDbSymbolTableRecord
100
AcDbLayerTableRecord
  2
DEFAULT_2
 70
0
 62
8
  6
HIDDEN
370
-3
390
F
  0
LAYER
  5
1FC
100
AcDbSymbolTableRecord
100
AcDbLayerTableRecord
  2
DEFAULT_3
 70
0
 62
7
  6
PHANTOM
370
-3
390
F
  0
LAYER
  5
1FD
100
AcDbSymbolTableRecord
100
AcDbLayerTableRecord
  2
DEFAULT_COORDINATE_SYSTEM
 70
0
 62
7
  6
CONTINUOUS
370
-3
390
F
  0
LAYER
  5
1FE
100
AcDbSymbolTableRecord
100
AcDbLayerTableRecord
  2
DEFAULT_DATUM_AXES
 70
0
 62
7
  6
CONTINUOUS
370
-3
390
F
  0
LAYER
  5
1FF
100
AcDbSymbolTableRecord
100
AcDbLayerTableRecord
  2
DEFAULT_DATUM_CURVES
 70
0
 62
7
  6
CONTINUOUS
370
-3
390
F
  0
LAYER
  5
200
100
AcDbSymbolTableRecord
100
AcDbLayerTableRecord
  2
DEFAULT_DATUM_PLANES
 70
0
 62
7
  6
CONTINUOUS
370
-3
390
F
  0
ENDTAB
  0
TABLE
  2
STYLE
  5
3
100
AcDbSymbolTable
 70
1
  0
STYLE
  5
11
100
AcDbSymbolTableRecord
100
AcDbTextStyleTableRecord
  2
STANDARD
 70
0
 40
0.0
 41
0.8
 50
0.0
 71
0
 42
0.2
  3
txt
  4

  0
STYLE
  5
201
100
AcDbSymbolTableRecord
100
AcDbTextStyleTableRecord
  2
TEXTSTYLE_1
 70
0
 40
0.0
 41
0.8
 50
0.0
 71
0
 42
0.2
  3
gdt
  4

  0
ENDTAB
  0
TABLE
  2
VIEW
  5
6
100
AcDbSymbolTable
 70
0
  0
ENDTAB
  0
TABLE
  2
UCS
  5
7
100
AcDbSymbolTable
 70
0
  0
ENDTAB
  0
TABLE
  2
APPID
  5
9
100
AcDbSymbolTable
 70
1
  0
APPID
  5
202
100
AcDbSymbolTableRecord
100
AcDbRegAppTableRecord
  2
ACAD
 70
0
  0
ENDTAB
  0
TABLE
  2
BLOCK_RECORD
  5
1
100
AcDbSymbolTable
 70
0
  0
BLOCK_RECORD
  5
203
100
AcDbSymbolTableRecord
100
AcDbBlockTableRecord
  2
*Model_Space
  0
BLOCK_RECORD
  5
204
100
AcDbSymbolTableRecord
100
AcDbBlockTableRecord
  2
*Paper_Space
  0
BLOCK_RECORD
  5
205
100
AcDbSymbolTableRecord
100
AcDbBlockTableRecord
  2
_FILLED
  0
ENDTAB
  0
TABLE
  2
DIMSTYLE
  5
A
100
AcDbSymbolTable
 70
1
100
AcDbDimStyleTable
 71
0
  0
DIMSTYLE
105
206
100
AcDbSymbolTableRecord
100
AcDbDimStyleTableRecord
  2
STANDARD
 70
0
  3

  4

 40
1.0
 41
0.1
 42
0.0625
 43
0.38
 44
0.125
 45
0.0
 46
0.0
 47
0.001
 48
0.001
140
0.08
141
0.09
142
0.0
143
25.4
144
1.0
145
0.0
146
1.0
147
0.09
 71
1
 72
0
 73
1
 74
1
 75
0
 76
0
 77
0
 78
4
 79
1
170
1
171
2
172
0
173
0
174
0
175
0
176
0
177
0
178
0
270
2
179
3
271
3
272
3
273
2
274
2
275
0
280
0
281
0
282
0
283
1
284
4
285
0
286
0
287
3
288
0
340
11
278
46
341
205
342
205
343
205
344
205
  0
ENDTAB
  0
ENDSEC
  0
SECTION
  2
BLOCKS
  0
BLOCK
  5
20
100
AcDbEntity
  8
0
100
AcDbBlockBegin
  2
*Model_Space
 70
0
 10
0.0
 20
0.0
 30
0.0
  3
*Model_Space
  1

  0
ENDBLK
  5
21
100
AcDbEntity
  8
0
100
AcDbBlockEnd
  0
BLOCK
  5
1C
100
AcDbEntity
  8
0
100
AcDbBlockBegin
  2
*Paper_Space
 70
0
 10
0.0
 20
0.0
 30
0.0
  3
*Paper_Space
  1

  0
ENDBLK
  5
1D
100
AcDbEntity
  8
0
100
AcDbBlockEnd
  0
BLOCK
  5
207
100
AcDbEntity
  8
0
100
AcDbBlockBegin
  2
_FILLED
 70
64
 10
0.0
 20
0.0
  3
_FILLED
  1

  0
SOLID
  5
208
100
AcDbEntity
  8
0
  6
BYBLOCK
 62
0
100
AcDbTrace
 10
0.0
 20
0.0
 11
-1.0
 21
0.2
 12
-1.0
 22
-0.2
 13
-1.0
 23
-0.2
  0
ENDBLK
  5
209
100
AcDbEntity
  8
0
  6
BYBLOCK
 62
0
100
AcDbBlockEnd
  0
ENDSEC
  0
SECTION
  2
ENTITIES
  0
MTEXT
  5
20A
100
AcDbEntity
  8
0
100
AcDbMText
 62
2
  6
CONTINUOUS
  7
STANDARD
 71
2
 72
1
 10
5.5616200206
 20
3.0273260352
 30
0.0
 11
1.0
 21
0.0
 31
0.0
 73
2
 44
0.9
  1
SCALE 0.300
 40
0.08
 41
0.704
  0
LINE
  5
20B
100
AcDbEntity
  8
0
100
AcDbLine
 62
7
  6
CONTINUOUS
 10
0.0
 20
0.0
 11
0.0
 21
8.5
  0
LINE
  5
20C
100
AcDbEntity
  8
0
100
AcDbLine
 62
7
  6
CONTINUOUS
 10
0.0
 20
0.0
 11
11.0
 21
0.0
  0
LINE
  5
20D
100
AcDbEntity
  8
0
100
AcDbLine
 62
7
  6
CONTINUOUS
 10
0.0
 20
8.5
 11
11.0
 21
8.5
  0
LINE
  5
20E
100
AcDbEntity
  8
0
100
AcDbLine
 62
7
  6
CONTINUOUS
 10
11.0
 20
0.0
 11
11.0
 21
8.5
  0
LINE
  5
20F
100
AcDbEntity
  8
0
100
AcDbLine
 62
7
  6
CONTINUOUS
 10
1.7311450477
 20
4.5534274904
 11
1.7311450477
 21
4.5349916804
  0
LINE
  5
210
100
AcDbEntity
  8
0
100
AcDbLine
 62
7
  6
CONTINUOUS
 10
1.8574450477
 20
4.4983775804
 11
1.8574450477
 21
4.4863775804
  0
LINE
  5
211
100
AcDbEntity
  8
0
100
AcDbLine
 62
7
  6
CONTINUOUS
 10
1.8574450477
 20
4.4347863777
 11
1.8574450477
 21
4.4227863777
  0
LINE
  5
212
100
AcDbEntity
  8
0
100
AcDbLine
 62
7
  6
CONTINUOUS
 10
1.8929288977
 20
3.8583516777
 11
1.8929288977
 21
4.4227863777
  0
LINE
  5
213
100
AcDbEntity
  8
0
100
AcDbLine
 62
7
  6
CONTINUOUS
 10
1.9230966646
 20
4.4347863777
 11
1.9230966646
 21
4.4863775804
  0
LINE
  5
214
100
AcDbEntity
  8
0
100
AcDbLine
 62
7
  6
CONTINUOUS
 10
1.9309310903
 20
4.4347863777
 11
1.9309310903
 21
4.4863775804
  0
LINE
  5
215
100
AcDbEntity
  8
0
100
AcDbLine
 62
7
  6
CONTINUOUS
 10
1.9389681332
 20
4.4347863777
 11
1.9389681332
 21
4.4863775804
  0
LINE
  5
216
100
AcDbEntity
  8
0
100
AcDbLine
 62
7
  6
CONTINUOUS
 10
1.9471582423
 20
4.4347863777
 11
1.9471582423
 21
4.4863775804
  0
LINE
  5
217
100
AcDbEntity
  8
0
100
AcDbLine
 62
7
  6
CONTINUOUS
 10
1.9554509228
 20
4.4347863777
 11
1.9554509228
 21
4.4863775804
  0
LINE
  5
218
100
AcDbEntity
  8
0
100
AcDbLine
 62
7
  6
CONTINUOUS
 10
1.9637950477
 20
4.4347863777
 11
1.9637950477
 21
4.4863775804
  0
LINE
  5
219
100
AcDbEntity
  8
0
100
AcDbLine
 62
7
  6
CONTINUOUS
 10
1.9721391725
 20
4.4347863777
 11
1.9721391725
 21
4.4863775804
  0
LINE
  5
21A
100
AcDbEntity
  8
0
100
AcDbLine
 62
7
  6
CONTINUOUS
 10
1.980431853
 20
4.4347863777
 11
1.980431853
 21
4.4863775804
  0
LINE
  5
21B
100
AcDbEntity
  8
0
100
AcDbLine
 62
7
  6
CONTINUOUS
 10
1.9886219621
 20
4.4347863777
 11
1.9886219621
 21
4.4863775804
  0
LINE
  5
21C
100
AcDbEntity
  8
0
100
AcDbLine
 62
7
  6
CONTINUOUS
 10
1.996659005
 20
4.4347863777
 11
1.996659005
 21
4.4863775804
  0
LINE
  5
21D
100
AcDbEntity
  8
0
100
AcDbLine
 62
7
  6
CONTINUOUS
 10
2.0044934307
 20
4.4347863777
 11
2.0044934307
 21
4.4863775804
  0
LINE
  5
21E
100
AcDbEntity
  8
0
100
AcDbLine
 62
7
  6
CONTINUOUS
 10
2.0346611977
 20
3.8583516777
 11
2.0346611977
 21
4.4227863777
  0
LINE
  5
21F
100
AcDbEntity
  8
0
100
AcDbLine
 62
7
  6
CONTINUOUS
 10
2.0676700206
 20
3.6714847921
 11
2.0676700206
 21
3.8274847921
  0
LINE
  5
220
100
AcDbEntity
  8
0
100
AcDbLine
 62
7
  6
CONTINUOUS
 10
2.0701450477
 20
4.4983775804
 11
2.0701450477
 21
4.4863775804
  0
LINE
  5
221
100
AcDbEntity
  8
0
100
AcDbLine
 62
7
  6
CONTINUOUS
 10
2.0701450477
 20
4.4347863777
 11
2.0701450477
 21
4.4227863777
  0
LINE
  5
222
100
AcDbEntity
  8
0
100
AcDbLine
 62
7
  6
CONTINUOUS
 10
1.8577728892
 20
4.4863775804
 11
1.8577319554
 21
4.4862692096
  0
LINE
  5
223
100
AcDbEntity
  8
0
100
AcDbLine
 62
7
  6
CONTINUOUS
 10
1.8577728892
 20
4.4863775804
 11
1.8577228937
 21
4.4862747571
  0
LINE
  5
224
100
AcDbEntity
  8
0
100
AcDbLine
 62
7
  6
CONTINUOUS
 10
2.1964450477
 20
4.5534274904
 11
2.1964450477
 21
4.5349916804
  0
LINE
  5
225
100
AcDbEntity
  8
0
100
AcDbLine
 62
7
  6
CONTINUOUS
 10
2.0698172061
 20
4.4347863777
 11
2.0698581399
 21
4.4348947485
  0
LINE
  5
226
100
AcDbEntity
  8
0
100
AcDbLine
 62
7
  6
CONTINUOUS
 10
2.0698172061
 20
4.4347863777
 11
2.0698672016
 21
4.4348892009
  0
LINE
  5
227
100
AcDbEntity
  8
0
100
AcDbLine
 62
7
  6
CONTINUOUS
 10
1.8577228938
 20
4.434889201
 11
1.8577728892
 21
4.4347863777
  0
LINE
  5
228
100
AcDbEntity
  8
0
100
AcDbLine
 62
7
  6
CONTINUOUS
 10
1.8577319554
 20
4.4348947485
 11
1.8577728892
 21
4.4347863777
  0
LINE
  5
229
100
AcDbEntity
  8
0
100
AcDbLine
 62
7
  6
CONTINUOUS
 10
2.06985814
 20
4.4862692096
 11
2.0698172061
 21
4.4863775804
  0
LINE
  5
22A
100
AcDbEntity
  8
0
100
AcDbLine
 62
7
  6
CONTINUOUS
 10
2.0698672016
 20
4.4862747571
 11
2.0698172061
 21
4.4863775804
  0
LINE
  5
22B
100
AcDbEntity
  8
0
100
AcDbLine
 62
7
  6
CONTINUOUS
 10
2.0676700206
 20
3.6744847921
 11
9.0555700206
 21
3.6744847921
  0
LINE
  5
22C
100
AcDbEntity
  8
0
100
AcDbLine
 62
7
  6
CONTINUOUS
 10
2.0676700206
 20
3.8244847921
 11
9.0555700206
 21
3.8244847921
  0
LINE
  5
22D
100
AcDbEntity
  8
0
100
AcDbLine
 62
7
  6
CONTINUOUS
 10
1.8929288977
 20
3.8583516777
 11
2.0346611977
 21
3.8583516777
  0
LINE
  5
22E
100
AcDbEntity
  8
0
100
AcDbLine
 62
7
  6
CONTINUOUS
 10
9.0885788435
 20
3.8583516777
 11
9.2303111435
 21
3.8583516777
  0
LINE
  5
22F
100
AcDbEntity
  8
0
100
AcDbLine
 62
7
  6
CONTINUOUS
 10
9.2657949935
 20
4.4227863777
 11
9.0530949935
 21
4.4227863777
  0
LINE
  5
230
100
AcDbEntity
  8
0
100
AcDbLine
 62
7
  6
CONTINUOUS
 10
2.0701450477
 20
4.4227863777
 11
1.8574450477
 21
4.4227863777
  0
LINE
  5
231
100
AcDbEntity
  8
0
100
AcDbLine
 62
7
  6
CONTINUOUS
 10
9.2657949935
 20
4.4347863777
 11
9.0530949935
 21
4.4347863777
  0
LINE
  5
232
100
AcDbEntity
  8
0
100
AcDbLine
 62
7
  6
CONTINUOUS
 10
2.0701450477
 20
4.4347863777
 11
1.8574450477
 21
4.4347863777
  0
LINE
  5
233
100
AcDbEntity
  8
0
100
AcDbLine
 62
7
  6
CONTINUOUS
 10
9.2657949935
 20
4.4863775804
 11
9.0530949935
 21
4.4863775804
  0
LINE
  5
234
100
AcDbEntity
  8
0
100
AcDbLine
 62
7
  6
CONTINUOUS
 10
2.0701450477
 20
4.4863775804
 11
1.8574450477
 21
4.4863775804
  0
LINE
  5
235
100
AcDbEntity
  8
0
100
AcDbLine
 62
7
  6
CONTINUOUS
 10
9.2657949935
 20
4.4983775804
 11
9.0530949935
 21
4.4983775804
  0
LINE
  5
236
100
AcDbEntity
  8
0
100
AcDbLine
 62
7
  6
CONTINUOUS
 10
2.0701450477
 20
4.4983775804
 11
1.8574450477
 21
4.4983775804
  0
LINE
  5
237
100
AcDbEntity
  8
0
100
AcDbLine
 62
7
  6
CONTINUOUS
 10
9.3920949935
 20
4.5349916804
 11
8.9267949935
 21
4.5349916804
  0
LINE
  5
238
100
AcDbEntity
  8
0
100
AcDbLine
 62
7
  6
CONTINUOUS
 10
2.1964450477
 20
4.5349916804
 11
1.7311450477
 21
4.5349916804
  0
LINE
  5
239
100
AcDbEntity
  8
0
100
AcDbLine
 62
7
  6
CONTINUOUS
 10
9.3920949935
 20
4.5534274904
 11
8.9267949935
 21
4.5534274904
  0
LINE
  5
23A
100
AcDbEntity
  8
0
100
AcDbLine
 62
7
  6
CONTINUOUS
 10
2.1964450477
 20
4.5534274904
 11
1.7311450477
 21
4.5534274904
  0
LINE
  5
23B
100
AcDbEntity
  8
0
100
AcDbLine
 62
7
  6
CONTINUOUS
 10
9.4704057042
 20
4.5999516777
 11
8.8484842829
 21
4.5999516777
  0
LINE
  5
23C
100
AcDbEntity
  8
0
100
AcDbLine
 62
7
  6
CONTINUOUS
 10
2.2747557583
 20
4.5999516777
 11
1.652834337
 21
4.5999516777
  0
LINE
  5
23D
100
AcDbEntity
  8
0
100
AcDbLine
 62
7
  6
CONTINUOUS
 10
9.4704057042
 20
4.6353516777
 11
8.8484842829
 21
4.6353516777
  0
LINE
  5
23E
100
AcDbEntity
  8
0
100
AcDbLine
 62
7
  6
CONTINUOUS
 10
2.2747557583
 20
4.6353516777
 11
1.652834337
 21
4.6353516777
  0
LINE
  5
23F
100
AcDbEntity
  8
0
100
AcDbLine
 62
7
  6
CONTINUOUS
 10
9.0534228351
 20
4.4863775804
 11
9.0533726405
 21
4.486259528
  0
LINE
  5
240
100
AcDbEntity
  8
0
100
AcDbLine
 62
7
  6
CONTINUOUS
 10
9.0534228351
 20
4.4863775804
 11
9.053367099
 21
4.4862629186
  0
LINE
  5
241
100
AcDbEntity
  8
0
100
AcDbLine
 62
7
  6
CONTINUOUS
 10
8.9267949935
 20
4.5534274904
 11
8.9267949935
 21
4.5349916804
  0
LINE
  5
242
100
AcDbEntity
  8
0
100
AcDbLine
 62
7
  6
CONTINUOUS
 10
9.265467152
 20
4.4347863777
 11
9.2655173465
 21
4.4349044301
  0
LINE
  5
243
100
AcDbEntity
  8
0
100
AcDbLine
 62
7
  6
CONTINUOUS
 10
9.265467152
 20
4.4347863777
 11
9.2655228881
 21
4.4349010395
  0
LINE
  5
244
100
AcDbEntity
  8
0
100
AcDbLine
 62
7
  6
CONTINUOUS
 10
9.053367099
 20
4.4349010395
 11
9.0534228351
 21
4.4347863777
  0
LINE
  5
245
100
AcDbEntity
  8
0
100
AcDbLine
 62
7
  6
CONTINUOUS
 10
9.0533726405
 20
4.4349044301
 11
9.0534228351
 21
4.4347863777
  0
LINE
  5
246
100
AcDbEntity
  8
0
100
AcDbLine
 62
7
  6
CONTINUOUS
 10
9.0530949935
 20
4.4983775804
 11
9.0530949935
 21
4.4863775804
  0
LINE
  5
247
100
AcDbEntity
  8
0
100
AcDbLine
 62
7
  6
CONTINUOUS
 10
9.0530949935
 20
4.4347863777
 11
9.0530949935
 21
4.4227863777
  0
LINE
  5
248
100
AcDbEntity
  8
0
100
AcDbLine
 62
7
  6
CONTINUOUS
 10
9.0555700206
 20
3.8274847921
 11
9.0555700206
 21
3.6714847921
  0
LINE
  5
249
100
AcDbEntity
  8
0
100
AcDbLine
 62
7
  6
CONTINUOUS
 10
9.0885788435
 20
3.8583516777
 11
9.0885788435
 21
4.4227863777
  0
LINE
  5
24A
100
AcDbEntity
  8
0
100
AcDbLine
 62
7
  6
CONTINUOUS
 10
9.1187466105
 20
4.4347863777
 11
9.1187466105
 21
4.4863775804
  0
LINE
  5
24B
100
AcDbEntity
  8
0
100
AcDbLine
 62
7
  6
CONTINUOUS
 10
9.1265810362
 20
4.4347863777
 11
9.1265810362
 21
4.4863775804
  0
LINE
  5
24C
100
AcDbEntity
  8
0
100
AcDbLine
 62
7
  6
CONTINUOUS
 10
9.1346180791
 20
4.4347863777
 11
9.1346180791
 21
4.4863775804
  0
LINE
  5
24D
100
AcDbEntity
  8
0
100
AcDbLine
 62
7
  6
CONTINUOUS
 10
9.1428081882
 20
4.4347863777
 11
9.1428081882
 21
4.4863775804
  0
LINE
  5
24E
100
AcDbEntity
  8
0
100
AcDbLine
 62
7
  6
CONTINUOUS
 10
9.1511008687
 20
4.4347863777
 11
9.1511008687
 21
4.4863775804
  0
LINE
  5
24F
100
AcDbEntity
  8
0
100
AcDbLine
 62
7
  6
CONTINUOUS
 10
9.1594449935
 20
4.4347863777
 11
9.1594449935
 21
4.4863775804
  0
LINE
  5
250
100
AcDbEntity
  8
0
100
AcDbLine
 62
7
  6
CONTINUOUS
 10
9.1677891184
 20
4.4347863777
 11
9.1677891184
 21
4.4863775804
  0
LINE
  5
251
100
AcDbEntity
  8
0
100
AcDbLine
 62
7
  6
CONTINUOUS
 10
9.1760817989
 20
4.4347863777
 11
9.1760817989
 21
4.4863775804
  0
LINE
  5
252
100
AcDbEntity
  8
0
100
AcDbLine
 62
7
  6
CONTINUOUS
 10
9.184271908
 20
4.4347863777
 11
9.184271908
 21
4.4863775804
  0
LINE
  5
253
100
AcDbEntity
  8
0
100
AcDbLine
 62
7
  6
CONTINUOUS
 10
9.1923089509
 20
4.4347863777
 11
9.1923089509
 21
4.4863775804
  0
LINE
  5
254
100
AcDbEntity
  8
0
100
AcDbLine
 62
7
  6
CONTINUOUS
 10
9.2001433766
 20
4.4347863777
 11
9.2001433766
 21
4.4863775804
  0
LINE
  5
255
100
AcDbEntity
  8
0
100
AcDbLine
 62
7
  6
CONTINUOUS
 10
9.2303111435
 20
3.8583516777
 11
9.2303111435
 21
4.4227863777
  0
LINE
  5
256
100
AcDbEntity
  8
0
100
AcDbLine
 62
7
  6
CONTINUOUS
 10
9.2657949935
 20
4.4983775804
 11
9.2657949935
 21
4.4863775804
  0
LINE
  5
257
100
AcDbEntity
  8
0
100
AcDbLine
 62
7
  6
CONTINUOUS
 10
9.2657949935
 20
4.4347863777
 11
9.2657949935
 21
4.4227863777
  0
LINE
  5
258
100
AcDbEntity
  8
0
100
AcDbLine
 62
7
  6
CONTINUOUS
 10
9.3920949935
 20
4.5534274904
 11
9.3920949935
 21
4.5349916804
  0
LINE
  5
259
100
AcDbEntity
  8
0
100
AcDbLine
 62
7
  6
CONTINUOUS
 10
9.2655228881
 20
4.4862629186
 11
9.265467152
 21
4.4863775804
  0
LINE
  5
25A
100
AcDbEntity
  8
0
100
AcDbLine
 62
7
  6
CONTINUOUS
 10
9.2655173466
 20
4.486259528
 11
9.265467152
 21
4.4863775804
  0
ARC
  5
25B
100
AcDbEntity
  8
0
100
AcDbCircle
 62
7
  6
CONTINUOUS
 10
1.9637950477
 20
3.7494847921
 40
0.1299
100
AcDbArc
 50
36.9029855173
 51
56.9381616807
  0
ARC
  5
25C
100
AcDbEntity
  8
0
100
AcDbCircle
 62
7
  6
CONTINUOUS
 10
1.9637950477
 20
3.7494847921
 40
0.1299
100
AcDbArc
 50
123.0618383193
 51
323.0970144827
  0
ARC
  5
25D
100
AcDbEntity
  8
0
100
AcDbCircle
 62
7
  6
CONTINUOUS
 10
-22.034454138
 20
4.4605819791
 40
23.95756469
100
AcDbArc
 50
359.9383084469
 51
0.0616915531
  0
ARC
  5
25E
100
AcDbEntity
  8
0
100
AcDbCircle
 62
7
  6
CONTINUOUS
 10
-14.8372230773
 20
4.4605819791
 40
23.9559835761
100
AcDbArc
 50
359.9383043752
 51
0.0616956248
  0
ARC
  5
25F
100
AcDbEntity
  8
0
100
AcDbCircle
 62
7
  6
CONTINUOUS
 10
2.1964762424
 20
4.2987416825
 40
0.23625
100
AcDbArc
 50
90.0075653946
 51
122.3259561738
  0
ARC
  5
260
100
AcDbEntity
  8
0
100
AcDbCircle
 62
7
  6
CONTINUOUS
 10
1.731113853
 20
4.2987416825
 40
0.23625
100
AcDbArc
 50
57.6740438262
 51
89.9924346054
  0
ARC
  5
261
100
AcDbEntity
  8
0
100
AcDbCircle
 62
7
  6
CONTINUOUS
 10
2.0128638233
 20
4.4623356632
 40
0.0594234797
100
AcDbArc
 50
23.3647942608
 51
23.8651962198
  0
ARC
  5
262
100
AcDbEntity
  8
0
100
AcDbCircle
 62
7
  6
CONTINUOUS
 10
1.9147262718
 20
4.4623356633
 40
0.0594234794
100
AcDbArc
 50
156.1348037802
 51
156.6352056712
  0
ARC
  5
263
100
AcDbEntity
  8
0
100
AcDbCircle
 62
7
  6
CONTINUOUS
 10
1.9147262703
 20
4.4588282942
 40
0.0594234778
100
AcDbArc
 50
203.3647945274
 51
203.8651962198
  0
ARC
  5
264
100
AcDbEntity
  8
0
100
AcDbCircle
 62
7
  6
CONTINUOUS
 10
2.0128638253
 20
4.4588282941
 40
0.0594234775
100
AcDbArc
 50
336.1348037802
 51
336.6352054046
  0
ARC
  5
265
100
AcDbEntity
  8
0
100
AcDbCircle
 62
7
  6
CONTINUOUS
 10
2.0164194967
 20
4.4619315702
 40
0.0578365461
100
AcDbArc
 50
24.6780934758
 51
25.0035302287
  0
ARC
  5
266
100
AcDbEntity
  8
0
100
AcDbCircle
 62
7
  6
CONTINUOUS
 10
1.9111705984
 20
4.4619315704
 40
0.0578365458
100
AcDbArc
 50
154.9964697712
 51
155.321906481
  0
ARC
  5
267
100
AcDbEntity
  8
0
100
AcDbCircle
 62
7
  6
CONTINUOUS
 10
1.9111705971
 20
4.4592323872
 40
0.0578365444
100
AcDbArc
 50
204.6780936458
 51
205.0035302285
  0
ARC
  5
268
100
AcDbEntity
  8
0
100
AcDbCircle
 62
7
  6
CONTINUOUS
 10
2.0164194986
 20
4.459232387
 40
0.057836544
100
AcDbArc
 50
334.9964697714
 51
335.3219063113
  0
ARC
  5
269
100
AcDbEntity
  8
0
100
AcDbCircle
 62
7
  6
CONTINUOUS
 10
2.0201746777
 20
4.4605819791
 40
0.0559457358
100
AcDbArc
 50
332.5423905033
 51
27.4576094967
  0
ARC
  5
26A
100
AcDbEntity
  8
0
100
AcDbCircle
 62
7
  6
CONTINUOUS
 10
1.907415419
 20
4.4605819791
 40
0.0559457358
100
AcDbArc
 50
152.5423911226
 51
207.4576088774
  0
ARC
  5
26B
100
AcDbEntity
  8
0
100
AcDbCircle
 62
7
  6
CONTINUOUS
 10
1.9950976808
 20
4.4605819791
 40
0.0558782212
100
AcDbArc
 50
332.5064639168
 51
27.4935360832
  0
ARC
  5
26C
100
AcDbEntity
  8
0
100
AcDbCircle
 62
7
  6
CONTINUOUS
 10
1.9324924158
 20
4.4605819791
 40
0.0558782212
100
AcDbArc
 50
152.5064644741
 51
207.4935355259
  0
ARC
  5
26D
100
AcDbEntity
  8
0
100
AcDbCircle
 62
7
  6
CONTINUOUS
 10
2.0204288611
 20
4.4605819791
 40
0.0548505312
100
AcDbArc
 50
331.9472193297
 51
28.0527806703
  0
ARC
  5
26E
100
AcDbEntity
  8
0
100
AcDbCircle
 62
7
  6
CONTINUOUS
 10
1.9071612331
 20
4.4605819791
 40
0.0548505312
100
AcDbArc
 50
151.9472187769
 51
208.0527812231
  0
ARC
  5
26F
100
AcDbEntity
  8
0
100
AcDbCircle
 62
7
  6
CONTINUOUS
 10
2.0014822098
 20
4.4605819791
 40
0.0548018796
100
AcDbArc
 50
331.9201540571
 51
28.0798459429
  0
ARC
  5
270
100
AcDbEntity
  8
0
100
AcDbCircle
 62
7
  6
CONTINUOUS
 10
1.9261078843
 20
4.4605819791
 40
0.0548018796
100
AcDbArc
 50
151.9201534432
 51
208.0798465568
  0
ARC
  5
271
100
AcDbEntity
  8
0
100
AcDbCircle
 62
7
  6
CONTINUOUS
 10
1.9079310424
 20
4.4605819791
 40
0.0540924285
100
AcDbArc
 50
151.5191789647
 51
208.4808210353
  0
ARC
  5
272
100
AcDbEntity
  8
0
100
AcDbCircle
 62
7
  6
CONTINUOUS
 10
2.0196590546
 20
4.4605819791
 40
0.0540924239
100
AcDbArc
 50
331.5191781345
 51
28.4808218655
  0
ARC
  5
273
100
AcDbEntity
  8
0
100
AcDbCircle
 62
7
  6
CONTINUOUS
 10
2.0069616044
 20
4.4605819791
 40
0.0540608968
100
AcDbArc
 50
331.5010807463
 51
28.4989192537
  0
ARC
  5
274
100
AcDbEntity
  8
0
100
AcDbCircle
 62
7
  6
CONTINUOUS
 10
1.9206284877
 20
4.4605819791
 40
0.0540608968
100
AcDbArc
 50
151.5010790897
 51
208.4989209103
  0
ARC
  5
275
100
AcDbEntity
  8
0
100
AcDbCircle
 62
7
  6
CONTINUOUS
 10
2.1881950477
 20
4.5999516777
 40
0.04725
100
AcDbArc
 50
280.0555661561
 51
360.0
  0
ARC
  5
276
100
AcDbEntity
  8
0
100
AcDbCircle
 62
7
  6
CONTINUOUS
 10
1.7393950477
 20
4.5999516777
 40
0.04725
100
AcDbArc
 50
180.0
 51
259.9444338439
  0
ARC
  5
277
100
AcDbEntity
  8
0
100
AcDbCircle
 62
7
  6
CONTINUOUS
 10
2.2589950477
 20
4.6176516777
 40
0.0237
100
AcDbArc
 50
311.6830072544
 51
48.3169927456
  0
ARC
  5
278
100
AcDbEntity
  8
0
100
AcDbCircle
 62
7
  6
CONTINUOUS
 10
1.6685950477
 20
4.6176516777
 40
0.0237
100
AcDbArc
 50
131.6830072544
 51
228.3169927456
  0
ARC
  5
279
100
AcDbEntity
  8
0
100
AcDbCircle
 62
7
  6
CONTINUOUS
 10
9.1594449935
 20
3.7494847921
 40
0.1299
100
AcDbArc
 50
123.0618383193
 51
143.0970144827
  0
ARC
  5
27A
100
AcDbEntity
  8
0
100
AcDbCircle
 62
7
  6
CONTINUOUS
 10
9.1594449935
 20
3.7494847921
 40
0.1299
100
AcDbArc
 50
216.9029855173
 51
56.9381616807
  0
ARC
  5
27B
100
AcDbEntity
  8
0
100
AcDbCircle
 62
7
  6
CONTINUOUS
 10
25.9620442329
 20
4.4605819791
 40
23.9575646895
100
AcDbArc
 50
179.9383084469
 51
180.0616915531
  0
ARC
  5
27C
100
AcDbEntity
  8
0
100
AcDbCircle
 62
7
  6
CONTINUOUS
 10
33.1561130666
 20
4.4605819791
 40
23.9559835782
100
AcDbArc
 50
179.9383043752
 51
180.0616956248
  0
ARC
  5
27D
100
AcDbEntity
  8
0
100
AcDbCircle
 62
7
  6
CONTINUOUS
 10
9.3921261882
 20
4.2987416825
 40
0.23625
100
AcDbArc
 50
90.0075653946
 51
122.3259561738
  0
ARC
  5
27E
100
AcDbEntity
  8
0
100
AcDbCircle
 62
7
  6
CONTINUOUS
 10
8.9267637988
 20
4.2987416825
 40
0.23625
100
AcDbArc
 50
57.6740438262
 51
89.9924346054
  0
ARC
  5
27F
100
AcDbEntity
  8
0
100
AcDbCircle
 62
7
  6
CONTINUOUS
 10
9.1106520838
 20
4.4622136245
 40
0.0597251342
100
AcDbArc
 50
156.1348106658
 51
156.6926941623
  0
ARC
  5
280
100
AcDbEntity
  8
0
100
AcDbCircle
 62
7
  6
CONTINUOUS
 10
9.2082379033
 20
4.4622136245
 40
0.0597251342
100
AcDbArc
 50
23.3073057985
 51
23.8651893346
  0
ARC
  5
281
100
AcDbEntity
  8
0
100
AcDbCircle
 62
7
  6
CONTINUOUS
 10
9.110652083
 20
4.4589503333
 40
0.0597251333
100
AcDbArc
 50
203.3073060367
 51
203.8651893341
  0
ARC
  5
282
100
AcDbEntity
  8
0
100
AcDbCircle
 62
7
  6
CONTINUOUS
 10
9.2082379042
 20
4.4589503332
 40
0.0597251332
100
AcDbArc
 50
336.1348106656
 51
336.692693925
  0
ARC
  5
283
100
AcDbEntity
  8
0
100
AcDbCircle
 62
7
  6
CONTINUOUS
 10
9.2118011615
 20
4.4618064467
 40
0.0581325708
100
AcDbArc
 50
24.6416646817
 51
25.0035319393
  0
ARC
  5
284
100
AcDbEntity
  8
0
100
AcDbCircle
 62
7
  6
CONTINUOUS
 10
9.1070888254
 20
4.4618064467
 40
0.0581325707
100
AcDbArc
 50
154.9964680608
 51
155.358335294
  0
ARC
  5
285
100
AcDbEntity
  8
0
100
AcDbCircle
 62
7
  6
CONTINUOUS
 10
9.1070888243
 20
4.4593575109
 40
0.0581325694
100
AcDbArc
 50
204.6416648301
 51
205.0035319404
  0
ARC
  5
286
100
AcDbEntity
  8
0
100
AcDbCircle
 62
7
  6
CONTINUOUS
 10
9.2118011629
 20
4.4593575108
 40
0.0581325693
100
AcDbArc
 50
334.9964680592
 51
335.3583351451
  0
ARC
  5
287
100
AcDbEntity
  8
0
100
AcDbCircle
 62
7
  6
CONTINUOUS
 10
9.1044957128
 20
4.460581979
 40
0.0575232366
100
AcDbArc
 50
159.2789515476
 51
200.7210289376
  0
ARC
  5
288
100
AcDbEntity
  8
0
100
AcDbCircle
 62
7
  6
CONTINUOUS
 10
9.2143942755
 20
4.460581979
 40
0.0575232366
100
AcDbArc
 50
339.2789706475
 51
20.7210488671
  0
ARC
  5
289
100
AcDbEntity
  8
0
100
AcDbCircle
 62
7
  6
CONTINUOUS
 10
9.1035663052
 20
4.4602932926
 40
0.0565504731
100
AcDbArc
 50
200.7806329707
 51
206.810871
  0
ARC
  5
28A
100
AcDbEntity
  8
0
100
AcDbCircle
 62
7
  6
CONTINUOUS
 10
9.2153236829
 20
4.4608706661
 40
0.0565504719
100
AcDbArc
 50
20.7806526978
 51
26.8108710647
  0
ARC
  5
28B
100
AcDbEntity
  8
0
100
AcDbCircle
 62
7
  6
CONTINUOUS
 10
9.21540794
 20
4.4602561378
 40
0.0564585144
100
AcDbArc
 50
333.1842134712
 51
339.2242825589
  0
ARC
  5
28C
100
AcDbEntity
  8
0
100
AcDbCircle
 62
7
  6
CONTINUOUS
 10
9.1034820463
 20
4.4609078207
 40
0.0564585135
100
AcDbArc
 50
153.1842134412
 51
159.224262797
  0
ARC
  5
28D
100
AcDbEntity
  8
0
100
AcDbCircle
 62
7
  6
CONTINUOUS
 10
9.103061789
 20
4.4605819791
 40
0.0559424595
100
AcDbArc
 50
152.5407024055
 51
207.4592975945
  0
ARC
  5
28E
100
AcDbEntity
  8
0
100
AcDbCircle
 62
7
  6
CONTINUOUS
 10
9.2158281993
 20
4.4605819791
 40
0.0559424595
100
AcDbArc
 50
332.5407018538
 51
27.4592981462
  0
ARC
  5
28F
100
AcDbEntity
  8
0
100
AcDbCircle
 62
7
  6
CONTINUOUS
 10
9.1281387905
 20
4.4605819791
 40
0.0558749499
100
AcDbArc
 50
152.5047738959
 51
207.4952261041
  0
ARC
  5
290
100
AcDbEntity
  8
0
100
AcDbCircle
 62
7
  6
CONTINUOUS
 10
9.1907511976
 20
4.4605819791
 40
0.0558749499
100
AcDbArc
 50
332.5047734068
 51
27.4952265932
  0
ARC
  5
291
100
AcDbEntity
  8
0
100
AcDbCircle
 62
7
  6
CONTINUOUS
 10
9.1028076792
 20
4.4605819791
 40
0.0548473366
100
AcDbArc
 50
151.9454994235
 51
208.0545005765
  0
ARC
  5
292
100
AcDbEntity
  8
0
100
AcDbCircle
 62
7
  6
CONTINUOUS
 10
9.2160823066
 20
4.4605819791
 40
0.0548473366
100
AcDbArc
 50
331.9455000551
 51
28.0544999449
  0
ARC
  5
293
100
AcDbEntity
  8
0
100
AcDbCircle
 62
7
  6
CONTINUOUS
 10
9.1217543337
 20
4.4605819791
 40
0.0547986886
100
AcDbArc
 50
151.9184327065
 51
208.0815672935
  0
ARC
  5
294
100
AcDbEntity
  8
0
100
AcDbCircle
 62
7
  6
CONTINUOUS
 10
9.1971356519
 20
4.4605819791
 40
0.0547986886
100
AcDbArc
 50
331.9184333997
 51
28.0815666003
  0
ARC
  5
295
100
AcDbEntity
  8
0
100
AcDbCircle
 62
7
  6
CONTINUOUS
 10
9.2153124396
 20
4.4605819791
 40
0.0540892935
100
AcDbArc
 50
331.5174410068
 51
28.4825589932
  0
ARC
  5
296
100
AcDbEntity
  8
0
100
AcDbCircle
 62
7
  6
CONTINUOUS
 10
9.1035775412
 20
4.4605819791
 40
0.0540892907
100
AcDbArc
 50
151.5174378375
 51
208.4825621625
  0
ARC
  5
297
100
AcDbEntity
  8
0
100
AcDbCircle
 62
7
  6
CONTINUOUS
 10
9.3838449935
 20
4.5999516777
 40
0.04725
100
AcDbArc
 50
280.0555661561
 51
360.0
  0
ARC
  5
298
100
AcDbEntity
  8
0
100
AcDbCircle
 62
7
  6
CONTINUOUS
 10
8.9350449935
 20
4.5999516777
 40
0.04725
100
AcDbArc
 50
180.0
 51
259.9444338439
  0
ARC
  5
299
100
AcDbEntity
  8
0
100
AcDbCircle
 62
7
  6
CONTINUOUS
 10
9.4546449935
 20
4.6176516777
 40
0.0237
100
AcDbArc
 50
311.6830072544
 51
48.3169927456
  0
ARC
  5
29A
100
AcDbEntity
  8
0
100
AcDbCircle
 62
7
  6
CONTINUOUS
 10
8.8642449935
 20
4.6176516777
 40
0.0237
100
AcDbArc
 50
131.6830072544
 51
228.3169927456
  0
SPLINE
  5
29B
100
AcDbEntity
  8
0
100
AcDbSpline
 62
7
  6
CONTINUOUS
 70
0
 71
3
 72
15
 73
11
 74
0
 42
0.0000001
 43
0.0000001
 44
0.0000000001
 40
0.0
 40
0.0
 40
0.0
 40
0.0
 40
0.1240057912
 40
0.2489019865
 40
0.3743020872
 40
0.4999999992
 40
0.6256979113
 40
0.7510980123
 40
0.8759942084
 40
1.0
 40
1.0
 40
1.0
 40
1.0
 10
1.8574450477
 20
4.4863775804
 30
0.0
 10
1.8564476723
 20
4.4844047749
 30
0.0
 10
1.854678744
 20
4.4803224393
 30
0.0
 10
1.8527539949
 20
4.4739184382
 30
0.0
 10
1.85158503
 20
4.4673027279
 30
0.0
 10
1.8511939185
 20
4.4605819791
 30
0.0
 10
1.85158503
 20
4.4538612303
 30
0.0
 10
1.8527539949
 20
4.44724552
 30
0.0
 10
1.854678744
 20
4.4408415189
 30
0.0
 10
1.8564476723
 20
4.4367591832
 30
0.0
 10
1.8574450477
 20
4.4347863777
 30
0.0
  0
SPLINE
  5
29C
100
AcDbEntity
  8
0
100
AcDbSpline
 62
7
  6
CONTINUOUS
 70
0
 71
3
 72
13
 73
9
 74
0
 42
0.0000001
 43
0.0000001
 44
0.0000000001
 40
0.0
 40
0.0
 40
0.0
 40
0.0
 40
0.1179783123
 40
0.2419705742
 40
0.4999999992
 40
0.7580294245
 40
0.8820216872
 40
1.0
 40
1.0
 40
1.0
 40
1.0
 10
1.915513158
 20
4.4863775804
 30
0.0
 10
1.9154283471
 20
4.4843499597
 30
0.0
 10
1.9152804139
 20
4.4801902409
 30
0.0
 10
1.9150682784
 20
4.4715920212
 30
0.0
 10
1.9149652147
 20
4.4605819791
 30
0.0
 10
1.9150682784
 20
4.449571937
 30
0.0
 10
1.9152804139
 20
4.4409737173
 30
0.0
 10
1.9154283471
 20
4.4368139985
 30
0.0
 10
1.915513158
 20
4.4347863777
 30
0.0
  0
SPLINE
  5
29D
100
AcDbEntity
  8
0
100
AcDbSpline
 62
7
  6
CONTINUOUS
 70
0
 71
3
 72
15
 73
11
 74
0
 42
0.0000001
 43
0.0000001
 44
0.0000000001
 40
0.0
 40
0.0
 40
0.0
 40
0.0
 40
0.1181171268
 40
0.2421279093
 40
0.3700532611
 40
0.4999999992
 40
0.6299467372
 40
0.7578720895
 40
0.8818828728
 40
1.0
 40
1.0
 40
1.0
 40
1.0
 10
1.9082273253
 20
4.4863775804
 30
0.0
 10
1.9080560217
 20
4.4843513938
 30
0.0
 10
1.9077571125
 20
4.4801933869
 30
0.0
 10
1.9074395517
 20
4.4738303091
 30
0.0
 10
1.9072466957
 20
4.4672584812
 30
0.0
 10
1.9071821409
 20
4.4605819791
 30
0.0
 10
1.9072466957
 20
4.453905477
 30
0.0
 10
1.9074395517
 20
4.4473336491
 30
0.0
 10
1.9077571125
 20
4.4409705713
 30
0.0
 10
1.9080560217
 20
4.4368125643
 30
0.0
 10
1.9082273253
 20
4.4347863777
 30
0.0
  0
SPLINE
  5
29E
100
AcDbEntity
  8
0
100
AcDbSpline
 62
7
  6
CONTINUOUS
 70
0
 71
3
 72
15
 73
11
 74
0
 42
0.0000001
 43
0.0000001
 44
0.0000000001
 40
0.0
 40
0.0
 40
0.0
 40
0.0
 40
0.1183464003
 40
0.242389045
 40
0.3702160978
 40
0.4999999992
 40
0.6297839005
 40
0.7576109538
 40
0.8816535993
 40
1.0
 40
1.0
 40
1.0
 40
1.0
 10
1.9012840861
 20
4.4863775804
 30
0.0
 10
1.9010275821
 20
4.4843537311
 30
0.0
 10
1.9005796428
 20
4.4801985447
 30
0.0
 10
1.9001033239
 20
4.4738336211
 30
0.0
 10
1.8998140659
 20
4.4672600784
 30
0.0
 10
1.899717247
 20
4.4605819791
 30
0.0
 10
1.8998140659
 20
4.4539038798
 30
0.0
 10
1.9001033239
 20
4.4473303371
 30
0.0
 10
1.9005796428
 20
4.4409654134
 30
0.0
 10
1.9010275821
 20
4.436810227
 30
0.0
 10
1.9012840861
 20
4.4347863777
 30
0.0
  0
SPLINE
  5
29F
100
AcDbEntity
  8
0
100
AcDbSpline
 62
7
  6
CONTINUOUS
 70
0
 71
3
 72
15
 73
11
 74
0
 42
0.0000001
 43
0.0000001
 44
0.0000000001
 40
0.0
 40
0.0
 40
0.0
 40
0.0
 40
0.118658098
 40
0.2427443982
 40
0.3704378064
 40
0.4999999992
 40
0.6295621919
 40
0.7572556006
 40
0.8813419016
 40
1.0
 40
1.0
 40
1.0
 40
1.0
 10
1.8947262477
 20
4.4863775804
 30
0.0
 10
1.8943864554
 20
4.4843568714
 30
0.0
 10
1.8937924275
 20
4.4802055414
 30
0.0
 10
1.8931599874
 20
4.4738381392
 30
0.0
 10
1.8927759408
 20
4.4672622654
 30
0.0
 10
1.8926474027
 20
4.4605819791
 30
0.0
 10
1.8927759408
 20
4.4539016928
 30
0.0
 10
1.8931599874
 20
4.447325819
 30
0.0
 10
1.8937924275
 20
4.4409584168
 30
0.0
 10
1.8943864554
 20
4.4368070867
 30
0.0
 10
1.8947262477
 20
4.4347863777
 30
0.0
  0
SPLINE
  5
2A0
100
AcDbEntity
  8
0
100
AcDbSpline
 62
7
  6
CONTINUOUS
 70
0
 71
3
 72
15
 73
11
 74
0
 42
0.0000001
 43
0.0000001
 44
0.0000000001
 40
0.0
 40
0.0
 40
0.0
 40
0.0
 40
0.1190424957
 40
0.2431831715
 40
0.370711754
 40
0.4999999992
 40
0.6292882444
 40
0.7568168272
 40
0.8809575038
 40
1.0
 40
1.0
 40
1.0
 40
1.0
 10
1.8885942415
 20
4.4863775804
 30
0.0
 10
1.8881736531
 20
4.484360686
 30
0.0
 10
1.8874374289
 20
4.4802141447
 30
0.0
 10
1.8866524007
 20
4.4738437357
 30
0.0
 10
1.8861757228
 20
4.4672649873
 30
0.0
 10
1.8860161928
 20
4.4605819791
 30
0.0
 10
1.8861757228
 20
4.4538989709
 30
0.0
 10
1.8866524007
 20
4.4473202225
 30
0.0
 10
1.8874374289
 20
4.4409498135
 30
0.0
 10
1.8881736531
 20
4.4368032721
 30
0.0
 10
1.8885942415
 20
4.4347863777
 30
0.0
  0
SPLINE
  5
2A1
100
AcDbEntity
  8
0
100
AcDbSpline
 62
7
  6
CONTINUOUS
 70
0
 71
3
 72
15
 73
11
 74
0
 42
0.0000001
 43
0.0000001
 44
0.0000000001
 40
0.0
 40
0.0
 40
0.0
 40
0.0
 40
0.119487922
 40
0.2436923494
 40
0.3710299259
 40
0.4999999992
 40
0.6289700725
 40
0.7563076493
 40
0.8805120776
 40
1.0
 40
1.0
 40
1.0
 40
1.0
 10
1.8829258732
 20
4.4863775804
 30
0.0
 10
1.8824275156
 20
4.4843650279
 30
0.0
 10
1.8815539029
 20
4.4802240782
 30
0.0
 10
1.8806207203
 20
4.4738502547
 30
0.0
 10
1.8800541122
 20
4.4672681759
 30
0.0
 10
1.8798644989
 20
4.4605819791
 30
0.0
 10
1.8800541122
 20
4.4538957823
 30
0.0
 10
1.8806207203
 20
4.4473137035
 30
0.0
 10
1.8815539029
 20
4.4409398799
 30
0.0
 10
1.8824275156
 20
4.4367989303
 30
0.0
 10
1.8829258732
 20
4.4347863777
 30
0.0
  0
SPLINE
  5
2A2
100
AcDbEntity
  8
0
100
AcDbSpline
 62
7
  6
CONTINUOUS
 70
0
 71
3
 72
15
 73
11
 74
0
 42
0.0000001
 43
0.0000001
 44
0.0000000001
 40
0.0
 40
0.0
 40
0.0
 40
0.0
 40
0.119981287
 40
0.2442572589
 40
0.3713832604
 40
0.4999999992
 40
0.6286167379
 40
0.7557427399
 40
0.8800187126
 40
1.0
 40
1.0
 40
1.0
 40
1.0
 10
1.8777560903
 20
4.4863775804
 30
0.0
 10
1.8771834748
 20
4.4843697413
 30
0.0
 10
1.8761781542
 20
4.4802350348
 30
0.0
 10
1.8751021512
 20
4.4738575179
 30
0.0
 10
1.8744488549
 20
4.4672717516
 30
0.0
 10
1.8742302469
 20
4.4605819791
 30
0.0
 10
1.8744488549
 20
4.4538922066
 30
0.0
 10
1.8751021512
 20
4.4473064403
 30
0.0
 10
1.8761781542
 20
4.4409289233
 30
0.0
 10
1.8771834748
 20
4.4367942168
 30
0.0
 10
1.8777560903
 20
4.4347863777
 30
0.0
  0
SPLINE
  5
2A3
100
AcDbEntity
  8
0
100
AcDbSpline
 62
7
  6
CONTINUOUS
 70
0
 71
3
 72
15
 73
11
 74
0
 42
0.0000001
 43
0.0000001
 44
0.0000000001
 40
0.0
 40
0.0
 40
0.0
 40
0.0
 40
0.1205086257
 40
0.2448621517
 40
0.371761999
 40
0.4999999992
 40
0.6282379994
 40
0.7551378471
 40
0.8794913739
 40
1.0
 40
1.0
 40
1.0
 40
1.0
 10
1.8731167662
 20
4.4863775804
 30
0.0
 10
1.8724738385
 20
4.4843746713
 30
0.0
 10
1.8713433118
 20
4.4802466909
 30
0.0
 10
1.8701307169
 20
4.4738653309
 30
0.0
 10
1.8693945101
 20
4.4672756253
 30
0.0
 10
1.8691481735
 20
4.4605819791
 30
0.0
 10
1.8693945101
 20
4.4538883329
 30
0.0
 10
1.8701307169
 20
4.4472986273
 30
0.0
 10
1.8713433118
 20
4.4409172673
 30
0.0
 10
1.8724738385
 20
4.4367892868
 30
0.0
 10
1.8731167662
 20
4.4347863777
 30
0.0
  0
SPLINE
  5
2A4
100
AcDbEntity
  8
0
100
AcDbSpline
 62
7
  6
CONTINUOUS
 70
0
 71
3
 72
15
 73
11
 74
0
 42
0.0000001
 43
0.0000001
 44
0.0000000001
 40
0.0
 40
0.0
 40
0.0
 40
0.0
 40
0.1210556171
 40
0.2454907704
 40
0.3721560285
 40
0.4999999992
 40
0.6278439699
 40
0.7545092284
 40
0.8789443825
 40
1.0
 40
1.0
 40
1.0
 40
1.0
 10
1.8690365038
 20
4.4863775804
 30
0.0
 10
1.8683275957
 20
4.4843796707
 30
0.0
 10
1.8670791282
 20
4.4802587194
 30
0.0
 10
1.8657370498
 20
4.4738734892
 30
0.0
 10
1.8649222369
 20
4.4672797007
 30
0.0
 10
1.8646496122
 20
4.4605819791
 30
0.0
 10
1.8649222369
 20
4.4538842575
 30
0.0
 10
1.8657370498
 20
4.447290469
 30
0.0
 10
1.8670791282
 20
4.4409052388
 30
0.0
 10
1.8683275957
 20
4.4367842874
 30
0.0
 10
1.8690365038
 20
4.4347863777
 30
0.0
  0
SPLINE
  5
2A5
100
AcDbEntity
  8
0
100
AcDbSpline
 62
7
  6
CONTINUOUS
 70
0
 71
3
 72
15
 73
11
 74
0
 42
0.0000001
 43
0.0000001
 44
0.0000000001
 40
0.0
 40
0.0
 40
0.0
 40
0.0
 40
0.1216080514
 40
0.2461268674
 40
0.3725551999
 40
0.4999999992
 40
0.6274447985
 40
0.7538731313
 40
0.8783919481
 40
1.0
 40
1.0
 40
1.0
 40
1.0
 10
1.8655404594
 20
4.4863775804
 30
0.0
 10
1.8647702439
 20
4.4843846054
 30
0.0
 10
1.8634118014
 20
4.4802708019
 30
0.0
 10
1.8619482041
 20
4.4738817847
 30
0.0
 10
1.8610596023
 20
4.4672838769
 30
0.0
 10
1.8607622996
 20
4.4605819791
 30
0.0
 10
1.8610596023
 20
4.4538800813
 30
0.0
 10
1.8619482041
 20
4.4472821735
 30
0.0
 10
1.8634118014
 20
4.4408931562
 30
0.0
 10
1.8647702438
 20
4.4367793528
 30
0.0
 10
1.8655404594
 20
4.4347863777
 30
0.0
  0
SPLINE
  5
2A6
100
AcDbEntity
  8
0
100
AcDbSpline
 62
7
  6
CONTINUOUS
 70
0
 71
3
 72
11
 73
7
 74
0
 42
0.0000001
 43
0.0000001
 44
0.0000000001
 40
0.0
 40
0.0
 40
0.0
 40
0.0
 40
0.2467432666
 40
0.4999999992
 40
0.7532567322
 40
1.0
 40
1.0
 40
1.0
 40
1.0
 10
1.8626501872
 20
4.4863775804
 30
0.0
 10
1.8609826022
 20
4.4823662904
 30
0.0
 10
1.8584542648
 20
4.4738614253
 30
0.0
 10
1.8571931864
 20
4.4605819791
 30
0.0
 10
1.8584542648
 20
4.4473025329
 30
0.0
 10
1.8609826022
 20
4.4387976678
 30
0.0
 10
1.8626501872
 20
4.4347863777
 30
0.0
  0
SPLINE
  5
2A7
100
AcDbEntity
  8
0
100
AcDbSpline
 62
7
  6
CONTINUOUS
 70
0
 71
3
 72
11
 73
7
 74
0
 42
0.0000001
 43
0.0000001
 44
0.0000000001
 40
0.0
 40
0.0
 40
0.0
 40
0.0
 40
0.2474598799
 40
0.4999999993
 40
0.7525401189
 40
1.0
 40
1.0
 40
1.0
 40
1.0
 10
1.8601756079
 20
4.4859020583
 30
0.0
 10
1.8584763506
 20
4.4819687216
 30
0.0
 10
1.8558880153
 20
4.4736310559
 30
0.0
 10
1.8545925977
 20
4.460581979
 30
0.0
 10
1.8558880153
 20
4.447532902
 30
0.0
 10
1.8584763507
 20
4.4391952364
 30
0.0
 10
1.860175608
 20
4.4352618996
 30
0.0
  0
SPLINE
  5
2A8
100
AcDbEntity
  8
0
100
AcDbSpline
 62
7
  6
CONTINUOUS
 70
0
 71
3
 72
11
 73
7
 74
0
 42
0.0000001
 43
0.0000001
 44
0.0000000001
 40
0.0
 40
0.0
 40
0.0
 40
0.0
 40
0.2479750962
 40
0.4999999993
 40
0.7520249027
 40
1.0
 40
1.0
 40
1.0
 40
1.0
 10
1.858616387
 20
4.4860794667
 30
0.0
 10
1.8568054335
 20
4.482138217
 30
0.0
 10
1.8540338
 20
4.4737575731
 30
0.0
 10
1.8526414195
 20
4.460581979
 30
0.0
 10
1.8540338
 20
4.447406385
 30
0.0
 10
1.8568054335
 20
4.439025741
 30
0.0
 10
1.8586163871
 20
4.4350844913
 30
0.0
  0
SPLINE
  5
2A9
100
AcDbEntity
  8
0
100
AcDbSpline
 62
7
  6
CONTINUOUS
 70
0
 71
3
 72
11
 73
7
 74
0
 42
0.0000001
 43
0.0000001
 44
0.0000000001
 40
0.0
 40
0.0
 40
0.0
 40
0.0
 40
0.2484552091
 40
0.4999999992
 40
0.7515447897
 40
1.0
 40
1.0
 40
1.0
 40
1.0
 10
1.8577228937
 20
4.4862747571
 30
0.0
 10
1.8558061306
 20
4.4823225095
 30
0.0
 10
1.8528596543
 20
4.4738931606
 30
0.0
 10
1.8513739114
 20
4.4605819791
 30
0.0
 10
1.8528596543
 20
4.4472707976
 30
0.0
 10
1.8558061306
 20
4.4388414486
 30
0.0
 10
1.8577228938
 20
4.434889201
 30
0.0
  0
SPLINE
  5
2AA
100
AcDbEntity
  8
0
100
AcDbSpline
 62
7
  6
CONTINUOUS
 70
0
 71
3
 72
15
 73
11
 74
0
 42
0.0000001
 43
0.0000001
 44
0.0000000001
 40
0.0
 40
0.0
 40
0.0
 40
0.0
 40
0.1240057917
 40
0.2489019882
 40
0.3743020896
 40
0.5000000017
 40
0.6256979137
 40
0.751098014
 40
0.8759942089
 40
1.0
 40
1.0
 40
1.0
 40
1.0
 10
2.0701450477
 20
4.4347863777
 30
0.0
 10
2.0711424231
 20
4.4367591832
 30
0.0
 10
2.0729113513
 20
4.4408415189
 30
0.0
 10
2.0748361005
 20
4.4472455201
 30
0.0
 10
2.0760050654
 20
4.4538612304
 30
0.0
 10
2.0763961768
 20
4.4605819792
 30
0.0
 10
2.0760050654
 20
4.4673027279
 30
0.0
 10
2.0748361004
 20
4.4739184382
 30
0.0
 10
2.0729113513
 20
4.4803224393
 30
0.0
 10
2.0711424231
 20
4.4844047749
 30
0.0
 10
2.0701450477
 20
4.4863775804
 30
0.0
  0
SPLINE
  5
2AB
100
AcDbEntity
  8
0
100
AcDbSpline
 62
7
  6
CONTINUOUS
 70
0
 71
3
 72
11
 73
7
 74
0
 42
0.0000001
 43
0.0000001
 44
0.0000000001
 40
0.0
 40
0.0
 40
0.0
 40
0.0
 40
0.2484552108
 40
0.5000000017
 40
0.7515447914
 40
1.0
 40
1.0
 40
1.0
 40
1.0
 10
2.0698672016
 20
4.4348892009
 30
0.0
 10
2.0717839647
 20
4.4388414486
 30
0.0
 10
2.0747304411
 20
4.4472707976
 30
0.0
 10
2.0762161839
 20
4.4605819791
 30
0.0
 10
2.0747304411
 20
4.4738931606
 30
0.0
 10
2.0717839648
 20
4.4823225095
 30
0.0
 10
2.0698672016
 20
4.4862747571
 30
0.0
  0
SPLINE
  5
2AC
100
AcDbEntity
  8
0
100
AcDbSpline
 62
7
  6
CONTINUOUS
 70
0
 71
3
 72
11
 73
7
 74
0
 42
0.0000001
 43
0.0000001
 44
0.0000000001
 40
0.0
 40
0.0
 40
0.0
 40
0.0
 40
0.2479750978
 40
0.5000000017
 40
0.7520249043
 40
1.0
 40
1.0
 40
1.0
 40
1.0
 10
2.0689737083
 20
4.4350844913
 30
0.0
 10
2.0707846619
 20
4.439025741
 30
0.0
 10
2.0735562954
 20
4.4474063849
 30
0.0
 10
2.0749486759
 20
4.460581979
 30
0.0
 10
2.0735562954
 20
4.4737575731
 30
0.0
 10
2.0707846619
 20
4.482138217
 30
0.0
 10
2.0689737084
 20
4.4860794667
 30
0.0
  0
SPLINE
  5
2AD
100
AcDbEntity
  8
0
100
AcDbSpline
 62
7
  6
CONTINUOUS
 70
0
 71
3
 72
11
 73
7
 74
0
 42
0.0000001
 43
0.0000001
 44
0.0000000001
 40
0.0
 40
0.0
 40
0.0
 40
0.0
 40
0.2474598816
 40
0.5000000016
 40
0.7525401205
 40
1.0
 40
1.0
 40
1.0
 40
1.0
 10
2.0674144873
 20
4.4352618996
 30
0.0
 10
2.0691137447
 20
4.4391952363
 30
0.0
 10
2.07170208
 20
4.447532902
 30
0.0
 10
2.0729974976
 20
4.460581979
 30
0.0
 10
2.0717020801
 20
4.4736310559
 30
0.0
 10
2.0691137448
 20
4.4819687215
 30
0.0
 10
2.0674144875
 20
4.4859020582
 30
0.0
  0
SPLINE
  5
2AE
100
AcDbEntity
  8
0
100
AcDbSpline
 62
7
  6
CONTINUOUS
 70
0
 71
3
 72
11
 73
7
 74
0
 42
0.0000001
 43
0.0000001
 44
0.0000000001
 40
0.0
 40
0.0
 40
0.0
 40
0.0
 40
0.2467432683
 40
0.5000000017
 40
0.7532567339
 40
1.0
 40
1.0
 40
1.0
 40
1.0
 10
2.0649399082
 20
4.4347863777
 30
0.0
 10
2.0666074932
 20
4.4387976678
 30
0.0
 10
2.0691358306
 20
4.4473025329
 30
0.0
 10
2.070396909
 20
4.4605819791
 30
0.0
 10
2.0691358306
 20
4.4738614253
 30
0.0
 10
2.0666074932
 20
4.4823662904
 30
0.0
 10
2.0649399082
 20
4.4863775804
 30
0.0
  0
SPLINE
  5
2AF
100
AcDbEntity
  8
0
100
AcDbSpline
 62
7
  6
CONTINUOUS
 70
0
 71
3
 72
15
 73
11
 74
0
 42
0.0000001
 43
0.0000001
 44
0.0000000001
 40
0.0
 40
0.0
 40
0.0
 40
0.0
 40
0.121608052
 40
0.2461268692
 40
0.3725552024
 40
0.5000000017
 40
0.627444801
 40
0.753873133
 40
0.8783919487
 40
1.0
 40
1.0
 40
1.0
 40
1.0
 10
2.062049636
 20
4.4347863777
 30
0.0
 10
2.0628198515
 20
4.4367793528
 30
0.0
 10
2.0641782939
 20
4.4408931562
 30
0.0
 10
2.0656418913
 20
4.4472821736
 30
0.0
 10
2.0665304931
 20
4.4538800814
 30
0.0
 10
2.0668277957
 20
4.4605819792
 30
0.0
 10
2.066530493
 20
4.4672838769
 30
0.0
 10
2.0656418912
 20
4.4738817847
 30
0.0
 10
2.0641782939
 20
4.480270802
 30
0.0
 10
2.0628198515
 20
4.4843846054
 30
0.0
 10
2.062049636
 20
4.4863775804
 30
0.0
  0
SPLINE
  5
2B0
100
AcDbEntity
  8
0
100
AcDbSpline
 62
7
  6
CONTINUOUS
 70
0
 71
3
 72
15
 73
11
 74
0
 42
0.0000001
 43
0.0000001
 44
0.0000000001
 40
0.0
 40
0.0
 40
0.0
 40
0.0
 40
0.1210556176
 40
0.2454907721
 40
0.3721560309
 40
0.5000000018
 40
0.6278439724
 40
0.7545092301
 40
0.878944383
 40
1.0
 40
1.0
 40
1.0
 40
1.0
 10
2.0585535915
 20
4.4347863777
 30
0.0
 10
2.0592624996
 20
4.4367842874
 30
0.0
 10
2.0605109671
 20
4.4409052388
 30
0.0
 10
2.0618530455
 20
4.447290469
 30
0.0
 10
2.0626678585
 20
4.4538842575
 30
0.0
 10
2.0629404832
 20
4.4605819792
 30
0.0
 10
2.0626678585
 20
4.4672797008
 30
0.0
 10
2.0618530455
 20
4.4738734893
 30
0.0
 10
2.0605109671
 20
4.4802587194
 30
0.0
 10
2.0592624996
 20
4.4843796707
 30
0.0
 10
2.0585535915
 20
4.4863775804
 30
0.0
  0
SPLINE
  5
2B1
100
AcDbEntity
  8
0
100
AcDbSpline
 62
7
  6
CONTINUOUS
 70
0
 71
3
 72
15
 73
11
 74
0
 42
0.0000001
 43
0.0000001
 44
0.0000000001
 40
0.0
 40
0.0
 40
0.0
 40
0.0
 40
0.1205086262
 40
0.2448621534
 40
0.3717620014
 40
0.5000000018
 40
0.6282380019
 40
0.7551378488
 40
0.8794913744
 40
1.0
 40
1.0
 40
1.0
 40
1.0
 10
2.0544733292
 20
4.4347863777
 30
0.0
 10
2.0551162569
 20
4.4367892868
 30
0.0
 10
2.0562467835
 20
4.4409172673
 30
0.0
 10
2.0574593785
 20
4.4472986273
 30
0.0
 10
2.0581955853
 20
4.4538883329
 30
0.0
 10
2.0584419219
 20
4.4605819792
 30
0.0
 10
2.0581955853
 20
4.4672756254
 30
0.0
 10
2.0574593784
 20
4.4738653309
 30
0.0
 10
2.0562467835
 20
4.4802466909
 30
0.0
 10
2.0551162569
 20
4.4843746713
 30
0.0
 10
2.0544733292
 20
4.4863775804
 30
0.0
  0
SPLINE
  5
2B2
100
AcDbEntity
  8
0
100
AcDbSpline
 62
7
  6
CONTINUOUS
 70
0
 71
3
 72
15
 73
11
 74
0
 42
0.0000001
 43
0.0000001
 44
0.0000000001
 40
0.0
 40
0.0
 40
0.0
 40
0.0
 40
0.1199812875
 40
0.2442572606
 40
0.3713832629
 40
0.5000000018
 40
0.6286167404
 40
0.7557427416
 40
0.8800187131
 40
1.0
 40
1.0
 40
1.0
 40
1.0
 10
2.049834005
 20
4.4347863777
 30
0.0
 10
2.0504066206
 20
4.4367942168
 30
0.0
 10
2.0514119411
 20
4.4409289233
 30
0.0
 10
2.0524879441
 20
4.4473064403
 30
0.0
 10
2.0531412405
 20
4.4538922066
 30
0.0
 10
2.0533598485
 20
4.4605819792
 30
0.0
 10
2.0531412405
 20
4.4672717517
 30
0.0
 10
2.0524879441
 20
4.473857518
 30
0.0
 10
2.0514119411
 20
4.4802350348
 30
0.0
 10
2.0504066206
 20
4.4843697413
 30
0.0
 10
2.049834005
 20
4.4863775804
 30
0.0
  0
SPLINE
  5
2B3
100
AcDbEntity
  8
0
100
AcDbSpline
 62
7
  6
CONTINUOUS
 70
0
 71
3
 72
15
 73
11
 74
0
 42
0.0000001
 43
0.0000001
 44
0.0000000001
 40
0.0
 40
0.0
 40
0.0
 40
0.0
 40
0.1194879225
 40
0.2436923512
 40
0.3710299284
 40
0.5000000018
 40
0.628970075
 40
0.7563076511
 40
0.8805120781
 40
1.0
 40
1.0
 40
1.0
 40
1.0
 10
2.0446642221
 20
4.4347863777
 30
0.0
 10
2.0451625798
 20
4.4367989303
 30
0.0
 10
2.0460361924
 20
4.4409398799
 30
0.0
 10
2.0469693751
 20
4.4473137035
 30
0.0
 10
2.0475359832
 20
4.4538957824
 30
0.0
 10
2.0477255965
 20
4.4605819792
 30
0.0
 10
2.0475359832
 20
4.4672681759
 30
0.0
 10
2.046969375
 20
4.4738502547
 30
0.0
 10
2.0460361924
 20
4.4802240782
 30
0.0
 10
2.0451625797
 20
4.4843650279
 30
0.0
 10
2.0446642221
 20
4.4863775804
 30
0.0
  0
SPLINE
  5
2B4
100
AcDbEntity
  8
0
100
AcDbSpline
 62
7
  6
CONTINUOUS
 70
0
 71
3
 72
15
 73
11
 74
0
 42
0.0000001
 43
0.0000001
 44
0.0000000001
 40
0.0
 40
0.0
 40
0.0
 40
0.0
 40
0.1190424963
 40
0.2431831733
 40
0.3707117565
 40
0.5000000018
 40
0.6292882469
 40
0.7568168289
 40
0.8809575044
 40
1.0
 40
1.0
 40
1.0
 40
1.0
 10
2.0389958539
 20
4.4347863777
 30
0.0
 10
2.0394164422
 20
4.4368032721
 30
0.0
 10
2.0401526665
 20
4.4409498135
 30
0.0
 10
2.0409376947
 20
4.4473202225
 30
0.0
 10
2.0414143725
 20
4.453898971
 30
0.0
 10
2.0415739026
 20
4.4605819792
 30
0.0
 10
2.0414143725
 20
4.4672649873
 30
0.0
 10
2.0409376947
 20
4.4738437357
 30
0.0
 10
2.0401526665
 20
4.4802141447
 30
0.0
 10
2.0394164422
 20
4.484360686
 30
0.0
 10
2.0389958539
 20
4.4863775804
 30
0.0
  0
SPLINE
  5
2B5
100
AcDbEntity
  8
0
100
AcDbSpline
 62
7
  6
CONTINUOUS
 70
0
 71
3
 72
15
 73
11
 74
0
 42
0.0000001
 43
0.0000001
 44
0.0000000001
 40
0.0
 40
0.0
 40
0.0
 40
0.0
 40
0.1186580985
 40
0.2427443999
 40
0.3704378089
 40
0.5000000018
 40
0.6295621945
 40
0.7572556023
 40
0.8813419021
 40
1.0
 40
1.0
 40
1.0
 40
1.0
 10
2.0328638476
 20
4.4347863777
 30
0.0
 10
2.03320364
 20
4.4368070867
 30
0.0
 10
2.0337976679
 20
4.4409584168
 30
0.0
 10
2.034430108
 20
4.447325819
 30
0.0
 10
2.0348141546
 20
4.4539016929
 30
0.0
 10
2.0349426927
 20
4.4605819792
 30
0.0
 10
2.0348141546
 20
4.4672622654
 30
0.0
 10
2.034430108
 20
4.4738381392
 30
0.0
 10
2.0337976679
 20
4.4802055414
 30
0.0
 10
2.03320364
 20
4.4843568714
 30
0.0
 10
2.0328638476
 20
4.4863775804
 30
0.0
  0
SPLINE
  5
2B6
100
AcDbEntity
  8
0
100
AcDbSpline
 62
7
  6
CONTINUOUS
 70
0
 71
3
 72
15
 73
11
 74
0
 42
0.0000001
 43
0.0000001
 44
0.0000000001
 40
0.0
 40
0.0
 40
0.0
 40
0.0
 40
0.1183464008
 40
0.2423890467
 40
0.3702161004
 40
0.5000000018
 40
0.629783903
 40
0.7576109555
 40
0.8816535998
 40
1.0
 40
1.0
 40
1.0
 40
1.0
 10
2.0263060093
 20
4.4347863777
 30
0.0
 10
2.0265625132
 20
4.436810227
 30
0.0
 10
2.0270104526
 20
4.4409654135
 30
0.0
 10
2.0274867714
 20
4.4473303371
 30
0.0
 10
2.0277760294
 20
4.4539038798
 30
0.0
 10
2.0278728483
 20
4.4605819792
 30
0.0
 10
2.0277760294
 20
4.4672600785
 30
0.0
 10
2.0274867714
 20
4.4738336211
 30
0.0
 10
2.0270104526
 20
4.4801985447
 30
0.0
 10
2.0265625132
 20
4.4843537311
 30
0.0
 10
2.0263060093
 20
4.4863775804
 30
0.0
  0
SPLINE
  5
2B7
100
AcDbEntity
  8
0
100
AcDbSpline
 62
7
  6
CONTINUOUS
 70
0
 71
3
 72
15
 73
11
 74
0
 42
0.0000001
 43
0.0000001
 44
0.0000000001
 40
0.0
 40
0.0
 40
0.0
 40
0.0
 40
0.1181171273
 40
0.242127911
 40
0.3700532637
 40
0.5000000018
 40
0.6299467397
 40
0.7578720912
 40
0.8818828733
 40
1.0
 40
1.0
 40
1.0
 40
1.0
 10
2.01936277
 20
4.4347863777
 30
0.0
 10
2.0195340737
 20
4.4368125643
 30
0.0
 10
2.0198329829
 20
4.4409705713
 30
0.0
 10
2.0201505437
 20
4.4473336491
 30
0.0
 10
2.0203433996
 20
4.4539054771
 30
0.0
 10
2.0204079545
 20
4.4605819792
 30
0.0
 10
2.0203433996
 20
4.4672584812
 30
0.0
 10
2.0201505437
 20
4.4738303091
 30
0.0
 10
2.0198329829
 20
4.4801933869
 30
0.0
 10
2.0195340737
 20
4.4843513938
 30
0.0
 10
2.01936277
 20
4.4863775804
 30
0.0
  0
SPLINE
  5
2B8
100
AcDbEntity
  8
0
100
AcDbSpline
 62
7
  6
CONTINUOUS
 70
0
 71
3
 72
13
 73
9
 74
0
 42
0.0000001
 43
0.0000001
 44
0.0000000001
 40
0.0
 40
0.0
 40
0.0
 40
0.0
 40
0.1179783129
 40
0.241970576
 40
0.5000000018
 40
0.7580294263
 40
0.8820216878
 40
1.0
 40
1.0
 40
1.0
 40
1.0
 10
2.0120769373
 20
4.4347863777
 30
0.0
 10
2.0121617483
 20
4.4368139985
 30
0.0
 10
2.0123096814
 20
4.4409737173
 30
0.0
 10
2.012521817
 20
4.449571937
 30
0.0
 10
2.0126248807
 20
4.4605819791
 30
0.0
 10
2.012521817
 20
4.4715920212
 30
0.0
 10
2.0123096814
 20
4.4801902409
 30
0.0
 10
2.0121617483
 20
4.4843499597
 30
0.0
 10
2.0120769373
 20
4.4863775804
 30
0.0
  0
SPLINE
  5
2B9
100
AcDbEntity
  8
0
100
AcDbSpline
 62
7
  6
CONTINUOUS
 70
0
 71
3
 72
11
 73
7
 74
0
 42
0.0000001
 43
0.0000001
 44
0.0000000001
 40
0.0
 40
0.0
 40
0.0
 40
0.0
 40
0.2419568916
 40
0.4999999998
 40
0.758043108
 40
1.0
 40
1.0
 40
1.0
 40
1.0
 10
9.1111631039
 20
4.4863775804
 30
0.0
 10
9.1109891698
 20
4.4822192464
 30
0.0
 10
9.1107376984
 20
4.4736214562
 30
0.0
 10
9.1106148616
 20
4.4605819791
 30
0.0
 10
9.1107376984
 20
4.447542502
 30
0.0
 10
9.1109891698
 20
4.4389447117
 30
0.0
 10
9.1111631039
 20
4.4347863777
 30
0.0
  0
SPLINE
  5
2BA
100
AcDbEntity
  8
0
100
AcDbSpline
 62
7
  6
CONTINUOUS
 70
0
 71
3
 72
15
 73
11
 74
0
 42
0.0000001
 43
0.0000001
 44
0.0000000001
 40
0.0
 40
0.0
 40
0.0
 40
0.0
 40
0.1181549632
 40
0.2421161274
 40
0.3700508821
 40
0.4999999998
 40
0.6299491175
 40
0.7578838721
 40
0.8818450365
 40
1.0
 40
1.0
 40
1.0
 40
1.0
 10
9.1038772712
 20
4.4863775804
 30
0.0
 10
9.1037059126
 20
4.4843507446
 30
0.0
 10
9.1034068657
 20
4.4801929496
 30
0.0
 10
9.1030895413
 20
4.4738298993
 30
0.0
 10
9.1028966715
 20
4.4672587253
 30
0.0
 10
9.1028319706
 20
4.4605819791
 30
0.0
 10
9.1028966715
 20
4.4539052328
 30
0.0
 10
9.1030895413
 20
4.4473340589
 30
0.0
 10
9.1034068657
 20
4.4409710085
 30
0.0
 10
9.1037059126
 20
4.4368132135
 30
0.0
 10
9.1038772712
 20
4.4347863777
 30
0.0
  0
SPLINE
  5
2BB
100
AcDbEntity
  8
0
100
AcDbSpline
 62
7
  6
CONTINUOUS
 70
0
 71
3
 72
15
 73
11
 74
0
 42
0.0000001
 43
0.0000001
 44
0.0000000001
 40
0.0
 40
0.0
 40
0.0
 40
0.0
 40
0.1183844152
 40
0.2423772767
 40
0.3702137177
 40
0.4999999998
 40
0.6297862819
 40
0.7576227229
 40
0.8816155845
 40
1.0
 40
1.0
 40
1.0
 40
1.0
 10
9.0969340319
 20
4.4863775804
 30
0.0
 10
9.0966774456
 20
4.4843530806
 30
0.0
 10
9.0962293007
 20
4.4801981176
 30
0.0
 10
9.0957533348
 20
4.4738332046
 30
0.0
 10
9.0954640568
 20
4.4672603232
 30
0.0
 10
9.0953670188
 20
4.4605819791
 30
0.0
 10
9.0954640568
 20
4.453903635
 30
0.0
 10
9.0957533348
 20
4.4473307535
 30
0.0
 10
9.0962293007
 20
4.4409658405
 30
0.0
 10
9.0966774456
 20
4.4368108775
 30
0.0
 10
9.0969340319
 20
4.4347863777
 30
0.0
  0
SPLINE
  5
2BC
100
AcDbEntity
  8
0
100
AcDbSpline
 62
7
  6
CONTINUOUS
 70
0
 71
3
 72
15
 73
11
 74
0
 42
0.0000001
 43
0.0000001
 44
0.0000000001
 40
0.0
 40
0.0
 40
0.0
 40
0.0
 40
0.1186963552
 40
0.2427326478
 40
0.3704354246
 40
0.4999999998
 40
0.629564575
 40
0.7572673517
 40
0.8813036445
 40
1.0
 40
1.0
 40
1.0
 40
1.0
 10
9.0903761936
 20
4.4863775804
 30
0.0
 10
9.0900362915
 20
4.4843562192
 30
0.0
 10
9.089441993
 20
4.4802051279
 30
0.0
 10
9.0888100183
 20
4.4738377138
 30
0.0
 10
9.0884259466
 20
4.4672625109
 30
0.0
 10
9.0882971174
 20
4.4605819791
 30
0.0
 10
9.0884259466
 20
4.4539014473
 30
0.0
 10
9.0888100183
 20
4.4473262444
 30
0.0
 10
9.089441993
 20
4.4409588302
 30
0.0
 10
9.0900362915
 20
4.4368077389
 30
0.0
 10
9.0903761936
 20
4.4347863777
 30
0.0
  0
SPLINE
  5
2BD
100
AcDbEntity
  8
0
100
AcDbSpline
 62
7
  6
CONTINUOUS
 70
0
 71
3
 72
15
 73
11
 74
0
 42
0.0000001
 43
0.0000001
 44
0.0000000001
 40
0.0
 40
0.0
 40
0.0
 40
0.0
 40
0.119081051
 40
0.2431714424
 40
0.3707093694
 40
0.4999999998
 40
0.6292906302
 40
0.7568285572
 40
0.8809189487
 40
1.0
 40
1.0
 40
1.0
 40
1.0
 10
9.0842441873
 20
4.4863775804
 30
0.0
 10
9.0838234625
 20
4.4843600318
 30
0.0
 10
9.0830869055
 20
4.480213748
 30
0.0
 10
9.0823024504
 20
4.4738432993
 30
0.0
 10
9.0818257436
 20
4.4672652337
 30
0.0
 10
9.0816658519
 20
4.4605819791
 30
0.0
 10
9.0818257436
 20
4.4538987245
 30
0.0
 10
9.0823024504
 20
4.4473206589
 30
0.0
 10
9.0830869055
 20
4.4409502101
 30
0.0
 10
9.0838234625
 20
4.4368039264
 30
0.0
 10
9.0842441873
 20
4.4347863777
 30
0.0
  0
SPLINE
  5
2BE
100
AcDbEntity
  8
0
100
AcDbSpline
 62
7
  6
CONTINUOUS
 70
0
 71
3
 72
15
 73
11
 74
0
 42
0.0000001
 43
0.0000001
 44
0.0000000001
 40
0.0
 40
0.0
 40
0.0
 40
0.0
 40
0.1195268218
 40
0.2436806436
 40
0.3710275375
 40
0.4999999998
 40
0.6289724621
 40
0.756319356
 40
0.8804731779
 40
1.0
 40
1.0
 40
1.0
 40
1.0
 10
9.0785758191
 20
4.4863775804
 30
0.0
 10
9.0780772989
 20
4.4843643712
 30
0.0
 10
9.077203295
 20
4.4802237009
 30
0.0
 10
9.0762707871
 20
4.4738498055
 30
0.0
 10
9.0757041476
 20
4.4672684233
 30
0.0
 10
9.075514104
 20
4.4605819791
 30
0.0
 10
9.0757041476
 20
4.4538955348
 30
0.0
 10
9.0762707871
 20
4.4473141527
 30
0.0
 10
9.077203295
 20
4.4409402572
 30
0.0
 10
9.0780772989
 20
4.4367995869
 30
0.0
 10
9.0785758191
 20
4.4347863777
 30
0.0
  0
SPLINE
  5
2BF
100
AcDbEntity
  8
0
100
AcDbSpline
 62
7
  6
CONTINUOUS
 70
0
 71
3
 72
15
 73
11
 74
0
 42
0.0000001
 43
0.0000001
 44
0.0000000001
 40
0.0
 40
0.0
 40
0.0
 40
0.0
 40
0.1200205672
 40
0.2442455774
 40
0.371380867
 40
0.4999999998
 40
0.6286191326
 40
0.7557544222
 40
0.8799794325
 40
1.0
 40
1.0
 40
1.0
 40
1.0
 10
9.0734060362
 20
4.4863775804
 30
0.0
 10
9.0728332326
 20
4.4843690821
 30
0.0
 10
9.0718274665
 20
4.4802346788
 30
0.0
 10
9.0707522335
 20
4.4738570547
 30
0.0
 10
9.0700989047
 20
4.4672720002
 30
0.0
 10
9.0698797999
 20
4.4605819791
 30
0.0
 10
9.0700989047
 20
4.453891958
 30
0.0
 10
9.0707522335
 20
4.4473069035
 30
0.0
 10
9.0718274665
 20
4.4409292794
 30
0.0
 10
9.0728332326
 20
4.4367948761
 30
0.0
 10
9.0734060362
 20
4.4347863777
 30
0.0
  0
SPLINE
  5
2C0
100
AcDbEntity
  8
0
100
AcDbSpline
 62
7
  6
CONTINUOUS
 70
0
 71
3
 72
15
 73
11
 74
0
 42
0.0000001
 43
0.0000001
 44
0.0000000001
 40
0.0
 40
0.0
 40
0.0
 40
0.0
 40
0.1205483112
 40
0.2448504944
 40
0.371759599
 40
0.4999999998
 40
0.6282404006
 40
0.7551495051
 40
0.8794516885
 40
1.0
 40
1.0
 40
1.0
 40
1.0
 10
9.068766712
 20
4.4863775804
 30
0.0
 10
9.0681235719
 20
4.4843740094
 30
0.0
 10
9.0669925495
 20
4.4802463574
 30
0.0
 10
9.0657808128
 20
4.4738648527
 30
0.0
 10
9.0650445739
 20
4.467275875
 30
0.0
 10
9.0647976769
 20
4.4605819791
 30
0.0
 10
9.0650445739
 20
4.4538880832
 30
0.0
 10
9.0657808128
 20
4.4472991055
 30
0.0
 10
9.0669925495
 20
4.4409176007
 30
0.0
 10
9.0681235719
 20
4.4367899488
 30
0.0
 10
9.068766712
 20
4.4347863777
 30
0.0
  0
SPLINE
  5
2C1
100
AcDbEntity
  8
0
100
AcDbSpline
 62
7
  6
CONTINUOUS
 70
0
 71
3
 72
13
 73
9
 74
0
 42
0.0000001
 43
0.0000001
 44
0.0000000001
 40
0.0
 40
0.0
 40
0.0
 40
0.0
 40
0.2453592119
 40
0.3720933823
 40
0.4999999998
 40
0.6279066173
 40
0.7546407877
 40
1.0
 40
1.0
 40
1.0
 40
1.0
 10
9.0646864497
 20
4.4863775804
 30
0.0
 10
9.0632502878
 20
4.4823300576
 30
0.0
 10
9.0616464265
 20
4.4759722832
 30
0.0
 10
9.0605724468
 20
4.4672806272
 30
0.0
 10
9.0602990019
 20
4.4605819791
 30
0.0
 10
9.0605724468
 20
4.453883331
 30
0.0
 10
9.0616464264
 20
4.445191675
 30
0.0
 10
9.0632502878
 20
4.4388339006
 30
0.0
 10
9.0646864497
 20
4.4347863777
 30
0.0
  0
SPLINE
  5
2C2
100
AcDbEntity
  8
0
100
AcDbSpline
 62
7
  6
CONTINUOUS
 70
0
 71
3
 72
13
 73
9
 74
0
 42
0.0000001
 43
0.0000001
 44
0.0000000001
 40
0.0
 40
0.0
 40
0.0
 40
0.0
 40
0.2459762225
 40
0.3724829903
 40
0.4999999998
 40
0.6275170093
 40
0.7540237771
 40
1.0
 40
1.0
 40
1.0
 40
1.0
 10
9.0611904052
 20
4.4863775804
 30
0.0
 10
9.0596333428
 20
4.4823485957
 30
0.0
 10
9.0578823626
 20
4.4759934825
 30
0.0
 10
9.056709904
 20
4.467284881
 30
0.0
 10
9.0564116057
 20
4.4605819791
 30
0.0
 10
9.056709904
 20
4.4538790771
 30
0.0
 10
9.0578823626
 20
4.4451704757
 30
0.0
 10
9.0596333428
 20
4.4388153624
 30
0.0
 10
9.0611904052
 20
4.4347863777
 30
0.0
  0
SPLINE
  5
2C3
100
AcDbEntity
  8
0
100
AcDbSpline
 62
7
  6
CONTINUOUS
 70
0
 71
3
 72
15
 73
11
 74
0
 42
0.0000001
 43
0.0000001
 44
0.0000000001
 40
0.0
 40
0.0
 40
0.0
 40
0.0
 40
0.1221931674
 40
0.2467430646
 40
0.3729471822
 40
0.4999999998
 40
0.6270528174
 40
0.753256935
 40
0.8778068323
 40
1.0
 40
1.0
 40
1.0
 40
1.0
 10
9.058300133
 20
4.4863775804
 30
0.0
 10
9.0574733046
 20
4.4843886871
 30
0.0
 10
9.0560128697
 20
4.4802823737
 30
0.0
 10
9.0544376171
 20
4.4738894864
 30
0.0
 10
9.053480514
 20
4.4672883035
 30
0.0
 10
9.0531595765
 20
4.4605819791
 30
0.0
 10
9.053480514
 20
4.4538756547
 30
0.0
 10
9.0544376171
 20
4.4472744717
 30
0.0
 10
9.0560128697
 20
4.4408815845
 30
0.0
 10
9.0574733046
 20
4.436775271
 30
0.0
 10
9.058300133
 20
4.4347863777
 30
0.0
  0
SPLINE
  5
2C4
100
AcDbEntity
  8
0
100
AcDbSpline
 62
7
  6
CONTINUOUS
 70
0
 71
3
 72
15
 73
11
 74
0
 42
0.0000001
 43
0.0000001
 44
0.0000000001
 40
0.0
 40
0.0
 40
0.0
 40
0.0
 40
0.1228165331
 40
0.2474628495
 40
0.3734004881
 40
0.4999999999
 40
0.6265995117
 40
0.7525371502
 40
0.8771834666
 40
1.0
 40
1.0
 40
1.0
 40
1.0
 10
9.0558007632
 20
4.485844627
 30
0.0
 10
9.054960296
 20
4.4838937916
 30
0.0
 10
9.0534745963
 20
4.4798701346
 30
0.0
 10
9.0518694026
 20
4.4736036774
 30
0.0
 10
9.0508945794
 20
4.4671420666
 30
0.0
 10
9.0505677915
 20
4.460581979
 30
0.0
 10
9.0508945794
 20
4.4540218914
 30
0.0
 10
9.0518694026
 20
4.4475602805
 30
0.0
 10
9.0534745963
 20
4.4412938234
 30
0.0
 10
9.0549602961
 20
4.4372701664
 30
0.0
 10
9.0558007633
 20
4.4353193309
 30
0.0
  0
SPLINE
  5
2C5
100
AcDbEntity
  8
0
100
AcDbSpline
 62
7
  6
CONTINUOUS
 70
0
 71
3
 72
13
 73
9
 74
0
 42
0.0000001
 43
0.0000001
 44
0.0000000001
 40
0.0
 40
0.0
 40
0.0
 40
0.0
 40
0.1233446638
 40
0.2481488993
 40
0.4999999998
 40
0.7518511004
 40
0.8766553359
 40
1.0
 40
1.0
 40
1.0
 40
1.0
 10
9.0542502046
 20
4.4860443492
 30
0.0
 10
9.0533513287
 20
4.4840848071
 30
0.0
 10
9.0517603234
 20
4.4800384557
 30
0.0
 10
9.0494575217
 20
4.4715940796
 30
0.0
 10
9.048289628
 20
4.460581979
 30
0.0
 10
9.0494575217
 20
4.4495698784
 30
0.0
 10
9.0517603234
 20
4.4411255023
 30
0.0
 10
9.0533513288
 20
4.4370791509
 30
0.0
 10
9.0542502046
 20
4.4351196088
 30
0.0
  0
SPLINE
  5
2C6
100
AcDbEntity
  8
0
100
AcDbSpline
 62
7
  6
CONTINUOUS
 70
0
 71
3
 72
15
 73
11
 74
0
 42
0.0000001
 43
0.0000001
 44
0.0000000001
 40
0.0
 40
0.0
 40
0.0
 40
0.0
 40
0.1236671187
 40
0.2484479064
 40
0.3740205122
 40
0.4999999998
 40
0.6259794874
 40
0.7515520932
 40
0.876332881
 40
1.0
 40
1.0
 40
1.0
 40
1.0
 10
9.053367099
 20
4.4862629186
 30
0.0
 10
9.0524124266
 20
4.4842933366
 30
0.0
 10
9.0507207192
 20
4.4802223436
 30
0.0
 10
9.0488852176
 20
4.4738482603
 30
0.0
 10
9.0477699308
 20
4.4672672852
 30
0.0
 10
9.0473959601
 20
4.4605819791
 30
0.0
 10
9.0477699308
 20
4.4538966729
 30
0.0
 10
9.0488852176
 20
4.4473156978
 30
0.0
 10
9.0507207192
 20
4.4409416145
 30
0.0
 10
9.0524124266
 20
4.4368706215
 30
0.0
 10
9.053367099
 20
4.4349010395
 30
0.0
  0
SPLINE
  5
2C7
100
AcDbEntity
  8
0
100
AcDbSpline
 62
7
  6
CONTINUOUS
 70
0
 71
3
 72
11
 73
7
 74
0
 42
0.0000001
 43
0.0000001
 44
0.0000000001
 40
0.0
 40
0.0
 40
0.0
 40
0.0
 40
0.2419568922
 40
0.5000000005
 40
0.7580431086
 40
1.0
 40
1.0
 40
1.0
 40
1.0
 10
9.2077268832
 20
4.4347863777
 30
0.0
 10
9.2079008173
 20
4.4389447117
 30
0.0
 10
9.2081522886
 20
4.447542502
 30
0.0
 10
9.2082751255
 20
4.4605819791
 30
0.0
 10
9.2081522886
 20
4.4736214562
 30
0.0
 10
9.2079008173
 20
4.4822192464
 30
0.0
 10
9.2077268832
 20
4.4863775804
 30
0.0
  0
SPLINE
  5
2C8
100
AcDbEntity
  8
0
100
AcDbSpline
 62
7
  6
CONTINUOUS
 70
0
 71
3
 72
15
 73
11
 74
0
 42
0.0000001
 43
0.0000001
 44
0.0000000001
 40
0.0
 40
0.0
 40
0.0
 40
0.0
 40
0.1181549636
 40
0.242116128
 40
0.3700508827
 40
0.5000000005
 40
0.6299491182
 40
0.7578838727
 40
0.8818450369
 40
1.0
 40
1.0
 40
1.0
 40
1.0
 10
9.2150127159
 20
4.4347863777
 30
0.0
 10
9.2151840744
 20
4.4368132136
 30
0.0
 10
9.2154831214
 20
4.4409710085
 30
0.0
 10
9.2158004458
 20
4.4473340589
 30
0.0
 10
9.2159933156
 20
4.4539052328
 30
0.0
 10
9.2160580164
 20
4.4605819791
 30
0.0
 10
9.2159933156
 20
4.4672587253
 30
0.0
 10
9.2158004458
 20
4.4738298993
 30
0.0
 10
9.2154831214
 20
4.4801929496
 30
0.0
 10
9.2151840744
 20
4.4843507446
 30
0.0
 10
9.2150127159
 20
4.4863775804
 30
0.0
  0
SPLINE
  5
2C9
100
AcDbEntity
  8
0
100
AcDbSpline
 62
7
  6
CONTINUOUS
 70
0
 71
3
 72
15
 73
11
 74
0
 42
0.0000001
 43
0.0000001
 44
0.0000000001
 40
0.0
 40
0.0
 40
0.0
 40
0.0
 40
0.1183844156
 40
0.2423772773
 40
0.3702137184
 40
0.5000000004
 40
0.6297862825
 40
0.7576227234
 40
0.8816155848
 40
1.0
 40
1.0
 40
1.0
 40
1.0
 10
9.2219559551
 20
4.4347863777
 30
0.0
 10
9.2222125415
 20
4.4368108775
 30
0.0
 10
9.2226606863
 20
4.4409658406
 30
0.0
 10
9.2231366523
 20
4.4473307535
 30
0.0
 10
9.2234259303
 20
4.453903635
 30
0.0
 10
9.2235229683
 20
4.4605819791
 30
0.0
 10
9.2234259303
 20
4.4672603232
 30
0.0
 10
9.2231366523
 20
4.4738332047
 30
0.0
 10
9.2226606863
 20
4.4801981176
 30
0.0
 10
9.2222125415
 20
4.4843530806
 30
0.0
 10
9.2219559551
 20
4.4863775804
 30
0.0
  0
SPLINE
  5
2CA
100
AcDbEntity
  8
0
100
AcDbSpline
 62
7
  6
CONTINUOUS
 70
0
 71
3
 72
15
 73
11
 74
0
 42
0.0000001
 43
0.0000001
 44
0.0000000001
 40
0.0
 40
0.0
 40
0.0
 40
0.0
 40
0.1186963556
 40
0.2427326484
 40
0.3704354252
 40
0.5000000004
 40
0.6295645757
 40
0.7572673523
 40
0.8813036449
 40
1.0
 40
1.0
 40
1.0
 40
1.0
 10
9.2285137935
 20
4.4347863777
 30
0.0
 10
9.2288536955
 20
4.4368077389
 30
0.0
 10
9.229447994
 20
4.4409588302
 30
0.0
 10
9.2300799687
 20
4.4473262444
 30
0.0
 10
9.2304640404
 20
4.4539014473
 30
0.0
 10
9.2305928696
 20
4.4605819791
 30
0.0
 10
9.2304640404
 20
4.4672625109
 30
0.0
 10
9.2300799687
 20
4.4738377138
 30
0.0
 10
9.229447994
 20
4.4802051279
 30
0.0
 10
9.2288536955
 20
4.4843562192
 30
0.0
 10
9.2285137935
 20
4.4863775804
 30
0.0
  0
SPLINE
  5
2CB
100
AcDbEntity
  8
0
100
AcDbSpline
 62
7
  6
CONTINUOUS
 70
0
 71
3
 72
15
 73
11
 74
0
 42
0.0000001
 43
0.0000001
 44
0.0000000001
 40
0.0
 40
0.0
 40
0.0
 40
0.0
 40
0.1190810514
 40
0.2431714429
 40
0.3707093701
 40
0.5000000004
 40
0.6292906308
 40
0.7568285578
 40
0.880918949
 40
1.0
 40
1.0
 40
1.0
 40
1.0
 10
9.2346457997
 20
4.4347863777
 30
0.0
 10
9.2350665245
 20
4.4368039264
 30
0.0
 10
9.2358030815
 20
4.4409502101
 30
0.0
 10
9.2365875367
 20
4.4473206589
 30
0.0
 10
9.2370642435
 20
4.4538987245
 30
0.0
 10
9.2372241352
 20
4.4605819791
 30
0.0
 10
9.2370642435
 20
4.4672652337
 30
0.0
 10
9.2365875367
 20
4.4738432993
 30
0.0
 10
9.2358030815
 20
4.480213748
 30
0.0
 10
9.2350665245
 20
4.4843600318
 30
0.0
 10
9.2346457997
 20
4.4863775804
 30
0.0
  0
SPLINE
  5
2CC
100
AcDbEntity
  8
0
100
AcDbSpline
 62
7
  6
CONTINUOUS
 70
0
 71
3
 72
15
 73
11
 74
0
 42
0.0000001
 43
0.0000001
 44
0.0000000001
 40
0.0
 40
0.0
 40
0.0
 40
0.0
 40
0.1195268222
 40
0.2436806442
 40
0.3710275382
 40
0.5000000004
 40
0.6289724627
 40
0.7563193566
 40
0.8804731783
 40
1.0
 40
1.0
 40
1.0
 40
1.0
 10
9.240314168
 20
4.4347863777
 30
0.0
 10
9.2408126882
 20
4.4367995869
 30
0.0
 10
9.2416866921
 20
4.4409402572
 30
0.0
 10
9.2426191999
 20
4.4473141527
 30
0.0
 10
9.2431858395
 20
4.4538955348
 30
0.0
 10
9.2433758831
 20
4.4605819791
 30
0.0
 10
9.2431858395
 20
4.4672684233
 30
0.0
 10
9.2426191999
 20
4.4738498055
 30
0.0
 10
9.2416866921
 20
4.4802237009
 30
0.0
 10
9.2408126882
 20
4.4843643712
 30
0.0
 10
9.240314168
 20
4.4863775804
 30
0.0
  0
SPLINE
  5
2CD
100
AcDbEntity
  8
0
100
AcDbSpline
 62
7
  6
CONTINUOUS
 70
0
 71
3
 72
15
 73
11
 74
0
 42
0.0000001
 43
0.0000001
 44
0.0000000001
 40
0.0
 40
0.0
 40
0.0
 40
0.0
 40
0.1200205676
 40
0.2442455779
 40
0.3713808676
 40
0.5000000004
 40
0.6286191332
 40
0.7557544228
 40
0.8799794329
 40
1.0
 40
1.0
 40
1.0
 40
1.0
 10
9.2454839509
 20
4.4347863777
 30
0.0
 10
9.2460567544
 20
4.4367948761
 30
0.0
 10
9.2470625206
 20
4.4409292794
 30
0.0
 10
9.2481377536
 20
4.4473069035
 30
0.0
 10
9.2487910824
 20
4.453891958
 30
0.0
 10
9.2490101871
 20
4.4605819791
 30
0.0
 10
9.2487910824
 20
4.4672720002
 30
0.0
 10
9.2481377536
 20
4.4738570547
 30
0.0
 10
9.2470625206
 20
4.4802346788
 30
0.0
 10
9.2460567544
 20
4.4843690821
 30
0.0
 10
9.2454839509
 20
4.4863775804
 30
0.0
  0
SPLINE
  5
2CE
100
AcDbEntity
  8
0
100
AcDbSpline
 62
7
  6
CONTINUOUS
 70
0
 71
3
 72
15
 73
11
 74
0
 42
0.0000001
 43
0.0000001
 44
0.0000000001
 40
0.0
 40
0.0
 40
0.0
 40
0.0
 40
0.1205483115
 40
0.244850495
 40
0.3717595997
 40
0.5000000004
 40
0.6282404012
 40
0.7551495057
 40
0.8794516889
 40
1.0
 40
1.0
 40
1.0
 40
1.0
 10
9.250123275
 20
4.4347863777
 30
0.0
 10
9.2507664152
 20
4.4367899488
 30
0.0
 10
9.2518974375
 20
4.4409176007
 30
0.0
 10
9.2531091743
 20
4.4472991055
 30
0.0
 10
9.2538454132
 20
4.4538880832
 30
0.0
 10
9.2540923102
 20
4.4605819791
 30
0.0
 10
9.2538454132
 20
4.467275875
 30
0.0
 10
9.2531091743
 20
4.4738648527
 30
0.0
 10
9.2518974375
 20
4.4802463574
 30
0.0
 10
9.2507664152
 20
4.4843740094
 30
0.0
 10
9.250123275
 20
4.4863775804
 30
0.0
  0
SPLINE
  5
2CF
100
AcDbEntity
  8
0
100
AcDbSpline
 62
7
  6
CONTINUOUS
 70
0
 71
3
 72
13
 73
9
 74
0
 42
0.0000001
 43
0.0000001
 44
0.0000000001
 40
0.0
 40
0.0
 40
0.0
 40
0.0
 40
0.2453592125
 40
0.372093383
 40
0.5000000004
 40
0.6279066179
 40
0.7546407882
 40
1.0
 40
1.0
 40
1.0
 40
1.0
 10
9.2542035374
 20
4.4347863777
 30
0.0
 10
9.2556396992
 20
4.4388339006
 30
0.0
 10
9.2572435606
 20
4.445191675
 30
0.0
 10
9.2583175402
 20
4.453883331
 30
0.0
 10
9.2585909852
 20
4.4605819791
 30
0.0
 10
9.2583175402
 20
4.4672806272
 30
0.0
 10
9.2572435606
 20
4.4759722832
 30
0.0
 10
9.2556396992
 20
4.4823300576
 30
0.0
 10
9.2542035374
 20
4.4863775804
 30
0.0
  0
SPLINE
  5
2D0
100
AcDbEntity
  8
0
100
AcDbSpline
 62
7
  6
CONTINUOUS
 70
0
 71
3
 72
13
 73
9
 74
0
 42
0.0000001
 43
0.0000001
 44
0.0000000001
 40
0.0
 40
0.0
 40
0.0
 40
0.0
 40
0.2459762231
 40
0.3724829909
 40
0.5000000004
 40
0.6275170099
 40
0.7540237777
 40
1.0
 40
1.0
 40
1.0
 40
1.0
 10
9.2576995818
 20
4.4347863777
 30
0.0
 10
9.2592566443
 20
4.4388153624
 30
0.0
 10
9.2610076245
 20
4.4451704757
 30
0.0
 10
9.262180083
 20
4.4538790771
 30
0.0
 10
9.2624783814
 20
4.4605819791
 30
0.0
 10
9.262180083
 20
4.467284881
 30
0.0
 10
9.2610076245
 20
4.4759934825
 30
0.0
 10
9.2592566443
 20
4.4823485957
 30
0.0
 10
9.2576995818
 20
4.4863775804
 30
0.0
  0
SPLINE
  5
2D1
100
AcDbEntity
  8
0
100
AcDbSpline
 62
7
  6
CONTINUOUS
 70
0
 71
3
 72
15
 73
11
 74
0
 42
0.0000001
 43
0.0000001
 44
0.0000000001
 40
0.0
 40
0.0
 40
0.0
 40
0.0
 40
0.1221931678
 40
0.2467430652
 40
0.3729471828
 40
0.5000000004
 40
0.6270528181
 40
0.7532569356
 40
0.8778068327
 40
1.0
 40
1.0
 40
1.0
 40
1.0
 10
9.260589854
 20
4.4347863777
 30
0.0
 10
9.2614166825
 20
4.436775271
 30
0.0
 10
9.2628771174
 20
4.4408815845
 30
0.0
 10
9.26445237
 20
4.4472744717
 30
0.0
 10
9.265409473
 20
4.4538756547
 30
0.0
 10
9.2657304106
 20
4.4605819791
 30
0.0
 10
9.265409473
 20
4.4672883035
 30
0.0
 10
9.26445237
 20
4.4738894864
 30
0.0
 10
9.2628771174
 20
4.4802823737
 30
0.0
 10
9.2614166825
 20
4.4843886871
 30
0.0
 10
9.260589854
 20
4.4863775804
 30
0.0
  0
SPLINE
  5
2D2
100
AcDbEntity
  8
0
100
AcDbSpline
 62
7
  6
CONTINUOUS
 70
0
 71
3
 72
15
 73
11
 74
0
 42
0.0000001
 43
0.0000001
 44
0.0000000001
 40
0.0
 40
0.0
 40
0.0
 40
0.0
 40
0.1228165334
 40
0.24746285
 40
0.3734004885
 40
0.5000000003
 40
0.6265995121
 40
0.7525371506
 40
0.877183467
 40
1.0
 40
1.0
 40
1.0
 40
1.0
 10
9.2630892238
 20
4.4353193309
 30
0.0
 10
9.2639296909
 20
4.4372701663
 30
0.0
 10
9.2654153907
 20
4.4412938234
 30
0.0
 10
9.2670205844
 20
4.4475602805
 30
0.0
 10
9.2679954077
 20
4.4540218914
 30
0.0
 10
9.2683221956
 20
4.4605819789
 30
0.0
 10
9.2679954077
 20
4.4671420665
 30
0.0
 10
9.2670205845
 20
4.4736036774
 30
0.0
 10
9.2654153908
 20
4.4798701345
 30
0.0
 10
9.263929691
 20
4.4838937915
 30
0.0
 10
9.2630892239
 20
4.485844627
 30
0.0
  0
SPLINE
  5
2D3
100
AcDbEntity
  8
0
100
AcDbSpline
 62
7
  6
CONTINUOUS
 70
0
 71
3
 72
13
 73
9
 74
0
 42
0.0000001
 43
0.0000001
 44
0.0000000001
 40
0.0
 40
0.0
 40
0.0
 40
0.0
 40
0.1233446642
 40
0.2481488998
 40
0.5000000004
 40
0.7518511009
 40
0.8766553362
 40
1.0
 40
1.0
 40
1.0
 40
1.0
 10
9.2646397824
 20
4.4351196087
 30
0.0
 10
9.2655386583
 20
4.4370791509
 30
0.0
 10
9.2671296636
 20
4.4411255023
 30
0.0
 10
9.2694324654
 20
4.4495698784
 30
0.0
 10
9.2706003591
 20
4.460581979
 30
0.0
 10
9.2694324654
 20
4.4715940796
 30
0.0
 10
9.2671296637
 20
4.4800384557
 30
0.0
 10
9.2655386584
 20
4.4840848071
 30
0.0
 10
9.2646397825
 20
4.4860443492
 30
0.0
  0
SPLINE
  5
2D4
100
AcDbEntity
  8
0
100
AcDbSpline
 62
7
  6
CONTINUOUS
 70
0
 71
3
 72
15
 73
11
 74
0
 42
0.0000001
 43
0.0000001
 44
0.0000000001
 40
0.0
 40
0.0
 40
0.0
 40
0.0
 40
0.1236671191
 40
0.248447907
 40
0.3740205128
 40
0.5000000004
 40
0.6259794881
 40
0.7515520938
 40
0.8763328814
 40
1.0
 40
1.0
 40
1.0
 40
1.0
 10
9.2655228881
 20
4.4349010395
 30
0.0
 10
9.2664775604
 20
4.4368706215
 30
0.0
 10
9.2681692679
 20
4.4409416145
 30
0.0
 10
9.2700047695
 20
4.4473156978
 30
0.0
 10
9.2711200562
 20
4.4538966729
 30
0.0
 10
9.271494027
 20
4.4605819791
 30
0.0
 10
9.2711200562
 20
4.4672672852
 30
0.0
 10
9.2700047695
 20
4.4738482603
 30
0.0
 10
9.2681692679
 20
4.4802223436
 30
0.0
 10
9.2664775605
 20
4.4842933366
 30
0.0
 10
9.2655228881
 20
4.4862629186
 30
0.0
  0
SPLINE
  5
2D5
100
AcDbEntity
  8
0
100
AcDbSpline
 62
7
  6
CONTINUOUS
 70
0
 71
3
 72
15
 73
11
 74
0
 42
0.0000001
 43
0.0000001
 44
0.0000000001
 40
0.0
 40
0.0
 40
0.0
 40
0.0
 40
0.1249185868
 40
0.2499645421
 40
0.3749733083
 40
0.4999999992
 40
0.6250266901
 40
0.7500354567
 40
0.8750814128
 40
1.0
 40
1.0
 40
1.0
 40
1.0
 10
2.0649399082
 20
4.4863775804
 30
0.0
 10
2.0660129678
 20
4.484411957
 30
0.0
 10
2.0679195513
 20
4.4803417369
 30
0.0
 10
2.0700019081
 20
4.4739326667
 30
0.0
 10
2.0712669029
 20
4.4673102262
 30
0.0
 10
2.0716901796
 20
4.4605819791
 30
0.0
 10
2.0712669029
 20
4.453853732
 30
0.0
 10
2.0700019081
 20
4.4472312915
 30
0.0
 10
2.0679195513
 20
4.4408222213
 30
0.0
 10
2.0660129678
 20
4.4367520012
 30
0.0
 10
2.0649399082
 20
4.4347863777
 30
0.0
  0
SPLINE
  5
2D6
100
AcDbEntity
  8
0
100
AcDbSpline
 62
7
  6
CONTINUOUS
 70
0
 71
3
 72
15
 73
11
 74
0
 42
0.0000001
 43
0.0000001
 44
0.0000000001
 40
0.0
 40
0.0
 40
0.0
 40
0.0
 40
0.1249598482
 40
0.2500126527
 40
0.3750037313
 40
0.4999999992
 40
0.6249962671
 40
0.7499873461
 40
0.8750401514
 40
1.0
 40
1.0
 40
1.0
 40
1.0
 10
2.062049636
 20
4.4863775804
 30
0.0
 10
2.0631260166
 20
4.4844122756
 30
0.0
 10
2.0650386488
 20
4.4803426044
 30
0.0
 10
2.0671279673
 20
4.4739333134
 30
0.0
 10
2.0683972073
 20
4.4673105695
 30
0.0
 10
2.0688219066
 20
4.4605819791
 30
0.0
 10
2.0683972073
 20
4.4538533887
 30
0.0
 10
2.0671279674
 20
4.4472306448
 30
0.0
 10
2.0650386488
 20
4.4408213538
 30
0.0
 10
2.0631260166
 20
4.4367516826
 30
0.0
 10
2.062049636
 20
4.4347863777
 30
0.0
  0
SPLINE
  5
2D7
100
AcDbEntity
  8
0
100
AcDbSpline
 62
7
  6
CONTINUOUS
 70
0
 71
3
 72
15
 73
11
 74
0
 42
0.0000001
 43
0.0000001
 44
0.0000000001
 40
0.0
 40
0.0
 40
0.0
 40
0.0
 40
0.1249227593
 40
0.2499694069
 40
0.3749763845
 40
0.4999999992
 40
0.625023614
 40
0.7500305919
 40
0.8750772403
 40
1.0
 40
1.0
 40
1.0
 40
1.0
 10
2.0585535915
 20
4.4863775804
 30
0.0
 10
2.0596269873
 20
4.4844119892
 30
0.0
 10
2.0615341832
 20
4.4803418246
 30
0.0
 10
2.0636172445
 20
4.4739327321
 30
0.0
 10
2.0648826689
 20
4.4673102609
 30
0.0
 10
2.0653060896
 20
4.4605819791
 30
0.0
 10
2.0648826689
 20
4.4538536973
 30
0.0
 10
2.0636172445
 20
4.4472312261
 30
0.0
 10
2.0615341832
 20
4.4408221335
 30
0.0
 10
2.0596269873
 20
4.4367519689
 30
0.0
 10
2.0585535915
 20
4.4347863777
 30
0.0
  0
SPLINE
  5
2D8
100
AcDbEntity
  8
0
100
AcDbSpline
 62
7
  6
CONTINUOUS
 70
0
 71
3
 72
15
 73
11
 74
0
 42
0.0000001
 43
0.0000001
 44
0.0000000001
 40
0.0
 40
0.0
 40
0.0
 40
0.0
 40
0.1240251574
 40
0.2489244951
 40
0.3743162923
 40
0.4999999992
 40
0.6256837061
 40
0.7510755037
 40
0.8759748422
 40
1.0
 40
1.0
 40
1.0
 40
1.0
 10
2.0389958539
 20
4.4863775804
 30
0.0
 10
2.0399948827
 20
4.48440493
 30
0.0
 10
2.0417668142
 20
4.4803228509
 30
0.0
 10
2.0436949851
 20
4.4739187385
 30
0.0
 10
2.0448660336
 20
4.4673028851
 30
0.0
 10
2.0452578426
 20
4.4605819791
 30
0.0
 10
2.0448660336
 20
4.4538610731
 30
0.0
 10
2.0436949852
 20
4.4472452197
 30
0.0
 10
2.0417668142
 20
4.4408411073
 30
0.0
 10
2.0399948827
 20
4.4367590282
 30
0.0
 10
2.0389958539
 20
4.4347863777
 30
0.0
  0
SPLINE
  5
2D9
100
AcDbEntity
  8
0
100
AcDbSpline
 62
7
  6
CONTINUOUS
 70
0
 71
3
 72
13
 73
9
 74
0
 42
0.0000001
 43
0.0000001
 44
0.0000000001
 40
0.0
 40
0.0
 40
0.0
 40
0.0
 40
0.1179834852
 40
0.2419765357
 40
0.4999999992
 40
0.7580234631
 40
0.8820165144
 40
1.0
 40
1.0
 40
1.0
 40
1.0
 10
1.9309310903
 20
4.4863775804
 30
0.0
 10
1.9310205363
 20
4.4843500122
 30
0.0
 10
1.9311765571
 20
4.4801903554
 30
0.0
 10
1.9314002925
 20
4.4715921711
 30
0.0
 10
1.9315089961
 20
4.4605819791
 30
0.0
 10
1.9314002925
 20
4.4495717871
 30
0.0
 10
1.9311765571
 20
4.4409736028
 30
0.0
 10
1.9310205363
 20
4.436813946
 30
0.0
 10
1.9309310903
 20
4.4347863777
 30
0.0
  0
SPLINE
  5
2DA
100
AcDbEntity
  8
0
100
AcDbSpline
 62
7
  6
CONTINUOUS
 70
0
 71
3
 72
15
 73
11
 74
0
 42
0.0000001
 43
0.0000001
 44
0.0000000001
 40
0.0
 40
0.0
 40
0.0
 40
0.0
 40
0.1210850676
 40
0.2455246511
 40
0.3721772796
 40
0.5000000018
 40
0.6278227238
 40
0.7544753511
 40
0.878914933
 40
1.0
 40
1.0
 40
1.0
 40
1.0
 10
1.9309310903
 20
4.4347863777
 30
0.0
 10
1.9302187917
 20
4.4367840215
 30
0.0
 10
1.9289642518
 20
4.440904593
 30
0.0
 10
1.9276154839
 20
4.4472900282
 30
0.0
 10
1.9267966095
 20
4.4538840364
 30
0.0
 10
1.9265226265
 20
4.4605819792
 30
0.0
 10
1.9267966095
 20
4.4672799219
 30
0.0
 10
1.9276154839
 20
4.4738739301
 30
0.0
 10
1.9289642518
 20
4.4802593652
 30
0.0
 10
1.9302187917
 20
4.4843799367
 30
0.0
 10
1.9309310903
 20
4.4863775804
 30
0.0
  0
SPLINE
  5
2DB
100
AcDbEntity
  8
0
100
AcDbSpline
 62
7
  6
CONTINUOUS
 70
0
 71
3
 72
15
 73
11
 74
0
 42
0.0000001
 43
0.0000001
 44
0.0000000001
 40
0.0
 40
0.0
 40
0.0
 40
0.0
 40
0.1216374013
 40
0.2461606977
 40
0.3725764437
 40
0.5000000017
 40
0.6274235596
 40
0.7538393045
 40
0.8783625993
 40
1.0
 40
1.0
 40
1.0
 40
1.0
 10
1.9230966646
 20
4.4347863777
 30
0.0
 10
1.9223233166
 20
4.4367790938
 30
0.0
 10
1.9209592451
 20
4.4408925162
 30
0.0
 10
1.9194894065
 20
4.4472817313
 30
0.0
 10
1.9185970142
 20
4.4538798578
 30
0.0
 10
1.9182984438
 20
4.4605819792
 30
0.0
 10
1.9185970142
 20
4.4672841005
 30
0.0
 10
1.9194894065
 20
4.473882227
 30
0.0
 10
1.9209592451
 20
4.480271442
 30
0.0
 10
1.9223233166
 20
4.4843848644
 30
0.0
 10
1.9230966646
 20
4.4863775804
 30
0.0
  0
SPLINE
  5
2DC
100
AcDbEntity
  8
0
100
AcDbSpline
 62
7
  6
CONTINUOUS
 70
0
 71
3
 72
11
 73
7
 74
0
 42
0.0000001
 43
0.0000001
 44
0.0000000001
 40
0.0
 40
0.0
 40
0.0
 40
0.0
 40
0.2467763119
 40
0.5000000017
 40
0.7532236903
 40
1.0
 40
1.0
 40
1.0
 40
1.0
 10
1.915513158
 20
4.4347863777
 30
0.0
 10
1.9138399837
 20
4.4387967395
 30
0.0
 10
1.9113024482
 20
4.4473008134
 30
0.0
 10
1.910036528
 20
4.4605819791
 30
0.0
 10
1.9113024482
 20
4.4738631448
 30
0.0
 10
1.9138399837
 20
4.4823672186
 30
0.0
 10
1.915513158
 20
4.4863775804
 30
0.0
  0
SPLINE
  5
2DD
100
AcDbEntity
  8
0
100
AcDbSpline
 62
7
  6
CONTINUOUS
 70
0
 71
3
 72
15
 73
11
 74
0
 42
0.0000001
 43
0.0000001
 44
0.0000000001
 40
0.0
 40
0.0
 40
0.0
 40
0.0
 40
0.118715132
 40
0.2427540516
 40
0.3704487825
 40
0.5000000004
 40
0.6295512183
 40
0.7572459492
 40
0.8812848684
 40
1.0
 40
1.0
 40
1.0
 40
1.0
 10
9.1677891184
 20
4.4347863777
 30
0.0
 10
9.1674448379
 20
4.4368075514
 30
0.0
 10
9.1668428456
 20
4.4409584089
 30
0.0
 10
9.1662026416
 20
4.4473259724
 30
0.0
 10
9.1658135701
 20
4.453901315
 30
0.0
 10
9.1656830642
 20
4.4605819791
 30
0.0
 10
9.1658135701
 20
4.4672626432
 30
0.0
 10
9.1662026416
 20
4.4738379858
 30
0.0
 10
9.1668428456
 20
4.4802055493
 30
0.0
 10
9.1674448379
 20
4.4843564068
 30
0.0
 10
9.1677891184
 20
4.4863775804
 30
0.0
  0
SPLINE
  5
2DE
100
AcDbEntity
  8
0
100
AcDbSpline
 62
7
  6
CONTINUOUS
 70
0
 71
3
 72
15
 73
11
 74
0
 42
0.0000001
 43
0.0000001
 44
0.0000000001
 40
0.0
 40
0.0
 40
0.0
 40
0.0
 40
0.1191033951
 40
0.2431969324
 40
0.3707253034
 40
0.5
 40
0.6292746966
 40
0.7568030676
 40
0.8808966049
 40
1.0
 40
1.0
 40
1.0
 40
1.0
 10
9.1594449935
 20
4.4347863777
 30
0.0
 10
9.1598699484
 20
4.4368037069
 30
0.0
 10
9.1606139653
 20
4.4409497101
 30
0.0
 10
9.1614064361
 20
4.4473203335
 30
0.0
 10
9.1618880129
 20
4.4538985653
 30
0.0
 10
9.1620495366
 20
4.4605819791
 30
0.0
 10
9.1618880129
 20
4.4672653928
 30
0.0
 10
9.1614064361
 20
4.4738436246
 30
0.0
 10
9.1606139653
 20
4.4802142481
 30
0.0
 10
9.1598699484
 20
4.4843602512
 30
0.0
 10
9.1594449935
 20
4.4863775804
 30
0.0
  0
SPLINE
  5
2DF
100
AcDbEntity
  8
0
100
AcDbSpline
 62
7
  6
CONTINUOUS
 70
0
 71
3
 72
11
 73
7
 74
0
 42
0.0000001
 43
0.0000001
 44
0.0000000001
 40
0.0
 40
0.0
 40
0.0
 40
0.0
 40
0.248466507
 40
0.4999999992
 40
0.7515334917
 40
1.0
 40
1.0
 40
1.0
 40
1.0
 10
2.0328638476
 20
4.4863775804
 30
0.0
 10
2.0348005041
 20
4.4824132254
 30
0.0
 10
2.0377787047
 20
4.4739520388
 30
0.0
 10
2.0392809399
 20
4.4605819791
 30
0.0
 10
2.0377787047
 20
4.4472119194
 30
0.0
 10
2.0348005041
 20
4.4387507327
 30
0.0
 10
2.0328638476
 20
4.4347863777
 30
0.0
  0
SPLINE
  5
2E0
100
AcDbEntity
  8
0
100
AcDbSpline
 62
7
  6
CONTINUOUS
 70
0
 71
3
 72
11
 73
7
 74
0
 42
0.0000001
 43
0.0000001
 44
0.0000000001
 40
0.0
 40
0.0
 40
0.0
 40
0.0
 40
0.2473811698
 40
0.5000000017
 40
0.7526188324
 40
1.0
 40
1.0
 40
1.0
 40
1.0
 10
1.9082273253
 20
4.4347863777
 30
0.0
 10
1.9064551152
 20
4.4387799474
 30
0.0
 10
1.9037535688
 20
4.4472692108
 30
0.0
 10
1.9024007259
 20
4.4605819791
 30
0.0
 10
1.9037535688
 20
4.4738947475
 30
0.0
 10
1.9064551152
 20
4.4823840108
 30
0.0
 10
1.9082273253
 20
4.4863775804
 30
0.0
  0
SPLINE
  5
2E1
100
AcDbEntity
  8
0
100
AcDbSpline
 62
7
  6
CONTINUOUS
 70
0
 71
3
 72
11
 73
7
 74
0
 42
0.0000001
 43
0.0000001
 44
0.0000000001
 40
0.0
 40
0.0
 40
0.0
 40
0.0
 40
0.2479487655
 40
0.4999999992
 40
0.7520512332
 40
1.0
 40
1.0
 40
1.0
 40
1.0
 10
2.0263060093
 20
4.4863775804
 30
0.0
 10
2.0281661237
 20
4.4823994328
 30
0.0
 10
2.0310148862
 20
4.4739246171
 30
0.0
 10
2.032446765
 20
4.4605819791
 30
0.0
 10
2.0310148862
 20
4.4472393411
 30
0.0
 10
2.0281661237
 20
4.4387645253
 30
0.0
 10
2.0263060093
 20
4.4347863777
 30
0.0
  0
SPLINE
  5
2E2
100
AcDbEntity
  8
0
100
AcDbSpline
 62
7
  6
CONTINUOUS
 70
0
 71
3
 72
11
 73
7
 74
0
 42
0.0000001
 43
0.0000001
 44
0.0000000001
 40
0.0
 40
0.0
 40
0.0
 40
0.0
 40
0.2473811681
 40
0.4999999992
 40
0.7526188307
 40
1.0
 40
1.0
 40
1.0
 40
1.0
 10
2.01936277
 20
4.4863775804
 30
0.0
 10
2.0211349802
 20
4.4823840108
 30
0.0
 10
2.0238365266
 20
4.4738947474
 30
0.0
 10
2.0251893695
 20
4.4605819791
 30
0.0
 10
2.0238365266
 20
4.4472692107
 30
0.0
 10
2.0211349802
 20
4.4387799474
 30
0.0
 10
2.01936277
 20
4.4347863777
 30
0.0
  0
SPLINE
  5
2E3
100
AcDbEntity
  8
0
100
AcDbSpline
 62
7
  6
CONTINUOUS
 70
0
 71
3
 72
15
 73
11
 74
0
 42
0.0000001
 43
0.0000001
 44
0.0000000001
 40
0.0
 40
0.0
 40
0.0
 40
0.0
 40
0.1186768604
 40
0.242765802
 40
0.3704511664
 40
0.5000000018
 40
0.629548837
 40
0.7572342002
 40
0.8813231402
 40
1.0
 40
1.0
 40
1.0
 40
1.0
 10
1.9721391725
 20
4.4347863777
 30
0.0
 10
1.9717950032
 20
4.4368068991
 30
0.0
 10
1.9711932849
 20
4.4409579963
 30
0.0
 10
1.9705526096
 20
4.4473255465
 30
0.0
 10
1.9701635634
 20
4.4539015606
 30
0.0
 10
1.9700333524
 20
4.4605819792
 30
0.0
 10
1.9701635634
 20
4.4672623977
 30
0.0
 10
1.9705526096
 20
4.4738384118
 30
0.0
 10
1.971193285
 20
4.4802059619
 30
0.0
 10
1.9717950032
 20
4.4843570591
 30
0.0
 10
1.9721391725
 20
4.4863775804
 30
0.0
  0
SPLINE
  5
2E4
100
AcDbEntity
  8
0
100
AcDbSpline
 62
7
  6
CONTINUOUS
 70
0
 71
3
 72
11
 73
7
 74
0
 42
0.0000001
 43
0.0000001
 44
0.0000000001
 40
0.0
 40
0.0
 40
0.0
 40
0.0
 40
0.2467763102
 40
0.4999999992
 40
0.7532236886
 40
1.0
 40
1.0
 40
1.0
 40
1.0
 10
2.0120769373
 20
4.4863775804
 30
0.0
 10
2.0137501116
 20
4.4823672186
 30
0.0
 10
2.0162876471
 20
4.4738631448
 30
0.0
 10
2.0175535673
 20
4.4605819791
 30
0.0
 10
2.0162876471
 20
4.4473008134
 30
0.0
 10
2.0137501117
 20
4.4387967395
 30
0.0
 10
2.0120769373
 20
4.4347863777
 30
0.0
  0
SPLINE
  5
2E5
100
AcDbEntity
  8
0
100
AcDbSpline
 62
7
  6
CONTINUOUS
 70
0
 71
3
 72
11
 73
7
 74
0
 42
0.0000001
 43
0.0000001
 44
0.0000000001
 40
0.0
 40
0.0
 40
0.0
 40
0.0
 40
0.2479487672
 40
0.5000000017
 40
0.752051235
 40
1.0
 40
1.0
 40
1.0
 40
1.0
 10
1.9012840861
 20
4.4347863777
 30
0.0
 10
1.8994239716
 20
4.4387645253
 30
0.0
 10
1.8965752092
 20
4.4472393411
 30
0.0
 10
1.8951433303
 20
4.4605819791
 30
0.0
 10
1.8965752092
 20
4.4739246171
 30
0.0
 10
1.8994239716
 20
4.4823994329
 30
0.0
 10
1.9012840861
 20
4.4863775804
 30
0.0
  0
SPLINE
  5
2E6
100
AcDbEntity
  8
0
100
AcDbSpline
 62
7
  6
CONTINUOUS
 70
0
 71
3
 72
15
 73
11
 74
0
 42
0.0000001
 43
0.0000001
 44
0.0000000001
 40
0.0
 40
0.0
 40
0.0
 40
0.0
 40
0.1216374008
 40
0.246160696
 40
0.3725764413
 40
0.4999999992
 40
0.6274235571
 40
0.7538393028
 40
0.8783625988
 40
1.0
 40
1.0
 40
1.0
 40
1.0
 10
2.0044934307
 20
4.4863775804
 30
0.0
 10
2.0052667788
 20
4.4843848644
 30
0.0
 10
2.0066308503
 20
4.480271442
 30
0.0
 10
2.0081006889
 20
4.473882227
 30
0.0
 10
2.0089930812
 20
4.4672841004
 30
0.0
 10
2.0092916516
 20
4.4605819791
 30
0.0
 10
2.0089930812
 20
4.4538798578
 30
0.0
 10
2.0081006889
 20
4.4472817312
 30
0.0
 10
2.0066308503
 20
4.4408925162
 30
0.0
 10
2.0052667788
 20
4.4367790938
 30
0.0
 10
2.0044934307
 20
4.4347863777
 30
0.0
  0
SPLINE
  5
2E7
100
AcDbEntity
  8
0
100
AcDbSpline
 62
7
  6
CONTINUOUS
 70
0
 71
3
 72
15
 73
11
 74
0
 42
0.0000001
 43
0.0000001
 44
0.0000000001
 40
0.0
 40
0.0
 40
0.0
 40
0.0
 40
0.1210850671
 40
0.2455246494
 40
0.3721772771
 40
0.4999999992
 40
0.6278227213
 40
0.7544753494
 40
0.8789149325
 40
1.0
 40
1.0
 40
1.0
 40
1.0
 10
1.996659005
 20
4.4863775804
 30
0.0
 10
1.9973713036
 20
4.4843799367
 30
0.0
 10
1.9986258435
 20
4.4802593652
 30
0.0
 10
1.9999746114
 20
4.47387393
 30
0.0
 10
2.0007934859
 20
4.4672799218
 30
0.0
 10
2.0010674689
 20
4.4605819791
 30
0.0
 10
2.0007934859
 20
4.4538840364
 30
0.0
 10
1.9999746114
 20
4.4472900282
 30
0.0
 10
1.9986258435
 20
4.440904593
 30
0.0
 10
1.9973713036
 20
4.4367840215
 30
0.0
 10
1.996659005
 20
4.4347863777
 30
0.0
  0
SPLINE
  5
2E8
100
AcDbEntity
  8
0
100
AcDbSpline
 62
7
  6
CONTINUOUS
 70
0
 71
3
 72
13
 73
9
 74
0
 42
0.0000001
 43
0.0000001
 44
0.0000000001
 40
0.0
 40
0.0
 40
0.0
 40
0.0
 40
0.1179834857
 40
0.2419765374
 40
0.5000000018
 40
0.7580234648
 40
0.8820165149
 40
1.0
 40
1.0
 40
1.0
 40
1.0
 10
1.996659005
 20
4.4347863777
 30
0.0
 10
1.996569559
 20
4.436813946
 30
0.0
 10
1.9964135382
 20
4.4409736028
 30
0.0
 10
1.9961898028
 20
4.4495717872
 30
0.0
 10
1.9960810992
 20
4.4605819791
 30
0.0
 10
1.9961898028
 20
4.4715921711
 30
0.0
 10
1.9964135382
 20
4.4801903554
 30
0.0
 10
1.996569559
 20
4.4843500122
 30
0.0
 10
1.996659005
 20
4.4863775804
 30
0.0
  0
SPLINE
  5
2E9
100
AcDbEntity
  8
0
100
AcDbSpline
 62
7
  6
CONTINUOUS
 70
0
 71
3
 72
15
 73
11
 74
0
 42
0.0000001
 43
0.0000001
 44
0.0000000001
 40
0.0
 40
0.0
 40
0.0
 40
0.0
 40
0.1205374296
 40
0.244895224
 40
0.3717827182
 40
0.4999999992
 40
0.6282172802
 40
0.7551047748
 40
0.87946257
 40
1.0
 40
1.0
 40
1.0
 40
1.0
 10
1.9886219621
 20
4.4863775804
 30
0.0
 10
1.9892685213
 20
4.4843749375
 30
0.0
 10
1.9904055281
 20
4.4802473258
 30
0.0
 10
1.9916252159
 20
4.4738657591
 30
0.0
 10
1.9923657284
 20
4.4672758385
 30
0.0
 10
1.9926135049
 20
4.4605819791
 30
0.0
 10
1.9923657284
 20
4.4538881197
 30
0.0
 10
1.991625216
 20
4.447298199
 30
0.0
 10
1.9904055281
 20
4.4409166323
 30
0.0
 10
1.9892685213
 20
4.4367890207
 30
0.0
 10
1.9886219621
 20
4.4347863777
 30
0.0
  0
SPLINE
  5
2EA
100
AcDbEntity
  8
0
100
AcDbSpline
 62
7
  6
CONTINUOUS
 70
0
 71
3
 72
15
 73
11
 74
0
 42
0.0000001
 43
0.0000001
 44
0.0000000001
 40
0.0
 40
0.0
 40
0.0
 40
0.0
 40
0.1181271433
 40
0.2421393145
 40
0.370060373
 40
0.5000000018
 40
0.6299396304
 40
0.7578606877
 40
0.8818728573
 40
1.0
 40
1.0
 40
1.0
 40
1.0
 10
1.9886219621
 20
4.4347863777
 30
0.0
 10
1.9884460762
 20
4.4368124617
 30
0.0
 10
1.9881391603
 20
4.4409703458
 30
0.0
 10
1.9878130805
 20
4.4473335046
 30
0.0
 10
1.9876150513
 20
4.4539054075
 30
0.0
 10
1.9875487649
 20
4.4605819792
 30
0.0
 10
1.9876150513
 20
4.4672585508
 30
0.0
 10
1.9878130805
 20
4.4738304536
 30
0.0
 10
1.9881391603
 20
4.4801936124
 30
0.0
 10
1.9884460762
 20
4.4843514964
 30
0.0
 10
1.9886219621
 20
4.4863775804
 30
0.0
  0
SPLINE
  5
2EB
100
AcDbEntity
  8
0
100
AcDbSpline
 62
7
  6
CONTINUOUS
 70
0
 71
3
 72
15
 73
11
 74
0
 42
0.0000001
 43
0.0000001
 44
0.0000000001
 40
0.0
 40
0.0
 40
0.0
 40
0.0
 40
0.1200086804
 40
0.2442886533
 40
0.3714029072
 40
0.4999999992
 40
0.6285970912
 40
0.7557113454
 40
0.8799913192
 40
1.0
 40
1.0
 40
1.0
 40
1.0
 10
1.980431853
 20
4.4863775804
 30
0.0
 10
1.9810083218
 20
4.4843700001
 30
0.0
 10
1.9820204912
 20
4.4802356417
 30
0.0
 10
1.9831039442
 20
4.4738579225
 30
0.0
 10
1.9837617625
 20
4.4672719515
 30
0.0
 10
1.9839818829
 20
4.4605819791
 30
0.0
 10
1.9837617625
 20
4.4538920067
 30
0.0
 10
1.9831039442
 20
4.4473060357
 30
0.0
 10
1.9820204912
 20
4.4409283164
 30
0.0
 10
1.9810083218
 20
4.436793958
 30
0.0
 10
1.980431853
 20
4.4347863777
 30
0.0
  0
SPLINE
  5
2EC
100
AcDbEntity
  8
0
100
AcDbSpline
 62
7
  6
CONTINUOUS
 70
0
 71
3
 72
15
 73
11
 74
0
 42
0.0000001
 43
0.0000001
 44
0.0000000001
 40
0.0
 40
0.0
 40
0.0
 40
0.0
 40
0.1183610205
 40
0.2424057052
 40
0.3702264907
 40
0.5000000018
 40
0.6297735127
 40
0.757594297
 40
0.8816389802
 40
1.0
 40
1.0
 40
1.0
 40
1.0
 10
1.980431853
 20
4.4347863777
 30
0.0
 10
1.9801708534
 20
4.4368100788
 30
0.0
 10
1.9797150399
 20
4.4409650849
 30
0.0
 10
1.9792303201
 20
4.4473301256
 30
0.0
 10
1.9789359611
 20
4.4539037777
 30
0.0
 10
1.9788374352
 20
4.4605819792
 30
0.0
 10
1.9789359611
 20
4.4672601806
 30
0.0
 10
1.9792303201
 20
4.4738338326
 30
0.0
 10
1.9797150399
 20
4.4801988733
 30
0.0
 10
1.9801708534
 20
4.4843538794
 30
0.0
 10
1.980431853
 20
4.4863775804
 30
0.0
  0
SPLINE
  5
2ED
100
AcDbEntity
  8
0
100
AcDbSpline
 62
7
  6
CONTINUOUS
 70
0
 71
3
 72
15
 73
11
 74
0
 42
0.0000001
 43
0.0000001
 44
0.0000000001
 40
0.0
 40
0.0
 40
0.0
 40
0.0
 40
0.1195131456
 40
0.243721207
 40
0.3710479668
 40
0.4999999992
 40
0.6289520316
 40
0.7562787918
 40
0.880486854
 40
1.0
 40
1.0
 40
1.0
 40
1.0
 10
1.9721391725
 20
4.4863775804
 30
0.0
 10
1.9726415833
 20
4.4843652713
 30
0.0
 10
1.9735223713
 20
4.4802246396
 30
0.0
 10
1.9744633136
 20
4.4738506249
 30
0.0
 10
1.9750346317
 20
4.4672683576
 30
0.0
 10
1.9752258205
 20
4.4605819791
 30
0.0
 10
1.9750346317
 20
4.4538956006
 30
0.0
 10
1.9744633136
 20
4.4473133333
 30
0.0
 10
1.9735223713
 20
4.4409393186
 30
0.0
 10
1.9726415833
 20
4.4367986869
 30
0.0
 10
1.9721391725
 20
4.4347863777
 30
0.0
  0
SPLINE
  5
2EE
100
AcDbEntity
  8
0
100
AcDbSpline
 62
7
  6
CONTINUOUS
 70
0
 71
3
 72
15
 73
11
 74
0
 42
0.0000001
 43
0.0000001
 44
0.0000000001
 40
0.0
 40
0.0
 40
0.0
 40
0.0
 40
0.1191033951
 40
0.2431969324
 40
0.3707253034
 40
0.5
 40
0.6292746966
 40
0.7568030676
 40
0.8808966049
 40
1.0
 40
1.0
 40
1.0
 40
1.0
 10
9.1594449935
 20
4.4863775804
 30
0.0
 10
9.1590200387
 20
4.4843602512
 30
0.0
 10
9.1582760217
 20
4.4802142481
 30
0.0
 10
9.157483551
 20
4.4738436246
 30
0.0
 10
9.1570019741
 20
4.4672653928
 30
0.0
 10
9.1568404505
 20
4.4605819791
 30
0.0
 10
9.1570019741
 20
4.4538985653
 30
0.0
 10
9.157483551
 20
4.4473203335
 30
0.0
 10
9.1582760217
 20
4.4409497101
 30
0.0
 10
9.1590200387
 20
4.4368037069
 30
0.0
 10
9.1594449935
 20
4.4347863777
 30
0.0
  0
SPLINE
  5
2EF
100
AcDbEntity
  8
0
100
AcDbSpline
 62
7
  6
CONTINUOUS
 70
0
 71
3
 72
15
 73
11
 74
0
 42
0.0000001
 43
0.0000001
 44
0.0000000001
 40
0.0
 40
0.0
 40
0.0
 40
0.0
 40
0.1187151316
 40
0.242754051
 40
0.3704487819
 40
0.4999999998
 40
0.6295512177
 40
0.7572459486
 40
0.881284868
 40
1.0
 40
1.0
 40
1.0
 40
1.0
 10
9.1511008687
 20
4.4863775804
 30
0.0
 10
9.1514451492
 20
4.4843564068
 30
0.0
 10
9.1520471414
 20
4.4802055493
 30
0.0
 10
9.1526873454
 20
4.4738379858
 30
0.0
 10
9.153076417
 20
4.4672626431
 30
0.0
 10
9.1532069229
 20
4.4605819791
 30
0.0
 10
9.153076417
 20
4.453901315
 30
0.0
 10
9.1526873454
 20
4.4473259724
 30
0.0
 10
9.1520471414
 20
4.4409584089
 30
0.0
 10
9.1514451492
 20
4.4368075514
 30
0.0
 10
9.1511008687
 20
4.4347863777
 30
0.0
  0
SPLINE
  5
2F0
100
AcDbEntity
  8
0
100
AcDbSpline
 62
7
  6
CONTINUOUS
 70
0
 71
3
 72
15
 73
11
 74
0
 42
0.0000001
 43
0.0000001
 44
0.0000000001
 40
0.0
 40
0.0
 40
0.0
 40
0.0
 40
0.1195520652
 40
0.243709503
 40
0.3710455789
 40
0.5000000004
 40
0.628954422
 40
0.7562904977
 40
0.8804479352
 40
1.0
 40
1.0
 40
1.0
 40
1.0
 10
9.1511008687
 20
4.4347863777
 30
0.0
 10
9.150598294
 20
4.4367993437
 30
0.0
 10
9.1497171117
 20
4.4409396948
 30
0.0
 10
9.1487768494
 20
4.4473137831
 30
0.0
 10
9.1482054998
 20
4.4538953531
 30
0.0
 10
9.1480138771
 20
4.4605819791
 30
0.0
 10
9.1482054998
 20
4.4672686051
 30
0.0
 10
9.1487768494
 20
4.473850175
 30
0.0
 10
9.1497171117
 20
4.4802242634
 30
0.0
 10
9.150598294
 20
4.4843646145
 30
0.0
 10
9.1511008687
 20
4.4863775804
 30
0.0
  0
SPLINE
  5
2F1
100
AcDbEntity
  8
0
100
AcDbSpline
 62
7
  6
CONTINUOUS
 70
0
 71
3
 72
15
 73
11
 74
0
 42
0.0000001
 43
0.0000001
 44
0.0000000001
 40
0.0
 40
0.0
 40
0.0
 40
0.0
 40
0.1183990462
 40
0.2423939361
 40
0.370224108
 40
0.4999999998
 40
0.6297758916
 40
0.7576060635
 40
0.8816009534
 40
1.0
 40
1.0
 40
1.0
 40
1.0
 10
9.1428081882
 20
4.4863775804
 30
0.0
 10
9.1430692717
 20
4.4843532288
 30
0.0
 10
9.1435252942
 20
4.4801984468
 30
0.0
 10
9.1440096551
 20
4.4738334157
 30
0.0
 10
9.1443040342
 20
4.4672604254
 30
0.0
 10
9.1444027832
 20
4.4605819791
 30
0.0
 10
9.1443040342
 20
4.4539035328
 30
0.0
 10
9.1440096551
 20
4.4473305424
 30
0.0
 10
9.1435252942
 20
4.4409655113
 30
0.0
 10
9.1430692717
 20
4.4368107293
 30
0.0
 10
9.1428081882
 20
4.4347863777
 30
0.0
  0
SPLINE
  5
2F2
100
AcDbEntity
  8
0
100
AcDbSpline
 62
7
  6
CONTINUOUS
 70
0
 71
3
 72
15
 73
11
 74
0
 42
0.0000001
 43
0.0000001
 44
0.0000000001
 40
0.0
 40
0.0
 40
0.0
 40
0.0
 40
0.120047982
 40
0.2442769737
 40
0.3714005141
 40
0.5000000004
 40
0.6285994868
 40
0.755723027
 40
0.8799520184
 40
1.0
 40
1.0
 40
1.0
 40
1.0
 10
9.1428081882
 20
4.4347863777
 30
0.0
 10
9.1422315301
 20
4.4367946174
 30
0.0
 10
9.1412189123
 20
4.4409286713
 30
0.0
 10
9.1401362342
 20
4.4473064997
 30
0.0
 10
9.1394783834
 20
4.4538917581
 30
0.0
 10
9.1392577628
 20
4.4605819791
 30
0.0
 10
9.1394783834
 20
4.4672722001
 30
0.0
 10
9.1401362342
 20
4.4738574585
 30
0.0
 10
9.1412189123
 20
4.4802352869
 30
0.0
 10
9.1422315301
 20
4.4843693408
 30
0.0
 10
9.1428081882
 20
4.4863775804
 30
0.0
  0
SPLINE
  5
2F3
100
AcDbEntity
  8
0
100
AcDbSpline
 62
7
  6
CONTINUOUS
 70
0
 71
3
 72
15
 73
11
 74
0
 42
0.0000001
 43
0.0000001
 44
0.0000000001
 40
0.0
 40
0.0
 40
0.0
 40
0.0
 40
0.118164987
 40
0.2421275316
 40
0.3700579914
 40
0.4999999998
 40
0.6299420082
 40
0.757872468
 40
0.8818350126
 40
1.0
 40
1.0
 40
1.0
 40
1.0
 10
9.1346180791
 20
4.4863775804
 30
0.0
 10
9.1347940214
 20
4.4843508471
 30
0.0
 10
9.1351010786
 20
4.4801931756
 30
0.0
 10
9.1354269158
 20
4.4738300435
 30
0.0
 10
9.1356249592
 20
4.4672587949
 30
0.0
 10
9.1356913955
 20
4.4605819791
 30
0.0
 10
9.1356249592
 20
4.4539051632
 30
0.0
 10
9.1354269158
 20
4.4473339147
 30
0.0
 10
9.1351010786
 20
4.4409707826
 30
0.0
 10
9.1347940214
 20
4.436813111
 30
0.0
 10
9.1346180791
 20
4.4347863777
 30
0.0
  0
SPLINE
  5
2F4
100
AcDbEntity
  8
0
100
AcDbSpline
 62
7
  6
CONTINUOUS
 70
0
 71
3
 72
15
 73
11
 74
0
 42
0.0000001
 43
0.0000001
 44
0.0000000001
 40
0.0
 40
0.0
 40
0.0
 40
0.0
 40
0.1205771376
 40
0.2448835686
 40
0.3717803185
 40
0.5000000004
 40
0.6282196824
 40
0.7551164321
 40
0.8794228629
 40
1.0
 40
1.0
 40
1.0
 40
1.0
 10
9.1346180791
 20
4.4347863777
 30
0.0
 10
9.1339713061
 20
4.4367896828
 30
0.0
 10
9.1328338012
 20
4.4409169645
 30
0.0
 10
9.1316149759
 20
4.4472986781
 30
0.0
 10
9.1308744315
 20
4.45388787
 30
0.0
 10
9.1306260913
 20
4.4605819791
 30
0.0
 10
9.1308744315
 20
4.4672760882
 30
0.0
 10
9.1316149759
 20
4.4738652801
 30
0.0
 10
9.1328338012
 20
4.4802469936
 30
0.0
 10
9.1339713061
 20
4.4843742754
 30
0.0
 10
9.1346180791
 20
4.4863775804
 30
0.0
  0
SPLINE
  5
2F5
100
AcDbEntity
  8
0
100
AcDbSpline
 62
7
  6
CONTINUOUS
 70
0
 71
3
 72
11
 73
7
 74
0
 42
0.0000001
 43
0.0000001
 44
0.0000000001
 40
0.0
 40
0.0
 40
0.0
 40
0.0
 40
0.2419626412
 40
0.4999999998
 40
0.7580373584
 40
1.0
 40
1.0
 40
1.0
 40
1.0
 10
9.1265810362
 20
4.4863775804
 30
0.0
 10
9.1267644722
 20
4.4822194409
 30
0.0
 10
9.1270296987
 20
4.4736217346
 30
0.0
 10
9.1271592566
 20
4.4605819791
 30
0.0
 10
9.1270296987
 20
4.4475422236
 30
0.0
 10
9.1267644722
 20
4.4389445172
 30
0.0
 10
9.1265810362
 20
4.4347863777
 30
0.0
  0
SPLINE
  5
2F6
100
AcDbEntity
  8
0
100
AcDbSpline
 62
7
  6
CONTINUOUS
 70
0
 71
3
 72
13
 73
9
 74
0
 42
0.0000001
 43
0.0000001
 44
0.0000000001
 40
0.0
 40
0.0
 40
0.0
 40
0.0
 40
0.2453920587
 40
0.3721141137
 40
0.5000000004
 40
0.6278858871
 40
0.7546079421
 40
1.0
 40
1.0
 40
1.0
 40
1.0
 10
9.1265810362
 20
4.4347863777
 30
0.0
 10
9.1251381693
 20
4.4388329025
 30
0.0
 10
9.123526216
 20
4.4451905494
 30
0.0
 10
9.1224468243
 20
4.4538831055
 30
0.0
 10
9.1221720117
 20
4.4605819791
 30
0.0
 10
9.1224468243
 20
4.4672808527
 30
0.0
 10
9.123526216
 20
4.4759734088
 30
0.0
 10
9.1251381693
 20
4.4823310556
 30
0.0
 10
9.1265810362
 20
4.4863775804
 30
0.0
  0
SPLINE
  5
2F7
100
AcDbEntity
  8
0
100
AcDbSpline
 62
7
  6
CONTINUOUS
 70
0
 71
3
 72
15
 73
11
 74
0
 42
0.0000001
 43
0.0000001
 44
0.0000000001
 40
0.0
 40
0.0
 40
0.0
 40
0.0
 40
0.119064821
 40
0.243208695
 40
0.3707277279
 40
0.5
 40
0.6292722721
 40
0.756791305
 40
0.880935179
 40
1.0
 40
1.0
 40
1.0
 40
1.0
 10
1.9637950477
 20
4.4347863777
 30
0.0
 10
1.9642198647
 20
4.4368030525
 30
0.0
 10
1.9649635457
 20
4.4409493149
 30
0.0
 10
1.9657565953
 20
4.4473198977
 30
0.0
 10
1.9662381423
 20
4.4538988131
 30
0.0
 10
1.9663993018
 20
4.4605819791
 30
0.0
 10
1.9662381423
 20
4.4672651451
 30
0.0
 10
1.9657565953
 20
4.4738440605
 30
0.0
 10
1.9649635457
 20
4.4802146432
 30
0.0
 10
1.9642198647
 20
4.4843609057
 30
0.0
 10
1.9637950477
 20
4.4863775804
 30
0.0
  0
SPLINE
  5
2F8
100
AcDbEntity
  8
0
100
AcDbSpline
 62
7
  6
CONTINUOUS
 70
0
 71
3
 72
11
 73
7
 74
0
 42
0.0000001
 43
0.0000001
 44
0.0000000001
 40
0.0
 40
0.0
 40
0.0
 40
0.0
 40
0.2484665087
 40
0.5000000017
 40
0.7515334935
 40
1.0
 40
1.0
 40
1.0
 40
1.0
 10
1.8947262477
 20
4.4347863777
 30
0.0
 10
1.8927895913
 20
4.4387507327
 30
0.0
 10
1.8898113907
 20
4.4472119194
 30
0.0
 10
1.8883091555
 20
4.4605819791
 30
0.0
 10
1.8898113907
 20
4.4739520388
 30
0.0
 10
1.8927895913
 20
4.4824132254
 30
0.0
 10
1.8947262477
 20
4.4863775804
 30
0.0
  0
SPLINE
  5
2F9
100
AcDbEntity
  8
0
100
AcDbSpline
 62
7
  6
CONTINUOUS
 70
0
 71
3
 72
13
 73
9
 74
0
 42
0.0000001
 43
0.0000001
 44
0.0000000001
 40
0.0
 40
0.0
 40
0.0
 40
0.0
 40
0.2460090546
 40
0.3725037331
 40
0.5000000004
 40
0.6274962678
 40
0.7539909462
 40
1.0
 40
1.0
 40
1.0
 40
1.0
 10
9.1187466105
 20
4.4347863777
 30
0.0
 10
9.1171833902
 20
4.4388143883
 30
0.0
 10
9.1154248472
 20
4.4451693444
 30
0.0
 10
9.1142473208
 20
4.4538788497
 30
0.0
 10
9.1139477454
 20
4.4605819791
 30
0.0
 10
9.1142473208
 20
4.4672851085
 30
0.0
 10
9.1154248472
 20
4.4759946137
 30
0.0
 10
9.1171833902
 20
4.4823495699
 30
0.0
 10
9.1187466105
 20
4.4863775804
 30
0.0
  0
SPLINE
  5
2FA
100
AcDbEntity
  8
0
100
AcDbSpline
 62
7
  6
CONTINUOUS
 70
0
 71
3
 72
15
 73
11
 74
0
 42
0.0000001
 43
0.0000001
 44
0.0000000001
 40
0.0
 40
0.0
 40
0.0
 40
0.0
 40
0.1222217281
 40
0.2467760229
 40
0.3729678997
 40
0.5000000004
 40
0.6270321011
 40
0.7532239779
 40
0.8777782723
 40
1.0
 40
1.0
 40
1.0
 40
1.0
 10
9.1111631039
 20
4.4347863777
 30
0.0
 10
9.1103334148
 20
4.4367750249
 30
0.0
 10
9.1088678243
 20
4.4408809644
 30
0.0
 10
9.1072868245
 20
4.4472740396
 30
0.0
 10
9.1063262279
 20
4.4538754341
 30
0.0
 10
9.106004119
 20
4.4605819791
 30
0.0
 10
9.1063262279
 20
4.4672885241
 30
0.0
 10
9.1072868245
 20
4.4738899186
 30
0.0
 10
9.1088678243
 20
4.4802829937
 30
0.0
 10
9.1103334148
 20
4.4843889333
 30
0.0
 10
9.1111631039
 20
4.4863775804
 30
0.0
  0
SPLINE
  5
2FB
100
AcDbEntity
  8
0
100
AcDbSpline
 62
7
  6
CONTINUOUS
 70
0
 71
3
 72
15
 73
11
 74
0
 42
0.0000001
 43
0.0000001
 44
0.0000000001
 40
0.0
 40
0.0
 40
0.0
 40
0.0
 40
0.1227436965
 40
0.247378934
 40
0.3733471039
 40
0.5000000004
 40
0.6266528969
 40
0.7526210667
 40
0.877256304
 40
1.0
 40
1.0
 40
1.0
 40
1.0
 10
9.1038772712
 20
4.4347863777
 30
0.0
 10
9.1029967513
 20
4.4367705765
 30
0.0
 10
9.1014394282
 20
4.4408696651
 30
0.0
 10
9.0997558468
 20
4.4472661158
 30
0.0
 10
9.0987328792
 20
4.4538713728
 30
0.0
 10
9.0983898553
 20
4.4605819791
 30
0.0
 10
9.0987328793
 20
4.4672925854
 30
0.0
 10
9.0997558468
 20
4.4738978423
 30
0.0
 10
9.1014394282
 20
4.4802942931
 30
0.0
 10
9.1029967514
 20
4.4843933816
 30
0.0
 10
9.1038772712
 20
4.4863775804
 30
0.0
  0
SPLINE
  5
2FC
100
AcDbEntity
  8
0
100
AcDbSpline
 62
7
  6
CONTINUOUS
 70
0
 71
3
 72
15
 73
11
 74
0
 42
0.0000001
 43
0.0000001
 44
0.0000000001
 40
0.0
 40
0.0
 40
0.0
 40
0.0
 40
0.1240251579
 40
0.2489244968
 40
0.3743162947
 40
0.5000000017
 40
0.6256837086
 40
0.7510755054
 40
0.8759748427
 40
1.0
 40
1.0
 40
1.0
 40
1.0
 10
1.8885942415
 20
4.4347863777
 30
0.0
 10
1.8875952126
 20
4.4367590282
 30
0.0
 10
1.8858232812
 20
4.4408411073
 30
0.0
 10
1.8838951102
 20
4.4472452197
 30
0.0
 10
1.8827240618
 20
4.4538610732
 30
0.0
 10
1.8823322528
 20
4.4605819792
 30
0.0
 10
1.8827240618
 20
4.4673028851
 30
0.0
 10
1.8838951102
 20
4.4739187385
 30
0.0
 10
1.8858232812
 20
4.4803228509
 30
0.0
 10
1.8875952126
 20
4.48440493
 30
0.0
 10
1.8885942415
 20
4.4863775804
 30
0.0
  0
SPLINE
  5
2FD
100
AcDbEntity
  8
0
100
AcDbSpline
 62
7
  6
CONTINUOUS
 70
0
 71
3
 72
13
 73
9
 74
0
 42
0.0000001
 43
0.0000001
 44
0.0000000001
 40
0.0
 40
0.0
 40
0.0
 40
0.0
 40
0.1233230009
 40
0.2481269623
 40
0.5000000004
 40
0.7518730384
 40
0.8766769996
 40
1.0
 40
1.0
 40
1.0
 40
1.0
 10
9.0969340319
 20
4.4347863777
 30
0.0
 10
9.0960081608
 20
4.4367664988
 30
0.0
 10
9.0943687619
 20
4.4408595904
 30
0.0
 10
9.0919947593
 20
4.4494128841
 30
0.0
 10
9.0907900452
 20
4.4605819791
 30
0.0
 10
9.0919947593
 20
4.471751074
 30
0.0
 10
9.0943687619
 20
4.4803043677
 30
0.0
 10
9.0960081608
 20
4.4843974593
 30
0.0
 10
9.0969340319
 20
4.4863775804
 30
0.0
  0
SPLINE
  5
2FE
100
AcDbEntity
  8
0
100
AcDbSpline
 62
7
  6
CONTINUOUS
 70
0
 71
3
 72
15
 73
11
 74
0
 42
0.0000001
 43
0.0000001
 44
0.0000000001
 40
0.0
 40
0.0
 40
0.0
 40
0.0
 40
0.1236764259
 40
0.2484590352
 40
0.3740274848
 40
0.5000000004
 40
0.625972516
 40
0.7515409655
 40
0.8763235746
 40
1.0
 40
1.0
 40
1.0
 40
1.0
 10
9.0903761936
 20
4.4347863777
 30
0.0
 10
9.0894106484
 20
4.4367628582
 30
0.0
 10
9.0876993929
 20
4.4408496319
 30
0.0
 10
9.0858422421
 20
4.4472518324
 30
0.0
 10
9.0847136654
 20
4.4538639742
 30
0.0
 10
9.0843352141
 20
4.4605819791
 30
0.0
 10
9.0847136654
 20
4.467299984
 30
0.0
 10
9.0858422421
 20
4.4739121257
 30
0.0
 10
9.0876993929
 20
4.4803143262
 30
0.0
 10
9.0894106484
 20
4.4844010999
 30
0.0
 10
9.0903761936
 20
4.4863775804
 30
0.0
  0
SPLINE
  5
2FF
100
AcDbEntity
  8
0
100
AcDbSpline
 62
7
  6
CONTINUOUS
 70
0
 71
3
 72
15
 73
11
 74
0
 42
0.0000001
 43
0.0000001
 44
0.0000000001
 40
0.0
 40
0.0
 40
0.0
 40
0.0
 40
0.1240675123
 40
0.2489129561
 40
0.3743138232
 40
0.5000000004
 40
0.6256861776
 40
0.7510870447
 40
0.8759324881
 40
1.0
 40
1.0
 40
1.0
 40
1.0
 10
9.0842441873
 20
4.4347863777
 30
0.0
 10
9.0832448147
 20
4.436759707
 30
0.0
 10
9.0814721607
 20
4.4408412938
 30
0.0
 10
9.0795452565
 20
4.4472457964
 30
0.0
 10
9.0783742033
 20
4.4538608171
 30
0.0
 10
9.0779814969
 20
4.4605819791
 30
0.0
 10
9.0783742033
 20
4.4673031411
 30
0.0
 10
9.0795452565
 20
4.4739181618
 30
0.0
 10
9.0814721607
 20
4.4803226643
 30
0.0
 10
9.0832448147
 20
4.4844042511
 30
0.0
 10
9.0842441873
 20
4.4863775804
 30
0.0
  0
SPLINE
  5
300
100
AcDbEntity
  8
0
100
AcDbSpline
 62
7
  6
CONTINUOUS
 70
0
 71
3
 72
15
 73
11
 74
0
 42
0.0000001
 43
0.0000001
 44
0.0000000001
 40
0.0
 40
0.0
 40
0.0
 40
0.0
 40
0.1248509218
 40
0.2498240867
 40
0.3748893
 40
0.5000000004
 40
0.6251107009
 40
0.750175914
 40
0.8751490786
 40
1.0
 40
1.0
 40
1.0
 40
1.0
 10
9.068766712
 20
4.4347863777
 30
0.0
 10
9.0677022256
 20
4.4367535401
 30
0.0
 10
9.0658111671
 20
4.4408247033
 30
0.0
 10
9.0637488699
 20
4.4472336219
 30
0.0
 10
9.0624952981
 20
4.4538543932
 30
0.0
 10
9.0620748853
 20
4.4605819791
 30
0.0
 10
9.0624952981
 20
4.4673095649
 30
0.0
 10
9.0637488699
 20
4.4739303363
 30
0.0
 10
9.0658111671
 20
4.4803392548
 30
0.0
 10
9.0677022256
 20
4.4844104181
 30
0.0
 10
9.068766712
 20
4.4863775804
 30
0.0
  0
SPLINE
  5
301
100
AcDbEntity
  8
0
100
AcDbSpline
 62
7
  6
CONTINUOUS
 70
0
 71
3
 72
15
 73
11
 74
0
 42
0.0000001
 43
0.0000001
 44
0.0000000001
 40
0.0
 40
0.0
 40
0.0
 40
0.0
 40
0.1249657865
 40
0.249957886
 40
0.3749738904
 40
0.5000000004
 40
0.6250261104
 40
0.7500421148
 40
0.875034214
 40
1.0
 40
1.0
 40
1.0
 40
1.0
 10
9.0646864497
 20
4.4347863777
 30
0.0
 10
9.063612681
 20
4.4367526518
 30
0.0
 10
9.0617047218
 20
4.4408222835
 30
0.0
 10
9.059623003
 20
4.4472318275
 30
0.0
 10
9.0583575858
 20
4.45385344
 30
0.0
 10
9.057933194
 20
4.4605819791
 30
0.0
 10
9.0583575858
 20
4.4673105181
 30
0.0
 10
9.059623003
 20
4.4739321306
 30
0.0
 10
9.0617047218
 20
4.4803416746
 30
0.0
 10
9.063612681
 20
4.4844113064
 30
0.0
 10
9.0646864497
 20
4.4863775804
 30
0.0
  0
SPLINE
  5
302
100
AcDbEntity
  8
0
100
AcDbSpline
 62
7
  6
CONTINUOUS
 70
0
 71
3
 72
15
 73
11
 74
0
 42
0.0000001
 43
0.0000001
 44
0.0000000001
 40
0.0
 40
0.0
 40
0.0
 40
0.0
 40
0.1250029031
 40
0.2500011324
 40
0.3750012362
 40
0.5000000004
 40
0.6249987647
 40
0.7499988683
 40
0.8749970973
 40
1.0
 40
1.0
 40
1.0
 40
1.0
 10
9.0611904052
 20
4.4347863777
 30
0.0
 10
9.0601136505
 20
4.4367523656
 30
0.0
 10
9.0582002534
 20
4.4408215023
 30
0.0
 10
9.0561122804
 20
4.4472312472
 30
0.0
 10
9.0548430481
 20
4.4538531314
 30
0.0
 10
9.0544173748
 20
4.4605819791
 30
0.0
 10
9.0548430481
 20
4.4673108268
 30
0.0
 10
9.0561122804
 20
4.473932711
 30
0.0
 10
9.0582002534
 20
4.4803424558
 30
0.0
 10
9.0601136505
 20
4.4844115925
 30
0.0
 10
9.0611904052
 20
4.4863775804
 30
0.0
  0
SPLINE
  5
303
100
AcDbEntity
  8
0
100
AcDbSpline
 62
7
  6
CONTINUOUS
 70
0
 71
3
 72
15
 73
11
 74
0
 42
0.0000001
 43
0.0000001
 44
0.0000000001
 40
0.0
 40
0.0
 40
0.0
 40
0.0
 40
0.1249616108
 40
0.2499530211
 40
0.3749708144
 40
0.5000000004
 40
0.6250291865
 40
0.7500469797
 40
0.8750383896
 40
1.0
 40
1.0
 40
1.0
 40
1.0
 10
9.058300133
 20
4.4347863777
 30
0.0
 10
9.0572267007
 20
4.436752684
 30
0.0
 10
9.0553193539
 20
4.4408223714
 30
0.0
 10
9.0532383394
 20
4.4472318928
 30
0.0
 10
9.0519733517
 20
4.4538534747
 30
0.0
 10
9.0515491043
 20
4.4605819791
 30
0.0
 10
9.0519733517
 20
4.4673104834
 30
0.0
 10
9.0532383394
 20
4.4739320654
 30
0.0
 10
9.0553193539
 20
4.4803415867
 30
0.0
 10
9.0572267007
 20
4.4844112741
 30
0.0
 10
9.058300133
 20
4.4863775804
 30
0.0
  0
SPLINE
  5
304
100
AcDbEntity
  8
0
100
AcDbSpline
 62
7
  6
CONTINUOUS
 70
0
 71
3
 72
15
 73
11
 74
0
 42
0.0000001
 43
0.0000001
 44
0.0000000001
 40
0.0
 40
0.0
 40
0.0
 40
0.0
 40
0.1249227598
 40
0.2499694086
 40
0.3749763869
 40
0.5000000017
 40
0.6250236164
 40
0.7500305936
 40
0.8750772408
 40
1.0
 40
1.0
 40
1.0
 40
1.0
 10
1.8690365038
 20
4.4347863777
 30
0.0
 10
1.8679631081
 20
4.4367519689
 30
0.0
 10
1.8660559122
 20
4.4408221335
 30
0.0
 10
1.8639728508
 20
4.4472312262
 30
0.0
 10
1.8627074264
 20
4.4538536974
 30
0.0
 10
1.8622840058
 20
4.4605819792
 30
0.0
 10
1.8627074265
 20
4.4673102609
 30
0.0
 10
1.8639728508
 20
4.4739327321
 30
0.0
 10
1.8660559122
 20
4.4803418247
 30
0.0
 10
1.8679631081
 20
4.4844119892
 30
0.0
 10
1.8690365038
 20
4.4863775804
 30
0.0
  0
SPLINE
  5
305
100
AcDbEntity
  8
0
100
AcDbSpline
 62
7
  6
CONTINUOUS
 70
0
 71
3
 72
15
 73
11
 74
0
 42
0.0000001
 43
0.0000001
 44
0.0000000001
 40
0.0
 40
0.0
 40
0.0
 40
0.0
 40
0.1249598487
 40
0.2500126544
 40
0.3750037337
 40
0.5000000017
 40
0.6249962695
 40
0.7499873478
 40
0.8750401519
 40
1.0
 40
1.0
 40
1.0
 40
1.0
 10
1.8655404594
 20
4.4347863777
 30
0.0
 10
1.8644640787
 20
4.4367516826
 30
0.0
 10
1.8625514465
 20
4.4408213538
 30
0.0
 10
1.860462128
 20
4.4472306448
 30
0.0
 10
1.859192888
 20
4.4538533888
 30
0.0
 10
1.8587681888
 20
4.4605819792
 30
0.0
 10
1.8591928881
 20
4.4673105695
 30
0.0
 10
1.860462128
 20
4.4739333134
 30
0.0
 10
1.8625514465
 20
4.4803426044
 30
0.0
 10
1.8644640787
 20
4.4844122756
 30
0.0
 10
1.8655404594
 20
4.4863775804
 30
0.0
  0
SPLINE
  5
306
100
AcDbEntity
  8
0
100
AcDbSpline
 62
7
  6
CONTINUOUS
 70
0
 71
3
 72
15
 73
11
 74
0
 42
0.0000001
 43
0.0000001
 44
0.0000000001
 40
0.0
 40
0.0
 40
0.0
 40
0.0
 40
0.1249185873
 40
0.2499645438
 40
0.3749733107
 40
0.5000000017
 40
0.6250266925
 40
0.7500354584
 40
0.8750814133
 40
1.0
 40
1.0
 40
1.0
 40
1.0
 10
1.8626501872
 20
4.4347863777
 30
0.0
 10
1.8615771276
 20
4.4367520012
 30
0.0
 10
1.859670544
 20
4.4408222213
 30
0.0
 10
1.8575881872
 20
4.4472312915
 30
0.0
 10
1.8563231925
 20
4.4538537321
 30
0.0
 10
1.8558999158
 20
4.4605819792
 30
0.0
 10
1.8563231925
 20
4.4673102262
 30
0.0
 10
1.8575881873
 20
4.4739326667
 30
0.0
 10
1.859670544
 20
4.4803417369
 30
0.0
 10
1.8615771276
 20
4.484411957
 30
0.0
 10
1.8626501872
 20
4.4863775804
 30
0.0
  0
SPLINE
  5
307
100
AcDbEntity
  8
0
100
AcDbSpline
 62
7
  6
CONTINUOUS
 70
0
 71
3
 72
15
 73
11
 74
0
 42
0.0000001
 43
0.0000001
 44
0.0000000001
 40
0.0
 40
0.0
 40
0.0
 40
0.0
 40
0.119064821
 40
0.243208695
 40
0.3707277279
 40
0.5
 40
0.6292722721
 40
0.756791305
 40
0.880935179
 40
1.0
 40
1.0
 40
1.0
 40
1.0
 10
1.9637950477
 20
4.4863775804
 30
0.0
 10
1.9633702307
 20
4.4843609057
 30
0.0
 10
1.9626265496
 20
4.4802146432
 30
0.0
 10
1.9618335
 20
4.4738440605
 30
0.0
 10
1.9613519531
 20
4.4672651451
 30
0.0
 10
1.9611907936
 20
4.4605819791
 30
0.0
 10
1.9613519531
 20
4.4538988131
 30
0.0
 10
1.9618335
 20
4.4473198977
 30
0.0
 10
1.9626265496
 20
4.4409493149
 30
0.0
 10
1.9633702307
 20
4.4368030525
 30
0.0
 10
1.9637950477
 20
4.4347863777
 30
0.0
  0
SPLINE
  5
308
100
AcDbEntity
  8
0
100
AcDbSpline
 62
7
  6
CONTINUOUS
 70
0
 71
3
 72
15
 73
11
 74
0
 42
0.0000001
 43
0.0000001
 44
0.0000000001
 40
0.0
 40
0.0
 40
0.0
 40
0.0
 40
0.1186768599
 40
0.2427658003
 40
0.3704511639
 40
0.4999999992
 40
0.6295488345
 40
0.7572341985
 40
0.8813231397
 40
1.0
 40
1.0
 40
1.0
 40
1.0
 10
1.9554509228
 20
4.4863775804
 30
0.0
 10
1.9557950922
 20
4.4843570591
 30
0.0
 10
1.9563968104
 20
4.4802059619
 30
0.0
 10
1.9570374857
 20
4.4738384117
 30
0.0
 10
1.957426532
 20
4.4672623976
 30
0.0
 10
1.9575567429
 20
4.4605819791
 30
0.0
 10
1.957426532
 20
4.4539015606
 30
0.0
 10
1.9570374857
 20
4.4473255465
 30
0.0
 10
1.9563968104
 20
4.4409579962
 30
0.0
 10
1.9557950922
 20
4.4368068991
 30
0.0
 10
1.9554509228
 20
4.4347863777
 30
0.0
  0
SPLINE
  5
309
100
AcDbEntity
  8
0
100
AcDbSpline
 62
7
  6
CONTINUOUS
 70
0
 71
3
 72
15
 73
11
 74
0
 42
0.0000001
 43
0.0000001
 44
0.0000000001
 40
0.0
 40
0.0
 40
0.0
 40
0.0
 40
0.1195131461
 40
0.2437212087
 40
0.3710479693
 40
0.5000000018
 40
0.6289520341
 40
0.7562787935
 40
0.8804868545
 40
1.0
 40
1.0
 40
1.0
 40
1.0
 10
1.9554509228
 20
4.4347863777
 30
0.0
 10
1.9549485121
 20
4.4367986869
 30
0.0
 10
1.9540677241
 20
4.4409393186
 30
0.0
 10
1.9531267817
 20
4.4473133333
 30
0.0
 10
1.9525554636
 20
4.4538956007
 30
0.0
 10
1.9523642749
 20
4.4605819792
 30
0.0
 10
1.9525554636
 20
4.4672683576
 30
0.0
 10
1.9531267817
 20
4.473850625
 30
0.0
 10
1.9540677241
 20
4.4802246396
 30
0.0
 10
1.9549485121
 20
4.4843652713
 30
0.0
 10
1.9554509228
 20
4.4863775804
 30
0.0
  0
SPLINE
  5
30A
100
AcDbEntity
  8
0
100
AcDbSpline
 62
7
  6
CONTINUOUS
 70
0
 71
3
 72
15
 73
11
 74
0
 42
0.0000001
 43
0.0000001
 44
0.0000000001
 40
0.0
 40
0.0
 40
0.0
 40
0.0
 40
0.1183610199
 40
0.2424057035
 40
0.3702264881
 40
0.4999999992
 40
0.6297735102
 40
0.7575942953
 40
0.8816389796
 40
1.0
 40
1.0
 40
1.0
 40
1.0
 10
1.9471582423
 20
4.4863775804
 30
0.0
 10
1.9474192419
 20
4.4843538794
 30
0.0
 10
1.9478750555
 20
4.4801988733
 30
0.0
 10
1.9483597753
 20
4.4738338326
 30
0.0
 10
1.9486541342
 20
4.4672601806
 30
0.0
 10
1.9487526602
 20
4.4605819791
 30
0.0
 10
1.9486541342
 20
4.4539037776
 30
0.0
 10
1.9483597753
 20
4.4473301256
 30
0.0
 10
1.9478750555
 20
4.4409650849
 30
0.0
 10
1.9474192419
 20
4.4368100788
 30
0.0
 10
1.9471582423
 20
4.4347863777
 30
0.0
  0
SPLINE
  5
30B
100
AcDbEntity
  8
0
100
AcDbSpline
 62
7
  6
CONTINUOUS
 70
0
 71
3
 72
15
 73
11
 74
0
 42
0.0000001
 43
0.0000001
 44
0.0000000001
 40
0.0
 40
0.0
 40
0.0
 40
0.0
 40
0.1200086809
 40
0.2442886551
 40
0.3714029097
 40
0.5000000018
 40
0.6285970937
 40
0.7557113471
 40
0.8799913197
 40
1.0
 40
1.0
 40
1.0
 40
1.0
 10
1.9471582423
 20
4.4347863777
 30
0.0
 10
1.9465817736
 20
4.436793958
 30
0.0
 10
1.9455696042
 20
4.4409283164
 30
0.0
 10
1.9444861512
 20
4.4473060357
 30
0.0
 10
1.9438283328
 20
4.4538920067
 30
0.0
 10
1.9436082124
 20
4.4605819792
 30
0.0
 10
1.9438283328
 20
4.4672719516
 30
0.0
 10
1.9444861512
 20
4.4738579225
 30
0.0
 10
1.9455696042
 20
4.4802356417
 30
0.0
 10
1.9465817736
 20
4.4843700001
 30
0.0
 10
1.9471582423
 20
4.4863775804
 30
0.0
  0
SPLINE
  5
30C
100
AcDbEntity
  8
0
100
AcDbSpline
 62
7
  6
CONTINUOUS
 70
0
 71
3
 72
15
 73
11
 74
0
 42
0.0000001
 43
0.0000001
 44
0.0000000001
 40
0.0
 40
0.0
 40
0.0
 40
0.0
 40
0.1181271428
 40
0.2421393128
 40
0.3700603705
 40
0.4999999992
 40
0.6299396279
 40
0.7578606859
 40
0.8818728568
 40
1.0
 40
1.0
 40
1.0
 40
1.0
 10
1.9389681332
 20
4.4863775804
 30
0.0
 10
1.9391440192
 20
4.4843514964
 30
0.0
 10
1.939450935
 20
4.4801936124
 30
0.0
 10
1.9397770148
 20
4.4738304536
 30
0.0
 10
1.939975044
 20
4.4672585507
 30
0.0
 10
1.9400413304
 20
4.4605819791
 30
0.0
 10
1.939975044
 20
4.4539054075
 30
0.0
 10
1.9397770148
 20
4.4473335046
 30
0.0
 10
1.939450935
 20
4.4409703458
 30
0.0
 10
1.9391440192
 20
4.4368124617
 30
0.0
 10
1.9389681332
 20
4.4347863777
 30
0.0
  0
SPLINE
  5
30D
100
AcDbEntity
  8
0
100
AcDbSpline
 62
7
  6
CONTINUOUS
 70
0
 71
3
 72
15
 73
11
 74
0
 42
0.0000001
 43
0.0000001
 44
0.0000000001
 40
0.0
 40
0.0
 40
0.0
 40
0.0
 40
0.1205374302
 40
0.2448952257
 40
0.3717827207
 40
0.5000000018
 40
0.6282172827
 40
0.7551047765
 40
0.8794625705
 40
1.0
 40
1.0
 40
1.0
 40
1.0
 10
1.9389681332
 20
4.4347863777
 30
0.0
 10
1.938321574
 20
4.4367890207
 30
0.0
 10
1.9371845673
 20
4.4409166323
 30
0.0
 10
1.9359648794
 20
4.4472981991
 30
0.0
 10
1.935224367
 20
4.4538881198
 30
0.0
 10
1.9349765905
 20
4.4605819792
 30
0.0
 10
1.935224367
 20
4.4672758385
 30
0.0
 10
1.9359648794
 20
4.4738657592
 30
0.0
 10
1.9371845673
 20
4.4802473259
 30
0.0
 10
1.938321574
 20
4.4843749375
 30
0.0
 10
1.9389681332
 20
4.4863775804
 30
0.0
  0
SPLINE
  5
30E
100
AcDbEntity
  8
0
100
AcDbSpline
 62
7
  6
CONTINUOUS
 70
0
 71
3
 72
15
 73
11
 74
0
 42
0.0000001
 43
0.0000001
 44
0.0000000001
 40
0.0
 40
0.0
 40
0.0
 40
0.0
 40
0.1195520648
 40
0.2437095024
 40
0.3710455782
 40
0.4999999998
 40
0.6289544214
 40
0.7562904971
 40
0.8804479348
 40
1.0
 40
1.0
 40
1.0
 40
1.0
 10
9.1677891184
 20
4.4863775804
 30
0.0
 10
9.1682916931
 20
4.4843646145
 30
0.0
 10
9.1691728753
 20
4.4802242634
 30
0.0
 10
9.1701131376
 20
4.473850175
 30
0.0
 10
9.1706844873
 20
4.4672686051
 30
0.0
 10
9.1708761099
 20
4.4605819791
 30
0.0
 10
9.1706844873
 20
4.4538953531
 30
0.0
 10
9.1701131376
 20
4.4473137831
 30
0.0
 10
9.1691728753
 20
4.4409396948
 30
0.0
 10
9.1682916931
 20
4.4367993437
 30
0.0
 10
9.1677891184
 20
4.4347863777
 30
0.0
  0
SPLINE
  5
30F
100
AcDbEntity
  8
0
100
AcDbSpline
 62
7
  6
CONTINUOUS
 70
0
 71
3
 72
15
 73
11
 74
0
 42
0.0000001
 43
0.0000001
 44
0.0000000001
 40
0.0
 40
0.0
 40
0.0
 40
0.0
 40
0.1183990466
 40
0.2423939367
 40
0.3702241086
 40
0.5000000004
 40
0.6297758923
 40
0.7576060641
 40
0.8816009538
 40
1.0
 40
1.0
 40
1.0
 40
1.0
 10
9.1760817989
 20
4.4347863777
 30
0.0
 10
9.1758207154
 20
4.4368107293
 30
0.0
 10
9.1753646928
 20
4.4409655113
 30
0.0
 10
9.174880332
 20
4.4473305424
 30
0.0
 10
9.1745859528
 20
4.4539035328
 30
0.0
 10
9.1744872039
 20
4.4605819791
 30
0.0
 10
9.1745859528
 20
4.4672604254
 30
0.0
 10
9.174880332
 20
4.4738334158
 30
0.0
 10
9.1753646928
 20
4.4801984468
 30
0.0
 10
9.1758207154
 20
4.4843532288
 30
0.0
 10
9.1760817989
 20
4.4863775804
 30
0.0
  0
SPLINE
  5
310
100
AcDbEntity
  8
0
100
AcDbSpline
 62
7
  6
CONTINUOUS
 70
0
 71
3
 72
15
 73
11
 74
0
 42
0.0000001
 43
0.0000001
 44
0.0000000001
 40
0.0
 40
0.0
 40
0.0
 40
0.0
 40
0.1200479817
 40
0.2442769731
 40
0.3714005135
 40
0.4999999998
 40
0.6285994861
 40
0.7557230265
 40
0.879952018
 40
1.0
 40
1.0
 40
1.0
 40
1.0
 10
9.1760817989
 20
4.4863775804
 30
0.0
 10
9.176658457
 20
4.4843693408
 30
0.0
 10
9.1776710747
 20
4.4802352869
 30
0.0
 10
9.1787537529
 20
4.4738574585
 30
0.0
 10
9.1794116037
 20
4.4672722001
 30
0.0
 10
9.1796322242
 20
4.4605819791
 30
0.0
 10
9.1794116037
 20
4.453891758
 30
0.0
 10
9.1787537529
 20
4.4473064997
 30
0.0
 10
9.1776710747
 20
4.4409286713
 30
0.0
 10
9.176658457
 20
4.4367946174
 30
0.0
 10
9.1760817989
 20
4.4347863777
 30
0.0
  0
SPLINE
  5
311
100
AcDbEntity
  8
0
100
AcDbSpline
 62
7
  6
CONTINUOUS
 70
0
 71
3
 72
15
 73
11
 74
0
 42
0.0000001
 43
0.0000001
 44
0.0000000001
 40
0.0
 40
0.0
 40
0.0
 40
0.0
 40
0.1181649874
 40
0.2421275322
 40
0.370057992
 40
0.5000000005
 40
0.6299420088
 40
0.7578724686
 40
0.881835013
 40
1.0
 40
1.0
 40
1.0
 40
1.0
 10
9.184271908
 20
4.4347863777
 30
0.0
 10
9.1840959657
 20
4.436813111
 30
0.0
 10
9.1837889084
 20
4.4409707826
 30
0.0
 10
9.1834630713
 20
4.4473339147
 30
0.0
 10
9.1832650279
 20
4.4539051632
 30
0.0
 10
9.1831985916
 20
4.4605819791
 30
0.0
 10
9.1832650279
 20
4.4672587949
 30
0.0
 10
9.1834630713
 20
4.4738300435
 30
0.0
 10
9.1837889084
 20
4.4801931756
 30
0.0
 10
9.1840959657
 20
4.4843508471
 30
0.0
 10
9.184271908
 20
4.4863775804
 30
0.0
  0
SPLINE
  5
312
100
AcDbEntity
  8
0
100
AcDbSpline
 62
7
  6
CONTINUOUS
 70
0
 71
3
 72
15
 73
11
 74
0
 42
0.0000001
 43
0.0000001
 44
0.0000000001
 40
0.0
 40
0.0
 40
0.0
 40
0.0
 40
0.1205771372
 40
0.244883568
 40
0.3717803179
 40
0.4999999998
 40
0.6282196817
 40
0.7551164316
 40
0.8794228625
 40
1.0
 40
1.0
 40
1.0
 40
1.0
 10
9.184271908
 20
4.4863775804
 30
0.0
 10
9.1849186809
 20
4.4843742754
 30
0.0
 10
9.1860561859
 20
4.4802469936
 30
0.0
 10
9.1872750111
 20
4.4738652801
 30
0.0
 10
9.1880155556
 20
4.4672760882
 30
0.0
 10
9.1882638958
 20
4.4605819791
 30
0.0
 10
9.1880155556
 20
4.45388787
 30
0.0
 10
9.1872750111
 20
4.4472986781
 30
0.0
 10
9.1860561859
 20
4.4409169645
 30
0.0
 10
9.184918681
 20
4.4367896828
 30
0.0
 10
9.184271908
 20
4.4347863777
 30
0.0
  0
SPLINE
  5
313
100
AcDbEntity
  8
0
100
AcDbSpline
 62
7
  6
CONTINUOUS
 70
0
 71
3
 72
11
 73
7
 74
0
 42
0.0000001
 43
0.0000001
 44
0.0000000001
 40
0.0
 40
0.0
 40
0.0
 40
0.0
 40
0.2419626418
 40
0.5000000005
 40
0.758037359
 40
1.0
 40
1.0
 40
1.0
 40
1.0
 10
9.1923089509
 20
4.4347863777
 30
0.0
 10
9.1921255149
 20
4.4389445172
 30
0.0
 10
9.1918602884
 20
4.4475422236
 30
0.0
 10
9.1917307304
 20
4.4605819791
 30
0.0
 10
9.1918602884
 20
4.4736217346
 30
0.0
 10
9.1921255149
 20
4.4822194409
 30
0.0
 10
9.1923089509
 20
4.4863775804
 30
0.0
  0
SPLINE
  5
314
100
AcDbEntity
  8
0
100
AcDbSpline
 62
7
  6
CONTINUOUS
 70
0
 71
3
 72
13
 73
9
 74
0
 42
0.0000001
 43
0.0000001
 44
0.0000000001
 40
0.0
 40
0.0
 40
0.0
 40
0.0
 40
0.2453920581
 40
0.3721141131
 40
0.4999999998
 40
0.6278858865
 40
0.7546079415
 40
1.0
 40
1.0
 40
1.0
 40
1.0
 10
9.1923089509
 20
4.4863775804
 30
0.0
 10
9.1937518178
 20
4.4823310556
 30
0.0
 10
9.1953637711
 20
4.4759734088
 30
0.0
 10
9.1964431628
 20
4.4672808527
 30
0.0
 10
9.1967179754
 20
4.4605819791
 30
0.0
 10
9.1964431628
 20
4.4538831055
 30
0.0
 10
9.1953637711
 20
4.4451905494
 30
0.0
 10
9.1937518178
 20
4.4388329025
 30
0.0
 10
9.1923089509
 20
4.4347863777
 30
0.0
  0
SPLINE
  5
315
100
AcDbEntity
  8
0
100
AcDbSpline
 62
7
  6
CONTINUOUS
 70
0
 71
3
 72
13
 73
9
 74
0
 42
0.0000001
 43
0.0000001
 44
0.0000000001
 40
0.0
 40
0.0
 40
0.0
 40
0.0
 40
0.246009054
 40
0.3725037324
 40
0.4999999998
 40
0.6274962672
 40
0.7539909456
 40
1.0
 40
1.0
 40
1.0
 40
1.0
 10
9.2001433766
 20
4.4863775804
 30
0.0
 10
9.2017065969
 20
4.4823495699
 30
0.0
 10
9.2034651399
 20
4.4759946137
 30
0.0
 10
9.2046426663
 20
4.4672851084
 30
0.0
 10
9.2049422416
 20
4.4605819791
 30
0.0
 10
9.2046426663
 20
4.4538788497
 30
0.0
 10
9.2034651399
 20
4.4451693444
 30
0.0
 10
9.2017065969
 20
4.4388143883
 30
0.0
 10
9.2001433766
 20
4.4347863777
 30
0.0
  0
SPLINE
  5
316
100
AcDbEntity
  8
0
100
AcDbSpline
 62
7
  6
CONTINUOUS
 70
0
 71
3
 72
15
 73
11
 74
0
 42
0.0000001
 43
0.0000001
 44
0.0000000001
 40
0.0
 40
0.0
 40
0.0
 40
0.0
 40
0.1222217278
 40
0.2467760223
 40
0.3729678991
 40
0.4999999998
 40
0.6270321005
 40
0.7532239773
 40
0.8777782719
 40
1.0
 40
1.0
 40
1.0
 40
1.0
 10
9.2077268832
 20
4.4863775804
 30
0.0
 10
9.2085565722
 20
4.4843889333
 30
0.0
 10
9.2100221628
 20
4.4802829937
 30
0.0
 10
9.2116031625
 20
4.4738899185
 30
0.0
 10
9.2125637591
 20
4.4672885241
 30
0.0
 10
9.2128858681
 20
4.4605819791
 30
0.0
 10
9.2125637591
 20
4.453875434
 30
0.0
 10
9.2116031625
 20
4.4472740396
 30
0.0
 10
9.2100221628
 20
4.4408809644
 30
0.0
 10
9.2085565723
 20
4.4367750249
 30
0.0
 10
9.2077268832
 20
4.4347863777
 30
0.0
  0
SPLINE
  5
317
100
AcDbEntity
  8
0
100
AcDbSpline
 62
7
  6
CONTINUOUS
 70
0
 71
3
 72
15
 73
11
 74
0
 42
0.0000001
 43
0.0000001
 44
0.0000000001
 40
0.0
 40
0.0
 40
0.0
 40
0.0
 40
0.1227436961
 40
0.2473789335
 40
0.3733471033
 40
0.4999999998
 40
0.6266528963
 40
0.7526210661
 40
0.8772563036
 40
1.0
 40
1.0
 40
1.0
 40
1.0
 10
9.2150127159
 20
4.4863775804
 30
0.0
 10
9.2158932357
 20
4.4843933816
 30
0.0
 10
9.2174505588
 20
4.4802942931
 30
0.0
 10
9.2191341402
 20
4.4738978423
 30
0.0
 10
9.2201571078
 20
4.4672925854
 30
0.0
 10
9.2205001318
 20
4.4605819791
 30
0.0
 10
9.2201571078
 20
4.4538713728
 30
0.0
 10
9.2191341402
 20
4.4472661158
 30
0.0
 10
9.2174505588
 20
4.4408696651
 30
0.0
 10
9.2158932357
 20
4.4367705765
 30
0.0
 10
9.2150127159
 20
4.4347863777
 30
0.0
  0
SPLINE
  5
318
100
AcDbEntity
  8
0
100
AcDbSpline
 62
7
  6
CONTINUOUS
 70
0
 71
3
 72
13
 73
9
 74
0
 42
0.0000001
 43
0.0000001
 44
0.0000000001
 40
0.0
 40
0.0
 40
0.0
 40
0.0
 40
0.1233230005
 40
0.2481269618
 40
0.4999999998
 40
0.7518730378
 40
0.8766769992
 40
1.0
 40
1.0
 40
1.0
 40
1.0
 10
9.2219559551
 20
4.4863775804
 30
0.0
 10
9.2228818262
 20
4.4843974593
 30
0.0
 10
9.2245212251
 20
4.4803043677
 30
0.0
 10
9.2268952277
 20
4.471751074
 30
0.0
 10
9.2280999418
 20
4.4605819791
 30
0.0
 10
9.2268952277
 20
4.4494128841
 30
0.0
 10
9.2245212252
 20
4.4408595904
 30
0.0
 10
9.2228818262
 20
4.4367664988
 30
0.0
 10
9.2219559551
 20
4.4347863777
 30
0.0
  0
SPLINE
  5
319
100
AcDbEntity
  8
0
100
AcDbSpline
 62
7
  6
CONTINUOUS
 70
0
 71
3
 72
15
 73
11
 74
0
 42
0.0000001
 43
0.0000001
 44
0.0000000001
 40
0.0
 40
0.0
 40
0.0
 40
0.0
 40
0.1236764255
 40
0.2484590346
 40
0.3740274842
 40
0.4999999998
 40
0.6259725154
 40
0.7515409649
 40
0.8763235742
 40
1.0
 40
1.0
 40
1.0
 40
1.0
 10
9.2285137935
 20
4.4863775804
 30
0.0
 10
9.2294793386
 20
4.4844010999
 30
0.0
 10
9.2311905942
 20
4.4803143262
 30
0.0
 10
9.2330477449
 20
4.4739121257
 30
0.0
 10
9.2341763217
 20
4.467299984
 30
0.0
 10
9.2345547729
 20
4.4605819791
 30
0.0
 10
9.2341763217
 20
4.4538639742
 30
0.0
 10
9.2330477449
 20
4.4472518324
 30
0.0
 10
9.2311905942
 20
4.4408496319
 30
0.0
 10
9.2294793386
 20
4.4367628582
 30
0.0
 10
9.2285137935
 20
4.4347863777
 30
0.0
  0
SPLINE
  5
31A
100
AcDbEntity
  8
0
100
AcDbSpline
 62
7
  6
CONTINUOUS
 70
0
 71
3
 72
15
 73
11
 74
0
 42
0.0000001
 43
0.0000001
 44
0.0000000001
 40
0.0
 40
0.0
 40
0.0
 40
0.0
 40
0.1240675119
 40
0.2489129555
 40
0.3743138226
 40
0.4999999998
 40
0.625686177
 40
0.7510870441
 40
0.8759324877
 40
1.0
 40
1.0
 40
1.0
 40
1.0
 10
9.2346457997
 20
4.4863775804
 30
0.0
 10
9.2356451724
 20
4.4844042511
 30
0.0
 10
9.2374178263
 20
4.4803226643
 30
0.0
 10
9.2393447306
 20
4.4739181618
 30
0.0
 10
9.2405157838
 20
4.4673031411
 30
0.0
 10
9.2409084902
 20
4.4605819791
 30
0.0
 10
9.2405157838
 20
4.4538608171
 30
0.0
 10
9.2393447306
 20
4.4472457964
 30
0.0
 10
9.2374178263
 20
4.4408412938
 30
0.0
 10
9.2356451724
 20
4.436759707
 30
0.0
 10
9.2346457997
 20
4.4347863777
 30
0.0
  0
SPLINE
  5
31B
100
AcDbEntity
  8
0
100
AcDbSpline
 62
7
  6
CONTINUOUS
 70
0
 71
3
 72
15
 73
11
 74
0
 42
0.0000001
 43
0.0000001
 44
0.0000000001
 40
0.0
 40
0.0
 40
0.0
 40
0.0
 40
0.1248509214
 40
0.2498240861
 40
0.3748892993
 40
0.4999999998
 40
0.6251107003
 40
0.7501759134
 40
0.8751490782
 40
1.0
 40
1.0
 40
1.0
 40
1.0
 10
9.250123275
 20
4.4863775804
 30
0.0
 10
9.2511877614
 20
4.4844104181
 30
0.0
 10
9.2530788199
 20
4.4803392548
 30
0.0
 10
9.2551411172
 20
4.4739303363
 30
0.0
 10
9.2563946889
 20
4.4673095649
 30
0.0
 10
9.2568151017
 20
4.4605819791
 30
0.0
 10
9.2563946889
 20
4.4538543932
 30
0.0
 10
9.2551411172
 20
4.4472336219
 30
0.0
 10
9.25307882
 20
4.4408247033
 30
0.0
 10
9.2511877614
 20
4.4367535401
 30
0.0
 10
9.250123275
 20
4.4347863777
 30
0.0
  0
SPLINE
  5
31C
100
AcDbEntity
  8
0
100
AcDbSpline
 62
7
  6
CONTINUOUS
 70
0
 71
3
 72
15
 73
11
 74
0
 42
0.0000001
 43
0.0000001
 44
0.0000000001
 40
0.0
 40
0.0
 40
0.0
 40
0.0
 40
0.1249657861
 40
0.2499578854
 40
0.3749738898
 40
0.4999999998
 40
0.6250261098
 40
0.7500421142
 40
0.8750342136
 40
1.0
 40
1.0
 40
1.0
 40
1.0
 10
9.2542035374
 20
4.4863775804
 30
0.0
 10
9.2552773061
 20
4.4844113064
 30
0.0
 10
9.2571852653
 20
4.4803416746
 30
0.0
 10
9.259266984
 20
4.4739321306
 30
0.0
 10
9.2605324013
 20
4.4673105181
 30
0.0
 10
9.260956793
 20
4.4605819791
 30
0.0
 10
9.2605324013
 20
4.45385344
 30
0.0
 10
9.259266984
 20
4.4472318275
 30
0.0
 10
9.2571852653
 20
4.4408222835
 30
0.0
 10
9.2552773061
 20
4.4367526518
 30
0.0
 10
9.2542035374
 20
4.4347863777
 30
0.0
  0
SPLINE
  5
31D
100
AcDbEntity
  8
0
100
AcDbSpline
 62
7
  6
CONTINUOUS
 70
0
 71
3
 72
15
 73
11
 74
0
 42
0.0000001
 43
0.0000001
 44
0.0000000001
 40
0.0
 40
0.0
 40
0.0
 40
0.0
 40
0.1250029027
 40
0.2500011318
 40
0.3750012355
 40
0.4999999998
 40
0.6249987641
 40
0.7499988677
 40
0.8749970969
 40
1.0
 40
1.0
 40
1.0
 40
1.0
 10
9.2576995818
 20
4.4863775804
 30
0.0
 10
9.2587763366
 20
4.4844115925
 30
0.0
 10
9.2606897337
 20
4.4803424558
 30
0.0
 10
9.2627777067
 20
4.473932711
 30
0.0
 10
9.264046939
 20
4.4673108268
 30
0.0
 10
9.2644726123
 20
4.4605819791
 30
0.0
 10
9.264046939
 20
4.4538531314
 30
0.0
 10
9.2627777067
 20
4.4472312472
 30
0.0
 10
9.2606897337
 20
4.4408215023
 30
0.0
 10
9.2587763366
 20
4.4367523656
 30
0.0
 10
9.2576995818
 20
4.4347863777
 30
0.0
  0
SPLINE
  5
31E
100
AcDbEntity
  8
0
100
AcDbSpline
 62
7
  6
CONTINUOUS
 70
0
 71
3
 72
15
 73
11
 74
0
 42
0.0000001
 43
0.0000001
 44
0.0000000001
 40
0.0
 40
0.0
 40
0.0
 40
0.0
 40
0.1249616105
 40
0.2499530205
 40
0.3749708138
 40
0.4999999998
 40
0.6250291858
 40
0.7500469791
 40
0.8750383892
 40
1.0
 40
1.0
 40
1.0
 40
1.0
 10
9.260589854
 20
4.4863775804
 30
0.0
 10
9.2616632864
 20
4.4844112741
 30
0.0
 10
9.2635706331
 20
4.4803415867
 30
0.0
 10
9.2656516476
 20
4.4739320654
 30
0.0
 10
9.2669166353
 20
4.4673104834
 30
0.0
 10
9.2673408828
 20
4.4605819791
 30
0.0
 10
9.2669166353
 20
4.4538534747
 30
0.0
 10
9.2656516476
 20
4.4472318928
 30
0.0
 10
9.2635706331
 20
4.4408223714
 30
0.0
 10
9.2616632864
 20
4.436752684
 30
0.0
 10
9.260589854
 20
4.4347863777
 30
0.0
  0
ENDSEC
  0
SECTION
  2
OBJECTS
  0
DICTIONARY
  5
C
100
AcDbDictionary
280
0
281
1
  3
ACAD_GROUP
350
D
  3
ACAD_MLINESTYLE
350
17
  3
ACAD_LAYOUT
350
1A
  3
ACAD_PLOTSETTINGS
350
19
  3
ACAD_PLOTSTYLENAME
350
E
  0
DICTIONARY
  5
D
102
{ACAD_REACTORS
330
C
102
}
100
AcDbDictionary
280
0
281
1
  0
ACDBDICTIONARYWDFLT
  5
E
102
{ACAD_REACTORS
330
C
102
}
100
AcDbDictionary
281
1
  3
Normal
350
F
100
AcDbDictionaryWithDefault
340
F
  0
DICTIONARY
  5
17
102
{ACAD_REACTORS
330
C
102
}
100
AcDbDictionary
280
0
281
1
  3
Standard
350
18
  0
DICTIONARY
  5
19
102
{ACAD_REACTORS
330
C
102
}
100
AcDbDictionary
281
1
  0
DICTIONARY
  5
1A
102
{ACAD_REACTORS
330
C
102
}
100
AcDbDictionary
281
1
  3
Model
350
31F
  3
Layout1
350
320
  0
ACDBPLACEHOLDER
  5
F
102
{ACAD_REACTORS
330
E
102
}
  0
MLINESTYLE
  5
18
102
{ACAD_REACTORS
330
17
102
}
100
AcDbMlineStyle
  2
STANDARD
 70
0
  3

 62
256
 51
90.0
 52
90.0
 71
2
 49
0.5
 62
256
  6
BYLAYER
 49
-0.5
 62
256
  6
BYLAYER
  0
LAYOUT
  5
31F
102
{ACAD_REACTORS
330
1A
102
}
100
AcDbPlotSettings
  1

  2
none_device
  4
ANSI_A_(11.00_x_8.50_Inches)
  6

 40
0.0
 41
0.0
 42
0.0
 43
0.0
 44
279.4
 45
215.9
 46
0.0
 47
0.0
 48
0.0
 49
0.0
140
0.0
141
0.0
142
1.0
143
1.0
 70
1024
 72
0
 73
0
 74
0
  7

 75
0
147
1.0
148
0.0
149
0.0
100
AcDbLayout
  1
Model
 70
0
 71
0
 10
0.0
 20
0.0
 11
11.0
 21
8.5
 12
0.0
 22
0.0
 32
0.0
 14
0.0
 24
0.0
 34
0.0
 15
0.0
 25
0.0
 35
0.0
146
0.0
 13
0.0
 23
0.0
 33
0.0
 16
1.0
 26
0.0
 36
0.0
 17
0.0
 27
1.0
 37
0.0
 76
0
330
203
345
0
346
0
  0
LAYOUT
  5
320
102
{ACAD_REACTORS
330
1A
102
}
100
AcDbPlotSettings
  1

  2
none_device
  4
ANSI_A_(11.00_x_8.50_Inches)
  6

 40
0.0
 41
0.0
 42
0.0
 43
0.0
 44
279.4
 45
215.9
 46
0.0
 47
0.0
 48
0.0
 49
0.0
140
0.0
141
0.0
142
1.0
143
1.0
 70
0
 72
0
 73
0
 74
0
  7

 75
0
147
1.0
148
0.0
149
0.0
100
AcDbLayout
  1
Layout1
 70
0
 71
1
 10
0.0
 20
0.0
 11
11.0
 21
8.5
 12
0.0
 22
0.0
 32
0.0
 14
0.0
 24
0.0
 34
0.0
 15
0.0
 25
0.0
 35
0.0
146
0.0
 13
0.0
 23
0.0
 33
0.0
 16
1.0
 26
0.0
 36
0.0
 17
0.0
 27
1.0
 37
0.0
 76
0
330
204
345
0
346
0
  0
ENDSEC
  0
EOF
