999
DXF file: 1600-1500_Right.dxf
999
Pro/ENGINEER 2023134 by Parametric Technology Corporation
  0
SECTION
  2
HEADER
  9
$ACADVER
  1
AC1032
  9
$DWGCODEPAGE
  3
ANSI_1252
  9
$EXTMAX
 10
11.0
 20
8.5
 30
0.0
  9
$EXTMIN
 10
0.0
 20
0.0
 30
0.0
  9
$LIMMIN
 10
0.0
 20
0.0
  9
$LIMMAX
 10
11.0
 20
8.5
  9
$VIEWCTR
 10
5.5
 20
4.25
  9
$VIEWSIZE
 40
8.5
  9
$CLAYER
  8
0
  9
$LTSCALE
 40
0.605
  9
$CELTYPE
  6
BYLAYER
  9
$DIMSCALE
 40
1.0
  9
$DIMASZ
 40
0.1
  9
$DIMEXO
 40
0.0625
  9
$DIMDLI
 40
0.418
  9
$DIMEXE
 40
0.125
  9
$DIMCEN
 40
0.099
  9
$DIMLFAC
 40
1.0
  9
$DIMBLK
  1
_FILLED
  9
$DIMALT
 70
1
  9
$DIMALTD
 70
2
  9
$DIMALTTD
 70
2
  9
$DIMALTF
 40
25.4
  9
$DIMTXT
 40
0.08
  9
$DIMTOL
 70
1
  9
$DIMLIM
 70
0
  9
$DIMTFAC
 40
1.0
  9
$DIMTP
 40
0.001
  9
$DIMTM
 40
0.001
  9
$DIMGAP
 40
0.09
  9
$DIMDSEP
 70
46
  9
$AUNITS
 70
0
  9
$PDMODE
 70
3
  9
$PDSIZE
 40
0.3125
  9
$HANDSEED
  5
292
  9
$TILEMODE
 70
1
  9
$MEASUREMENT
 70
0
  9
$INSUNITS
 70
1
  0
ENDSEC
  0
SECTION
  2
CLASSES
  0
CLASS
  1
ACDBDICTIONARYWDFLT
  2
AcDbDictionaryWithDefault
  3
AutoCAD 2000
 90
0
 91
1
280
0
281
0
  0
CLASS
  1
ACDBPLACEHOLDER
  2
AcDbPlaceHolder
  3
AutoCAD 2000
 90
0
 91
1
280
0
281
0
  0
CLASS
  1
LAYOUT
  2
AcDbLayout
  3
AutoCAD 2000
 90
0
 91
0
280
0
281
0
  0
ENDSEC
  0
SECTION
  2
TABLES
  0
TABLE
  2
VPORT
  5
8
100
AcDbSymbolTable
 70
2
  0
VPORT
  5
1F4
100
AcDbSymbolTableRecord
100
AcDbViewportTableRecord
  2
*ACTIVE
 70
0
 10
0.0
 20
0.0
 11
1.0
 21
1.0
 12
5.5
 22
4.25
 13
0.0
 23
0.0
 14
1.0
 24
1.0
 15
0.0
 25
0.0
 16
0.0
 26
0.0
 36
1.0
 17
0.0
 27
0.0
 37
0.0
 40
8.5
 41
1.2941176471
 42
50.0
 43
0.0
 44
0.0
 50
0.0
 51
0.0
 71
0
 72
100
 73
1
 74
1
 75
0
 76
0
 77
0
 78
0
  0
ENDTAB
  0
TABLE
  2
LTYPE
  5
5
100
AcDbSymbolTable
 70
6
  0
LTYPE
  5
14
100
AcDbSymbolTableRecord
100
AcDbLinetypeTableRecord
  2
BYBLOCK
 70
0
  3

 72
65
 73
0
 40
0.0
  0
LTYPE
  5
15
100
AcDbSymbolTableRecord
100
AcDbLinetypeTableRecord
  2
BYLAYER
 70
0
  3

 72
65
 73
0
 40
0.0
  0
LTYPE
  5
16
100
AcDbSymbolTableRecord
100
AcDbLinetypeTableRecord
  2
CONTINUOUS
 70
64
  3
Solid line
 72
65
 73
0
 40
0.0
  0
LTYPE
  5
1F5
100
AcDbSymbolTableRecord
100
AcDbLinetypeTableRecord
  2
CENTER
 70
64
  3
____ _ ____ _ ____ _ ____ _ ____ _ ____ _ ____
 72
65
 73
4
 40
0.6
 49
0.375
 74
0
 49
-0.075
 74
0
 49
0.075
 74
0
 49
-0.075
 74
0
  0
LTYPE
  5
1F6
100
AcDbSymbolTableRecord
100
AcDbLinetypeTableRecord
  2
HIDDEN
 70
64
  3
- - - - - - - - - - - - - - - - - - - -
 72
65
 73
2
 40
0.2
 49
0.1
 74
0
 49
-0.1
 74
0
  0
LTYPE
  5
1F7
100
AcDbSymbolTableRecord
100
AcDbLinetypeTableRecord
  2
PHANTOM
 70
64
  3
_____ _ _ _____ _ _ _____ _ _ _____
 72
65
 73
6
 40
0.8
 49
0.45
 74
0
 49
-0.05
 74
0
 49
0.1
 74
0
 49
-0.05
 74
0
 49
0.1
 74
0
 49
-0.05
 74
0
  0
LTYPE
  5
1F8
100
AcDbSymbolTableRecord
100
AcDbLinetypeTableRecord
  2
DOT
 70
64
  3
. . . . . . . . . . . . . . . . . . . .
 72
65
 73
2
 40
0.2
 49
0.1
 74
0
 49
-0.1
 74
0
  0
LTYPE
  5
1F9
100
AcDbSymbolTableRecord
100
AcDbLinetypeTableRecord
  2
DASHED
 70
64
  3
- - - - - - - - - - - - - - - - - - - -
 72
65
 73
2
 40
0.2
 49
0.1
 74
0
 49
-0.1
 74
0
  0
ENDTAB
  0
TABLE
  2
LAYER
  5
2
100
AcDbSymbolTable
 70
36
  0
LAYER
  5
10
100
AcDbSymbolTableRecord
100
AcDbLayerTableRecord
  2
0
 70
0
 62
7
  6
CONTINUOUS
370
-3
390
F
  0
LAYER
  5
1FA
100
AcDbSymbolTableRecord
100
AcDbLayerTableRecord
  2
DEFAULT_1
 70
0
 62
7
  6
CENTER
370
-3
390
F
  0
LAYER
  5
1FB
100
AcDbSymbolTableRecord
100
AcDbLayerTableRecord
  2
DEFAULT_2
 70
0
 62
8
  6
HIDDEN
370
-3
390
F
  0
LAYER
  5
1FC
100
AcDbSymbolTableRecord
100
AcDbLayerTableRecord
  2
DEFAULT_3
 70
0
 62
7
  6
PHANTOM
370
-3
390
F
  0
LAYER
  5
1FD
100
AcDbSymbolTableRecord
100
AcDbLayerTableRecord
  2
DEFAULT_COORDINATE_SYSTEM
 70
0
 62
7
  6
CONTINUOUS
370
-3
390
F
  0
LAYER
  5
1FE
100
AcDbSymbolTableRecord
100
AcDbLayerTableRecord
  2
DEFAULT_DATUM_AXES
 70
0
 62
7
  6
CONTINUOUS
370
-3
390
F
  0
LAYER
  5
1FF
100
AcDbSymbolTableRecord
100
AcDbLayerTableRecord
  2
DEFAULT_DATUM_CURVES
 70
0
 62
7
  6
CONTINUOUS
370
-3
390
F
  0
LAYER
  5
200
100
AcDbSymbolTableRecord
100
AcDbLayerTableRecord
  2
DEFAULT_DATUM_PLANES
 70
0
 62
7
  6
CONTINUOUS
370
-3
390
F
  0
ENDTAB
  0
TABLE
  2
STYLE
  5
3
100
AcDbSymbolTable
 70
1
  0
STYLE
  5
11
100
AcDbSymbolTableRecord
100
AcDbTextStyleTableRecord
  2
STANDARD
 70
0
 40
0.0
 41
0.8
 50
0.0
 71
0
 42
0.2
  3
txt
  4

  0
STYLE
  5
201
100
AcDbSymbolTableRecord
100
AcDbTextStyleTableRecord
  2
TEXTSTYLE_1
 70
0
 40
0.0
 41
0.8
 50
0.0
 71
0
 42
0.2
  3
gdt
  4

  0
ENDTAB
  0
TABLE
  2
VIEW
  5
6
100
AcDbSymbolTable
 70
0
  0
ENDTAB
  0
TABLE
  2
UCS
  5
7
100
AcDbSymbolTable
 70
0
  0
ENDTAB
  0
TABLE
  2
APPID
  5
9
100
AcDbSymbolTable
 70
1
  0
APPID
  5
202
100
AcDbSymbolTableRecord
100
AcDbRegAppTableRecord
  2
ACAD
 70
0
  0
ENDTAB
  0
TABLE
  2
BLOCK_RECORD
  5
1
100
AcDbSymbolTable
 70
0
  0
BLOCK_RECORD
  5
203
100
AcDbSymbolTableRecord
100
AcDbBlockTableRecord
  2
*Model_Space
  0
BLOCK_RECORD
  5
204
100
AcDbSymbolTableRecord
100
AcDbBlockTableRecord
  2
*Paper_Space
  0
BLOCK_RECORD
  5
205
100
AcDbSymbolTableRecord
100
AcDbBlockTableRecord
  2
_FILLED
  0
ENDTAB
  0
TABLE
  2
DIMSTYLE
  5
A
100
AcDbSymbolTable
 70
1
100
AcDbDimStyleTable
 71
0
  0
DIMSTYLE
105
206
100
AcDbSymbolTableRecord
100
AcDbDimStyleTableRecord
  2
STANDARD
 70
0
  3

  4

 40
1.0
 41
0.1
 42
0.0625
 43
0.38
 44
0.125
 45
0.0
 46
0.0
 47
0.001
 48
0.001
140
0.08
141
0.09
142
0.0
143
25.4
144
1.0
145
0.0
146
1.0
147
0.09
 71
1
 72
0
 73
1
 74
1
 75
0
 76
0
 77
0
 78
4
 79
1
170
1
171
2
172
0
173
0
174
0
175
0
176
0
177
0
178
0
270
2
179
3
271
3
272
3
273
2
274
2
275
0
280
0
281
0
282
0
283
1
284
4
285
0
286
0
287
3
288
0
340
11
278
46
341
205
342
205
343
205
344
205
  0
ENDTAB
  0
ENDSEC
  0
SECTION
  2
BLOCKS
  0
BLOCK
  5
20
100
AcDbEntity
  8
0
100
AcDbBlockBegin
  2
*Model_Space
 70
0
 10
0.0
 20
0.0
 30
0.0
  3
*Model_Space
  1

  0
ENDBLK
  5
21
100
AcDbEntity
  8
0
100
AcDbBlockEnd
  0
BLOCK
  5
1C
100
AcDbEntity
  8
0
100
AcDbBlockBegin
  2
*Paper_Space
 70
0
 10
0.0
 20
0.0
 30
0.0
  3
*Paper_Space
  1

  0
ENDBLK
  5
1D
100
AcDbEntity
  8
0
100
AcDbBlockEnd
  0
BLOCK
  5
207
100
AcDbEntity
  8
0
100
AcDbBlockBegin
  2
_FILLED
 70
64
 10
0.0
 20
0.0
  3
_FILLED
  1

  0
SOLID
  5
208
100
AcDbEntity
  8
0
  6
BYBLOCK
 62
0
100
AcDbTrace
 10
0.0
 20
0.0
 11
-1.0
 21
0.2
 12
-1.0
 22
-0.2
 13
-1.0
 23
-0.2
  0
ENDBLK
  5
209
100
AcDbEntity
  8
0
  6
BYBLOCK
 62
0
100
AcDbBlockEnd
  0
ENDSEC
  0
SECTION
  2
ENTITIES
  0
MTEXT
  5
20A
100
AcDbEntity
  8
0
100
AcDbMText
 62
2
  6
CONTINUOUS
  7
STANDARD
 71
2
 72
1
 10
5.552192343
 20
2.7023856885
 30
0.0
 11
1.0
 21
0.0
 31
0.0
 73
2
 44
0.9
  1
SCALE 1.000
 40
0.08
 41
0.704
  0
LINE
  5
20B
100
AcDbEntity
  8
0
100
AcDbLine
 62
7
  6
CONTINUOUS
 10
0.0
 20
0.0
 11
0.0
 21
8.5
  0
LINE
  5
20C
100
AcDbEntity
  8
0
100
AcDbLine
 62
7
  6
CONTINUOUS
 10
0.0
 20
0.0
 11
11.0
 21
0.0
  0
LINE
  5
20D
100
AcDbEntity
  8
0
100
AcDbLine
 62
7
  6
CONTINUOUS
 10
0.0
 20
8.5
 11
11.0
 21
8.5
  0
LINE
  5
20E
100
AcDbEntity
  8
0
100
AcDbLine
 62
7
  6
CONTINUOUS
 10
11.0
 20
0.0
 11
11.0
 21
8.5
  0
LINE
  5
20F
100
AcDbEntity
  8
0
100
AcDbLine
 62
7
  6
CONTINUOUS
 10
4.7365332792
 20
4.1804014523
 11
4.7365332792
 21
4.6528424523
  0
LINE
  5
210
100
AcDbEntity
  8
0
100
AcDbLine
 62
7
  6
CONTINUOUS
 10
6.991999955
 20
3.6411219523
 11
7.053452655
 21
3.6411219523
  0
LINE
  5
211
100
AcDbEntity
  8
0
100
AcDbLine
 62
7
  6
CONTINUOUS
 10
6.6179822792
 20
4.0621219523
 11
6.6579822792
 21
4.0621219523
  0
LINE
  5
212
100
AcDbEntity
  8
0
100
AcDbLine
 62
7
  6
CONTINUOUS
 10
6.829952955
 20
4.0621219523
 11
6.869952955
 21
4.0621219523
  0
LINE
  5
213
100
AcDbEntity
  8
0
100
AcDbLine
 62
7
  6
CONTINUOUS
 10
6.6179822792
 20
4.1804014523
 11
4.7365332792
 21
4.1804014523
  0
LINE
  5
214
100
AcDbEntity
  8
0
100
AcDbLine
 62
7
  6
CONTINUOUS
 10
6.6579822792
 20
4.2809606755
 11
6.829952955
 21
4.2809606755
  0
LINE
  5
215
100
AcDbEntity
  8
0
100
AcDbLine
 62
7
  6
CONTINUOUS
 10
6.6579822792
 20
4.3070754278
 11
6.829952955
 21
4.3070754278
  0
LINE
  5
216
100
AcDbEntity
  8
0
100
AcDbLine
 62
7
  6
CONTINUOUS
 10
6.6579822792
 20
4.3338655708
 11
6.829952955
 21
4.3338655708
  0
LINE
  5
217
100
AcDbEntity
  8
0
100
AcDbLine
 62
7
  6
CONTINUOUS
 10
6.6579822792
 20
4.3611659344
 11
6.829952955
 21
4.3611659344
  0
LINE
  5
218
100
AcDbEntity
  8
0
100
AcDbLine
 62
7
  6
CONTINUOUS
 10
6.6579822792
 20
4.3888082028
 11
6.829952955
 21
4.3888082028
  0
LINE
  5
219
100
AcDbEntity
  8
0
100
AcDbLine
 62
7
  6
CONTINUOUS
 10
6.6579822792
 20
4.4166219523
 11
6.829952955
 21
4.4166219523
  0
LINE
  5
21A
100
AcDbEntity
  8
0
100
AcDbLine
 62
7
  6
CONTINUOUS
 10
6.6583757872
 20
4.7701964623
 11
6.6579822792
 21
4.7700291471
  0
LINE
  5
21B
100
AcDbEntity
  8
0
100
AcDbLine
 62
7
  6
CONTINUOUS
 10
6.6579822792
 20
4.4444357017
 11
6.829952955
 21
4.4444357017
  0
LINE
  5
21C
100
AcDbEntity
  8
0
100
AcDbLine
 62
7
  6
CONTINUOUS
 10
6.6579822792
 20
4.4720779701
 11
6.829952955
 21
4.4720779701
  0
LINE
  5
21D
100
AcDbEntity
  8
0
100
AcDbLine
 62
7
  6
CONTINUOUS
 10
6.6579822792
 20
4.4993783338
 11
6.829952955
 21
4.4993783338
  0
LINE
  5
21E
100
AcDbEntity
  8
0
100
AcDbLine
 62
7
  6
CONTINUOUS
 10
6.6579822792
 20
4.5261684768
 11
6.829952955
 21
4.5261684768
  0
LINE
  5
21F
100
AcDbEntity
  8
0
100
AcDbLine
 62
7
  6
CONTINUOUS
 10
6.6579822792
 20
4.552283229
 11
6.829952955
 21
4.552283229
  0
LINE
  5
220
100
AcDbEntity
  8
0
100
AcDbLine
 62
7
  6
CONTINUOUS
 10
6.6579822792
 20
4.0632147575
 11
6.6583757872
 21
4.0630474422
  0
LINE
  5
221
100
AcDbEntity
  8
0
100
AcDbLine
 62
7
  6
CONTINUOUS
 10
6.6583644852
 20
4.770214934
 11
6.6579822792
 21
4.7700291471
  0
LINE
  5
222
100
AcDbEntity
  8
0
100
AcDbLine
 62
7
  6
CONTINUOUS
 10
6.6179822792
 20
4.6528424523
 11
4.7365332792
 21
4.6528424523
  0
LINE
  5
223
100
AcDbEntity
  8
0
100
AcDbLine
 62
7
  6
CONTINUOUS
 10
6.6579822792
 20
4.0632147575
 11
6.6583644852
 21
4.0630289705
  0
LINE
  5
224
100
AcDbEntity
  8
0
100
AcDbLine
 62
7
  6
CONTINUOUS
 10
6.6179822792
 20
4.7711219523
 11
6.6579822792
 21
4.7711219523
  0
LINE
  5
225
100
AcDbEntity
  8
0
100
AcDbLine
 62
7
  6
CONTINUOUS
 10
6.829952955
 20
4.7711219523
 11
6.869952955
 21
4.7711219523
  0
LINE
  5
226
100
AcDbEntity
  8
0
100
AcDbLine
 62
7
  6
CONTINUOUS
 10
6.8295594468
 20
4.0630474421
 11
6.829952955
 21
4.0632147575
  0
LINE
  5
227
100
AcDbEntity
  8
0
100
AcDbLine
 62
7
  6
CONTINUOUS
 10
6.991999955
 20
5.1921219523
 11
7.053452655
 21
5.1921219523
  0
LINE
  5
228
100
AcDbEntity
  8
0
100
AcDbLine
 62
7
  6
CONTINUOUS
 10
6.829952955
 20
4.7700291471
 11
6.8295594468
 21
4.7701964624
  0
LINE
  5
229
100
AcDbEntity
  8
0
100
AcDbLine
 62
7
  6
CONTINUOUS
 10
6.8295707488
 20
4.0630289704
 11
6.829952955
 21
4.0632147575
  0
LINE
  5
22A
100
AcDbEntity
  8
0
100
AcDbLine
 62
7
  6
CONTINUOUS
 10
6.829952955
 20
4.7700291471
 11
6.8295707488
 21
4.7702149341
  0
LINE
  5
22B
100
AcDbEntity
  8
0
100
AcDbLine
 62
7
  6
CONTINUOUS
 10
6.6179822792
 20
4.0621219523
 11
6.6179822792
 21
4.7711219523
  0
LINE
  5
22C
100
AcDbEntity
  8
0
100
AcDbLine
 62
7
  6
CONTINUOUS
 10
6.6579822792
 20
4.0621219523
 11
6.6579822792
 21
4.7711219523
  0
LINE
  5
22D
100
AcDbEntity
  8
0
100
AcDbLine
 62
7
  6
CONTINUOUS
 10
6.829952955
 20
4.0621219523
 11
6.829952955
 21
4.7711219523
  0
LINE
  5
22E
100
AcDbEntity
  8
0
100
AcDbLine
 62
7
  6
CONTINUOUS
 10
6.869952955
 20
4.0621219523
 11
6.869952955
 21
4.7711219523
  0
LINE
  5
22F
100
AcDbEntity
  8
0
100
AcDbLine
 62
7
  6
CONTINUOUS
 10
6.991999955
 20
3.6411219523
 11
6.991999955
 21
5.1921219523
  0
LINE
  5
230
100
AcDbEntity
  8
0
100
AcDbLine
 62
7
  6
CONTINUOUS
 10
7.053452655
 20
3.6411219523
 11
7.053452655
 21
5.1921219523
  0
LINE
  5
231
100
AcDbEntity
  8
0
100
AcDbLine
 62
7
  6
CONTINUOUS
 10
7.2085332792
 20
3.3800862501
 11
7.2085332792
 21
5.4531576544
  0
LINE
  5
232
100
AcDbEntity
  8
0
100
AcDbLine
 62
7
  6
CONTINUOUS
 10
7.3265332792
 20
3.3800862501
 11
7.3265332792
 21
5.4531576544
  0
ARC
  5
233
100
AcDbEntity
  8
0
100
AcDbCircle
 62
7
  6
CONTINUOUS
 10
6.7439676171
 20
84.4055153095
 40
79.8532785907
100
AcDbArc
 50
269.938304375
 51
270.061695625
  0
ARC
  5
234
100
AcDbEntity
  8
0
100
AcDbCircle
 62
7
  6
CONTINUOUS
 10
6.7439676171
 20
-75.5722714044
 40
79.8532785902
100
AcDbArc
 50
89.938304375
 51
90.061695625
  0
ARC
  5
235
100
AcDbEntity
  8
0
100
AcDbCircle
 62
7
  6
CONTINUOUS
 10
6.2044999618
 20
3.6410179699
 40
0.7875
100
AcDbArc
 50
0.0075653946
 51
32.3259561738
  0
ARC
  5
236
100
AcDbEntity
  8
0
100
AcDbCircle
 62
7
  6
CONTINUOUS
 10
6.2044999618
 20
5.1922259346
 40
0.7875
100
AcDbArc
 50
327.6740438262
 51
359.9924346054
  0
ARC
  5
237
100
AcDbEntity
  8
0
100
AcDbCircle
 62
7
  6
CONTINUOUS
 10
4.3736436604
 20
4.4166219523
 40
0.59
100
AcDbArc
 50
23.6168058968
 51
336.3831941032
  0
ARC
  5
238
100
AcDbEntity
  8
0
100
AcDbCircle
 62
7
  6
CONTINUOUS
 10
4.3736436604
 20
4.4166219523
 40
0.57
100
AcDbArc
 50
24.4843909614
 51
335.5156090356
  0
ARC
  5
239
100
AcDbEntity
  8
0
100
AcDbCircle
 62
7
  6
CONTINUOUS
 10
4.3736436604
 20
4.4166219523
 40
0.433
100
AcDbArc
 50
33.0618383193
 51
326.9381616807
  0
ARC
  5
23A
100
AcDbEntity
  8
0
100
AcDbCircle
 62
7
  6
CONTINUOUS
 10
6.7480491762
 20
4.2421013914
 40
0.193775235
100
AcDbArc
 50
294.6416646809
 51
295.0035319403
  0
ARC
  5
23B
100
AcDbEntity
  8
0
100
AcDbCircle
 62
7
  6
CONTINUOUS
 10
6.7480491764
 20
4.5911425135
 40
0.1937752346
100
AcDbArc
 50
64.9964680596
 51
65.3583352949
  0
ARC
  5
23C
100
AcDbEntity
  8
0
100
AcDbCircle
 62
7
  6
CONTINUOUS
 10
6.7398860565
 20
4.5911425162
 40
0.1937752316
100
AcDbArc
 50
114.6416648306
 51
115.0035319403
  0
ARC
  5
23D
100
AcDbEntity
  8
0
100
AcDbCircle
 62
7
  6
CONTINUOUS
 10
6.7398860564
 20
4.2421013882
 40
0.1937752315
100
AcDbArc
 50
244.9964680598
 51
245.3583351448
  0
ARC
  5
23E
100
AcDbEntity
  8
0
100
AcDbCircle
 62
7
  6
CONTINUOUS
 10
6.7439676171
 20
4.2286779371
 40
0.1864748649
100
AcDbArc
 50
242.5407024055
 51
297.4592975945
  0
ARC
  5
23F
100
AcDbEntity
  8
0
100
AcDbCircle
 62
7
  6
CONTINUOUS
 10
6.7439676171
 20
4.6045659714
 40
0.1864748649
100
AcDbArc
 50
62.5407018538
 51
117.4592981462
  0
ARC
  5
240
100
AcDbEntity
  8
0
100
AcDbCircle
 62
7
  6
CONTINUOUS
 10
6.7439676171
 20
4.312267942
 40
0.186249833
100
AcDbArc
 50
242.5047738959
 51
297.4952261041
  0
ARC
  5
241
100
AcDbEntity
  8
0
100
AcDbCircle
 62
7
  6
CONTINUOUS
 10
6.7439676171
 20
4.520975966
 40
0.186249833
100
AcDbArc
 50
62.5047734068
 51
117.4952265932
  0
ARC
  5
242
100
AcDbEntity
  8
0
100
AcDbCircle
 62
7
  6
CONTINUOUS
 10
6.7439676171
 20
4.2278309044
 40
0.1828244552
100
AcDbArc
 50
241.9454994235
 51
298.0545005765
  0
ARC
  5
243
100
AcDbEntity
  8
0
100
AcDbCircle
 62
7
  6
CONTINUOUS
 10
6.7439676171
 20
4.6054129958
 40
0.1828244552
100
AcDbArc
 50
61.9455000551
 51
118.0544999449
  0
ARC
  5
244
100
AcDbEntity
  8
0
100
AcDbCircle
 62
7
  6
CONTINUOUS
 10
6.7439676171
 20
4.2909864196
 40
0.1826622953
100
AcDbArc
 50
241.9184327065
 51
298.0815672935
  0
ARC
  5
245
100
AcDbEntity
  8
0
100
AcDbCircle
 62
7
  6
CONTINUOUS
 10
6.7439676171
 20
4.5422574803
 40
0.1826622953
100
AcDbArc
 50
61.9184333997
 51
118.0815666003
  0
ARC
  5
246
100
AcDbEntity
  8
0
100
AcDbCircle
 62
7
  6
CONTINUOUS
 10
6.7439676171
 20
4.6028475301
 40
0.1802969615
100
AcDbArc
 50
61.5173261854
 51
118.4826738146
  0
ARC
  5
247
100
AcDbEntity
  8
0
100
AcDbCircle
 62
7
  6
CONTINUOUS
 10
7.2085332792
 20
3.6686219523
 40
0.1575
100
AcDbArc
 50
190.0555661561
 51
270.0
  0
ARC
  5
248
100
AcDbEntity
  8
0
100
AcDbCircle
 62
7
  6
CONTINUOUS
 10
7.2085332792
 20
5.1646219523
 40
0.1575
100
AcDbArc
 50
90.0
 51
169.9444338439
  0
ARC
  5
249
100
AcDbEntity
  8
0
100
AcDbCircle
 62
7
  6
CONTINUOUS
 10
7.2675332792
 20
5.4006219523
 40
0.079
100
AcDbArc
 50
41.6830072544
 51
138.3169927456
  0
ARC
  5
24A
100
AcDbEntity
  8
0
100
AcDbCircle
 62
7
  6
CONTINUOUS
 10
7.2675332792
 20
3.4326219523
 40
0.079
100
AcDbArc
 50
221.6830072544
 51
318.3169927456
  0
SPLINE
  5
24B
100
AcDbEntity
  8
0
100
AcDbSpline
 62
7
  6
CONTINUOUS
 70
0
 71
3
 72
17
 73
13
 74
0
 42
0.0000001
 43
0.0000001
 44
0.0000000001
 40
0.0
 40
0.0
 40
0.0
 40
0.0
 40
0.1240331679
 40
0.1863928295
 40
0.2489177657
 40
0.3743128367
 40
0.5
 40
0.6256871633
 40
0.7510822343
 40
0.8136071705
 40
0.8759668321
 40
1.0
 40
1.0
 40
1.0
 40
1.0
 10
6.829952955
 20
4.0621219523
 30
0.0
 10
6.8233747619
 20
4.0587962682
 30
0.0
 10
6.8131808844
 20
4.0543771248
 30
0.0
 10
6.7991389916
 20
4.0497050444
 30
0.0
 10
6.7847682038
 20
4.0458403742
 30
0.0
 10
6.76637026
 20
4.0425889923
 30
0.0
 10
6.7439676171
 20
4.0412824976
 30
0.0
 10
6.7215649742
 20
4.0425889923
 30
0.0
 10
6.7031670304
 20
4.0458403742
 30
0.0
 10
6.6887962425
 20
4.0497050444
 30
0.0
 10
6.6747543497
 20
4.0543771248
 30
0.0
 10
6.6645604723
 20
4.0587962682
 30
0.0
 10
6.6579822792
 20
4.0621219523
 30
0.0
  0
SPLINE
  5
24C
100
AcDbEntity
  8
0
100
AcDbSpline
 62
7
  6
CONTINUOUS
 70
0
 71
3
 72
15
 73
11
 74
0
 42
0.0000001
 43
0.0000001
 44
0.0000000001
 40
0.0
 40
0.0
 40
0.0
 40
0.0
 40
0.1236671191
 40
0.248447907
 40
0.3740205128
 40
0.5000000004
 40
0.6259794881
 40
0.7515520938
 40
0.8763328814
 40
1.0
 40
1.0
 40
1.0
 40
1.0
 10
6.6583644852
 20
4.0630289705
 30
0.0
 10
6.6649297585
 20
4.0598467292
 30
0.0
 10
6.6784997351
 20
4.0542077044
 30
0.0
 10
6.6997466795
 20
4.0480893658
 30
0.0
 10
6.7216832632
 20
4.0443717432
 30
0.0
 10
6.743967617
 20
4.043125174
 30
0.0
 10
6.7662519709
 20
4.0443717432
 30
0.0
 10
6.7881885545
 20
4.0480893658
 30
0.0
 10
6.8094354989
 20
4.0542077044
 30
0.0
 10
6.8230054754
 20
4.0598467291
 30
0.0
 10
6.8295707488
 20
4.0630289704
 30
0.0
  0
SPLINE
  5
24D
100
AcDbEntity
  8
0
100
AcDbSpline
 62
7
  6
CONTINUOUS
 70
0
 71
3
 72
15
 73
11
 74
0
 42
0.0000001
 43
0.0000001
 44
0.0000000001
 40
0.0
 40
0.0
 40
0.0
 40
0.0
 40
0.1232567559
 40
0.2479720429
 40
0.3737207922
 40
0.5000000004
 40
0.6262792085
 40
0.7520279577
 40
0.8767432445
 40
1.0
 40
1.0
 40
1.0
 40
1.0
 10
6.6590930493
 20
4.0659726559
 30
0.0
 10
6.6656248565
 20
4.0629764031
 30
0.0
 10
6.6791112926
 20
4.0576731896
 30
0.0
 10
6.700171612
 20
4.0519311042
 30
0.0
 10
6.7219008936
 20
4.0484430989
 30
0.0
 10
6.7439676168
 20
4.0472736859
 30
0.0
 10
6.76603434
 20
4.0484430989
 30
0.0
 10
6.7877636216
 20
4.0519311041
 30
0.0
 10
6.808823941
 20
4.0576731895
 30
0.0
 10
6.8223103771
 20
4.0629764028
 30
0.0
 10
6.8288421842
 20
4.0659726557
 30
0.0
  0
SPLINE
  5
24E
100
AcDbEntity
  8
0
100
AcDbSpline
 62
7
  6
CONTINUOUS
 70
0
 71
3
 72
15
 73
11
 74
0
 42
0.0000001
 43
0.0000001
 44
0.0000000001
 40
0.0
 40
0.0
 40
0.0
 40
0.0
 40
0.1227166064
 40
0.2473476161
 40
0.3733273961
 40
0.5000000004
 40
0.6266726048
 40
0.7526523846
 40
0.877283394
 40
1.0
 40
1.0
 40
1.0
 40
1.0
 10
6.6579822792
 20
4.0719168155
 30
0.0
 10
6.6645970371
 20
4.0689903312
 30
0.0
 10
6.6782618534
 20
4.0638147596
 30
0.0
 10
6.6995827812
 20
4.0582202108
 30
0.0
 10
6.7215996367
 20
4.0548208942
 30
0.0
 10
6.7439676171
 20
4.0536810275
 30
0.0
 10
6.7663355976
 20
4.0548208942
 30
0.0
 10
6.788352453
 20
4.0582202109
 30
0.0
 10
6.8096733808
 20
4.0638147597
 30
0.0
 10
6.8233381971
 20
4.0689903312
 30
0.0
 10
6.829952955
 20
4.0719168155
 30
0.0
  0
SPLINE
  5
24F
100
AcDbEntity
  8
0
100
AcDbSpline
 62
7
  6
CONTINUOUS
 70
0
 71
3
 72
15
 73
11
 74
0
 42
0.0000001
 43
0.0000001
 44
0.0000000001
 40
0.0
 40
0.0
 40
0.0
 40
0.0
 40
0.1221931678
 40
0.2467430652
 40
0.3729471828
 40
0.5000000004
 40
0.6270528181
 40
0.7532569356
 40
0.8778068327
 40
1.0
 40
1.0
 40
1.0
 40
1.0
 10
6.6579822792
 20
4.0794724172
 30
0.0
 10
6.6646119236
 20
4.0767163225
 30
0.0
 10
6.6782996351
 20
4.071848206
 30
0.0
 10
6.6996092593
 20
4.0665973642
 30
0.0
 10
6.7216132024
 20
4.0634070206
 30
0.0
 10
6.7439676171
 20
4.0623372287
 30
0.0
 10
6.7663220319
 20
4.0634070207
 30
0.0
 10
6.7883259749
 20
4.0665973642
 30
0.0
 10
6.8096355991
 20
4.0718482061
 30
0.0
 10
6.8233233106
 20
4.0767163225
 30
0.0
 10
6.829952955
 20
4.0794724172
 30
0.0
  0
SPLINE
  5
250
100
AcDbEntity
  8
0
100
AcDbSpline
 62
7
  6
CONTINUOUS
 70
0
 71
3
 72
17
 73
13
 74
0
 42
0.0000001
 43
0.0000001
 44
0.0000000001
 40
0.0
 40
0.0
 40
0.0
 40
0.0
 40
0.1216407112
 40
0.24609934
 40
0.3091422518
 40
0.3725610255
 40
0.5000000004
 40
0.6274389754
 40
0.690857749
 40
0.7539006608
 40
0.8783592892
 40
1.0
 40
1.0
 40
1.0
 40
1.0
 10
6.6579822792
 20
4.089106658
 30
0.0
 10
6.6646277543
 20
4.086538413
 30
0.0
 10
6.6783386353
 20
4.0820084257
 30
0.0
 10
6.6960143198
 20
4.077962317
 30
0.0
 10
6.7105345232
 20
4.0756651842
 30
0.0
 10
6.7253171724
 20
4.0740069875
 30
0.0
 10
6.7439676171
 20
4.0731775631
 30
0.0
 10
6.7626180619
 20
4.0740069875
 30
0.0
 10
6.777400711
 20
4.0756651842
 30
0.0
 10
6.7919209145
 20
4.077962317
 30
0.0
 10
6.8095965988
 20
4.0820084257
 30
0.0
 10
6.8233074799
 20
4.086538413
 30
0.0
 10
6.829952955
 20
4.089106658
 30
0.0
  0
SPLINE
  5
251
100
AcDbEntity
  8
0
100
AcDbSpline
 62
7
  6
CONTINUOUS
 70
0
 71
3
 72
15
 73
11
 74
0
 42
0.0000001
 43
0.0000001
 44
0.0000000001
 40
0.0
 40
0.0
 40
0.0
 40
0.0
 40
0.1210957219
 40
0.2454791371
 40
0.3721536213
 40
0.5000000004
 40
0.6278463795
 40
0.7545208637
 40
0.8789042785
 40
1.0
 40
1.0
 40
1.0
 40
1.0
 10
6.6579822792
 20
4.1007601394
 30
0.0
 10
6.6646441939
 20
4.0983963263
 30
0.0
 10
6.6783795166
 20
4.0942329638
 30
0.0
 10
6.699664229
 20
4.0897624988
 30
0.0
 10
6.7216410424
 20
4.0870463544
 30
0.0
 10
6.7439676171
 20
4.0861355355
 30
0.0
 10
6.7662941919
 20
4.0870463544
 30
0.0
 10
6.7882710053
 20
4.0897624988
 30
0.0
 10
6.8095557176
 20
4.0942329638
 30
0.0
 10
6.8232910402
 20
4.0983963263
 30
0.0
 10
6.829952955
 20
4.1007601394
 30
0.0
  0
SPLINE
  5
252
100
AcDbEntity
  8
0
100
AcDbSpline
 62
7
  6
CONTINUOUS
 70
0
 71
3
 72
17
 73
13
 74
0
 42
0.0000001
 43
0.0000001
 44
0.0000000001
 40
0.0
 40
0.0
 40
0.0
 40
0.0
 40
0.0597403771
 40
0.1205676989
 40
0.2448635314
 40
0.3717661519
 40
0.5000000004
 40
0.628233849
 40
0.7551364693
 40
0.8794323015
 40
0.940259623
 40
1.0
 40
1.0
 40
1.0
 40
1.0
 10
6.6579822792
 20
4.114361014
 30
0.0
 10
6.6612921612
 20
4.113298552
 30
0.0
 10
6.6680190501
 20
4.1112974619
 30
0.0
 10
6.6818343458
 20
4.1077986764
 30
0.0
 10
6.6996921838
 20
4.1044078882
 30
0.0
 10
6.7216544235
 20
4.101953924
 30
0.0
 10
6.7439676171
 20
4.101130878
 30
0.0
 10
6.7662808108
 20
4.1019539241
 30
0.0
 10
6.7882430504
 20
4.1044078883
 30
0.0
 10
6.8061008884
 20
4.1077986765
 30
0.0
 10
6.819916184
 20
4.1112974619
 30
0.0
 10
6.826643073
 20
4.113298552
 30
0.0
 10
6.829952955
 20
4.114361014
 30
0.0
  0
SPLINE
  5
253
100
AcDbEntity
  8
0
100
AcDbSpline
 62
7
  6
CONTINUOUS
 70
0
 71
3
 72
19
 73
15
 74
0
 42
0.0000001
 43
0.0000001
 44
0.0000000001
 40
0.0
 40
0.0
 40
0.0
 40
0.0
 40
0.0594071489
 40
0.1200317167
 40
0.1817020197
 40
0.2442659022
 40
0.3713910887
 40
0.5000000004
 40
0.6286089122
 40
0.7557340986
 40
0.818297981
 40
0.8799682837
 40
0.9405928513
 40
1.0
 40
1.0
 40
1.0
 40
1.0
 10
6.6579822792
 20
4.1298254278
 30
0.0
 10
6.6612963957
 20
4.1288802751
 30
0.0
 10
6.6680303768
 20
4.1271008794
 30
0.0
 10
6.6783161582
 20
4.1247868601
 30
0.0
 10
6.6888586708
 20
4.1228104218
 30
0.0
 10
6.7032781424
 20
4.1206260231
 30
0.0
 10
6.7216678358
 20
4.1188016664
 30
0.0
 10
6.7439676171
 20
4.1180713018
 30
0.0
 10
6.7662673984
 20
4.1188016664
 30
0.0
 10
6.7846570919
 20
4.1206260231
 30
0.0
 10
6.7990765635
 20
4.1228104218
 30
0.0
 10
6.809619076
 20
4.1247868601
 30
0.0
 10
6.8199048574
 20
4.1271008794
 30
0.0
 10
6.8266388385
 20
4.1288802751
 30
0.0
 10
6.829952955
 20
4.1298254278
 30
0.0
  0
SPLINE
  5
254
100
AcDbEntity
  8
0
100
AcDbSpline
 62
7
  6
CONTINUOUS
 70
0
 71
3
 72
19
 73
15
 74
0
 42
0.0000001
 43
0.0000001
 44
0.0000000001
 40
0.0
 40
0.0
 40
0.0
 40
0.0
 40
0.0590975929
 40
0.1195354988
 40
0.1811249508
 40
0.2436962927
 40
0.371035412
 40
0.5000000004
 40
0.6289645888
 40
0.7563037081
 40
0.8188750499
 40
0.8804645017
 40
0.9409024072
 40
1.0
 40
1.0
 40
1.0
 40
1.0
 10
6.6579822792
 20
4.1470580375
 30
0.0
 10
6.6613004488
 20
4.1462363769
 30
0.0
 10
6.6680411982
 20
4.1446900874
 30
0.0
 10
6.678325393
 20
4.1426815137
 30
0.0
 10
6.6888662684
 20
4.1409659412
 30
0.0
 10
6.7032914425
 20
4.1390688273
 30
0.0
 10
6.7216796914
 20
4.1374858261
 30
0.0
 10
6.7439676171
 20
4.1368523068
 30
0.0
 10
6.7662555429
 20
4.1374858261
 30
0.0
 10
6.7846437917
 20
4.1390688273
 30
0.0
 10
6.7990689658
 20
4.1409659413
 30
0.0
 10
6.8096098412
 20
4.1426815137
 30
0.0
 10
6.8198940359
 20
4.1446900874
 30
0.0
 10
6.8266347853
 20
4.1462363769
 30
0.0
 10
6.829952955
 20
4.1470580375
 30
0.0
  0
SPLINE
  5
255
100
AcDbEntity
  8
0
100
AcDbSpline
 62
7
  6
CONTINUOUS
 70
0
 71
3
 72
19
 73
15
 74
0
 42
0.0000001
 43
0.0000001
 44
0.0000000001
 40
0.0
 40
0.0
 40
0.0
 40
0.0
 40
0.0588177319
 40
0.119087383
 40
0.1806043018
 40
0.2431827532
 40
0.3707150638
 40
0.5000000004
 40
0.6292849371
 40
0.7568172475
 40
0.8193956989
 40
0.8809126174
 40
0.9411822682
 40
1.0
 40
1.0
 40
1.0
 40
1.0
 10
6.6579822792
 20
4.1659525983
 30
0.0
 10
6.6613041865
 20
4.1652598721
 30
0.0
 10
6.6680510949
 20
4.1639567165
 30
0.0
 10
6.6783337771
 20
4.1622657356
 30
0.0
 10
6.688873125
 20
4.1608214063
 30
0.0
 10
6.7033033821
 20
4.1592234542
 30
0.0
 10
6.7216902615
 20
4.1578911558
 30
0.0
 10
6.7439676171
 20
4.1573581283
 30
0.0
 10
6.7662449728
 20
4.1578911558
 30
0.0
 10
6.7846318522
 20
4.1592234542
 30
0.0
 10
6.7990621093
 20
4.1608214063
 30
0.0
 10
6.8096014571
 20
4.1622657356
 30
0.0
 10
6.8198841392
 20
4.1639567165
 30
0.0
 10
6.8266310477
 20
4.1652598721
 30
0.0
 10
6.829952955
 20
4.1659525983
 30
0.0
  0
SPLINE
  5
256
100
AcDbEntity
  8
0
100
AcDbSpline
 62
7
  6
CONTINUOUS
 70
0
 71
3
 72
19
 73
15
 74
0
 42
0.0000001
 43
0.0000001
 44
0.0000000001
 40
0.0
 40
0.0
 40
0.0
 40
0.0
 40
0.0585759184
 40
0.118700575
 40
0.1801552516
 40
0.2427401241
 40
0.3704391901
 40
0.5000000004
 40
0.6295608108
 40
0.7572598767
 40
0.8198447491
 40
0.8812994254
 40
0.9414240818
 40
1.0
 40
1.0
 40
1.0
 40
1.0
 10
6.6579822792
 20
4.1863926191
 30
0.0
 10
6.6613074734
 20
4.185833471
 30
0.0
 10
6.6680597335
 20
4.1847819602
 30
0.0
 10
6.6783410481
 20
4.1834187594
 30
0.0
 10
6.6888790396
 20
4.1822543812
 30
0.0
 10
6.7033136336
 20
4.1809656099
 30
0.0
 10
6.7216992829
 20
4.1798918353
 30
0.0
 10
6.7439676171
 20
4.1794623454
 30
0.0
 10
6.7662359514
 20
4.1798918354
 30
0.0
 10
6.7846216007
 20
4.1809656099
 30
0.0
 10
6.7990561946
 20
4.1822543812
 30
0.0
 10
6.8095941861
 20
4.1834187594
 30
0.0
 10
6.8198755006
 20
4.1847819602
 30
0.0
 10
6.8266277607
 20
4.185833471
 30
0.0
 10
6.829952955
 20
4.1863926191
 30
0.0
  0
SPLINE
  5
257
100
AcDbEntity
  8
0
100
AcDbSpline
 62
7
  6
CONTINUOUS
 70
0
 71
3
 72
17
 73
13
 74
0
 42
0.0000001
 43
0.0000001
 44
0.0000000001
 40
0.0
 40
0.0
 40
0.0
 40
0.0
 40
0.0583800929
 40
0.1183877911
 40
0.2423795561
 40
0.3702148664
 40
0.5000000004
 40
0.6297851345
 40
0.7576204447
 40
0.8816122093
 40
0.9416199072
 40
1.0
 40
1.0
 40
1.0
 40
1.0
 10
6.6579822792
 20
4.2082520803
 30
0.0
 10
6.6613101815
 20
4.2078302999
 30
0.0
 10
6.6680668164
 20
4.207037323
 30
0.0
 10
6.6819254928
 20
4.2056526303
 30
0.0
 10
6.699797022
 20
4.2043164851
 30
0.0
 10
6.7217064298
 20
4.2033521449
 30
0.0
 10
6.7439676171
 20
4.2030287124
 30
0.0
 10
6.7662288045
 20
4.2033521449
 30
0.0
 10
6.7881382122
 20
4.2043164851
 30
0.0
 10
6.8060097414
 20
4.2056526303
 30
0.0
 10
6.8198684178
 20
4.207037323
 30
0.0
 10
6.8266250526
 20
4.2078302999
 30
0.0
 10
6.829952955
 20
4.2082520803
 30
0.0
  0
SPLINE
  5
258
100
AcDbEntity
  8
0
100
AcDbSpline
 62
7
  6
CONTINUOUS
 70
0
 71
3
 72
15
 73
11
 74
0
 42
0.0000001
 43
0.0000001
 44
0.0000000001
 40
0.0
 40
0.0
 40
0.0
 40
0.0
 40
0.1181549636
 40
0.242116128
 40
0.3700508827
 40
0.5000000005
 40
0.6299491182
 40
0.7578838727
 40
0.8818450369
 40
1.0
 40
1.0
 40
1.0
 40
1.0
 10
6.6579822792
 20
4.2313962111
 30
0.0
 10
6.6647383987
 20
4.2308250159
 30
0.0
 10
6.6785977152
 20
4.2298281928
 30
0.0
 10
6.6998078832
 20
4.2287704448
 30
0.0
 10
6.7217117963
 20
4.2281275455
 30
0.0
 10
6.7439676171
 20
4.227911876
 30
0.0
 10
6.766223438
 20
4.2281275455
 30
0.0
 10
6.7881273511
 20
4.2287704448
 30
0.0
 10
6.809337519
 20
4.2298281928
 30
0.0
 10
6.8231968355
 20
4.2308250159
 30
0.0
 10
6.829952955
 20
4.2313962111
 30
0.0
  0
SPLINE
  5
259
100
AcDbEntity
  8
0
100
AcDbSpline
 62
7
  6
CONTINUOUS
 70
0
 71
3
 72
15
 73
11
 74
0
 42
0.0000001
 43
0.0000001
 44
0.0000000001
 40
0.0
 40
0.0
 40
0.0
 40
0.0
 40
0.1180153089
 40
0.2419572844
 40
0.3699518748
 40
0.5000000005
 40
0.6300481261
 40
0.7580427164
 40
0.8819846915
 40
1.0
 40
1.0
 40
1.0
 40
1.0
 10
6.6579822792
 20
4.2556823201
 30
0.0
 10
6.6647431765
 20
4.2553995265
 30
0.0
 10
6.6786082156
 20
4.254906255
 30
0.0
 10
6.6998145735
 20
4.2543831227
 30
0.0
 10
6.7217150223
 20
4.2540651529
 30
0.0
 10
6.7439676171
 20
4.2539584825
 30
0.0
 10
6.766220212
 20
4.2540651529
 30
0.0
 10
6.7881206608
 20
4.2543831227
 30
0.0
 10
6.8093270186
 20
4.254906255
 30
0.0
 10
6.8231920576
 20
4.2553995265
 30
0.0
 10
6.829952955
 20
4.2556823201
 30
0.0
  0
SPLINE
  5
25A
100
AcDbEntity
  8
0
100
AcDbSpline
 62
7
  6
CONTINUOUS
 70
0
 71
3
 72
15
 73
11
 74
0
 42
0.0000001
 43
0.0000001
 44
0.0000000001
 40
0.0
 40
0.0
 40
0.0
 40
0.0
 40
0.1180153085
 40
0.2419572838
 40
0.3699518742
 40
0.4999999998
 40
0.6300481254
 40
0.7580427158
 40
0.8819846912
 40
1.0
 40
1.0
 40
1.0
 40
1.0
 10
6.829952955
 20
4.5775615844
 30
0.0
 10
6.8231920576
 20
4.5778443781
 30
0.0
 10
6.8093270185
 20
4.5783376496
 30
0.0
 10
6.7881206607
 20
4.5788607818
 30
0.0
 10
6.7662202119
 20
4.5791787516
 30
0.0
 10
6.7439676171
 20
4.5792854221
 30
0.0
 10
6.7217150223
 20
4.5791787516
 30
0.0
 10
6.6998145735
 20
4.5788607818
 30
0.0
 10
6.6786082156
 20
4.5783376496
 30
0.0
 10
6.6647431765
 20
4.5778443781
 30
0.0
 10
6.6579822792
 20
4.5775615844
 30
0.0
  0
SPLINE
  5
25B
100
AcDbEntity
  8
0
100
AcDbSpline
 62
7
  6
CONTINUOUS
 70
0
 71
3
 72
15
 73
11
 74
0
 42
0.0000001
 43
0.0000001
 44
0.0000000001
 40
0.0
 40
0.0
 40
0.0
 40
0.0
 40
0.1181549632
 40
0.2421161274
 40
0.3700508821
 40
0.4999999998
 40
0.6299491175
 40
0.7578838721
 40
0.8818450365
 40
1.0
 40
1.0
 40
1.0
 40
1.0
 10
6.829952955
 20
4.6018476935
 30
0.0
 10
6.8231968355
 20
4.6024188886
 30
0.0
 10
6.8093375189
 20
4.6034157117
 30
0.0
 10
6.788127351
 20
4.6044734597
 30
0.0
 10
6.7662234379
 20
4.605116359
 30
0.0
 10
6.7439676171
 20
4.6053320286
 30
0.0
 10
6.7217117963
 20
4.605116359
 30
0.0
 10
6.6998078832
 20
4.6044734597
 30
0.0
 10
6.6785977152
 20
4.6034157117
 30
0.0
 10
6.6647383987
 20
4.6024188886
 30
0.0
 10
6.6579822792
 20
4.6018476935
 30
0.0
  0
SPLINE
  5
25C
100
AcDbEntity
  8
0
100
AcDbSpline
 62
7
  6
CONTINUOUS
 70
0
 71
3
 72
17
 73
13
 74
0
 42
0.0000001
 43
0.0000001
 44
0.0000000001
 40
0.0
 40
0.0
 40
0.0
 40
0.0
 40
0.0583800928
 40
0.1183877908
 40
0.2423795555
 40
0.3702148657
 40
0.4999999998
 40
0.6297851338
 40
0.7576204441
 40
0.8816122089
 40
0.9416199071
 40
1.0
 40
1.0
 40
1.0
 40
1.0
 10
6.829952955
 20
4.6249918242
 30
0.0
 10
6.8266250526
 20
4.6254136047
 30
0.0
 10
6.8198684178
 20
4.6262065815
 30
0.0
 10
6.8060097414
 20
4.6275912742
 30
0.0
 10
6.7881382122
 20
4.6289274194
 30
0.0
 10
6.7662288044
 20
4.6298917596
 30
0.0
 10
6.7439676171
 20
4.6302151922
 30
0.0
 10
6.7217064298
 20
4.6298917596
 30
0.0
 10
6.699797022
 20
4.6289274194
 30
0.0
 10
6.6819254928
 20
4.6275912743
 30
0.0
 10
6.6680668164
 20
4.6262065815
 30
0.0
 10
6.6613101815
 20
4.6254136047
 30
0.0
 10
6.6579822792
 20
4.6249918242
 30
0.0
  0
SPLINE
  5
25D
100
AcDbEntity
  8
0
100
AcDbSpline
 62
7
  6
CONTINUOUS
 70
0
 71
3
 72
19
 73
15
 74
0
 42
0.0000001
 43
0.0000001
 44
0.0000000001
 40
0.0
 40
0.0
 40
0.0
 40
0.0
 40
0.0585759183
 40
0.1187005746
 40
0.180155251
 40
0.2427401235
 40
0.3704391894
 40
0.4999999998
 40
0.6295608101
 40
0.7572598761
 40
0.8198447485
 40
0.881299425
 40
0.9414240816
 40
1.0
 40
1.0
 40
1.0
 40
1.0
 10
6.829952955
 20
4.6468512854
 30
0.0
 10
6.8266277607
 20
4.6474104335
 30
0.0
 10
6.8198755006
 20
4.6484619444
 30
0.0
 10
6.8095941861
 20
4.6498251452
 30
0.0
 10
6.7990561946
 20
4.6509895233
 30
0.0
 10
6.7846216007
 20
4.6522782946
 30
0.0
 10
6.7662359513
 20
4.6533520692
 30
0.0
 10
6.7439676171
 20
4.6537815591
 30
0.0
 10
6.7216992829
 20
4.6533520692
 30
0.0
 10
6.7033136335
 20
4.6522782946
 30
0.0
 10
6.6888790396
 20
4.6509895233
 30
0.0
 10
6.6783410481
 20
4.6498251452
 30
0.0
 10
6.6680597335
 20
4.6484619444
 30
0.0
 10
6.6613074734
 20
4.6474104335
 30
0.0
 10
6.6579822792
 20
4.6468512854
 30
0.0
  0
SPLINE
  5
25E
100
AcDbEntity
  8
0
100
AcDbSpline
 62
7
  6
CONTINUOUS
 70
0
 71
3
 72
19
 73
15
 74
0
 42
0.0000001
 43
0.0000001
 44
0.0000000001
 40
0.0
 40
0.0
 40
0.0
 40
0.0
 40
0.0588177318
 40
0.1190873827
 40
0.1806043013
 40
0.2431827526
 40
0.3707150632
 40
0.4999999998
 40
0.6292849364
 40
0.7568172469
 40
0.8193956983
 40
0.880912617
 40
0.9411822681
 40
1.0
 40
1.0
 40
1.0
 40
1.0
 10
6.829952955
 20
4.6672913062
 30
0.0
 10
6.8266310477
 20
4.6679840324
 30
0.0
 10
6.8198841392
 20
4.669287188
 30
0.0
 10
6.8096014571
 20
4.670978169
 30
0.0
 10
6.7990621092
 20
4.6724224983
 30
0.0
 10
6.7846318522
 20
4.6740204503
 30
0.0
 10
6.7662449727
 20
4.6753527488
 30
0.0
 10
6.7439676171
 20
4.6758857762
 30
0.0
 10
6.7216902615
 20
4.6753527488
 30
0.0
 10
6.703303382
 20
4.6740204503
 30
0.0
 10
6.688873125
 20
4.6724224983
 30
0.0
 10
6.6783337771
 20
4.670978169
 30
0.0
 10
6.6680510949
 20
4.669287188
 30
0.0
 10
6.6613041865
 20
4.6679840324
 30
0.0
 10
6.6579822792
 20
4.6672913062
 30
0.0
  0
SPLINE
  5
25F
100
AcDbEntity
  8
0
100
AcDbSpline
 62
7
  6
CONTINUOUS
 70
0
 71
3
 72
19
 73
15
 74
0
 42
0.0000001
 43
0.0000001
 44
0.0000000001
 40
0.0
 40
0.0
 40
0.0
 40
0.0
 40
0.0590975928
 40
0.1195354984
 40
0.1811249503
 40
0.2436962921
 40
0.3710354114
 40
0.4999999998
 40
0.6289645882
 40
0.7563037075
 40
0.8188750493
 40
0.8804645013
 40
0.9409024071
 40
1.0
 40
1.0
 40
1.0
 40
1.0
 10
6.829952955
 20
4.6861858671
 30
0.0
 10
6.8266347853
 20
4.6870075277
 30
0.0
 10
6.8198940359
 20
4.6885538171
 30
0.0
 10
6.8096098412
 20
4.6905623909
 30
0.0
 10
6.7990689658
 20
4.6922779633
 30
0.0
 10
6.7846437917
 20
4.6941750772
 30
0.0
 10
6.7662555429
 20
4.6957580784
 30
0.0
 10
6.7439676171
 20
4.6963915978
 30
0.0
 10
6.7216796913
 20
4.6957580784
 30
0.0
 10
6.7032914425
 20
4.6941750772
 30
0.0
 10
6.6888662684
 20
4.6922779633
 30
0.0
 10
6.6783253929
 20
4.6905623909
 30
0.0
 10
6.6680411982
 20
4.6885538171
 30
0.0
 10
6.6613004488
 20
4.6870075277
 30
0.0
 10
6.6579822792
 20
4.6861858671
 30
0.0
  0
SPLINE
  5
260
100
AcDbEntity
  8
0
100
AcDbSpline
 62
7
  6
CONTINUOUS
 70
0
 71
3
 72
19
 73
15
 74
0
 42
0.0000001
 43
0.0000001
 44
0.0000000001
 40
0.0
 40
0.0
 40
0.0
 40
0.0
 40
0.0594071487
 40
0.1200317163
 40
0.1817020192
 40
0.2442659016
 40
0.3713910881
 40
0.4999999998
 40
0.6286089115
 40
0.755734098
 40
0.8182979804
 40
0.8799682834
 40
0.9405928512
 40
1.0
 40
1.0
 40
1.0
 40
1.0
 10
6.829952955
 20
4.7034184768
 30
0.0
 10
6.8266388384
 20
4.7043636295
 30
0.0
 10
6.8199048574
 20
4.7061430251
 30
0.0
 10
6.8096190759
 20
4.7084570444
 30
0.0
 10
6.7990765634
 20
4.7104334827
 30
0.0
 10
6.7846570918
 20
4.7126178814
 30
0.0
 10
6.7662673984
 20
4.7144422382
 30
0.0
 10
6.7439676171
 20
4.7151726028
 30
0.0
 10
6.7216678358
 20
4.7144422382
 30
0.0
 10
6.7032781424
 20
4.7126178814
 30
0.0
 10
6.6888586708
 20
4.7104334827
 30
0.0
 10
6.6783161582
 20
4.7084570444
 30
0.0
 10
6.6680303768
 20
4.7061430251
 30
0.0
 10
6.6612963957
 20
4.7043636295
 30
0.0
 10
6.6579822792
 20
4.7034184768
 30
0.0
  0
SPLINE
  5
261
100
AcDbEntity
  8
0
100
AcDbSpline
 62
7
  6
CONTINUOUS
 70
0
 71
3
 72
17
 73
13
 74
0
 42
0.0000001
 43
0.0000001
 44
0.0000000001
 40
0.0
 40
0.0
 40
0.0
 40
0.0
 40
0.059740377
 40
0.1205676985
 40
0.2448635308
 40
0.3717661512
 40
0.4999999998
 40
0.6282338484
 40
0.7551364688
 40
0.8794323012
 40
0.9402596229
 40
1.0
 40
1.0
 40
1.0
 40
1.0
 10
6.829952955
 20
4.7188828905
 30
0.0
 10
6.826643073
 20
4.7199453525
 30
0.0
 10
6.819916184
 20
4.7219464426
 30
0.0
 10
6.8061008884
 20
4.7254452281
 30
0.0
 10
6.7882430504
 20
4.7288360163
 30
0.0
 10
6.7662808107
 20
4.7312899805
 30
0.0
 10
6.7439676171
 20
4.7321130265
 30
0.0
 10
6.7216544235
 20
4.7312899805
 30
0.0
 10
6.6996921838
 20
4.7288360163
 30
0.0
 10
6.6818343458
 20
4.7254452281
 30
0.0
 10
6.6680190501
 20
4.7219464426
 30
0.0
 10
6.6612921612
 20
4.7199453525
 30
0.0
 10
6.6579822792
 20
4.7188828905
 30
0.0
  0
SPLINE
  5
262
100
AcDbEntity
  8
0
100
AcDbSpline
 62
7
  6
CONTINUOUS
 70
0
 71
3
 72
15
 73
11
 74
0
 42
0.0000001
 43
0.0000001
 44
0.0000000001
 40
0.0
 40
0.0
 40
0.0
 40
0.0
 40
0.1210957215
 40
0.2454791365
 40
0.3721536207
 40
0.4999999998
 40
0.6278463789
 40
0.7545208631
 40
0.8789042782
 40
1.0
 40
1.0
 40
1.0
 40
1.0
 10
6.829952955
 20
4.7324837651
 30
0.0
 10
6.8232910402
 20
4.7348475782
 30
0.0
 10
6.8095557176
 20
4.7390109407
 30
0.0
 10
6.7882710053
 20
4.7434814058
 30
0.0
 10
6.7662941918
 20
4.7461975502
 30
0.0
 10
6.7439676171
 20
4.747108369
 30
0.0
 10
6.7216410424
 20
4.7461975502
 30
0.0
 10
6.6996642289
 20
4.7434814058
 30
0.0
 10
6.6783795165
 20
4.7390109408
 30
0.0
 10
6.6646441939
 20
4.7348475782
 30
0.0
 10
6.6579822792
 20
4.7324837651
 30
0.0
  0
SPLINE
  5
263
100
AcDbEntity
  8
0
100
AcDbSpline
 62
7
  6
CONTINUOUS
 70
0
 71
3
 72
17
 73
13
 74
0
 42
0.0000001
 43
0.0000001
 44
0.0000000001
 40
0.0
 40
0.0
 40
0.0
 40
0.0
 40
0.1216407108
 40
0.2460993394
 40
0.3091422512
 40
0.3725610248
 40
0.4999999998
 40
0.6274389748
 40
0.6908577484
 40
0.7539006602
 40
0.8783592888
 40
1.0
 40
1.0
 40
1.0
 40
1.0
 10
6.829952955
 20
4.7441372465
 30
0.0
 10
6.8233074799
 20
4.7467054915
 30
0.0
 10
6.8095965988
 20
4.7512354788
 30
0.0
 10
6.7919209145
 20
4.7552815875
 30
0.0
 10
6.777400711
 20
4.7575787203
 30
0.0
 10
6.7626180619
 20
4.759236917
 30
0.0
 10
6.7439676171
 20
4.7600663414
 30
0.0
 10
6.7253171723
 20
4.759236917
 30
0.0
 10
6.7105345232
 20
4.7575787203
 30
0.0
 10
6.6960143197
 20
4.7552815875
 30
0.0
 10
6.6783386353
 20
4.7512354788
 30
0.0
 10
6.6646277543
 20
4.7467054915
 30
0.0
 10
6.6579822792
 20
4.7441372465
 30
0.0
  0
SPLINE
  5
264
100
AcDbEntity
  8
0
100
AcDbSpline
 62
7
  6
CONTINUOUS
 70
0
 71
3
 72
15
 73
11
 74
0
 42
0.0000001
 43
0.0000001
 44
0.0000000001
 40
0.0
 40
0.0
 40
0.0
 40
0.0
 40
0.1221931674
 40
0.2467430646
 40
0.3729471822
 40
0.4999999998
 40
0.6270528174
 40
0.753256935
 40
0.8778068323
 40
1.0
 40
1.0
 40
1.0
 40
1.0
 10
6.829952955
 20
4.7537714873
 30
0.0
 10
6.8233233106
 20
4.7565275821
 30
0.0
 10
6.8096355991
 20
4.7613956985
 30
0.0
 10
6.7883259749
 20
4.7666465404
 30
0.0
 10
6.7663220319
 20
4.7698368839
 30
0.0
 10
6.7439676171
 20
4.7709066758
 30
0.0
 10
6.7216132023
 20
4.7698368839
 30
0.0
 10
6.6996092593
 20
4.7666465404
 30
0.0
 10
6.6782996351
 20
4.7613956985
 30
0.0
 10
6.6646119236
 20
4.7565275821
 30
0.0
 10
6.6579822792
 20
4.7537714873
 30
0.0
  0
SPLINE
  5
265
100
AcDbEntity
  8
0
100
AcDbSpline
 62
7
  6
CONTINUOUS
 70
0
 71
3
 72
15
 73
11
 74
0
 42
0.0000001
 43
0.0000001
 44
0.0000000001
 40
0.0
 40
0.0
 40
0.0
 40
0.0
 40
0.122716606
 40
0.2473476155
 40
0.3733273954
 40
0.4999999998
 40
0.6266726042
 40
0.7526523841
 40
0.8772833936
 40
1.0
 40
1.0
 40
1.0
 40
1.0
 10
6.829952955
 20
4.761327089
 30
0.0
 10
6.8233381971
 20
4.7642535733
 30
0.0
 10
6.8096733808
 20
4.7694291449
 30
0.0
 10
6.788352453
 20
4.7750236937
 30
0.0
 10
6.7663355975
 20
4.7784230103
 30
0.0
 10
6.7439676171
 20
4.7795628771
 30
0.0
 10
6.7215996367
 20
4.7784230104
 30
0.0
 10
6.6995827812
 20
4.7750236937
 30
0.0
 10
6.6782618533
 20
4.7694291449
 30
0.0
 10
6.6645970371
 20
4.7642535733
 30
0.0
 10
6.6579822792
 20
4.761327089
 30
0.0
  0
SPLINE
  5
266
100
AcDbEntity
  8
0
100
AcDbSpline
 62
7
  6
CONTINUOUS
 70
0
 71
3
 72
15
 73
11
 74
0
 42
0.0000001
 43
0.0000001
 44
0.0000000001
 40
0.0
 40
0.0
 40
0.0
 40
0.0
 40
0.1232567555
 40
0.2479720424
 40
0.3737207917
 40
0.4999999998
 40
0.626279208
 40
0.7520279572
 40
0.8767432442
 40
1.0
 40
1.0
 40
1.0
 40
1.0
 10
6.8288421843
 20
4.7672712488
 30
0.0
 10
6.8223103772
 20
4.7702675017
 30
0.0
 10
6.8088239411
 20
4.775570715
 30
0.0
 10
6.7877636217
 20
4.7813128005
 30
0.0
 10
6.7660343401
 20
4.7848008056
 30
0.0
 10
6.7439676169
 20
4.7859702186
 30
0.0
 10
6.7219008937
 20
4.7848008056
 30
0.0
 10
6.7001716121
 20
4.7813128004
 30
0.0
 10
6.6791112927
 20
4.7755707149
 30
0.0
 10
6.6656248565
 20
4.7702675015
 30
0.0
 10
6.6590930494
 20
4.7672712487
 30
0.0
  0
SPLINE
  5
267
100
AcDbEntity
  8
0
100
AcDbSpline
 62
7
  6
CONTINUOUS
 70
0
 71
3
 72
15
 73
11
 74
0
 42
0.0000001
 43
0.0000001
 44
0.0000000001
 40
0.0
 40
0.0
 40
0.0
 40
0.0
 40
0.1236671187
 40
0.2484479064
 40
0.3740205122
 40
0.4999999998
 40
0.6259794874
 40
0.7515520932
 40
0.876332881
 40
1.0
 40
1.0
 40
1.0
 40
1.0
 10
6.8295707488
 20
4.7702149341
 30
0.0
 10
6.8230054755
 20
4.7733971754
 30
0.0
 10
6.8094354989
 20
4.7790362002
 30
0.0
 10
6.7881885545
 20
4.7851545387
 30
0.0
 10
6.7662519709
 20
4.7888721613
 30
0.0
 10
6.743967617
 20
4.7901187305
 30
0.0
 10
6.7216832632
 20
4.7888721613
 30
0.0
 10
6.6997466795
 20
4.7851545387
 30
0.0
 10
6.6784997351
 20
4.7790362001
 30
0.0
 10
6.6649297585
 20
4.7733971753
 30
0.0
 10
6.6583644852
 20
4.770214934
 30
0.0
  0
SPLINE
  5
268
100
AcDbEntity
  8
0
100
AcDbSpline
 62
7
  6
CONTINUOUS
 70
0
 71
3
 72
17
 73
13
 74
0
 42
0.0000001
 43
0.0000001
 44
0.0000000001
 40
0.0
 40
0.0
 40
0.0
 40
0.0
 40
0.1240348485
 40
0.1863912064
 40
0.2489173344
 40
0.3743130776
 40
0.4999999998
 40
0.625686922
 40
0.7510826652
 40
0.8136087931
 40
0.8759651511
 40
1.0
 40
1.0
 40
1.0
 40
1.0
 10
6.829952955
 20
4.7711219523
 30
0.0
 10
6.8233746739
 20
4.7744476808
 30
0.0
 10
6.8131808891
 20
4.7788667873
 30
0.0
 10
6.7991390296
 20
4.7835388856
 30
0.0
 10
6.7847682859
 20
4.7874033769
 30
0.0
 10
6.7663702755
 20
4.7906548979
 30
0.0
 10
6.7439676171
 20
4.7919612823
 30
0.0
 10
6.7215649587
 20
4.7906548979
 30
0.0
 10
6.7031669483
 20
4.7874033769
 30
0.0
 10
6.6887962046
 20
4.7835388856
 30
0.0
 10
6.6747543451
 20
4.7788667873
 30
0.0
 10
6.6645605602
 20
4.7744476808
 30
0.0
 10
6.6579822792
 20
4.7711219523
 30
0.0
  0
SPLINE
  5
269
100
AcDbEntity
  8
0
100
AcDbSpline
 62
7
  6
CONTINUOUS
 70
0
 71
3
 72
21
 73
17
 74
0
 42
0.0000001
 43
0.0000001
 44
0.0000000001
 40
0.0
 40
0.0
 40
0.0
 40
0.0
 40
0.1247974047
 40
0.1872774432
 40
0.2497837832
 40
0.3123166157
 40
0.3748677194
 40
0.4374306817
 40
0.4999999998
 40
0.562569318
 40
0.6251322802
 40
0.6876833839
 40
0.7502162164
 40
0.8127225563
 40
0.875202595
 40
1.0
 40
1.0
 40
1.0
 40
1.0
 10
6.829952955
 20
4.0719168155
 30
0.0
 10
6.8233955332
 20
4.068370765
 30
0.0
 10
6.8132144189
 20
4.0636453146
 30
0.0
 10
6.7991515766
 20
4.0586391376
 30
0.0
 10
6.7883792083
 20
4.0555399849
 30
0.0
 10
6.7774318992
 20
4.0531143286
 30
0.0
 10
6.7663513825
 20
4.0513734836
 30
0.0
 10
6.7551818581
 20
4.0503254619
 30
0.0
 10
6.7439676171
 20
4.0499758517
 30
0.0
 10
6.7327533761
 20
4.0503254619
 30
0.0
 10
6.7215838517
 20
4.0513734836
 30
0.0
 10
6.710503335
 20
4.0531143286
 30
0.0
 10
6.6995560259
 20
4.0555399849
 30
0.0
 10
6.6887836576
 20
4.0586391376
 30
0.0
 10
6.6747208153
 20
4.0636453146
 30
0.0
 10
6.6645397009
 20
4.068370765
 30
0.0
 10
6.6579822792
 20
4.0719168155
 30
0.0
  0
SPLINE
  5
26A
100
AcDbEntity
  8
0
100
AcDbSpline
 62
7
  6
CONTINUOUS
 70
0
 71
3
 72
23
 73
19
 74
0
 42
0.0000001
 43
0.0000001
 44
0.0000000001
 40
0.0
 40
0.0
 40
0.0
 40
0.0
 40
0.0624663941
 40
0.1249602534
 40
0.1874534714
 40
0.2499514972
 40
0.3124583261
 40
0.3749698614
 40
0.437484071
 40
0.4999999998
 40
0.5625159286
 40
0.6250301382
 40
0.6875416735
 40
0.7500485024
 40
0.8125465281
 40
0.8750397462
 40
0.9375336058
 40
1.0
 40
1.0
 40
1.0
 40
1.0
 10
6.829952955
 20
4.0794724172
 30
0.0
 10
6.826674935
 20
4.0776829032
 30
0.0
 10
6.820005483
 20
4.0743039239
 30
0.0
 10
6.8097083884
 20
4.069862565
 30
0.0
 10
6.7991529526
 20
4.0660687985
 30
0.0
 10
6.788380872
 20
4.0629402531
 30
0.0
 10
6.7774330632
 20
4.0604912778
 30
0.0
 10
6.7663522099
 20
4.0587337685
 30
0.0
 10
6.7551822716
 20
4.0576756943
 30
0.0
 10
6.7439676171
 20
4.057322734
 30
0.0
 10
6.7327529626
 20
4.0576756943
 30
0.0
 10
6.7215830243
 20
4.0587337685
 30
0.0
 10
6.710502171
 20
4.0604912778
 30
0.0
 10
6.6995543622
 20
4.062940253
 30
0.0
 10
6.6887822816
 20
4.0660687985
 30
0.0
 10
6.6782268457
 20
4.069862565
 30
0.0
 10
6.6679297512
 20
4.0743039238
 30
0.0
 10
6.6612602991
 20
4.0776829032
 30
0.0
 10
6.6579822792
 20
4.0794724172
 30
0.0
  0
SPLINE
  5
26B
100
AcDbEntity
  8
0
100
AcDbSpline
 62
7
  6
CONTINUOUS
 70
0
 71
3
 72
23
 73
19
 74
0
 42
0.0000001
 43
0.0000001
 44
0.0000000001
 40
0.0
 40
0.0
 40
0.0
 40
0.0
 40
0.0624918213
 40
0.1250014581
 40
0.1875018083
 40
0.249999506
 40
0.3124998647
 40
0.3750002182
 40
0.437500055
 40
0.4999999998
 40
0.5624999446
 40
0.6249997814
 40
0.6875001349
 40
0.7500004936
 40
0.8124981913
 40
0.8749985416
 40
0.9375081786
 40
1.0
 40
1.0
 40
1.0
 40
1.0
 10
6.829952955
 20
4.089106658
 30
0.0
 10
6.826675206
 20
4.0873114629
 30
0.0
 10
6.820006268
 20
4.0839216956
 30
0.0
 10
6.8097091116
 20
4.0794657862
 30
0.0
 10
6.7991535905
 20
4.0756595821
 30
0.0
 10
6.7883814069
 20
4.0725207752
 30
0.0
 10
6.7774334794
 20
4.070063764
 30
0.0
 10
6.7663524945
 20
4.0683004859
 30
0.0
 10
6.7551824162
 20
4.0672389378
 30
0.0
 10
6.7439676171
 20
4.0668848186
 30
0.0
 10
6.732752818
 20
4.0672389378
 30
0.0
 10
6.7215827397
 20
4.0683004858
 30
0.0
 10
6.7105017548
 20
4.070063764
 30
0.0
 10
6.6995538273
 20
4.0725207752
 30
0.0
 10
6.6887816437
 20
4.0756595821
 30
0.0
 10
6.6782261226
 20
4.0794657861
 30
0.0
 10
6.6679289662
 20
4.0839216955
 30
0.0
 10
6.6612600281
 20
4.0873114629
 30
0.0
 10
6.6579822792
 20
4.089106658
 30
0.0
  0
SPLINE
  5
26C
100
AcDbEntity
  8
0
100
AcDbSpline
 62
7
  6
CONTINUOUS
 70
0
 71
3
 72
23
 73
19
 74
0
 42
0.0000001
 43
0.0000001
 44
0.0000000001
 40
0.0
 40
0.0
 40
0.0
 40
0.0
 40
0.0624689655
 40
0.1249644203
 40
0.1874583593
 40
0.2499563517
 40
0.3124625263
 40
0.3749729309
 40
0.4374856872
 40
0.4999999998
 40
0.5625143124
 40
0.6250270687
 40
0.6875374733
 40
0.7500436479
 40
0.8125416403
 40
0.8750355794
 40
0.9375310344
 40
1.0
 40
1.0
 40
1.0
 40
1.0
 10
6.829952955
 20
4.1007601394
 30
0.0
 10
6.8266749624
 20
4.0989700504
 30
0.0
 10
6.8200055624
 20
4.095589979
 30
0.0
 10
6.8097084616
 20
4.0911471474
 30
0.0
 10
6.7991530171
 20
4.087352122
 30
0.0
 10
6.7883809261
 20
4.084222538
 30
0.0
 10
6.7774331053
 20
4.0817727494
 30
0.0
 10
6.7663522386
 20
4.0800146562
 30
0.0
 10
6.7551822862
 20
4.0789562304
 30
0.0
 10
6.7439676171
 20
4.0786031528
 30
0.0
 10
6.732752948
 20
4.0789562304
 30
0.0
 10
6.7215829956
 20
4.0800146562
 30
0.0
 10
6.7105021289
 20
4.0817727494
 30
0.0
 10
6.6995543081
 20
4.084222538
 30
0.0
 10
6.6887822171
 20
4.087352122
 30
0.0
 10
6.6782267726
 20
4.0911471474
 30
0.0
 10
6.6679296718
 20
4.095589979
 30
0.0
 10
6.6612602717
 20
4.0989700504
 30
0.0
 10
6.6579822792
 20
4.1007601394
 30
0.0
  0
SPLINE
  5
26D
100
AcDbEntity
  8
0
100
AcDbSpline
 62
7
  6
CONTINUOUS
 70
0
 71
3
 72
21
 73
17
 74
0
 42
0.0000001
 43
0.0000001
 44
0.0000000001
 40
0.0
 40
0.0
 40
0.0
 40
0.0
 40
0.1248056246
 40
0.1872870974
 40
0.2497933763
 40
0.3123249177
 40
0.3748737871
 40
0.4374338767
 40
0.4999999998
 40
0.5625661229
 40
0.6251262125
 40
0.6876750819
 40
0.7502066233
 40
0.8127129022
 40
0.875194375
 40
1.0
 40
1.0
 40
1.0
 40
1.0
 10
6.829952955
 20
4.114361014
 30
0.0
 10
6.8233957471
 20
4.1108127259
 30
0.0
 10
6.8132147678
 20
4.1060841555
 30
0.0
 10
6.7991517047
 20
4.1010745653
 30
0.0
 10
6.7883793153
 20
4.0979733416
 30
0.0
 10
6.7774319824
 20
4.0955460641
 30
0.0
 10
6.7663514394
 20
4.0938040551
 30
0.0
 10
6.755181887
 20
4.0927553325
 30
0.0
 10
6.7439676171
 20
4.0924054884
 30
0.0
 10
6.7327533472
 20
4.0927553325
 30
0.0
 10
6.7215837948
 20
4.093804055
 30
0.0
 10
6.7105032518
 20
4.095546064
 30
0.0
 10
6.6995559189
 20
4.0979733416
 30
0.0
 10
6.6887835295
 20
4.1010745653
 30
0.0
 10
6.6747204663
 20
4.1060841554
 30
0.0
 10
6.664539487
 20
4.1108127259
 30
0.0
 10
6.6579822792
 20
4.114361014
 30
0.0
  0
SPLINE
  5
26E
100
AcDbEntity
  8
0
100
AcDbSpline
 62
7
  6
CONTINUOUS
 70
0
 71
3
 72
17
 73
13
 74
0
 42
0.0000001
 43
0.0000001
 44
0.0000000001
 40
0.0
 40
0.0
 40
0.0
 40
0.0
 40
0.1240541884
 40
0.1864139175
 40
0.2489399196
 40
0.37432732
 40
0.4999999998
 40
0.6256726796
 40
0.7510600799
 40
0.8135860821
 40
0.8759458113
 40
1.0
 40
1.0
 40
1.0
 40
1.0
 10
6.829952955
 20
4.1659525983
 30
0.0
 10
6.8233751906
 20
4.1626213561
 30
0.0
 10
6.8131817153
 20
4.1581946052
 30
0.0
 10
6.7991393288
 20
4.1535141922
 30
0.0
 10
6.7847688344
 20
4.1496430316
 30
0.0
 10
6.7663707977
 20
4.1463857794
 30
0.0
 10
6.7439676171
 20
4.1450770663
 30
0.0
 10
6.7215644365
 20
4.1463857794
 30
0.0
 10
6.7031663998
 20
4.1496430315
 30
0.0
 10
6.6887959054
 20
4.1535141922
 30
0.0
 10
6.6747535189
 20
4.1581946052
 30
0.0
 10
6.6645600436
 20
4.1626213561
 30
0.0
 10
6.6579822792
 20
4.1659525983
 30
0.0
  0
SPLINE
  5
26F
100
AcDbEntity
  8
0
100
AcDbSpline
 62
7
  6
CONTINUOUS
 70
0
 71
3
 72
15
 73
11
 74
0
 42
0.0000001
 43
0.0000001
 44
0.0000000001
 40
0.0
 40
0.0
 40
0.0
 40
0.0
 40
0.1236764255
 40
0.2484590346
 40
0.3740274842
 40
0.4999999998
 40
0.6259725154
 40
0.7515409649
 40
0.8763235742
 40
1.0
 40
1.0
 40
1.0
 40
1.0
 10
6.829952955
 20
4.1863926191
 30
0.0
 10
6.8233646866
 20
4.1831741353
 30
0.0
 10
6.8097421076
 20
4.17746995
 30
0.0
 10
6.7884014393
 20
4.1712794476
 30
0.0
 10
6.7663609667
 20
4.1675175251
 30
0.0
 10
6.7439676171
 20
4.1662560209
 30
0.0
 10
6.7215742675
 20
4.167517525
 30
0.0
 10
6.6995337949
 20
4.1712794475
 30
0.0
 10
6.6781931266
 20
4.17746995
 30
0.0
 10
6.6645705475
 20
4.1831741353
 30
0.0
 10
6.6579822792
 20
4.1863926191
 30
0.0
  0
SPLINE
  5
270
100
AcDbEntity
  8
0
100
AcDbSpline
 62
7
  6
CONTINUOUS
 70
0
 71
3
 72
15
 73
11
 74
0
 42
0.0000001
 43
0.0000001
 44
0.0000000001
 40
0.0
 40
0.0
 40
0.0
 40
0.0
 40
0.1232320992
 40
0.2479440676
 40
0.3737029265
 40
0.4999999998
 40
0.6262970731
 40
0.752055932
 40
0.8767679005
 40
1.0
 40
1.0
 40
1.0
 40
1.0
 10
6.829952955
 20
4.2082520803
 30
0.0
 10
6.8233525513
 20
4.2051658433
 30
0.0
 10
6.8097103822
 20
4.1997013245
 30
0.0
 10
6.7883786926
 20
4.1937818259
 30
0.0
 10
6.7663491423
 20
4.1901848432
 30
0.0
 10
6.7439676171
 20
4.1889786771
 30
0.0
 10
6.7215860919
 20
4.1901848432
 30
0.0
 10
6.6995565416
 20
4.1937818259
 30
0.0
 10
6.678224852
 20
4.1997013245
 30
0.0
 10
6.6645826828
 20
4.2051658433
 30
0.0
 10
6.6579822792
 20
4.2082520803
 30
0.0
  0
SPLINE
  5
271
100
AcDbEntity
  8
0
100
AcDbSpline
 62
7
  6
CONTINUOUS
 70
0
 71
3
 72
15
 73
11
 74
0
 42
0.0000001
 43
0.0000001
 44
0.0000000001
 40
0.0
 40
0.0
 40
0.0
 40
0.0
 40
0.1227436961
 40
0.2473789335
 40
0.3733471033
 40
0.4999999998
 40
0.6266528963
 40
0.7526210661
 40
0.8772563036
 40
1.0
 40
1.0
 40
1.0
 40
1.0
 10
6.829952955
 20
4.2313962111
 30
0.0
 10
6.8233389589
 20
4.228461145
 30
0.0
 10
6.8096753305
 20
4.2232700679
 30
0.0
 10
6.7883538279
 20
4.2176581299
 30
0.0
 10
6.7663363047
 20
4.214248238
 30
0.0
 10
6.7439676171
 20
4.2131048247
 30
0.0
 10
6.7215989295
 20
4.214248238
 30
0.0
 10
6.6995814063
 20
4.2176581299
 30
0.0
 10
6.6782599037
 20
4.2232700679
 30
0.0
 10
6.6645962753
 20
4.228461145
 30
0.0
 10
6.6579822792
 20
4.2313962111
 30
0.0
  0
SPLINE
  5
272
100
AcDbEntity
  8
0
100
AcDbSpline
 62
7
  6
CONTINUOUS
 70
0
 71
3
 72
15
 73
11
 74
0
 42
0.0000001
 43
0.0000001
 44
0.0000000001
 40
0.0
 40
0.0
 40
0.0
 40
0.0
 40
0.1222217278
 40
0.2467760223
 40
0.3729678991
 40
0.4999999998
 40
0.6270321005
 40
0.7532239773
 40
0.8777782719
 40
1.0
 40
1.0
 40
1.0
 40
1.0
 10
6.829952955
 20
4.2556823201
 30
0.0
 10
6.8233241311
 20
4.2529166899
 30
0.0
 10
6.809637666
 20
4.2480313881
 30
0.0
 10
6.7883274153
 20
4.242761389
 30
0.0
 10
6.7663227672
 20
4.2395594002
 30
0.0
 10
6.7439676171
 20
4.2384857037
 30
0.0
 10
6.721612467
 20
4.2395594002
 30
0.0
 10
6.6996078189
 20
4.242761389
 30
0.0
 10
6.6782975682
 20
4.2480313881
 30
0.0
 10
6.6646111031
 20
4.2529166899
 30
0.0
 10
6.6579822792
 20
4.2556823201
 30
0.0
  0
SPLINE
  5
273
100
AcDbEntity
  8
0
100
AcDbSpline
 62
7
  6
CONTINUOUS
 70
0
 71
3
 72
17
 73
13
 74
0
 42
0.0000001
 43
0.0000001
 44
0.0000000001
 40
0.0
 40
0.0
 40
0.0
 40
0.0
 40
0.1216700177
 40
0.2461330394
 40
0.3091713689
 40
0.3725823303
 40
0.4999999998
 40
0.6274176693
 40
0.6908286307
 40
0.7538669602
 40
0.878329982
 40
1.0
 40
1.0
 40
1.0
 40
1.0
 10
6.829952955
 20
4.2809606755
 30
0.0
 10
6.8233083428
 20
4.2783819849
 30
0.0
 10
6.8095987411
 20
4.2738332279
 30
0.0
 10
6.7919218204
 20
4.2697697095
 30
0.0
 10
6.7774009889
 20
4.2674628174
 30
0.0
 10
6.7626184457
 20
4.2657976555
 30
0.0
 10
6.7439676171
 20
4.2649646999
 30
0.0
 10
6.7253167885
 20
4.2657976555
 30
0.0
 10
6.7105342453
 20
4.2674628174
 30
0.0
 10
6.6960134138
 20
4.2697697095
 30
0.0
 10
6.6783364931
 20
4.2738332278
 30
0.0
 10
6.6646268914
 20
4.2783819849
 30
0.0
 10
6.6579822792
 20
4.2809606755
 30
0.0
  0
SPLINE
  5
274
100
AcDbEntity
  8
0
100
AcDbSpline
 62
7
  6
CONTINUOUS
 70
0
 71
3
 72
15
 73
11
 74
0
 42
0.0000001
 43
0.0000001
 44
0.0000000001
 40
0.0
 40
0.0
 40
0.0
 40
0.0
 40
0.1211251941
 40
0.2455130167
 40
0.3721748689
 40
0.4999999998
 40
0.6278251307
 40
0.7544869829
 40
0.8788748056
 40
1.0
 40
1.0
 40
1.0
 40
1.0
 10
6.829952955
 20
4.3070754278
 30
0.0
 10
6.8232919262
 20
4.3047003088
 30
0.0
 10
6.8095578745
 20
4.3005166975
 30
0.0
 10
6.7882724718
 20
4.2960239477
 30
0.0
 10
6.766294929
 20
4.2932942655
 30
0.0
 10
6.7439676171
 20
4.2923789085
 30
0.0
 10
6.7216403052
 20
4.2932942655
 30
0.0
 10
6.6996627624
 20
4.2960239477
 30
0.0
 10
6.6783773597
 20
4.3005166975
 30
0.0
 10
6.664643308
 20
4.3047003088
 30
0.0
 10
6.6579822792
 20
4.3070754278
 30
0.0
  0
SPLINE
  5
275
100
AcDbEntity
  8
0
100
AcDbSpline
 62
7
  6
CONTINUOUS
 70
0
 71
3
 72
15
 73
11
 74
0
 42
0.0000001
 43
0.0000001
 44
0.0000000001
 40
0.0
 40
0.0
 40
0.0
 40
0.0
 40
0.1180204036
 40
0.2419630777
 40
0.3699554853
 40
0.5000000005
 40
0.6300445156
 40
0.7580369231
 40
0.8819795969
 40
1.0
 40
1.0
 40
1.0
 40
1.0
 10
6.6579822792
 20
4.3070754278
 30
0.0
 10
6.6647430017
 20
4.3073736765
 30
0.0
 10
6.6786078324
 20
4.3078939156
 30
0.0
 10
6.6998143296
 20
4.308445659
 30
0.0
 10
6.7217149048
 20
4.3087810188
 30
0.0
 10
6.7439676171
 20
4.308893523
 30
0.0
 10
6.7662203294
 20
4.3087810188
 30
0.0
 10
6.7881209046
 20
4.308445659
 30
0.0
 10
6.8093274018
 20
4.3078939156
 30
0.0
 10
6.8231922325
 20
4.3073736765
 30
0.0
 10
6.829952955
 20
4.3070754278
 30
0.0
  0
SPLINE
  5
276
100
AcDbEntity
  8
0
100
AcDbSpline
 62
7
  6
CONTINUOUS
 70
0
 71
3
 72
17
 73
13
 74
0
 42
0.0000001
 43
0.0000001
 44
0.0000000001
 40
0.0
 40
0.0
 40
0.0
 40
0.0
 40
0.0597584404
 40
0.1205967205
 40
0.2448967355
 40
0.3717869357
 40
0.4999999998
 40
0.6282130639
 40
0.7551032641
 40
0.8794032791
 40
0.9402415595
 40
1.0
 40
1.0
 40
1.0
 40
1.0
 10
6.829952955
 20
4.3338655708
 30
0.0
 10
6.8266433014
 20
4.3327970393
 30
0.0
 10
6.8199168012
 20
4.3307844752
 30
0.0
 10
6.8061020882
 20
4.3272655721
 30
0.0
 10
6.788244468
 20
4.323855095
 30
0.0
 10
6.7662815232
 20
4.3213867839
 30
0.0
 10
6.7439676171
 20
4.3205589254
 30
0.0
 10
6.721653711
 20
4.3213867839
 30
0.0
 10
6.6996907662
 20
4.323855095
 30
0.0
 10
6.681833146
 20
4.327265572
 30
0.0
 10
6.6680184329
 20
4.3307844752
 30
0.0
 10
6.6612919327
 20
4.3327970393
 30
0.0
 10
6.6579822792
 20
4.3338655708
 30
0.0
  0
SPLINE
  5
277
100
AcDbEntity
  8
0
100
AcDbSpline
 62
7
  6
CONTINUOUS
 70
0
 71
3
 72
15
 73
11
 74
0
 42
0.0000001
 43
0.0000001
 44
0.0000000001
 40
0.0
 40
0.0
 40
0.0
 40
0.0
 40
0.1181649874
 40
0.2421275322
 40
0.370057992
 40
0.5000000005
 40
0.6299420088
 40
0.7578724686
 40
0.881835013
 40
1.0
 40
1.0
 40
1.0
 40
1.0
 10
6.6579822792
 20
4.3338655708
 30
0.0
 10
6.6647380569
 20
4.3344520451
 30
0.0
 10
6.678596962
 20
4.3354755692
 30
0.0
 10
6.6998074025
 20
4.336561693
 30
0.0
 10
6.7217115643
 20
4.3372218377
 30
0.0
 10
6.7439676171
 20
4.337443292
 30
0.0
 10
6.76622367
 20
4.3372218377
 30
0.0
 10
6.7881278317
 20
4.336561693
 30
0.0
 10
6.8093382722
 20
4.3354755692
 30
0.0
 10
6.8231971773
 20
4.3344520451
 30
0.0
 10
6.829952955
 20
4.3338655708
 30
0.0
  0
SPLINE
  5
278
100
AcDbEntity
  8
0
100
AcDbSpline
 62
7
  6
CONTINUOUS
 70
0
 71
3
 72
19
 73
15
 74
0
 42
0.0000001
 43
0.0000001
 44
0.0000000001
 40
0.0
 40
0.0
 40
0.0
 40
0.0
 40
0.0594243234
 40
0.1200592643
 40
0.181734072
 40
0.244297553
 40
0.3714108628
 40
0.4999999998
 40
0.6285891368
 40
0.7557024466
 40
0.8182659276
 40
0.8799407354
 40
0.9405756765
 40
1.0
 40
1.0
 40
1.0
 40
1.0
 10
6.829952955
 20
4.3611659344
 30
0.0
 10
6.8266390609
 20
4.3602143628
 30
0.0
 10
6.8199054539
 20
4.3584228444
 30
0.0
 10
6.8096195871
 20
4.3560929127
 30
0.0
 10
6.7990769854
 20
4.3541028844
 30
0.0
 10
6.7846578326
 20
4.351903532
 30
0.0
 10
6.7662680613
 20
4.3500665944
 30
0.0
 10
6.7439676171
 20
4.3493311786
 30
0.0
 10
6.7216671729
 20
4.3500665944
 30
0.0
 10
6.7032774016
 20
4.351903532
 30
0.0
 10
6.6888582488
 20
4.3541028844
 30
0.0
 10
6.6783156471
 20
4.3560929127
 30
0.0
 10
6.6680297802
 20
4.3584228444
 30
0.0
 10
6.6612961733
 20
4.3602143628
 30
0.0
 10
6.6579822792
 20
4.3611659344
 30
0.0
  0
SPLINE
  5
279
100
AcDbEntity
  8
0
100
AcDbSpline
 62
7
  6
CONTINUOUS
 70
0
 71
3
 72
17
 73
13
 74
0
 42
0.0000001
 43
0.0000001
 44
0.0000000001
 40
0.0
 40
0.0
 40
0.0
 40
0.0
 40
0.0583893196
 40
0.1184025394
 40
0.2423962945
 40
0.3702252965
 40
0.5000000004
 40
0.6297747044
 40
0.7576037062
 40
0.881597461
 40
0.9416106805
 40
1.0
 40
1.0
 40
1.0
 40
1.0
 10
6.6579822792
 20
4.3611659344
 30
0.0
 10
6.6613100536
 20
4.3615951222
 30
0.0
 10
6.6680664837
 20
4.3624020363
 30
0.0
 10
6.6819248694
 20
4.3638110793
 30
0.0
 10
6.6997963237
 20
4.3651707618
 30
0.0
 10
6.7217060877
 20
4.3661521063
 30
0.0
 10
6.7439676171
 20
4.3664812419
 30
0.0
 10
6.7662291465
 20
4.3661521063
 30
0.0
 10
6.7881389106
 20
4.3651707618
 30
0.0
 10
6.8060103648
 20
4.3638110793
 30
0.0
 10
6.8198687505
 20
4.3624020363
 30
0.0
 10
6.8266251805
 20
4.3615951222
 30
0.0
 10
6.829952955
 20
4.3611659344
 30
0.0
  0
SPLINE
  5
27A
100
AcDbEntity
  8
0
100
AcDbSpline
 62
7
  6
CONTINUOUS
 70
0
 71
3
 72
19
 73
15
 74
0
 42
0.0000001
 43
0.0000001
 44
0.0000000001
 40
0.0
 40
0.0
 40
0.0
 40
0.0
 40
0.0591134298
 40
0.119560871
 40
0.1811544434
 40
0.2437253932
 40
0.3710535738
 40
0.4999999998
 40
0.6289464258
 40
0.7562746063
 40
0.8188455562
 40
0.8804391287
 40
0.9408865701
 40
1.0
 40
1.0
 40
1.0
 40
1.0
 10
6.829952955
 20
4.3888082028
 30
0.0
 10
6.8266349947
 20
4.3879798118
 30
0.0
 10
6.8198945927
 20
4.3864208238
 30
0.0
 10
6.8096103147
 20
4.3843956359
 30
0.0
 10
6.7990693541
 20
4.3826658741
 30
0.0
 10
6.7846444697
 20
4.3807531223
 30
0.0
 10
6.7662561452
 20
4.3791569995
 30
0.0
 10
6.7439676171
 20
4.3785182177
 30
0.0
 10
6.721679089
 20
4.3791569995
 30
0.0
 10
6.7032907645
 20
4.3807531223
 30
0.0
 10
6.6888658801
 20
4.382665874
 30
0.0
 10
6.6783249195
 20
4.3843956359
 30
0.0
 10
6.6680406414
 20
4.3864208238
 30
0.0
 10
6.6613002394
 20
4.3879798118
 30
0.0
 10
6.6579822792
 20
4.3888082028
 30
0.0
  0
SPLINE
  5
27B
100
AcDbEntity
  8
0
100
AcDbSpline
 62
7
  6
CONTINUOUS
 70
0
 71
3
 72
19
 73
15
 74
0
 42
0.0000001
 43
0.0000001
 44
0.0000000001
 40
0.0
 40
0.0
 40
0.0
 40
0.0
 40
0.0588317683
 40
0.1191098468
 40
0.1806303907
 40
0.2432084773
 40
0.3707311035
 40
0.5000000004
 40
0.6292688974
 40
0.7567915234
 40
0.81936961
 40
0.8808901537
 40
0.9411682319
 40
1.0
 40
1.0
 40
1.0
 40
1.0
 10
6.6579822792
 20
4.4166219523
 30
0.0
 10
6.6613039973
 20
4.4173216795
 30
0.0
 10
6.668050596
 20
4.4186380309
 30
0.0
 10
6.6783333558
 20
4.4203462249
 30
0.0
 10
6.6888727814
 20
4.4218052554
 30
0.0
 10
6.7033027851
 20
4.4234194324
 30
0.0
 10
6.7216897347
 20
4.4247653128
 30
0.0
 10
6.7439676171
 20
4.425303782
 30
0.0
 10
6.7662454996
 20
4.4247653128
 30
0.0
 10
6.7846324491
 20
4.4234194324
 30
0.0
 10
6.7990624529
 20
4.4218052553
 30
0.0
 10
6.8096018784
 20
4.4203462249
 30
0.0
 10
6.8198846382
 20
4.4186380309
 30
0.0
 10
6.8266312368
 20
4.4173216795
 30
0.0
 10
6.829952955
 20
4.4166219523
 30
0.0
  0
SPLINE
  5
27C
100
AcDbEntity
  8
0
100
AcDbSpline
 62
7
  6
CONTINUOUS
 70
0
 71
3
 72
19
 73
15
 74
0
 42
0.0000001
 43
0.0000001
 44
0.0000000001
 40
0.0
 40
0.0
 40
0.0
 40
0.0
 40
0.0588317681
 40
0.1191098464
 40
0.1806303902
 40
0.2432084767
 40
0.3707311028
 40
0.4999999998
 40
0.6292688967
 40
0.7567915229
 40
0.8193696094
 40
0.8808901533
 40
0.9411682318
 40
1.0
 40
1.0
 40
1.0
 40
1.0
 10
6.829952955
 20
4.4166219523
 30
0.0
 10
6.8266312368
 20
4.415922225
 30
0.0
 10
6.8198846382
 20
4.4146058736
 30
0.0
 10
6.8096018784
 20
4.4128976796
 30
0.0
 10
6.7990624528
 20
4.4114386492
 30
0.0
 10
6.7846324491
 20
4.4098244721
 30
0.0
 10
6.7662454996
 20
4.4084785918
 30
0.0
 10
6.7439676171
 20
4.4079401225
 30
0.0
 10
6.7216897346
 20
4.4084785918
 30
0.0
 10
6.7033027851
 20
4.4098244721
 30
0.0
 10
6.6888727814
 20
4.4114386492
 30
0.0
 10
6.6783333558
 20
4.4128976796
 30
0.0
 10
6.668050596
 20
4.4146058736
 30
0.0
 10
6.6613039973
 20
4.415922225
 30
0.0
 10
6.6579822792
 20
4.4166219523
 30
0.0
  0
SPLINE
  5
27D
100
AcDbEntity
  8
0
100
AcDbSpline
 62
7
  6
CONTINUOUS
 70
0
 71
3
 72
19
 73
15
 74
0
 42
0.0000001
 43
0.0000001
 44
0.0000000001
 40
0.0
 40
0.0
 40
0.0
 40
0.0
 40
0.0585877274
 40
0.1187194565
 40
0.1801771634
 40
0.2427617164
 40
0.3704526426
 40
0.5000000004
 40
0.6295473583
 40
0.7572382844
 40
0.8198228373
 40
0.8812805439
 40
0.9414122728
 40
1.0
 40
1.0
 40
1.0
 40
1.0
 10
6.6579822792
 20
4.3888082028
 30
0.0
 10
6.6613073116
 20
4.3893745786
 30
0.0
 10
6.6680593098
 20
4.3904396995
 30
0.0
 10
6.6783406925
 20
4.3918206064
 30
0.0
 10
6.688878751
 20
4.3930001072
 30
0.0
 10
6.7033131343
 20
4.3943055897
 30
0.0
 10
6.7216988447
 20
4.3953933244
 30
0.0
 10
6.7439676171
 20
4.3958284033
 30
0.0
 10
6.7662363895
 20
4.3953933244
 30
0.0
 10
6.7846220999
 20
4.3943055897
 30
0.0
 10
6.7990564833
 20
4.3930001072
 30
0.0
 10
6.8095945417
 20
4.3918206064
 30
0.0
 10
6.8198759244
 20
4.3904396995
 30
0.0
 10
6.8266279225
 20
4.3893745786
 30
0.0
 10
6.829952955
 20
4.3888082028
 30
0.0
  0
SPLINE
  5
27E
100
AcDbEntity
  8
0
100
AcDbSpline
 62
7
  6
CONTINUOUS
 70
0
 71
3
 72
19
 73
15
 74
0
 42
0.0000001
 43
0.0000001
 44
0.0000000001
 40
0.0
 40
0.0
 40
0.0
 40
0.0
 40
0.0585877273
 40
0.1187194561
 40
0.1801771629
 40
0.2427617158
 40
0.3704526419
 40
0.4999999998
 40
0.6295473576
 40
0.7572382838
 40
0.8198228367
 40
0.8812805436
 40
0.9414122726
 40
1.0
 40
1.0
 40
1.0
 40
1.0
 10
6.829952955
 20
4.4444357017
 30
0.0
 10
6.8266279225
 20
4.443869326
 30
0.0
 10
6.8198759244
 20
4.4428042051
 30
0.0
 10
6.8095945417
 20
4.4414232982
 30
0.0
 10
6.7990564832
 20
4.4402437973
 30
0.0
 10
6.7846220999
 20
4.4389383148
 30
0.0
 10
6.7662363895
 20
4.4378505801
 30
0.0
 10
6.7439676171
 20
4.4374155013
 30
0.0
 10
6.7216988447
 20
4.4378505801
 30
0.0
 10
6.7033131343
 20
4.4389383148
 30
0.0
 10
6.688878751
 20
4.4402437973
 30
0.0
 10
6.6783406925
 20
4.4414232982
 30
0.0
 10
6.6680593098
 20
4.4428042051
 30
0.0
 10
6.6613073116
 20
4.443869326
 30
0.0
 10
6.6579822792
 20
4.4444357017
 30
0.0
  0
SPLINE
  5
27F
100
AcDbEntity
  8
0
100
AcDbSpline
 62
7
  6
CONTINUOUS
 70
0
 71
3
 72
19
 73
15
 74
0
 42
0.0000001
 43
0.0000001
 44
0.0000000001
 40
0.0
 40
0.0
 40
0.0
 40
0.0
 40
0.0591134299
 40
0.1195608714
 40
0.181154444
 40
0.2437253938
 40
0.3710535745
 40
0.5000000004
 40
0.6289464264
 40
0.7562746069
 40
0.8188455567
 40
0.880439129
 40
0.9408865702
 40
1.0
 40
1.0
 40
1.0
 40
1.0
 10
6.6579822792
 20
4.4444357017
 30
0.0
 10
6.6613002394
 20
4.4452640928
 30
0.0
 10
6.6680406414
 20
4.4468230807
 30
0.0
 10
6.6783249195
 20
4.4488482687
 30
0.0
 10
6.6888658801
 20
4.4505780305
 30
0.0
 10
6.7032907645
 20
4.4524907822
 30
0.0
 10
6.721679089
 20
4.4540869051
 30
0.0
 10
6.7439676171
 20
4.4547256868
 30
0.0
 10
6.7662561452
 20
4.4540869051
 30
0.0
 10
6.7846444698
 20
4.4524907822
 30
0.0
 10
6.7990693542
 20
4.4505780305
 30
0.0
 10
6.8096103147
 20
4.4488482687
 30
0.0
 10
6.8198945928
 20
4.4468230807
 30
0.0
 10
6.8266349947
 20
4.4452640928
 30
0.0
 10
6.829952955
 20
4.4444357017
 30
0.0
  0
SPLINE
  5
280
100
AcDbEntity
  8
0
100
AcDbSpline
 62
7
  6
CONTINUOUS
 70
0
 71
3
 72
17
 73
13
 74
0
 42
0.0000001
 43
0.0000001
 44
0.0000000001
 40
0.0
 40
0.0
 40
0.0
 40
0.0
 40
0.0583893195
 40
0.1184025391
 40
0.242396294
 40
0.3702252958
 40
0.4999999998
 40
0.6297747038
 40
0.7576037056
 40
0.8815974606
 40
0.9416106804
 40
1.0
 40
1.0
 40
1.0
 40
1.0
 10
6.829952955
 20
4.4720779701
 30
0.0
 10
6.8266251805
 20
4.4716487823
 30
0.0
 10
6.8198687505
 20
4.4708418682
 30
0.0
 10
6.8060103648
 20
4.4694328253
 30
0.0
 10
6.7881389105
 20
4.4680731428
 30
0.0
 10
6.7662291465
 20
4.4670917982
 30
0.0
 10
6.7439676171
 20
4.4667626626
 30
0.0
 10
6.7217060877
 20
4.4670917982
 30
0.0
 10
6.6997963237
 20
4.4680731428
 30
0.0
 10
6.6819248694
 20
4.4694328252
 30
0.0
 10
6.6680664837
 20
4.4708418682
 30
0.0
 10
6.6613100536
 20
4.4716487823
 30
0.0
 10
6.6579822792
 20
4.4720779701
 30
0.0
  0
SPLINE
  5
281
100
AcDbEntity
  8
0
100
AcDbSpline
 62
7
  6
CONTINUOUS
 70
0
 71
3
 72
19
 73
15
 74
0
 42
0.0000001
 43
0.0000001
 44
0.0000000001
 40
0.0
 40
0.0
 40
0.0
 40
0.0
 40
0.0594243235
 40
0.1200592647
 40
0.1817340725
 40
0.2442975536
 40
0.3714108634
 40
0.5000000004
 40
0.6285891374
 40
0.7557024472
 40
0.8182659281
 40
0.8799407358
 40
0.9405756766
 40
1.0
 40
1.0
 40
1.0
 40
1.0
 10
6.6579822792
 20
4.4720779701
 30
0.0
 10
6.6612961733
 20
4.4730295417
 30
0.0
 10
6.6680297802
 20
4.4748210602
 30
0.0
 10
6.6783156471
 20
4.4771509919
 30
0.0
 10
6.6888582488
 20
4.4791410201
 30
0.0
 10
6.7032774016
 20
4.4813403726
 30
0.0
 10
6.721667173
 20
4.4831773102
 30
0.0
 10
6.7439676171
 20
4.483912726
 30
0.0
 10
6.7662680613
 20
4.4831773101
 30
0.0
 10
6.7846578327
 20
4.4813403725
 30
0.0
 10
6.7990769854
 20
4.4791410201
 30
0.0
 10
6.8096195871
 20
4.4771509919
 30
0.0
 10
6.8199054539
 20
4.4748210601
 30
0.0
 10
6.8266390609
 20
4.4730295417
 30
0.0
 10
6.829952955
 20
4.4720779701
 30
0.0
  0
SPLINE
  5
282
100
AcDbEntity
  8
0
100
AcDbSpline
 62
7
  6
CONTINUOUS
 70
0
 71
3
 72
15
 73
11
 74
0
 42
0.0000001
 43
0.0000001
 44
0.0000000001
 40
0.0
 40
0.0
 40
0.0
 40
0.0
 40
0.118164987
 40
0.2421275316
 40
0.3700579914
 40
0.4999999998
 40
0.6299420082
 40
0.757872468
 40
0.8818350126
 40
1.0
 40
1.0
 40
1.0
 40
1.0
 10
6.829952955
 20
4.4993783338
 30
0.0
 10
6.8231971773
 20
4.4987918594
 30
0.0
 10
6.8093382722
 20
4.4977683353
 30
0.0
 10
6.7881278317
 20
4.4966822115
 30
0.0
 10
6.76622367
 20
4.4960220668
 30
0.0
 10
6.7439676171
 20
4.4958006125
 30
0.0
 10
6.7217115642
 20
4.4960220668
 30
0.0
 10
6.6998074025
 20
4.4966822115
 30
0.0
 10
6.678596962
 20
4.4977683353
 30
0.0
 10
6.6647380569
 20
4.4987918594
 30
0.0
 10
6.6579822792
 20
4.4993783338
 30
0.0
  0
SPLINE
  5
283
100
AcDbEntity
  8
0
100
AcDbSpline
 62
7
  6
CONTINUOUS
 70
0
 71
3
 72
17
 73
13
 74
0
 42
0.0000001
 43
0.0000001
 44
0.0000000001
 40
0.0
 40
0.0
 40
0.0
 40
0.0
 40
0.0597584405
 40
0.1205967209
 40
0.2448967361
 40
0.3717869364
 40
0.5000000004
 40
0.6282130645
 40
0.7551032647
 40
0.8794032795
 40
0.9402415596
 40
1.0
 40
1.0
 40
1.0
 40
1.0
 10
6.6579822792
 20
4.4993783338
 30
0.0
 10
6.6612919327
 20
4.5004468652
 30
0.0
 10
6.6680184329
 20
4.5024594294
 30
0.0
 10
6.681833146
 20
4.5059783325
 30
0.0
 10
6.6996907663
 20
4.5093888095
 30
0.0
 10
6.721653711
 20
4.5118571206
 30
0.0
 10
6.7439676171
 20
4.5126849791
 30
0.0
 10
6.7662815232
 20
4.5118571206
 30
0.0
 10
6.788244468
 20
4.5093888095
 30
0.0
 10
6.8061020882
 20
4.5059783325
 30
0.0
 10
6.8199168012
 20
4.5024594293
 30
0.0
 10
6.8266433014
 20
4.5004468652
 30
0.0
 10
6.829952955
 20
4.4993783338
 30
0.0
  0
SPLINE
  5
284
100
AcDbEntity
  8
0
100
AcDbSpline
 62
7
  6
CONTINUOUS
 70
0
 71
3
 72
15
 73
11
 74
0
 42
0.0000001
 43
0.0000001
 44
0.0000000001
 40
0.0
 40
0.0
 40
0.0
 40
0.0
 40
0.1180204032
 40
0.2419630771
 40
0.3699554847
 40
0.4999999998
 40
0.6300445149
 40
0.7580369225
 40
0.8819795965
 40
1.0
 40
1.0
 40
1.0
 40
1.0
 10
6.829952955
 20
4.5261684768
 30
0.0
 10
6.8231922325
 20
4.525870228
 30
0.0
 10
6.8093274018
 20
4.5253499889
 30
0.0
 10
6.7881209046
 20
4.5247982455
 30
0.0
 10
6.7662203294
 20
4.5244628857
 30
0.0
 10
6.7439676171
 20
4.5243503815
 30
0.0
 10
6.7217149048
 20
4.5244628857
 30
0.0
 10
6.6998143296
 20
4.5247982455
 30
0.0
 10
6.6786078324
 20
4.5253499889
 30
0.0
 10
6.6647430017
 20
4.525870228
 30
0.0
 10
6.6579822792
 20
4.5261684768
 30
0.0
  0
SPLINE
  5
285
100
AcDbEntity
  8
0
100
AcDbSpline
 62
7
  6
CONTINUOUS
 70
0
 71
3
 72
15
 73
11
 74
0
 42
0.0000001
 43
0.0000001
 44
0.0000000001
 40
0.0
 40
0.0
 40
0.0
 40
0.0
 40
0.1211251944
 40
0.2455130173
 40
0.3721748695
 40
0.5000000004
 40
0.6278251314
 40
0.7544869835
 40
0.878874806
 40
1.0
 40
1.0
 40
1.0
 40
1.0
 10
6.6579822792
 20
4.5261684768
 30
0.0
 10
6.664643308
 20
4.5285435957
 30
0.0
 10
6.6783773597
 20
4.532727207
 30
0.0
 10
6.6996627624
 20
4.5372199568
 30
0.0
 10
6.7216403052
 20
4.5399496391
 30
0.0
 10
6.7439676171
 20
4.540864996
 30
0.0
 10
6.7662949291
 20
4.5399496391
 30
0.0
 10
6.7882724719
 20
4.5372199568
 30
0.0
 10
6.8095578745
 20
4.532727207
 30
0.0
 10
6.8232919262
 20
4.5285435957
 30
0.0
 10
6.829952955
 20
4.5261684768
 30
0.0
  0
SPLINE
  5
286
100
AcDbEntity
  8
0
100
AcDbSpline
 62
7
  6
CONTINUOUS
 70
0
 71
3
 72
17
 73
13
 74
0
 42
0.0000001
 43
0.0000001
 44
0.0000000001
 40
0.0
 40
0.0
 40
0.0
 40
0.0
 40
0.1216700181
 40
0.24613304
 40
0.3091713695
 40
0.3725823309
 40
0.5000000004
 40
0.62741767
 40
0.6908286313
 40
0.7538669608
 40
0.8783299824
 40
1.0
 40
1.0
 40
1.0
 40
1.0
 10
6.6579822792
 20
4.552283229
 30
0.0
 10
6.6646268914
 20
4.5548619196
 30
0.0
 10
6.6783364931
 20
4.5594106767
 30
0.0
 10
6.6960134139
 20
4.563474195
 30
0.0
 10
6.7105342454
 20
4.5657810871
 30
0.0
 10
6.7253167885
 20
4.5674462491
 30
0.0
 10
6.7439676171
 20
4.5682792046
 30
0.0
 10
6.7626184458
 20
4.5674462491
 30
0.0
 10
6.7774009889
 20
4.5657810871
 30
0.0
 10
6.7919218204
 20
4.563474195
 30
0.0
 10
6.8095987411
 20
4.5594106767
 30
0.0
 10
6.8233083428
 20
4.5548619196
 30
0.0
 10
6.829952955
 20
4.552283229
 30
0.0
  0
SPLINE
  5
287
100
AcDbEntity
  8
0
100
AcDbSpline
 62
7
  6
CONTINUOUS
 70
0
 71
3
 72
15
 73
11
 74
0
 42
0.0000001
 43
0.0000001
 44
0.0000000001
 40
0.0
 40
0.0
 40
0.0
 40
0.0
 40
0.1222217281
 40
0.2467760229
 40
0.3729678997
 40
0.5000000004
 40
0.6270321011
 40
0.7532239779
 40
0.8777782723
 40
1.0
 40
1.0
 40
1.0
 40
1.0
 10
6.6579822792
 20
4.5775615844
 30
0.0
 10
6.6646111031
 20
4.5803272147
 30
0.0
 10
6.6782975682
 20
4.5852125164
 30
0.0
 10
6.6996078189
 20
4.5904825156
 30
0.0
 10
6.721612467
 20
4.5936845043
 30
0.0
 10
6.7439676171
 20
4.5947582008
 30
0.0
 10
6.7663227672
 20
4.5936845043
 30
0.0
 10
6.7883274154
 20
4.5904825155
 30
0.0
 10
6.809637666
 20
4.5852125164
 30
0.0
 10
6.8233241311
 20
4.5803272147
 30
0.0
 10
6.829952955
 20
4.5775615844
 30
0.0
  0
SPLINE
  5
288
100
AcDbEntity
  8
0
100
AcDbSpline
 62
7
  6
CONTINUOUS
 70
0
 71
3
 72
15
 73
11
 74
0
 42
0.0000001
 43
0.0000001
 44
0.0000000001
 40
0.0
 40
0.0
 40
0.0
 40
0.0
 40
0.1227436965
 40
0.247378934
 40
0.3733471039
 40
0.5000000004
 40
0.6266528969
 40
0.7526210667
 40
0.877256304
 40
1.0
 40
1.0
 40
1.0
 40
1.0
 10
6.6579822792
 20
4.6018476935
 30
0.0
 10
6.6645962753
 20
4.6047827595
 30
0.0
 10
6.6782599037
 20
4.6099738366
 30
0.0
 10
6.6995814063
 20
4.6155857746
 30
0.0
 10
6.7215989295
 20
4.6189956665
 30
0.0
 10
6.7439676171
 20
4.6201390799
 30
0.0
 10
6.7663363048
 20
4.6189956665
 30
0.0
 10
6.7883538279
 20
4.6155857746
 30
0.0
 10
6.8096753305
 20
4.6099738366
 30
0.0
 10
6.8233389589
 20
4.6047827595
 30
0.0
 10
6.829952955
 20
4.6018476935
 30
0.0
  0
SPLINE
  5
289
100
AcDbEntity
  8
0
100
AcDbSpline
 62
7
  6
CONTINUOUS
 70
0
 71
3
 72
15
 73
11
 74
0
 42
0.0000001
 43
0.0000001
 44
0.0000000001
 40
0.0
 40
0.0
 40
0.0
 40
0.0
 40
0.1232320996
 40
0.2479440682
 40
0.3737029271
 40
0.5000000004
 40
0.6262970737
 40
0.7520559325
 40
0.8767679009
 40
1.0
 40
1.0
 40
1.0
 40
1.0
 10
6.6579822792
 20
4.6249918242
 30
0.0
 10
6.6645826828
 20
4.6280780612
 30
0.0
 10
6.678224852
 20
4.6335425801
 30
0.0
 10
6.6995565416
 20
4.6394620786
 30
0.0
 10
6.7215860919
 20
4.6430590614
 30
0.0
 10
6.7439676171
 20
4.6442652274
 30
0.0
 10
6.7663491424
 20
4.6430590614
 30
0.0
 10
6.7883786926
 20
4.6394620786
 30
0.0
 10
6.8097103822
 20
4.63354258
 30
0.0
 10
6.8233525513
 20
4.6280780612
 30
0.0
 10
6.829952955
 20
4.6249918242
 30
0.0
  0
SPLINE
  5
28A
100
AcDbEntity
  8
0
100
AcDbSpline
 62
7
  6
CONTINUOUS
 70
0
 71
3
 72
15
 73
11
 74
0
 42
0.0000001
 43
0.0000001
 44
0.0000000001
 40
0.0
 40
0.0
 40
0.0
 40
0.0
 40
0.1236764259
 40
0.2484590352
 40
0.3740274848
 40
0.5000000004
 40
0.625972516
 40
0.7515409655
 40
0.8763235746
 40
1.0
 40
1.0
 40
1.0
 40
1.0
 10
6.6579822792
 20
4.6468512854
 30
0.0
 10
6.6645705475
 20
4.6500697692
 30
0.0
 10
6.6781931266
 20
4.6557739545
 30
0.0
 10
6.6995337949
 20
4.661964457
 30
0.0
 10
6.7215742675
 20
4.6657263795
 30
0.0
 10
6.7439676171
 20
4.6669878836
 30
0.0
 10
6.7663609667
 20
4.6657263795
 30
0.0
 10
6.7884014393
 20
4.661964457
 30
0.0
 10
6.8097421076
 20
4.6557739545
 30
0.0
 10
6.8233646866
 20
4.6500697692
 30
0.0
 10
6.829952955
 20
4.6468512854
 30
0.0
  0
SPLINE
  5
28B
100
AcDbEntity
  8
0
100
AcDbSpline
 62
7
  6
CONTINUOUS
 70
0
 71
3
 72
17
 73
13
 74
0
 42
0.0000001
 43
0.0000001
 44
0.0000000001
 40
0.0
 40
0.0
 40
0.0
 40
0.0
 40
0.1240541888
 40
0.1864139181
 40
0.2489399202
 40
0.3743273206
 40
0.5000000004
 40
0.6256726802
 40
0.7510600805
 40
0.8135860826
 40
0.8759458117
 40
1.0
 40
1.0
 40
1.0
 40
1.0
 10
6.6579822792
 20
4.6672913062
 30
0.0
 10
6.6645600436
 20
4.6706225484
 30
0.0
 10
6.6747535189
 20
4.6750492993
 30
0.0
 10
6.6887959054
 20
4.6797297124
 30
0.0
 10
6.7031663998
 20
4.683600873
 30
0.0
 10
6.7215644366
 20
4.6868581252
 30
0.0
 10
6.7439676171
 20
4.6881668383
 30
0.0
 10
6.7663707977
 20
4.6868581252
 30
0.0
 10
6.7847688344
 20
4.683600873
 30
0.0
 10
6.7991393288
 20
4.6797297123
 30
0.0
 10
6.8131817153
 20
4.6750492993
 30
0.0
 10
6.8233751906
 20
4.6706225484
 30
0.0
 10
6.829952955
 20
4.6672913062
 30
0.0
  0
SPLINE
  5
28C
100
AcDbEntity
  8
0
100
AcDbSpline
 62
7
  6
CONTINUOUS
 70
0
 71
3
 72
21
 73
17
 74
0
 42
0.0000001
 43
0.0000001
 44
0.0000000001
 40
0.0
 40
0.0
 40
0.0
 40
0.0
 40
0.124805625
 40
0.1872870979
 40
0.2497933769
 40
0.3123249183
 40
0.3748737878
 40
0.4374338773
 40
0.5000000004
 40
0.5625661236
 40
0.6251262131
 40
0.6876750825
 40
0.7502066239
 40
0.8127129027
 40
0.8751943754
 40
1.0
 40
1.0
 40
1.0
 40
1.0
 10
6.6579822792
 20
4.7188828905
 30
0.0
 10
6.6645394871
 20
4.7224311786
 30
0.0
 10
6.6747204663
 20
4.7271597491
 30
0.0
 10
6.6887835295
 20
4.7321693393
 30
0.0
 10
6.6995559189
 20
4.7352705629
 30
0.0
 10
6.7105032519
 20
4.7376978405
 30
0.0
 10
6.7215837949
 20
4.7394398495
 30
0.0
 10
6.7327533473
 20
4.740488572
 30
0.0
 10
6.7439676171
 20
4.7408384161
 30
0.0
 10
6.755181887
 20
4.740488572
 30
0.0
 10
6.7663514394
 20
4.7394398495
 30
0.0
 10
6.7774319824
 20
4.7376978405
 30
0.0
 10
6.7883793153
 20
4.7352705629
 30
0.0
 10
6.7991517047
 20
4.7321693393
 30
0.0
 10
6.8132147679
 20
4.7271597491
 30
0.0
 10
6.8233957471
 20
4.7224311786
 30
0.0
 10
6.829952955
 20
4.7188828905
 30
0.0
  0
SPLINE
  5
28D
100
AcDbEntity
  8
0
100
AcDbSpline
 62
7
  6
CONTINUOUS
 70
0
 71
3
 72
23
 73
19
 74
0
 42
0.0000001
 43
0.0000001
 44
0.0000000001
 40
0.0
 40
0.0
 40
0.0
 40
0.0
 40
0.0624689656
 40
0.1249644206
 40
0.1874583599
 40
0.2499563523
 40
0.3124625269
 40
0.3749729315
 40
0.4374856878
 40
0.5000000004
 40
0.562514313
 40
0.6250270693
 40
0.6875374739
 40
0.7500436485
 40
0.8125416408
 40
0.8750355798
 40
0.9375310345
 40
1.0
 40
1.0
 40
1.0
 40
1.0
 10
6.6579822792
 20
4.7324837651
 30
0.0
 10
6.6612602717
 20
4.7342738542
 30
0.0
 10
6.6679296718
 20
4.7376539256
 30
0.0
 10
6.6782267726
 20
4.7420967571
 30
0.0
 10
6.6887822171
 20
4.7458917825
 30
0.0
 10
6.6995543081
 20
4.7490213666
 30
0.0
 10
6.7105021289
 20
4.7514711552
 30
0.0
 10
6.7215829956
 20
4.7532292483
 30
0.0
 10
6.7327529481
 20
4.7542876742
 30
0.0
 10
6.7439676171
 20
4.7546407517
 30
0.0
 10
6.7551822862
 20
4.7542876742
 30
0.0
 10
6.7663522387
 20
4.7532292483
 30
0.0
 10
6.7774331053
 20
4.7514711551
 30
0.0
 10
6.7883809261
 20
4.7490213665
 30
0.0
 10
6.7991530172
 20
4.7458917825
 30
0.0
 10
6.8097084616
 20
4.7420967571
 30
0.0
 10
6.8200055624
 20
4.7376539255
 30
0.0
 10
6.8266749624
 20
4.7342738542
 30
0.0
 10
6.829952955
 20
4.7324837651
 30
0.0
  0
SPLINE
  5
28E
100
AcDbEntity
  8
0
100
AcDbSpline
 62
7
  6
CONTINUOUS
 70
0
 71
3
 72
23
 73
19
 74
0
 42
0.0000001
 43
0.0000001
 44
0.0000000001
 40
0.0
 40
0.0
 40
0.0
 40
0.0
 40
0.0624918214
 40
0.1250014585
 40
0.1875018089
 40
0.2499995066
 40
0.3124998653
 40
0.3750002188
 40
0.4375000556
 40
0.5000000004
 40
0.5624999452
 40
0.6249997821
 40
0.6875001355
 40
0.7500004942
 40
0.8124981918
 40
0.874998542
 40
0.9375081787
 40
1.0
 40
1.0
 40
1.0
 40
1.0
 10
6.6579822792
 20
4.7441372465
 30
0.0
 10
6.6612600281
 20
4.7459324416
 30
0.0
 10
6.6679289662
 20
4.749322209
 30
0.0
 10
6.6782261226
 20
4.7537781184
 30
0.0
 10
6.6887816437
 20
4.7575843225
 30
0.0
 10
6.6995538273
 20
4.7607231293
 30
0.0
 10
6.7105017548
 20
4.7631801405
 30
0.0
 10
6.7215827397
 20
4.7649434187
 30
0.0
 10
6.7327528181
 20
4.7660049667
 30
0.0
 10
6.7439676171
 20
4.7663590859
 30
0.0
 10
6.7551824162
 20
4.7660049667
 30
0.0
 10
6.7663524946
 20
4.7649434187
 30
0.0
 10
6.7774334794
 20
4.7631801405
 30
0.0
 10
6.788381407
 20
4.7607231293
 30
0.0
 10
6.7991535906
 20
4.7575843224
 30
0.0
 10
6.8097091116
 20
4.7537781184
 30
0.0
 10
6.820006268
 20
4.749322209
 30
0.0
 10
6.826675206
 20
4.7459324416
 30
0.0
 10
6.829952955
 20
4.7441372465
 30
0.0
  0
SPLINE
  5
28F
100
AcDbEntity
  8
0
100
AcDbSpline
 62
7
  6
CONTINUOUS
 70
0
 71
3
 72
23
 73
19
 74
0
 42
0.0000001
 43
0.0000001
 44
0.0000000001
 40
0.0
 40
0.0
 40
0.0
 40
0.0
 40
0.0624663942
 40
0.1249602538
 40
0.187453472
 40
0.2499514977
 40
0.3124583267
 40
0.374969862
 40
0.4374840717
 40
0.5000000004
 40
0.5625159292
 40
0.6250301388
 40
0.6875416741
 40
0.750048503
 40
0.8125465287
 40
0.8750397466
 40
0.937533606
 40
1.0
 40
1.0
 40
1.0
 40
1.0
 10
6.6579822792
 20
4.7537714873
 30
0.0
 10
6.6612602991
 20
4.7555610013
 30
0.0
 10
6.6679297512
 20
4.7589399807
 30
0.0
 10
6.6782268457
 20
4.7633813395
 30
0.0
 10
6.6887822816
 20
4.7671751061
 30
0.0
 10
6.6995543622
 20
4.7703036515
 30
0.0
 10
6.710502171
 20
4.7727526267
 30
0.0
 10
6.7215830244
 20
4.774510136
 30
0.0
 10
6.7327529627
 20
4.7755682103
 30
0.0
 10
6.7439676171
 20
4.7759211706
 30
0.0
 10
6.7551822716
 20
4.7755682103
 30
0.0
 10
6.7663522099
 20
4.774510136
 30
0.0
 10
6.7774330633
 20
4.7727526267
 30
0.0
 10
6.788380872
 20
4.7703036515
 30
0.0
 10
6.7991529527
 20
4.767175106
 30
0.0
 10
6.8097083885
 20
4.7633813395
 30
0.0
 10
6.820005483
 20
4.7589399807
 30
0.0
 10
6.826674935
 20
4.7555610013
 30
0.0
 10
6.829952955
 20
4.7537714873
 30
0.0
  0
ENDSEC
  0
SECTION
  2
OBJECTS
  0
DICTIONARY
  5
C
100
AcDbDictionary
280
0
281
1
  3
ACAD_GROUP
350
D
  3
ACAD_MLINESTYLE
350
17
  3
ACAD_LAYOUT
350
1A
  3
ACAD_PLOTSETTINGS
350
19
  3
ACAD_PLOTSTYLENAME
350
E
  0
DICTIONARY
  5
D
102
{ACAD_REACTORS
330
C
102
}
100
AcDbDictionary
280
0
281
1
  0
ACDBDICTIONARYWDFLT
  5
E
102
{ACAD_REACTORS
330
C
102
}
100
AcDbDictionary
281
1
  3
Normal
350
F
100
AcDbDictionaryWithDefault
340
F
  0
DICTIONARY
  5
17
102
{ACAD_REACTORS
330
C
102
}
100
AcDbDictionary
280
0
281
1
  3
Standard
350
18
  0
DICTIONARY
  5
19
102
{ACAD_REACTORS
330
C
102
}
100
AcDbDictionary
281
1
  0
DICTIONARY
  5
1A
102
{ACAD_REACTORS
330
C
102
}
100
AcDbDictionary
281
1
  3
Model
350
290
  3
Layout1
350
291
  0
ACDBPLACEHOLDER
  5
F
102
{ACAD_REACTORS
330
E
102
}
  0
MLINESTYLE
  5
18
102
{ACAD_REACTORS
330
17
102
}
100
AcDbMlineStyle
  2
STANDARD
 70
0
  3

 62
256
 51
90.0
 52
90.0
 71
2
 49
0.5
 62
256
  6
BYLAYER
 49
-0.5
 62
256
  6
BYLAYER
  0
LAYOUT
  5
290
102
{ACAD_REACTORS
330
1A
102
}
100
AcDbPlotSettings
  1

  2
none_device
  4
ANSI_A_(11.00_x_8.50_Inches)
  6

 40
0.0
 41
0.0
 42
0.0
 43
0.0
 44
279.4
 45
215.9
 46
0.0
 47
0.0
 48
0.0
 49
0.0
140
0.0
141
0.0
142
1.0
143
1.0
 70
1024
 72
0
 73
0
 74
0
  7

 75
0
147
1.0
148
0.0
149
0.0
100
AcDbLayout
  1
Model
 70
0
 71
0
 10
0.0
 20
0.0
 11
11.0
 21
8.5
 12
0.0
 22
0.0
 32
0.0
 14
0.0
 24
0.0
 34
0.0
 15
0.0
 25
0.0
 35
0.0
146
0.0
 13
0.0
 23
0.0
 33
0.0
 16
1.0
 26
0.0
 36
0.0
 17
0.0
 27
1.0
 37
0.0
 76
0
330
203
345
0
346
0
  0
LAYOUT
  5
291
102
{ACAD_REACTORS
330
1A
102
}
100
AcDbPlotSettings
  1

  2
none_device
  4
ANSI_A_(11.00_x_8.50_Inches)
  6

 40
0.0
 41
0.0
 42
0.0
 43
0.0
 44
279.4
 45
215.9
 46
0.0
 47
0.0
 48
0.0
 49
0.0
140
0.0
141
0.0
142
1.0
143
1.0
 70
0
 72
0
 73
0
 74
0
  7

 75
0
147
1.0
148
0.0
149
0.0
100
AcDbLayout
  1
Layout1
 70
0
 71
1
 10
0.0
 20
0.0
 11
11.0
 21
8.5
 12
0.0
 22
0.0
 32
0.0
 14
0.0
 24
0.0
 34
0.0
 15
0.0
 25
0.0
 35
0.0
146
0.0
 13
0.0
 23
0.0
 33
0.0
 16
1.0
 26
0.0
 36
0.0
 17
0.0
 27
1.0
 37
0.0
 76
0
330
204
345
0
346
0
  0
ENDSEC
  0
EOF
