999
DXF file: 1600-1500_Top.dxf
999
Pro/ENGINEER 2023134 by Parametric Technology Corporation
  0
SECTION
  2
HEADER
  9
$ACADVER
  1
AC1032
  9
$DWGCODEPAGE
  3
ANSI_1252
  9
$EXTMAX
 10
11.0
 20
8.5
 30
0.0
  9
$EXTMIN
 10
0.0
 20
0.0
 30
0.0
  9
$LIMMIN
 10
0.0
 20
0.0
  9
$LIMMAX
 10
11.0
 20
8.5
  9
$VIEWCTR
 10
5.5
 20
4.25
  9
$VIEWSIZE
 40
8.5
  9
$CLAYER
  8
0
  9
$LTSCALE
 40
0.605
  9
$CELTYPE
  6
BYLAYER
  9
$DIMSCALE
 40
1.0
  9
$DIMASZ
 40
0.1
  9
$DIMEXO
 40
0.0625
  9
$DIMDLI
 40
0.418
  9
$DIMEXE
 40
0.125
  9
$DIMCEN
 40
0.099
  9
$DIMLFAC
 40
1.0
  9
$DIMBLK
  1
_FILLED
  9
$DIMALT
 70
1
  9
$DIMALTD
 70
2
  9
$DIMALTTD
 70
2
  9
$DIMALTF
 40
25.4
  9
$DIMTXT
 40
0.08
  9
$DIMTOL
 70
1
  9
$DIMLIM
 70
0
  9
$DIMTFAC
 40
1.0
  9
$DIMTP
 40
0.001
  9
$DIMTM
 40
0.001
  9
$DIMGAP
 40
0.09
  9
$DIMDSEP
 70
46
  9
$AUNITS
 70
0
  9
$PDMODE
 70
3
  9
$PDSIZE
 40
0.3125
  9
$HANDSEED
  5
32D
  9
$TILEMODE
 70
1
  9
$MEASUREMENT
 70
0
  9
$INSUNITS
 70
1
  0
ENDSEC
  0
SECTION
  2
CLASSES
  0
CLASS
  1
ACDBDICTIONARYWDFLT
  2
AcDbDictionaryWithDefault
  3
AutoCAD 2000
 90
0
 91
1
280
0
281
0
  0
CLASS
  1
ACDBPLACEHOLDER
  2
AcDbPlaceHolder
  3
AutoCAD 2000
 90
0
 91
1
280
0
281
0
  0
CLASS
  1
LAYOUT
  2
AcDbLayout
  3
AutoCAD 2000
 90
0
 91
0
280
0
281
0
  0
ENDSEC
  0
SECTION
  2
TABLES
  0
TABLE
  2
VPORT
  5
8
100
AcDbSymbolTable
 70
2
  0
VPORT
  5
1F4
100
AcDbSymbolTableRecord
100
AcDbViewportTableRecord
  2
*ACTIVE
 70
0
 10
0.0
 20
0.0
 11
1.0
 21
1.0
 12
5.5
 22
4.25
 13
0.0
 23
0.0
 14
1.0
 24
1.0
 15
0.0
 25
0.0
 16
0.0
 26
0.0
 36
1.0
 17
0.0
 27
0.0
 37
0.0
 40
8.5
 41
1.2941176471
 42
50.0
 43
0.0
 44
0.0
 50
0.0
 51
0.0
 71
0
 72
100
 73
1
 74
1
 75
0
 76
0
 77
0
 78
0
  0
ENDTAB
  0
TABLE
  2
LTYPE
  5
5
100
AcDbSymbolTable
 70
6
  0
LTYPE
  5
14
100
AcDbSymbolTableRecord
100
AcDbLinetypeTableRecord
  2
BYBLOCK
 70
0
  3

 72
65
 73
0
 40
0.0
  0
LTYPE
  5
15
100
AcDbSymbolTableRecord
100
AcDbLinetypeTableRecord
  2
BYLAYER
 70
0
  3

 72
65
 73
0
 40
0.0
  0
LTYPE
  5
16
100
AcDbSymbolTableRecord
100
AcDbLinetypeTableRecord
  2
CONTINUOUS
 70
64
  3
Solid line
 72
65
 73
0
 40
0.0
  0
LTYPE
  5
1F5
100
AcDbSymbolTableRecord
100
AcDbLinetypeTableRecord
  2
CENTER
 70
64
  3
____ _ ____ _ ____ _ ____ _ ____ _ ____ _ ____
 72
65
 73
4
 40
0.6
 49
0.375
 74
0
 49
-0.075
 74
0
 49
0.075
 74
0
 49
-0.075
 74
0
  0
LTYPE
  5
1F6
100
AcDbSymbolTableRecord
100
AcDbLinetypeTableRecord
  2
HIDDEN
 70
64
  3
- - - - - - - - - - - - - - - - - - - -
 72
65
 73
2
 40
0.2
 49
0.1
 74
0
 49
-0.1
 74
0
  0
LTYPE
  5
1F7
100
AcDbSymbolTableRecord
100
AcDbLinetypeTableRecord
  2
PHANTOM
 70
64
  3
_____ _ _ _____ _ _ _____ _ _ _____
 72
65
 73
6
 40
0.8
 49
0.45
 74
0
 49
-0.05
 74
0
 49
0.1
 74
0
 49
-0.05
 74
0
 49
0.1
 74
0
 49
-0.05
 74
0
  0
LTYPE
  5
1F8
100
AcDbSymbolTableRecord
100
AcDbLinetypeTableRecord
  2
DOT
 70
64
  3
. . . . . . . . . . . . . . . . . . . .
 72
65
 73
2
 40
0.2
 49
0.1
 74
0
 49
-0.1
 74
0
  0
LTYPE
  5
1F9
100
AcDbSymbolTableRecord
100
AcDbLinetypeTableRecord
  2
DASHED
 70
64
  3
- - - - - - - - - - - - - - - - - - - -
 72
65
 73
2
 40
0.2
 49
0.1
 74
0
 49
-0.1
 74
0
  0
ENDTAB
  0
TABLE
  2
LAYER
  5
2
100
AcDbSymbolTable
 70
36
  0
LAYER
  5
10
100
AcDbSymbolTableRecord
100
AcDbLayerTableRecord
  2
0
 70
0
 62
7
  6
CONTINUOUS
370
-3
390
F
  0
LAYER
  5
1FA
100
AcDbSymbolTableRecord
100
AcDbLayerTableRecord
  2
DEFAULT_1
 70
0
 62
7
  6
CENTER
370
-3
390
F
  0
LAYER
  5
1FB
100
AcDbSymbolTableRecord
100
AcDbLayerTableRecord
  2
DEFAULT_2
 70
0
 62
8
  6
HIDDEN
370
-3
390
F
  0
LAYER
  5
1FC
100
AcDbSymbolTableRecord
100
AcDbLayerTableRecord
  2
DEFAULT_3
 70
0
 62
7
  6
PHANTOM
370
-3
390
F
  0
LAYER
  5
1FD
100
AcDbSymbolTableRecord
100
AcDbLayerTableRecord
  2
DEFAULT_COORDINATE_SYSTEM
 70
0
 62
7
  6
CONTINUOUS
370
-3
390
F
  0
LAYER
  5
1FE
100
AcDbSymbolTableRecord
100
AcDbLayerTableRecord
  2
DEFAULT_DATUM_AXES
 70
0
 62
7
  6
CONTINUOUS
370
-3
390
F
  0
LAYER
  5
1FF
100
AcDbSymbolTableRecord
100
AcDbLayerTableRecord
  2
DEFAULT_DATUM_CURVES
 70
0
 62
7
  6
CONTINUOUS
370
-3
390
F
  0
LAYER
  5
200
100
AcDbSymbolTableRecord
100
AcDbLayerTableRecord
  2
DEFAULT_DATUM_PLANES
 70
0
 62
7
  6
CONTINUOUS
370
-3
390
F
  0
ENDTAB
  0
TABLE
  2
STYLE
  5
3
100
AcDbSymbolTable
 70
1
  0
STYLE
  5
11
100
AcDbSymbolTableRecord
100
AcDbTextStyleTableRecord
  2
STANDARD
 70
0
 40
0.0
 41
0.8
 50
0.0
 71
0
 42
0.2
  3
txt
  4

  0
STYLE
  5
201
100
AcDbSymbolTableRecord
100
AcDbTextStyleTableRecord
  2
TEXTSTYLE_1
 70
0
 40
0.0
 41
0.8
 50
0.0
 71
0
 42
0.2
  3
gdt
  4

  0
ENDTAB
  0
TABLE
  2
VIEW
  5
6
100
AcDbSymbolTable
 70
0
  0
ENDTAB
  0
TABLE
  2
UCS
  5
7
100
AcDbSymbolTable
 70
0
  0
ENDTAB
  0
TABLE
  2
APPID
  5
9
100
AcDbSymbolTable
 70
1
  0
APPID
  5
202
100
AcDbSymbolTableRecord
100
AcDbRegAppTableRecord
  2
ACAD
 70
0
  0
ENDTAB
  0
TABLE
  2
BLOCK_RECORD
  5
1
100
AcDbSymbolTable
 70
0
  0
BLOCK_RECORD
  5
203
100
AcDbSymbolTableRecord
100
AcDbBlockTableRecord
  2
*Model_Space
  0
BLOCK_RECORD
  5
204
100
AcDbSymbolTableRecord
100
AcDbBlockTableRecord
  2
*Paper_Space
  0
BLOCK_RECORD
  5
205
100
AcDbSymbolTableRecord
100
AcDbBlockTableRecord
  2
_FILLED
  0
ENDTAB
  0
TABLE
  2
DIMSTYLE
  5
A
100
AcDbSymbolTable
 70
1
100
AcDbDimStyleTable
 71
0
  0
DIMSTYLE
105
206
100
AcDbSymbolTableRecord
100
AcDbDimStyleTableRecord
  2
STANDARD
 70
0
  3

  4

 40
1.0
 41
0.1
 42
0.0625
 43
0.38
 44
0.125
 45
0.0
 46
0.0
 47
0.001
 48
0.001
140
0.08
141
0.09
142
0.0
143
25.4
144
1.0
145
0.0
146
1.0
147
0.09
 71
1
 72
0
 73
1
 74
1
 75
0
 76
0
 77
0
 78
4
 79
1
170
1
171
2
172
0
173
0
174
0
175
0
176
0
177
0
178
0
270
2
179
3
271
3
272
3
273
2
274
2
275
0
280
0
281
0
282
0
283
1
284
4
285
0
286
0
287
3
288
0
340
11
278
46
341
205
342
205
343
205
344
205
  0
ENDTAB
  0
ENDSEC
  0
SECTION
  2
BLOCKS
  0
BLOCK
  5
20
100
AcDbEntity
  8
0
100
AcDbBlockBegin
  2
*Model_Space
 70
0
 10
0.0
 20
0.0
 30
0.0
  3
*Model_Space
  1

  0
ENDBLK
  5
21
100
AcDbEntity
  8
0
100
AcDbBlockEnd
  0
BLOCK
  5
1C
100
AcDbEntity
  8
0
100
AcDbBlockBegin
  2
*Paper_Space
 70
0
 10
0.0
 20
0.0
 30
0.0
  3
*Paper_Space
  1

  0
ENDBLK
  5
1D
100
AcDbEntity
  8
0
100
AcDbBlockEnd
  0
BLOCK
  5
207
100
AcDbEntity
  8
0
100
AcDbBlockBegin
  2
_FILLED
 70
64
 10
0.0
 20
0.0
  3
_FILLED
  1

  0
SOLID
  5
208
100
AcDbEntity
  8
0
  6
BYBLOCK
 62
0
100
AcDbTrace
 10
0.0
 20
0.0
 11
-1.0
 21
0.2
 12
-1.0
 22
-0.2
 13
-1.0
 23
-0.2
  0
ENDBLK
  5
209
100
AcDbEntity
  8
0
  6
BYBLOCK
 62
0
100
AcDbBlockEnd
  0
ENDSEC
  0
SECTION
  2
ENTITIES
  0
MTEXT
  5
20A
100
AcDbEntity
  8
0
100
AcDbMText
 62
2
  6
CONTINUOUS
  7
STANDARD
 71
2
 72
1
 10
5.5481698575
 20
1.9942750141
 30
0.0
 11
1.0
 21
0.0
 31
0.0
 73
2
 44
0.9
  1
SCALE 1.000
 40
0.08
 41
0.704
  0
LINE
  5
20B
100
AcDbEntity
  8
0
100
AcDbLine
 62
7
  6
CONTINUOUS
 10
0.0
 20
0.0
 11
0.0
 21
8.5
  0
LINE
  5
20C
100
AcDbEntity
  8
0
100
AcDbLine
 62
7
  6
CONTINUOUS
 10
0.0
 20
0.0
 11
11.0
 21
0.0
  0
LINE
  5
20D
100
AcDbEntity
  8
0
100
AcDbLine
 62
7
  6
CONTINUOUS
 10
0.0
 20
8.5
 11
11.0
 21
8.5
  0
LINE
  5
20E
100
AcDbEntity
  8
0
100
AcDbLine
 62
7
  6
CONTINUOUS
 10
11.0
 20
0.0
 11
11.0
 21
8.5
  0
LINE
  5
20F
100
AcDbEntity
  8
0
100
AcDbLine
 62
7
  6
CONTINUOUS
 10
1.8663352298
 20
5.9146520025
 11
1.8663352298
 21
5.8531993025
  0
LINE
  5
210
100
AcDbEntity
  8
0
100
AcDbLine
 62
7
  6
CONTINUOUS
 10
2.2884280349
 20
5.6911523025
 11
2.288280345
 21
5.690778693
  0
LINE
  5
211
100
AcDbEntity
  8
0
100
AcDbLine
 62
7
  6
CONTINUOUS
 10
2.2884280349
 20
5.6911523025
 11
2.2882541806
 21
5.6907947074
  0
LINE
  5
212
100
AcDbEntity
  8
0
100
AcDbLine
 62
7
  6
CONTINUOUS
 10
2.2873352298
 20
5.7311523025
 11
2.2873352298
 21
5.6911523025
  0
LINE
  5
213
100
AcDbEntity
  8
0
100
AcDbLine
 62
7
  6
CONTINUOUS
 10
2.2873352298
 20
5.5191816267
 11
2.2873352298
 21
5.4791816267
  0
LINE
  5
214
100
AcDbEntity
  8
0
100
AcDbLine
 62
7
  6
CONTINUOUS
 10
2.4056147298
 20
3.5977326267
 11
2.4056147298
 21
5.4791816267
  0
LINE
  5
215
100
AcDbEntity
  8
0
100
AcDbLine
 62
7
  6
CONTINUOUS
 10
2.506173953
 20
5.5191816267
 11
2.506173953
 21
5.6911523025
  0
LINE
  5
216
100
AcDbEntity
  8
0
100
AcDbLine
 62
7
  6
CONTINUOUS
 10
2.5322887052
 20
5.5191816267
 11
2.5322887052
 21
5.6911523025
  0
LINE
  5
217
100
AcDbEntity
  8
0
100
AcDbLine
 62
7
  6
CONTINUOUS
 10
2.5590788483
 20
5.5191816267
 11
2.5590788483
 21
5.6911523025
  0
LINE
  5
218
100
AcDbEntity
  8
0
100
AcDbLine
 62
7
  6
CONTINUOUS
 10
2.5863792119
 20
5.5191816267
 11
2.5863792119
 21
5.6911523025
  0
LINE
  5
219
100
AcDbEntity
  8
0
100
AcDbLine
 62
7
  6
CONTINUOUS
 10
2.6140214803
 20
5.5191816267
 11
2.6140214803
 21
5.6911523025
  0
LINE
  5
21A
100
AcDbEntity
  8
0
100
AcDbLine
 62
7
  6
CONTINUOUS
 10
2.6418352298
 20
5.5191816267
 11
2.6418352298
 21
5.6911523025
  0
LINE
  5
21B
100
AcDbEntity
  8
0
100
AcDbLine
 62
7
  6
CONTINUOUS
 10
2.6696489792
 20
5.5191816267
 11
2.6696489792
 21
5.6911523025
  0
LINE
  5
21C
100
AcDbEntity
  8
0
100
AcDbLine
 62
7
  6
CONTINUOUS
 10
2.6972912476
 20
5.5191816267
 11
2.6972912476
 21
5.6911523025
  0
LINE
  5
21D
100
AcDbEntity
  8
0
100
AcDbLine
 62
7
  6
CONTINUOUS
 10
2.7245916112
 20
5.5191816267
 11
2.7245916112
 21
5.6911523025
  0
LINE
  5
21E
100
AcDbEntity
  8
0
100
AcDbLine
 62
7
  6
CONTINUOUS
 10
2.7513817543
 20
5.5191816267
 11
2.7513817543
 21
5.6911523025
  0
LINE
  5
21F
100
AcDbEntity
  8
0
100
AcDbLine
 62
7
  6
CONTINUOUS
 10
2.7774965065
 20
5.5191816267
 11
2.7774965065
 21
5.6911523025
  0
LINE
  5
220
100
AcDbEntity
  8
0
100
AcDbLine
 62
7
  6
CONTINUOUS
 10
2.8780557298
 20
3.5977326267
 11
2.8780557298
 21
5.4791816267
  0
LINE
  5
221
100
AcDbEntity
  8
0
100
AcDbLine
 62
7
  6
CONTINUOUS
 10
2.9952424246
 20
5.5191816267
 11
2.9953901144
 21
5.519555236
  0
LINE
  5
222
100
AcDbEntity
  8
0
100
AcDbLine
 62
7
  6
CONTINUOUS
 10
2.9952424246
 20
5.5191816267
 11
2.9954162788
 21
5.5195392216
  0
LINE
  5
223
100
AcDbEntity
  8
0
100
AcDbLine
 62
7
  6
CONTINUOUS
 10
2.2882803451
 20
5.5195552361
 11
2.2884280349
 21
5.5191816267
  0
LINE
  5
224
100
AcDbEntity
  8
0
100
AcDbLine
 62
7
  6
CONTINUOUS
 10
2.9963352298
 20
5.7311523025
 11
2.9963352298
 21
5.6911523025
  0
LINE
  5
225
100
AcDbEntity
  8
0
100
AcDbLine
 62
7
  6
CONTINUOUS
 10
2.9963352298
 20
5.5191816267
 11
2.9963352298
 21
5.4791816267
  0
LINE
  5
226
100
AcDbEntity
  8
0
100
AcDbLine
 62
7
  6
CONTINUOUS
 10
3.0224226047
 20
2.664843008
 11
3.0224226047
 21
3.804843008
  0
LINE
  5
227
100
AcDbEntity
  8
0
100
AcDbLine
 62
7
  6
CONTINUOUS
 10
3.0424226047
 20
2.644843008
 11
3.0424226047
 21
3.824843008
  0
LINE
  5
228
100
AcDbEntity
  8
0
100
AcDbLine
 62
7
  6
CONTINUOUS
 10
3.0814226047
 20
3.824843008
 11
3.0814226047
 21
2.644843008
  0
LINE
  5
229
100
AcDbEntity
  8
0
100
AcDbLine
 62
7
  6
CONTINUOUS
 10
3.1014226047
 20
3.804843008
 11
3.1014226047
 21
2.664843008
  0
LINE
  5
22A
100
AcDbEntity
  8
0
100
AcDbLine
 62
7
  6
CONTINUOUS
 10
2.2882541807
 20
5.5195392216
 11
2.2884280349
 21
5.5191816267
  0
LINE
  5
22B
100
AcDbEntity
  8
0
100
AcDbLine
 62
7
  6
CONTINUOUS
 10
3.4173352298
 20
5.9146520025
 11
3.4173352298
 21
5.8531993025
  0
LINE
  5
22C
100
AcDbEntity
  8
0
100
AcDbLine
 62
7
  6
CONTINUOUS
 10
3.7014226047
 20
3.484843008
 11
3.7014226047
 21
2.984843008
  0
LINE
  5
22D
100
AcDbEntity
  8
0
100
AcDbLine
 62
7
  6
CONTINUOUS
 10
3.0814226047
 20
2.644843008
 11
3.0424226047
 21
2.644843008
  0
LINE
  5
22E
100
AcDbEntity
  8
0
100
AcDbLine
 62
7
  6
CONTINUOUS
 10
8.0294226047
 20
2.644843008
 11
8.0684226047
 21
2.644843008
  0
LINE
  5
22F
100
AcDbEntity
  8
0
100
AcDbLine
 62
7
  6
CONTINUOUS
 10
2.9954162789
 20
5.6907947074
 11
2.9952424246
 21
5.6911523025
  0
LINE
  5
230
100
AcDbEntity
  8
0
100
AcDbLine
 62
7
  6
CONTINUOUS
 10
2.9953901146
 20
5.690778693
 11
2.9952424246
 21
5.6911523025
  0
LINE
  5
231
100
AcDbEntity
  8
0
100
AcDbLine
 62
7
  6
CONTINUOUS
 10
8.0094226047
 20
2.984843008
 11
4.7894226047
 21
2.984843008
  0
LINE
  5
232
100
AcDbEntity
  8
0
100
AcDbLine
 62
7
  6
CONTINUOUS
 10
3.1014226047
 20
2.984843008
 11
3.7014226047
 21
2.984843008
  0
LINE
  5
233
100
AcDbEntity
  8
0
100
AcDbLine
 62
7
  6
CONTINUOUS
 10
3.7014226047
 20
3.028343008
 11
4.7894226047
 21
3.028343008
  0
LINE
  5
234
100
AcDbEntity
  8
0
100
AcDbLine
 62
7
  6
CONTINUOUS
 10
3.7014226047
 20
3.441343008
 11
4.7894226047
 21
3.441343008
  0
LINE
  5
235
100
AcDbEntity
  8
0
100
AcDbLine
 62
7
  6
CONTINUOUS
 10
8.0094226047
 20
3.484843008
 11
4.7894226047
 21
3.484843008
  0
LINE
  5
236
100
AcDbEntity
  8
0
100
AcDbLine
 62
7
  6
CONTINUOUS
 10
3.1014226047
 20
3.484843008
 11
3.7014226047
 21
3.484843008
  0
LINE
  5
237
100
AcDbEntity
  8
0
100
AcDbLine
 62
7
  6
CONTINUOUS
 10
4.7894226047
 20
2.984843008
 11
4.7894226047
 21
3.484843008
  0
LINE
  5
238
100
AcDbEntity
  8
0
100
AcDbLine
 62
7
  6
CONTINUOUS
 10
2.4056147298
 20
3.5977326267
 11
2.8780557298
 21
3.5977326267
  0
LINE
  5
239
100
AcDbEntity
  8
0
100
AcDbLine
 62
7
  6
CONTINUOUS
 10
8.2327894797
 20
3.5977326267
 11
8.7052304797
 21
3.5977326267
  0
LINE
  5
23A
100
AcDbEntity
  8
0
100
AcDbLine
 62
7
  6
CONTINUOUS
 10
3.0814226047
 20
3.824843008
 11
3.0424226047
 21
3.824843008
  0
LINE
  5
23B
100
AcDbEntity
  8
0
100
AcDbLine
 62
7
  6
CONTINUOUS
 10
8.0294226047
 20
3.824843008
 11
8.0684226047
 21
3.824843008
  0
LINE
  5
23C
100
AcDbEntity
  8
0
100
AcDbLine
 62
7
  6
CONTINUOUS
 10
2.9963352298
 20
5.4791816267
 11
2.2873352298
 21
5.4791816267
  0
LINE
  5
23D
100
AcDbEntity
  8
0
100
AcDbLine
 62
7
  6
CONTINUOUS
 10
8.1145099797
 20
5.4791816267
 11
8.8235099797
 21
5.4791816267
  0
LINE
  5
23E
100
AcDbEntity
  8
0
100
AcDbLine
 62
7
  6
CONTINUOUS
 10
2.9963352298
 20
5.5191816267
 11
2.2873352298
 21
5.5191816267
  0
LINE
  5
23F
100
AcDbEntity
  8
0
100
AcDbLine
 62
7
  6
CONTINUOUS
 10
8.1145099797
 20
5.5191816267
 11
8.8235099797
 21
5.5191816267
  0
LINE
  5
240
100
AcDbEntity
  8
0
100
AcDbLine
 62
7
  6
CONTINUOUS
 10
2.9963352298
 20
5.6911523025
 11
2.2873352298
 21
5.6911523025
  0
LINE
  5
241
100
AcDbEntity
  8
0
100
AcDbLine
 62
7
  6
CONTINUOUS
 10
8.1145099797
 20
5.6911523025
 11
8.8235099797
 21
5.6911523025
  0
LINE
  5
242
100
AcDbEntity
  8
0
100
AcDbLine
 62
7
  6
CONTINUOUS
 10
2.9963352298
 20
5.7311523025
 11
2.2873352298
 21
5.7311523025
  0
LINE
  5
243
100
AcDbEntity
  8
0
100
AcDbLine
 62
7
  6
CONTINUOUS
 10
8.1145099797
 20
5.7311523025
 11
8.8235099797
 21
5.7311523025
  0
LINE
  5
244
100
AcDbEntity
  8
0
100
AcDbLine
 62
7
  6
CONTINUOUS
 10
3.4173352298
 20
5.8531993025
 11
1.8663352298
 21
5.8531993025
  0
LINE
  5
245
100
AcDbEntity
  8
0
100
AcDbLine
 62
7
  6
CONTINUOUS
 10
7.6935099797
 20
5.8531993025
 11
9.2445099797
 21
5.8531993025
  0
LINE
  5
246
100
AcDbEntity
  8
0
100
AcDbLine
 62
7
  6
CONTINUOUS
 10
8.1156027849
 20
5.6911523025
 11
8.1154169979
 21
5.6907700963
  0
LINE
  5
247
100
AcDbEntity
  8
0
100
AcDbLine
 62
7
  6
CONTINUOUS
 10
3.4173352298
 20
5.9146520025
 11
1.8663352298
 21
5.9146520025
  0
LINE
  5
248
100
AcDbEntity
  8
0
100
AcDbLine
 62
7
  6
CONTINUOUS
 10
7.6935099797
 20
5.9146520025
 11
9.2445099797
 21
5.9146520025
  0
LINE
  5
249
100
AcDbEntity
  8
0
100
AcDbLine
 62
7
  6
CONTINUOUS
 10
9.5055456819
 20
6.0697326267
 11
7.4324742776
 21
6.0697326267
  0
LINE
  5
24A
100
AcDbEntity
  8
0
100
AcDbLine
 62
7
  6
CONTINUOUS
 10
3.6783709319
 20
6.0697326267
 11
1.6052995276
 21
6.0697326267
  0
LINE
  5
24B
100
AcDbEntity
  8
0
100
AcDbLine
 62
7
  6
CONTINUOUS
 10
9.5055456819
 20
6.1877326267
 11
7.4324742776
 21
6.1877326267
  0
LINE
  5
24C
100
AcDbEntity
  8
0
100
AcDbLine
 62
7
  6
CONTINUOUS
 10
3.6783709319
 20
6.1877326267
 11
1.6052995276
 21
6.1877326267
  0
LINE
  5
24D
100
AcDbEntity
  8
0
100
AcDbLine
 62
7
  6
CONTINUOUS
 10
8.1156027849
 20
5.6911523025
 11
8.1154354696
 21
5.6907587944
  0
LINE
  5
24E
100
AcDbEntity
  8
0
100
AcDbLine
 62
7
  6
CONTINUOUS
 10
7.6935099797
 20
5.9146520025
 11
7.6935099797
 21
5.8531993025
  0
LINE
  5
24F
100
AcDbEntity
  8
0
100
AcDbLine
 62
7
  6
CONTINUOUS
 10
8.0094226047
 20
3.804843008
 11
8.0094226047
 21
2.664843008
  0
LINE
  5
250
100
AcDbEntity
  8
0
100
AcDbLine
 62
7
  6
CONTINUOUS
 10
8.0294226047
 20
2.644843008
 11
8.0294226047
 21
3.824843008
  0
LINE
  5
251
100
AcDbEntity
  8
0
100
AcDbLine
 62
7
  6
CONTINUOUS
 10
8.0684226047
 20
3.824843008
 11
8.0684226047
 21
2.644843008
  0
LINE
  5
252
100
AcDbEntity
  8
0
100
AcDbLine
 62
7
  6
CONTINUOUS
 10
8.0884226047
 20
3.804843008
 11
8.0884226047
 21
2.664843008
  0
LINE
  5
253
100
AcDbEntity
  8
0
100
AcDbLine
 62
7
  6
CONTINUOUS
 10
8.1145099797
 20
5.7311523025
 11
8.1145099797
 21
5.6911523025
  0
LINE
  5
254
100
AcDbEntity
  8
0
100
AcDbLine
 62
7
  6
CONTINUOUS
 10
8.1145099797
 20
5.5191816267
 11
8.1145099797
 21
5.4791816267
  0
LINE
  5
255
100
AcDbEntity
  8
0
100
AcDbLine
 62
7
  6
CONTINUOUS
 10
8.8224171745
 20
5.5191816267
 11
8.8225844898
 21
5.5195751347
  0
LINE
  5
256
100
AcDbEntity
  8
0
100
AcDbLine
 62
7
  6
CONTINUOUS
 10
8.8224171745
 20
5.5191816267
 11
8.8226029615
 21
5.5195638327
  0
LINE
  5
257
100
AcDbEntity
  8
0
100
AcDbLine
 62
7
  6
CONTINUOUS
 10
8.2327894797
 20
3.5977326267
 11
8.2327894797
 21
5.4791816267
  0
LINE
  5
258
100
AcDbEntity
  8
0
100
AcDbLine
 62
7
  6
CONTINUOUS
 10
8.333348703
 20
5.5191816267
 11
8.333348703
 21
5.6911523025
  0
LINE
  5
259
100
AcDbEntity
  8
0
100
AcDbLine
 62
7
  6
CONTINUOUS
 10
8.3594634552
 20
5.5191816267
 11
8.3594634552
 21
5.6911523025
  0
LINE
  5
25A
100
AcDbEntity
  8
0
100
AcDbLine
 62
7
  6
CONTINUOUS
 10
8.3862535982
 20
5.5191816267
 11
8.3862535982
 21
5.6911523025
  0
LINE
  5
25B
100
AcDbEntity
  8
0
100
AcDbLine
 62
7
  6
CONTINUOUS
 10
8.4135539619
 20
5.5191816267
 11
8.4135539619
 21
5.6911523025
  0
LINE
  5
25C
100
AcDbEntity
  8
0
100
AcDbLine
 62
7
  6
CONTINUOUS
 10
8.4411962303
 20
5.5191816267
 11
8.4411962303
 21
5.6911523025
  0
LINE
  5
25D
100
AcDbEntity
  8
0
100
AcDbLine
 62
7
  6
CONTINUOUS
 10
8.4690099797
 20
5.5191816267
 11
8.4690099797
 21
5.6911523025
  0
LINE
  5
25E
100
AcDbEntity
  8
0
100
AcDbLine
 62
7
  6
CONTINUOUS
 10
8.115416998
 20
5.5195638327
 11
8.1156027849
 21
5.5191816267
  0
LINE
  5
25F
100
AcDbEntity
  8
0
100
AcDbLine
 62
7
  6
CONTINUOUS
 10
8.1154354697
 20
5.5195751347
 11
8.1156027849
 21
5.5191816267
  0
LINE
  5
260
100
AcDbEntity
  8
0
100
AcDbLine
 62
7
  6
CONTINUOUS
 10
8.4968237292
 20
5.5191816267
 11
8.4968237292
 21
5.6911523025
  0
LINE
  5
261
100
AcDbEntity
  8
0
100
AcDbLine
 62
7
  6
CONTINUOUS
 10
8.5244659976
 20
5.5191816267
 11
8.5244659976
 21
5.6911523025
  0
LINE
  5
262
100
AcDbEntity
  8
0
100
AcDbLine
 62
7
  6
CONTINUOUS
 10
8.5517663612
 20
5.5191816267
 11
8.5517663612
 21
5.6911523025
  0
LINE
  5
263
100
AcDbEntity
  8
0
100
AcDbLine
 62
7
  6
CONTINUOUS
 10
8.5785565042
 20
5.5191816267
 11
8.5785565042
 21
5.6911523025
  0
LINE
  5
264
100
AcDbEntity
  8
0
100
AcDbLine
 62
7
  6
CONTINUOUS
 10
8.6046712565
 20
5.5191816267
 11
8.6046712565
 21
5.6911523025
  0
LINE
  5
265
100
AcDbEntity
  8
0
100
AcDbLine
 62
7
  6
CONTINUOUS
 10
8.7052304797
 20
3.5977326267
 11
8.7052304797
 21
5.4791816267
  0
LINE
  5
266
100
AcDbEntity
  8
0
100
AcDbLine
 62
7
  6
CONTINUOUS
 10
8.8235099797
 20
5.7311523025
 11
8.8235099797
 21
5.6911523025
  0
LINE
  5
267
100
AcDbEntity
  8
0
100
AcDbLine
 62
7
  6
CONTINUOUS
 10
8.8235099797
 20
5.5191816267
 11
8.8235099797
 21
5.4791816267
  0
LINE
  5
268
100
AcDbEntity
  8
0
100
AcDbLine
 62
7
  6
CONTINUOUS
 10
8.8226029616
 20
5.6907700963
 11
8.8224171745
 21
5.6911523025
  0
LINE
  5
269
100
AcDbEntity
  8
0
100
AcDbLine
 62
7
  6
CONTINUOUS
 10
8.8225844899
 20
5.6907587943
 11
8.8224171745
 21
5.6911523025
  0
LINE
  5
26A
100
AcDbEntity
  8
0
100
AcDbLine
 62
7
  6
CONTINUOUS
 10
9.2445099797
 20
5.9146520025
 11
9.2445099797
 21
5.8531993025
  0
ARC
  5
26B
100
AcDbEntity
  8
0
100
AcDbCircle
 62
7
  6
CONTINUOUS
 10
2.6418352298
 20
3.234843008
 40
0.433
100
AcDbArc
 50
28.4834773452
 51
56.9381616807
  0
ARC
  5
26C
100
AcDbEntity
  8
0
100
AcDbCircle
 62
7
  6
CONTINUOUS
 10
2.6418352298
 20
3.234843008
 40
0.433
100
AcDbArc
 50
123.0618383193
 51
331.5165226548
  0
ARC
  5
26D
100
AcDbEntity
  8
0
100
AcDbCircle
 62
7
  6
CONTINUOUS
 10
3.0424226047
 20
2.664843008
 40
0.02
100
AcDbArc
 50
180.0
 51
270.0
  0
ARC
  5
26E
100
AcDbEntity
  8
0
100
AcDbCircle
 62
7
  6
CONTINUOUS
 10
3.0424226047
 20
3.804843008
 40
0.02
100
AcDbArc
 50
90.0
 51
180.0
  0
ARC
  5
26F
100
AcDbEntity
  8
0
100
AcDbCircle
 62
7
  6
CONTINUOUS
 10
3.0814226047
 20
2.664843008
 40
0.02
100
AcDbArc
 50
270.0
 51
360.0
  0
ARC
  5
270
100
AcDbEntity
  8
0
100
AcDbCircle
 62
7
  6
CONTINUOUS
 10
3.0814226047
 20
3.804843008
 40
0.02
100
AcDbArc
 50
0.0
 51
90.0
  0
ARC
  5
271
100
AcDbEntity
  8
0
100
AcDbCircle
 62
7
  6
CONTINUOUS
 10
-71.5198833802
 20
5.6051669646
 40
79.8532785934
100
AcDbArc
 50
359.938304375
 51
0.061695625
  0
ARC
  5
272
100
AcDbEntity
  8
0
100
AcDbCircle
 62
7
  6
CONTINUOUS
 10
-77.3467184188
 20
5.6051669646
 40
79.8529388821
100
AcDbArc
 50
359.9383041126
 51
0.0616958874
  0
ARC
  5
273
100
AcDbEntity
  8
0
100
AcDbCircle
 62
7
  6
CONTINUOUS
 10
3.4174392121
 20
5.0656993094
 40
0.7875
100
AcDbArc
 50
90.0075653946
 51
122.3259561738
  0
ARC
  5
274
100
AcDbEntity
  8
0
100
AcDbCircle
 62
7
  6
CONTINUOUS
 10
1.8662312474
 20
5.0656993094
 40
0.7875
100
AcDbArc
 50
57.6740438262
 51
89.9924346054
  0
ARC
  5
275
100
AcDbEntity
  8
0
100
AcDbCircle
 62
7
  6
CONTINUOUS
 10
2.8168426441
 20
5.6094755895
 40
0.1932380338
100
AcDbArc
 50
24.6645056538
 51
25.0035303941
  0
ARC
  5
276
100
AcDbEntity
  8
0
100
AcDbCircle
 62
7
  6
CONTINUOUS
 10
2.4668278146
 20
5.6094755899
 40
0.1932380328
100
AcDbArc
 50
154.9964696059
 51
155.3354943184
  0
ARC
  5
277
100
AcDbEntity
  8
0
100
AcDbCircle
 62
7
  6
CONTINUOUS
 10
2.4668278104
 20
5.6008583373
 40
0.1932380282
100
AcDbArc
 50
204.6645057894
 51
205.0035303941
  0
ARC
  5
278
100
AcDbEntity
  8
0
100
AcDbCircle
 62
7
  6
CONTINUOUS
 10
2.81684265
 20
5.6008583369
 40
0.1932380272
100
AcDbArc
 50
334.9964696058
 51
335.3354941828
  0
ARC
  5
279
100
AcDbEntity
  8
0
100
AcDbCircle
 62
7
  6
CONTINUOUS
 10
2.4538902814
 20
5.6051669646
 40
0.186474161
100
AcDbArc
 50
152.540570188
 51
207.459429812
  0
ARC
  5
27A
100
AcDbEntity
  8
0
100
AcDbCircle
 62
7
  6
CONTINUOUS
 10
2.8297801807
 20
5.6051669646
 40
0.186474161
100
AcDbArc
 50
332.5405698288
 51
27.4594301712
  0
ARC
  5
27B
100
AcDbEntity
  8
0
100
AcDbCircle
 62
7
  6
CONTINUOUS
 10
2.7461901341
 20
5.6051669646
 40
0.1862491301
100
AcDbArc
 50
332.504646908
 51
27.495353092
  0
ARC
  5
27C
100
AcDbEntity
  8
0
100
AcDbCircle
 62
7
  6
CONTINUOUS
 10
2.5374803277
 20
5.6051669646
 40
0.1862491301
100
AcDbArc
 50
152.504647232
 51
207.495352768
  0
ARC
  5
27D
100
AcDbEntity
  8
0
100
AcDbCircle
 62
7
  6
CONTINUOUS
 10
2.4530442593
 20
5.6051669646
 40
0.1828237688
100
AcDbArc
 50
151.9455108272
 51
208.0544891728
  0
ARC
  5
27E
100
AcDbEntity
  8
0
100
AcDbCircle
 62
7
  6
CONTINUOUS
 10
2.8306261974
 20
5.6051669646
 40
0.1828237688
100
AcDbArc
 50
331.9455112373
 51
28.0544887627
  0
ARC
  5
27F
100
AcDbEntity
  8
0
100
AcDbCircle
 62
7
  6
CONTINUOUS
 10
2.7674706067
 20
5.6051669646
 40
0.1826616097
100
AcDbArc
 50
331.9184557096
 51
28.0815442904
  0
ARC
  5
280
100
AcDbEntity
  8
0
100
AcDbCircle
 62
7
  6
CONTINUOUS
 10
2.5161998497
 20
5.6051669646
 40
0.1826616097
100
AcDbArc
 50
151.9184552531
 51
208.0815447469
  0
ARC
  5
281
100
AcDbEntity
  8
0
100
AcDbCircle
 62
7
  6
CONTINUOUS
 10
2.4556116839
 20
5.6051669646
 40
0.1802969615
100
AcDbArc
 50
151.5176341079
 51
208.4823658921
  0
ARC
  5
282
100
AcDbEntity
  8
0
100
AcDbCircle
 62
7
  6
CONTINUOUS
 10
2.8280587675
 20
5.6051669646
 40
0.1802969615
100
AcDbArc
 50
331.5176353423
 51
28.4823646577
  0
ARC
  5
283
100
AcDbEntity
  8
0
100
AcDbCircle
 62
7
  6
CONTINUOUS
 10
3.3898352298
 20
6.0697326267
 40
0.1575
100
AcDbArc
 50
280.0555661561
 51
360.0
  0
ARC
  5
284
100
AcDbEntity
  8
0
100
AcDbCircle
 62
7
  6
CONTINUOUS
 10
1.8938352298
 20
6.0697326267
 40
0.1575
100
AcDbArc
 50
180.0
 51
259.9444338439
  0
ARC
  5
285
100
AcDbEntity
  8
0
100
AcDbCircle
 62
7
  6
CONTINUOUS
 10
3.6258352298
 20
6.1287326267
 40
0.079
100
AcDbArc
 50
311.6830072544
 51
48.3169927456
  0
ARC
  5
286
100
AcDbEntity
  8
0
100
AcDbCircle
 62
7
  6
CONTINUOUS
 10
1.6578352298
 20
6.1287326267
 40
0.079
100
AcDbArc
 50
131.6830072544
 51
228.3169927456
  0
ARC
  5
287
100
AcDbEntity
  8
0
100
AcDbCircle
 62
7
  6
CONTINUOUS
 10
8.4690099797
 20
3.234843008
 40
0.433
100
AcDbArc
 50
123.0618383193
 51
151.5165226548
  0
ARC
  5
288
100
AcDbEntity
  8
0
100
AcDbCircle
 62
7
  6
CONTINUOUS
 10
8.4690099797
 20
3.234843008
 40
0.433
100
AcDbArc
 50
208.4834773452
 51
56.9381616807
  0
ARC
  5
289
100
AcDbEntity
  8
0
100
AcDbCircle
 62
7
  6
CONTINUOUS
 10
8.0684226047
 20
2.664843008
 40
0.02
100
AcDbArc
 50
270.0
 51
360.0
  0
ARC
  5
28A
100
AcDbEntity
  8
0
100
AcDbCircle
 62
7
  6
CONTINUOUS
 10
8.0684226047
 20
3.804843008
 40
0.02
100
AcDbArc
 50
0.0
 51
90.0
  0
ARC
  5
28B
100
AcDbEntity
  8
0
100
AcDbCircle
 62
7
  6
CONTINUOUS
 10
8.0294226047
 20
2.664843008
 40
0.02
100
AcDbArc
 50
180.0
 51
270.0
  0
ARC
  5
28C
100
AcDbEntity
  8
0
100
AcDbCircle
 62
7
  6
CONTINUOUS
 10
8.0294226047
 20
3.804843008
 40
0.02
100
AcDbArc
 50
90.0
 51
180.0
  0
ARC
  5
28D
100
AcDbEntity
  8
0
100
AcDbCircle
 62
7
  6
CONTINUOUS
 10
88.4579033353
 20
5.6051669646
 40
79.8532785891
100
AcDbArc
 50
179.938304375
 51
180.061695625
  0
ARC
  5
28E
100
AcDbEntity
  8
0
100
AcDbCircle
 62
7
  6
CONTINUOUS
 10
82.6303888783
 20
5.6051669646
 40
79.8529388821
100
AcDbArc
 50
179.9383041126
 51
180.0616958874
  0
ARC
  5
28F
100
AcDbEntity
  8
0
100
AcDbCircle
 62
7
  6
CONTINUOUS
 10
7.6934059974
 20
5.0656993094
 40
0.7875
100
AcDbArc
 50
57.6740438262
 51
89.9924346054
  0
ARC
  5
290
100
AcDbEntity
  8
0
100
AcDbCircle
 62
7
  6
CONTINUOUS
 10
9.244613962
 20
5.0656993094
 40
0.7875
100
AcDbArc
 50
90.0075653946
 51
122.3259561738
  0
ARC
  5
291
100
AcDbEntity
  8
0
100
AcDbCircle
 62
7
  6
CONTINUOUS
 10
8.6435305404
 20
5.6092485236
 40
0.1937752352
100
AcDbArc
 50
24.6416646811
 51
25.0035319401
  0
ARC
  5
292
100
AcDbEntity
  8
0
100
AcDbCircle
 62
7
  6
CONTINUOUS
 10
8.2944894186
 20
5.6092485239
 40
0.1937752347
100
AcDbArc
 50
154.9964680598
 51
155.3583352947
  0
ARC
  5
293
100
AcDbEntity
  8
0
100
AcDbCircle
 62
7
  6
CONTINUOUS
 10
8.2944894162
 20
5.6010854042
 40
0.1937752321
100
AcDbArc
 50
204.641664831
 51
205.0035319399
  0
ARC
  5
294
100
AcDbEntity
  8
0
100
AcDbCircle
 62
7
  6
CONTINUOUS
 10
8.6435305438
 20
5.6010854039
 40
0.1937752315
100
AcDbArc
 50
334.9964680597
 51
335.3583351448
  0
ARC
  5
295
100
AcDbEntity
  8
0
100
AcDbCircle
 62
7
  6
CONTINUOUS
 10
8.6569539988
 20
5.6051669646
 40
0.1864748649
100
AcDbArc
 50
332.5407018537
 51
27.4592981463
  0
ARC
  5
296
100
AcDbEntity
  8
0
100
AcDbCircle
 62
7
  6
CONTINUOUS
 10
8.2810659645
 20
5.6051669646
 40
0.1864748649
100
AcDbArc
 50
152.5407024055
 51
207.4592975945
  0
ARC
  5
297
100
AcDbEntity
  8
0
100
AcDbCircle
 62
7
  6
CONTINUOUS
 10
8.5733639934
 20
5.6051669646
 40
0.186249833
100
AcDbArc
 50
332.5047734068
 51
27.4952265932
  0
ARC
  5
298
100
AcDbEntity
  8
0
100
AcDbCircle
 62
7
  6
CONTINUOUS
 10
8.3646559695
 20
5.6051669646
 40
0.186249833
100
AcDbArc
 50
152.5047738959
 51
207.4952261041
  0
ARC
  5
299
100
AcDbEntity
  8
0
100
AcDbCircle
 62
7
  6
CONTINUOUS
 10
8.6578010233
 20
5.6051669646
 40
0.1828244552
100
AcDbArc
 50
331.9455000551
 51
28.0544999449
  0
ARC
  5
29A
100
AcDbEntity
  8
0
100
AcDbCircle
 62
7
  6
CONTINUOUS
 10
8.2802189319
 20
5.6051669646
 40
0.1828244552
100
AcDbArc
 50
151.9454994235
 51
208.0545005765
  0
ARC
  5
29B
100
AcDbEntity
  8
0
100
AcDbCircle
 62
7
  6
CONTINUOUS
 10
8.5946455077
 20
5.6051669646
 40
0.1826622953
100
AcDbArc
 50
331.9184333997
 51
28.0815666003
  0
ARC
  5
29C
100
AcDbEntity
  8
0
100
AcDbCircle
 62
7
  6
CONTINUOUS
 10
8.343374447
 20
5.6051669646
 40
0.1826622953
100
AcDbArc
 50
151.9184327065
 51
208.0815672935
  0
ARC
  5
29D
100
AcDbEntity
  8
0
100
AcDbCircle
 62
7
  6
CONTINUOUS
 10
8.6552345767
 20
5.6051669646
 40
0.1802976356
100
AcDbArc
 50
331.5174748244
 51
28.4825251756
  0
ARC
  5
29E
100
AcDbEntity
  8
0
100
AcDbCircle
 62
7
  6
CONTINUOUS
 10
7.7210099797
 20
6.0697326267
 40
0.1575
100
AcDbArc
 50
180.0
 51
259.9444338439
  0
ARC
  5
29F
100
AcDbEntity
  8
0
100
AcDbCircle
 62
7
  6
CONTINUOUS
 10
9.2170099797
 20
6.0697326267
 40
0.1575
100
AcDbArc
 50
280.0555661561
 51
360.0
  0
ARC
  5
2A0
100
AcDbEntity
  8
0
100
AcDbCircle
 62
7
  6
CONTINUOUS
 10
9.4530099797
 20
6.1287326267
 40
0.079
100
AcDbArc
 50
311.6830072544
 51
48.3169927456
  0
ARC
  5
2A1
100
AcDbEntity
  8
0
100
AcDbCircle
 62
7
  6
CONTINUOUS
 10
7.4850099797
 20
6.1287326267
 40
0.079
100
AcDbArc
 50
131.6830072544
 51
228.3169927456
  0
SPLINE
  5
2A2
100
AcDbEntity
  8
0
100
AcDbSpline
 62
7
  6
CONTINUOUS
 70
0
 71
3
 72
23
 73
19
 74
0
 42
0.0000001
 43
0.0000001
 44
0.0000000001
 40
0.0
 40
0.0
 40
0.0
 40
0.0
 40
0.0618792388
 40
0.1240307544
 40
0.1863870977
 40
0.2488991799
 40
0.3115432635
 40
0.3742972318
 40
0.4371293363
 40
0.4999999993
 40
0.5628706623
 40
0.6257027671
 40
0.6884567356
 40
0.7511008193
 40
0.8136129017
 40
0.8759692453
 40
0.9381207611
 40
1.0
 40
1.0
 40
1.0
 40
1.0
 10
2.2873352298
 20
5.6911523025
 30
0.0
 10
2.2856755401
 20
5.6878694413
 30
0.0
 10
2.2825428059
 20
5.6811892089
 30
0.0
 10
2.2784313526
 20
5.6708935723
 30
0.0
 10
2.2749178485
 20
5.6603386946
 30
0.0
 10
2.2720222851
 20
5.6495676559
 30
0.0
 10
2.2697552477
 20
5.6386228771
 30
0.0
 10
2.2681290857
 20
5.6275454561
 30
0.0
 10
2.267150161
 20
5.6163787171
 30
0.0
 10
2.2668223024
 20
5.6051669647
 30
0.0
 10
2.267150161
 20
5.5939552123
 30
0.0
 10
2.2681290857
 20
5.5827884732
 30
0.0
 10
2.2697552477
 20
5.5717110522
 30
0.0
 10
2.2720222851
 20
5.5607662735
 30
0.0
 10
2.2749178485
 20
5.5499952347
 30
0.0
 10
2.2784313526
 20
5.5394403569
 30
0.0
 10
2.2825428059
 20
5.5291447203
 30
0.0
 10
2.2856755401
 20
5.5224644879
 30
0.0
 10
2.2873352298
 20
5.5191816267
 30
0.0
  0
SPLINE
  5
2A3
100
AcDbEntity
  8
0
100
AcDbSpline
 62
7
  6
CONTINUOUS
 70
0
 71
3
 72
15
 73
11
 74
0
 42
0.0000001
 43
0.0000001
 44
0.0000000001
 40
0.0
 40
0.0
 40
0.0
 40
0.0
 40
0.1179993271
 40
0.2419657329
 40
0.3699492382
 40
0.4999999992
 40
0.6300507607
 40
0.7580342663
 40
0.8820006726
 40
1.0
 40
1.0
 40
1.0
 40
1.0
 10
2.4808955976
 20
5.6911523025
 30
0.0
 10
2.4806128422
 20
5.6843923208
 30
0.0
 10
2.4801196409
 20
5.6705267949
 30
0.0
 10
2.4795963737
 20
5.6493205918
 30
0.0
 10
2.4792784801
 20
5.6274192255
 30
0.0
 10
2.4791717222
 20
5.6051669647
 30
0.0
 10
2.4792784801
 20
5.5829147039
 30
0.0
 10
2.4795963737
 20
5.5610133375
 30
0.0
 10
2.4801196409
 20
5.5398071344
 30
0.0
 10
2.4806128422
 20
5.5259416084
 30
0.0
 10
2.4808955976
 20
5.5191816267
 30
0.0
  0
SPLINE
  5
2A4
100
AcDbEntity
  8
0
100
AcDbSpline
 62
7
  6
CONTINUOUS
 70
0
 71
3
 72
17
 73
13
 74
0
 42
0.0000001
 43
0.0000001
 44
0.0000000001
 40
0.0
 40
0.0
 40
0.0
 40
0.0
 40
0.0582137478
 40
0.1181404594
 40
0.2421255942
 40
0.370048758
 40
0.4999999992
 40
0.6299512409
 40
0.757874405
 40
0.8818595402
 40
0.9417862521
 40
1.0
 40
1.0
 40
1.0
 40
1.0
 10
2.4566094886
 20
5.6911523025
 30
0.0
 10
2.4563280654
 20
5.6878236181
 30
0.0
 10
2.455799081
 20
5.681064673
 30
0.0
 10
2.4548750552
 20
5.6672009671
 30
0.0
 10
2.4539837394
 20
5.649327214
 30
0.0
 10
2.4533409027
 20
5.6274224687
 30
0.0
 10
2.4531250876
 20
5.6051669647
 30
0.0
 10
2.4533409027
 20
5.5829114607
 30
0.0
 10
2.4539837393
 20
5.5610067153
 30
0.0
 10
2.4548750552
 20
5.5431329622
 30
0.0
 10
2.455799081
 20
5.5292692562
 30
0.0
 10
2.4563280654
 20
5.5225103111
 30
0.0
 10
2.4566094886
 20
5.5191816267
 30
0.0
  0
SPLINE
  5
2A5
100
AcDbEntity
  8
0
100
AcDbSpline
 62
7
  6
CONTINUOUS
 70
0
 71
3
 72
17
 73
13
 74
0
 42
0.0000001
 43
0.0000001
 44
0.0000000001
 40
0.0
 40
0.0
 40
0.0
 40
0.0
 40
0.0583584061
 40
0.1183716994
 40
0.2423879826
 40
0.3702122162
 40
0.4999999992
 40
0.6297877827
 40
0.7576120166
 40
0.8816283003
 40
0.9416415938
 40
1.0
 40
1.0
 40
1.0
 40
1.0
 10
2.4334653578
 20
5.6911523025
 30
0.0
 10
2.4330437341
 20
5.6878256367
 30
0.0
 10
2.4322510451
 20
5.6810698997
 30
0.0
 10
2.4308661826
 20
5.6672107578
 30
0.0
 10
2.4295297114
 20
5.6493381527
 30
0.0
 10
2.4285655644
 20
5.6274278146
 30
0.0
 10
2.4282418798
 20
5.6051669647
 30
0.0
 10
2.4285655644
 20
5.5829061148
 30
0.0
 10
2.4295297114
 20
5.5609957767
 30
0.0
 10
2.4308661826
 20
5.5431231714
 30
0.0
 10
2.4322510451
 20
5.5292640295
 30
0.0
 10
2.4330437341
 20
5.5225082925
 30
0.0
 10
2.4334653578
 20
5.5191816267
 30
0.0
  0
SPLINE
  5
2A6
100
AcDbEntity
  8
0
100
AcDbSpline
 62
7
  6
CONTINUOUS
 70
0
 71
3
 72
17
 73
13
 74
0
 42
0.0000001
 43
0.0000001
 44
0.0000000001
 40
0.0
 40
0.0
 40
0.0
 40
0.0
 40
0.058554909
 40
0.1186860199
 40
0.2427450029
 40
0.3704347511
 40
0.4999999992
 40
0.6295652478
 40
0.7572549963
 40
0.8813139797
 40
0.9414450909
 40
1.0
 40
1.0
 40
1.0
 40
1.0
 10
2.4116058966
 20
5.6911523025
 30
0.0
 10
2.4110469568
 20
5.6878283471
 30
0.0
 10
2.4099957991
 20
5.6810769525
 30
0.0
 10
2.4081590261
 20
5.6672240307
 30
0.0
 10
2.4063853019
 20
5.6493530808
 30
0.0
 10
2.405105245
 20
5.6274351324
 30
0.0
 10
2.4046755053
 20
5.6051669647
 30
0.0
 10
2.405105245
 20
5.582898797
 30
0.0
 10
2.4063853019
 20
5.5609808485
 30
0.0
 10
2.4081590261
 20
5.5431098986
 30
0.0
 10
2.4099957991
 20
5.5292569767
 30
0.0
 10
2.4110469568
 20
5.5225055821
 30
0.0
 10
2.4116058966
 20
5.5191816267
 30
0.0
  0
SPLINE
  5
2A7
100
AcDbEntity
  8
0
100
AcDbSpline
 62
7
  6
CONTINUOUS
 70
0
 71
3
 72
19
 73
15
 74
0
 42
0.0000001
 43
0.0000001
 44
0.0000000001
 40
0.0
 40
0.0
 40
0.0
 40
0.0
 40
0.0587958872
 40
0.119071336
 40
0.2431812065
 40
0.3707027227
 40
0.435240284
 40
0.4999999992
 40
0.5647597146
 40
0.6292972762
 40
0.7568187927
 40
0.8809286636
 40
0.9412041127
 40
1.0
 40
1.0
 40
1.0
 40
1.0
 10
2.3911658758
 20
5.6911523025
 30
0.0
 10
2.3904734085
 20
5.6878316368
 30
0.0
 10
2.3891706914
 20
5.6810855704
 30
0.0
 10
2.3868938032
 20
5.6672403206
 30
0.0
 10
2.38469345
 20
5.6493717355
 30
0.0
 10
2.3833744464
 20
5.6311710845
 30
0.0
 10
2.3828396961
 20
5.6163629603
 30
0.0
 10
2.3827048533
 20
5.6051669647
 30
0.0
 10
2.3828396961
 20
5.5939709691
 30
0.0
 10
2.3833744464
 20
5.5791628449
 30
0.0
 10
2.38469345
 20
5.5609621938
 30
0.0
 10
2.3868938032
 20
5.5430936086
 30
0.0
 10
2.3891706914
 20
5.5292483589
 30
0.0
 10
2.3904734085
 20
5.5225022924
 30
0.0
 10
2.3911658758
 20
5.5191816267
 30
0.0
  0
SPLINE
  5
2A8
100
AcDbEntity
  8
0
100
AcDbSpline
 62
7
  6
CONTINUOUS
 70
0
 71
3
 72
19
 73
15
 74
0
 42
0.0000001
 43
0.0000001
 44
0.0000000001
 40
0.0
 40
0.0
 40
0.0
 40
0.0
 40
0.0590756044
 40
0.1195193928
 40
0.243690758
 40
0.3710191667
 40
0.4354064551
 40
0.4999999992
 40
0.5645935436
 40
0.6289808322
 40
0.7563092412
 40
0.8804806069
 40
0.9409243955
 40
1.0
 40
1.0
 40
1.0
 40
1.0
 10
2.3722713149
 20
5.6911523025
 30
0.0
 10
2.3714499626
 20
5.6878353775
 30
0.0
 10
2.3699041917
 20
5.6810954398
 30
0.0
 10
2.3672017839
 20
5.667259127
 30
0.0
 10
2.3645878644
 20
5.6493933614
 30
0.0
 10
2.3630196191
 20
5.6311780375
 30
0.0
 10
2.3623843252
 20
5.6163643054
 30
0.0
 10
2.3622241608
 20
5.6051669647
 30
0.0
 10
2.3623843252
 20
5.593969624
 30
0.0
 10
2.3630196191
 20
5.5791558919
 30
0.0
 10
2.3645878644
 20
5.5609405679
 30
0.0
 10
2.3672017839
 20
5.5430748022
 30
0.0
 10
2.3699041917
 20
5.5292384894
 30
0.0
 10
2.3714499626
 20
5.5224985517
 30
0.0
 10
2.3722713149
 20
5.5191816267
 30
0.0
  0
SPLINE
  5
2A9
100
AcDbEntity
  8
0
100
AcDbSpline
 62
7
  6
CONTINUOUS
 70
0
 71
3
 72
19
 73
15
 74
0
 42
0.0000001
 43
0.0000001
 44
0.0000000001
 40
0.0
 40
0.0
 40
0.0
 40
0.0
 40
0.0593849923
 40
0.1200155262
 40
0.2442559652
 40
0.3713705117
 40
0.4355909967
 40
0.4999999992
 40
0.5644090019
 40
0.6286294872
 40
0.755744034
 40
0.8799844734
 40
0.9406150076
 40
1.0
 40
1.0
 40
1.0
 40
1.0
 10
2.3550387052
 20
5.6911523025
 30
0.0
 10
2.3540939085
 20
5.6878394341
 30
0.0
 10
2.3523151071
 20
5.6811062305
 30
0.0
 10
2.3492044235
 20
5.6672798519
 30
0.0
 10
2.3461926289
 20
5.6494174712
 30
0.0
 10
2.3443839313
 20
5.6311858275
 30
0.0
 10
2.3436518769
 20
5.6163658145
 30
0.0
 10
2.3434673589
 20
5.6051669647
 30
0.0
 10
2.343651877
 20
5.5939681149
 30
0.0
 10
2.3443839313
 20
5.5791481019
 30
0.0
 10
2.3461926288
 20
5.5609164581
 30
0.0
 10
2.3492044234
 20
5.5430540774
 30
0.0
 10
2.3523151071
 20
5.5292276987
 30
0.0
 10
2.3540939085
 20
5.5224944951
 30
0.0
 10
2.3550387052
 20
5.5191816267
 30
0.0
  0
SPLINE
  5
2AA
100
AcDbEntity
  8
0
100
AcDbSpline
 62
7
  6
CONTINUOUS
 70
0
 71
3
 72
19
 73
15
 74
0
 42
0.0000001
 43
0.0000001
 44
0.0000000001
 40
0.0
 40
0.0
 40
0.0
 40
0.0
 40
0.059715188
 40
0.1205456595
 40
0.2448610444
 40
0.3717470368
 40
0.435788815
 40
0.4999999992
 40
0.5642111836
 40
0.6282529621
 40
0.7551389548
 40
0.8794543402
 40
0.9402848119
 40
1.0
 40
1.0
 40
1.0
 40
1.0
 10
2.3395742915
 20
5.6911523025
 30
0.0
 10
2.3385122313
 20
5.6878436722
 30
0.0
 10
2.3365118463
 20
5.6811176027
 30
0.0
 10
2.3330126473
 20
5.6673018805
 30
0.0
 10
2.3296211579
 20
5.6494434221
 30
0.0
 10
2.3275822795
 20
5.6311942585
 30
0.0
 10
2.3267578434
 20
5.6163674502
 30
0.0
 10
2.3265500894
 20
5.6051669647
 30
0.0
 10
2.3267578434
 20
5.5939664792
 30
0.0
 10
2.3275822795
 20
5.5791396709
 30
0.0
 10
2.3296211579
 20
5.5608905072
 30
0.0
 10
2.3330126473
 20
5.5430320487
 30
0.0
 10
2.3365118462
 20
5.5292163265
 30
0.0
 10
2.3385122313
 20
5.522490257
 30
0.0
 10
2.3395742915
 20
5.5191816267
 30
0.0
  0
SPLINE
  5
2AB
100
AcDbEntity
  8
0
100
AcDbSpline
 62
7
  6
CONTINUOUS
 70
0
 71
3
 72
19
 73
15
 74
0
 42
0.0000001
 43
0.0000001
 44
0.0000000001
 40
0.0
 40
0.0
 40
0.0
 40
0.0
 40
0.0600571551
 40
0.1210953745
 40
0.2454897155
 40
0.3721386771
 40
0.4359946308
 40
0.4999999992
 40
0.5640053678
 40
0.6278613218
 40
0.7545102837
 40
0.8789046252
 40
0.9399428448
 40
1.0
 40
1.0
 40
1.0
 40
1.0
 10
2.3259734169
 20
5.6911523025
 30
0.0
 10
2.3248009557
 20
5.6878479648
 30
0.0
 10
2.3225917586
 20
5.6811292249
 30
0.0
 10
2.3187261669
 20
5.6673245945
 30
0.0
 10
2.3149755639
 20
5.6494705362
 30
0.0
 10
2.3127182442
 20
5.6312031196
 30
0.0
 10
2.3118063812
 20
5.6163691719
 30
0.0
 10
2.3115766532
 20
5.6051669647
 30
0.0
 10
2.3118063812
 20
5.5939647575
 30
0.0
 10
2.3127182442
 20
5.5791308098
 30
0.0
 10
2.3149755639
 20
5.5608633931
 30
0.0
 10
2.3187261669
 20
5.5430093348
 30
0.0
 10
2.3225917586
 20
5.5292047043
 30
0.0
 10
2.3248009557
 20
5.5224859644
 30
0.0
 10
2.3259734169
 20
5.5191816267
 30
0.0
  0
SPLINE
  5
2AC
100
AcDbEntity
  8
0
100
AcDbSpline
 62
7
  6
CONTINUOUS
 70
0
 71
3
 72
21
 73
17
 74
0
 42
0.0000001
 43
0.0000001
 44
0.0000000001
 40
0.0
 40
0.0
 40
0.0
 40
0.0
 40
0.0603979276
 40
0.1216422188
 40
0.1835982532
 40
0.2461427619
 40
0.3725438954
 40
0.436207427
 40
0.4999999992
 40
0.5637925717
 40
0.6274561035
 40
0.7538572373
 40
0.8164017462
 40
0.8783577809
 40
0.9396020723
 40
1.0
 40
1.0
 40
1.0
 40
1.0
 10
2.3143199355
 20
5.6911523025
 30
0.0
 10
2.3130445594
 20
5.6878521967
 30
0.0
 10
2.3106405516
 20
5.6811408983
 30
0.0
 10
2.3075015853
 20
5.6708504698
 30
0.0
 10
2.3048192865
 20
5.6603013478
 30
0.0
 10
2.3018619446
 20
5.6459006487
 30
0.0
 10
2.2998833338
 20
5.6312117868
 30
0.0
 10
2.2988896934
 20
5.616371009
 30
0.0
 10
2.298639355
 20
5.6051669647
 30
0.0
 10
2.2988896934
 20
5.5939629204
 30
0.0
 10
2.2998833338
 20
5.5791221426
 30
0.0
 10
2.3018619446
 20
5.5644332806
 30
0.0
 10
2.3048192865
 20
5.5500325814
 30
0.0
 10
2.3075015853
 20
5.5394834595
 30
0.0
 10
2.3106405516
 20
5.5291930309
 30
0.0
 10
2.3130445594
 20
5.5224817325
 30
0.0
 10
2.3143199355
 20
5.5191816267
 30
0.0
  0
SPLINE
  5
2AD
100
AcDbEntity
  8
0
100
AcDbSpline
 62
7
  6
CONTINUOUS
 70
0
 71
3
 72
23
 73
19
 74
0
 42
0.0000001
 43
0.0000001
 44
0.0000000001
 40
0.0
 40
0.0
 40
0.0
 40
0.0
 40
0.0607319661
 40
0.122178497
 40
0.184221206
 40
0.2467543195
 40
0.3096916821
 40
0.3729463524
 40
0.4364187768
 40
0.4999999993
 40
0.5635812218
 40
0.6270536465
 40
0.690308317
 40
0.7532456797
 40
0.8157787934
 40
0.8778215027
 40
0.9392680338
 40
1.0
 40
1.0
 40
1.0
 40
1.0
 10
2.3046856947
 20
5.6911523025
 30
0.0
 10
2.3033154574
 20
5.6878562671
 30
0.0
 10
2.3007317445
 20
5.6811521528
 30
0.0
 10
2.2973541114
 20
5.6708603281
 30
0.0
 10
2.2944678673
 20
5.6603099691
 30
0.0
 10
2.2920893438
 20
5.6495441044
 30
0.0
 10
2.290227139
 20
5.6386048096
 30
0.0
 10
2.2888914009
 20
5.6275332529
 30
0.0
 10
2.2880873111
 20
5.6163725592
 30
0.0
 10
2.2878180095
 20
5.6051669647
 30
0.0
 10
2.2880873111
 20
5.5939613702
 30
0.0
 10
2.2888914008
 20
5.5828006764
 30
0.0
 10
2.290227139
 20
5.5717291197
 30
0.0
 10
2.2920893438
 20
5.5607898249
 30
0.0
 10
2.2944678673
 20
5.5500239602
 30
0.0
 10
2.2973541114
 20
5.5394736011
 30
0.0
 10
2.3007317445
 20
5.5291817765
 30
0.0
 10
2.3033154574
 20
5.5224776621
 30
0.0
 10
2.3046856947
 20
5.5191816267
 30
0.0
  0
SPLINE
  5
2AE
100
AcDbEntity
  8
0
100
AcDbSpline
 62
7
  6
CONTINUOUS
 70
0
 71
3
 72
23
 73
19
 74
0
 42
0.0000001
 43
0.0000001
 44
0.0000000001
 40
0.0
 40
0.0
 40
0.0
 40
0.0
 40
0.0610563006
 40
0.122701358
 40
0.1848318273
 40
0.2473583797
 40
0.3102127187
 40
0.3733262676
 40
0.4366185406
 40
0.4999999993
 40
0.5633814581
 40
0.6266737314
 40
0.6897872804
 40
0.7526416195
 40
0.8151681721
 40
0.8772986416
 40
0.9389436993
 40
1.0
 40
1.0
 40
1.0
 40
1.0
 10
2.297130093
 20
5.6911523025
 30
0.0
 10
2.2956735609
 20
5.6878600904
 30
0.0
 10
2.2929262674
 20
5.6811628
 30
0.0
 10
2.2893307387
 20
5.6708697885
 30
0.0
 10
2.2862582644
 20
5.6603180742
 30
0.0
 10
2.2837262522
 20
5.6495507033
 30
0.0
 10
2.2817438773
 20
5.6386098442
 30
0.0
 10
2.2803219364
 20
5.6275366399
 30
0.0
 10
2.2794659545
 20
5.6163742643
 30
0.0
 10
2.2791792733
 20
5.6051669647
 30
0.0
 10
2.2794659545
 20
5.5939596652
 30
0.0
 10
2.2803219364
 20
5.5827972894
 30
0.0
 10
2.2817438773
 20
5.5717240852
 30
0.0
 10
2.2837262521
 20
5.560783226
 30
0.0
 10
2.2862582643
 20
5.5500158551
 30
0.0
 10
2.2893307387
 20
5.5394641408
 30
0.0
 10
2.2929262674
 20
5.5291711292
 30
0.0
 10
2.2956735609
 20
5.5224738387
 30
0.0
 10
2.297130093
 20
5.5191816267
 30
0.0
  0
SPLINE
  5
2AF
100
AcDbEntity
  8
0
100
AcDbSpline
 62
7
  6
CONTINUOUS
 70
0
 71
3
 72
23
 73
19
 74
0
 42
0.0000001
 43
0.0000001
 44
0.0000000001
 40
0.0
 40
0.0
 40
0.0
 40
0.0
 40
0.061392429
 40
0.1232419247
 40
0.1854613202
 40
0.2479804168
 40
0.3107493245
 40
0.3737178379
 40
0.4368245288
 40
0.4999999993
 40
0.5631754699
 40
0.6262821611
 40
0.6892506747
 40
0.7520195825
 40
0.8145386792
 40
0.876758075
 40
0.9386075709
 40
1.0
 40
1.0
 40
1.0
 40
1.0
 10
2.2912194925
 20
5.6901146287
 30
0.0
 10
2.2897238935
 20
5.6868576617
 30
0.0
 10
2.2869025421
 20
5.6802347157
 30
0.0
 10
2.2832069489
 20
5.6700527906
 30
0.0
 10
2.2800501209
 20
5.6596220496
 30
0.0
 10
2.2774490027
 20
5.6489839378
 30
0.0
 10
2.2754128282
 20
5.6381789087
 30
0.0
 10
2.2739525264
 20
5.6272465061
 30
0.0
 10
2.2730734583
 20
5.616228338
 30
0.0
 10
2.2727790688
 20
5.6051669645
 30
0.0
 10
2.2730734583
 20
5.5941055911
 30
0.0
 10
2.2739525264
 20
5.5830874229
 30
0.0
 10
2.2754128283
 20
5.5721550202
 30
0.0
 10
2.2774490028
 20
5.5613499911
 30
0.0
 10
2.2800501209
 20
5.5507118794
 30
0.0
 10
2.2832069491
 20
5.5402811383
 30
0.0
 10
2.2869025422
 20
5.5300992132
 30
0.0
 10
2.2897238937
 20
5.5234762671
 30
0.0
 10
2.2912194927
 20
5.5202193002
 30
0.0
  0
SPLINE
  5
2B0
100
AcDbEntity
  8
0
100
AcDbSpline
 62
7
  6
CONTINUOUS
 70
0
 71
3
 72
23
 73
19
 74
0
 42
0.0000001
 43
0.0000001
 44
0.0000000001
 40
0.0
 40
0.0
 40
0.0
 40
0.0
 40
0.0616449412
 40
0.1236511437
 40
0.1859416783
 40
0.2484571019
 40
0.3111611545
 40
0.3740182952
 40
0.4369825671
 40
0.4999999993
 40
0.5630174315
 40
0.6259817038
 40
0.6888388446
 40
0.7515428973
 40
0.8140583211
 40
0.876348856
 40
0.9383550587
 40
1.0
 40
1.0
 40
1.0
 40
1.0
 10
2.2882541806
 20
5.6907947074
 30
0.0
 10
2.2866663417
 20
5.6875199937
 30
0.0
 10
2.2836699872
 20
5.6808580606
 30
0.0
 10
2.2797410206
 20
5.670601729
 30
0.0
 10
2.2763839559
 20
5.6600898357
 30
0.0
 10
2.2736175191
 20
5.6493648953
 30
0.0
 10
2.2714517045
 20
5.6384686207
 30
0.0
 10
2.2698982512
 20
5.627441569
 30
0.0
 10
2.2689631014
 20
5.6163264538
 30
0.0
 10
2.2686499133
 20
5.6051669646
 30
0.0
 10
2.2689631014
 20
5.5940074755
 30
0.0
 10
2.2698982512
 20
5.5828923602
 30
0.0
 10
2.2714517045
 20
5.5718653086
 30
0.0
 10
2.273617519
 20
5.5609690339
 30
0.0
 10
2.2763839559
 20
5.5502440934
 30
0.0
 10
2.2797410206
 20
5.5397322002
 30
0.0
 10
2.2836699873
 20
5.5294758685
 30
0.0
 10
2.2866663417
 20
5.5228139354
 30
0.0
 10
2.2882541807
 20
5.5195392216
 30
0.0
  0
SPLINE
  5
2B1
100
AcDbEntity
  8
0
100
AcDbSpline
 62
7
  6
CONTINUOUS
 70
0
 71
3
 72
23
 73
19
 74
0
 42
0.0000001
 43
0.0000001
 44
0.0000000001
 40
0.0
 40
0.0
 40
0.0
 40
0.0
 40
0.0618792389
 40
0.1240307548
 40
0.1863870985
 40
0.2488991809
 40
0.3115432648
 40
0.3742972335
 40
0.4371293385
 40
0.5000000017
 40
0.5628706645
 40
0.6257027688
 40
0.688456737
 40
0.7511008204
 40
0.8136129025
 40
0.8759692457
 40
0.9381207612
 40
1.0
 40
1.0
 40
1.0
 40
1.0
 10
2.9963352298
 20
5.5191816267
 30
0.0
 10
2.9979949194
 20
5.5224644879
 30
0.0
 10
3.0011276536
 20
5.5291447203
 30
0.0
 10
3.0052391069
 20
5.539440357
 30
0.0
 10
3.008752611
 20
5.5499952347
 30
0.0
 10
3.0116481744
 20
5.5607662735
 30
0.0
 10
3.0139152118
 20
5.5717110523
 30
0.0
 10
3.0155413739
 20
5.5827884734
 30
0.0
 10
3.0165202985
 20
5.5939552124
 30
0.0
 10
3.0168481571
 20
5.6051669649
 30
0.0
 10
3.0165202985
 20
5.6163787173
 30
0.0
 10
3.0155413738
 20
5.6275454562
 30
0.0
 10
3.0139152118
 20
5.6386228772
 30
0.0
 10
3.0116481744
 20
5.6495676559
 30
0.0
 10
3.008752611
 20
5.6603386946
 30
0.0
 10
3.0052391069
 20
5.6708935723
 30
0.0
 10
3.0011276536
 20
5.6811892089
 30
0.0
 10
2.9979949194
 20
5.6878694413
 30
0.0
 10
2.9963352298
 20
5.6911523025
 30
0.0
  0
SPLINE
  5
2B2
100
AcDbEntity
  8
0
100
AcDbSpline
 62
7
  6
CONTINUOUS
 70
0
 71
3
 72
23
 73
19
 74
0
 42
0.0000001
 43
0.0000001
 44
0.0000000001
 40
0.0
 40
0.0
 40
0.0
 40
0.0
 40
0.0616449414
 40
0.1236511441
 40
0.1859416791
 40
0.248457103
 40
0.3111611558
 40
0.3740182969
 40
0.4369825693
 40
0.5000000017
 40
0.5630174337
 40
0.6259817055
 40
0.6888388459
 40
0.7515428984
 40
0.8140583219
 40
0.8763488564
 40
0.9383550588
 40
1.0
 40
1.0
 40
1.0
 40
1.0
 10
2.9954162788
 20
5.5195392216
 30
0.0
 10
2.9970041178
 20
5.5228139353
 30
0.0
 10
3.0000004722
 20
5.5294758685
 30
0.0
 10
3.0039294389
 20
5.5397322001
 30
0.0
 10
3.0072865036
 20
5.5502440934
 30
0.0
 10
3.0100529405
 20
5.5609690339
 30
0.0
 10
3.012218755
 20
5.5718653086
 30
0.0
 10
3.0137722083
 20
5.5828923603
 30
0.0
 10
3.0147073581
 20
5.5940074756
 30
0.0
 10
3.0150205462
 20
5.6051669648
 30
0.0
 10
3.0147073581
 20
5.6163264539
 30
0.0
 10
3.0137722083
 20
5.6274415691
 30
0.0
 10
3.012218755
 20
5.6384686207
 30
0.0
 10
3.0100529404
 20
5.6493648953
 30
0.0
 10
3.0072865036
 20
5.6600898357
 30
0.0
 10
3.0039294389
 20
5.6706017289
 30
0.0
 10
3.0000004723
 20
5.6808580605
 30
0.0
 10
2.9970041178
 20
5.6875199937
 30
0.0
 10
2.9954162789
 20
5.6907947074
 30
0.0
  0
SPLINE
  5
2B3
100
AcDbEntity
  8
0
100
AcDbSpline
 62
7
  6
CONTINUOUS
 70
0
 71
3
 72
23
 73
19
 74
0
 42
0.0000001
 43
0.0000001
 44
0.0000000001
 40
0.0
 40
0.0
 40
0.0
 40
0.0
 40
0.0613924291
 40
0.1232419251
 40
0.185461321
 40
0.2479804178
 40
0.3107493257
 40
0.3737178396
 40
0.4368245309
 40
0.5000000017
 40
0.5631754721
 40
0.6262821627
 40
0.689250676
 40
0.7520195835
 40
0.81453868
 40
0.8767580754
 40
0.9386075711
 40
1.0
 40
1.0
 40
1.0
 40
1.0
 10
2.9924509668
 20
5.5202193001
 30
0.0
 10
2.9939465658
 20
5.523476267
 30
0.0
 10
2.9967679173
 20
5.5300992131
 30
0.0
 10
3.0004635104
 20
5.5402811382
 30
0.0
 10
3.0036203385
 20
5.5507118793
 30
0.0
 10
3.0062214567
 20
5.5613499911
 30
0.0
 10
3.0082576312
 20
5.5721550202
 30
0.0
 10
3.0097179331
 20
5.5830874229
 30
0.0
 10
3.0105970012
 20
5.5941055911
 30
0.0
 10
3.0108913907
 20
5.6051669646
 30
0.0
 10
3.0105970012
 20
5.616228338
 30
0.0
 10
3.0097179331
 20
5.6272465061
 30
0.0
 10
3.0082576313
 20
5.6381789087
 30
0.0
 10
3.0062214568
 20
5.6489839378
 30
0.0
 10
3.0036203386
 20
5.6596220495
 30
0.0
 10
3.0004635106
 20
5.6700527905
 30
0.0
 10
2.9967679175
 20
5.6802347156
 30
0.0
 10
2.993946566
 20
5.6868576616
 30
0.0
 10
2.992450967
 20
5.6901146286
 30
0.0
  0
SPLINE
  5
2B4
100
AcDbEntity
  8
0
100
AcDbSpline
 62
7
  6
CONTINUOUS
 70
0
 71
3
 72
23
 73
19
 74
0
 42
0.0000001
 43
0.0000001
 44
0.0000000001
 40
0.0
 40
0.0
 40
0.0
 40
0.0
 40
0.0610563008
 40
0.1227013585
 40
0.1848318281
 40
0.2473583808
 40
0.31021272
 40
0.3733262693
 40
0.4366185428
 40
0.5000000017
 40
0.5633814603
 40
0.6266737331
 40
0.6897872818
 40
0.7526416206
 40
0.8151681729
 40
0.877298642
 40
0.9389436994
 40
1.0
 40
1.0
 40
1.0
 40
1.0
 10
2.9865403665
 20
5.5191816267
 30
0.0
 10
2.9879968986
 20
5.5224738387
 30
0.0
 10
2.9907441921
 20
5.5291711292
 30
0.0
 10
2.9943397208
 20
5.5394641408
 30
0.0
 10
2.9974121952
 20
5.5500158552
 30
0.0
 10
2.9999442074
 20
5.5607832261
 30
0.0
 10
3.0019265822
 20
5.5717240853
 30
0.0
 10
3.0033485231
 20
5.5827972896
 30
0.0
 10
3.004204505
 20
5.5939596653
 30
0.0
 10
3.0044911862
 20
5.6051669649
 30
0.0
 10
3.004204505
 20
5.6163742644
 30
0.0
 10
3.0033485231
 20
5.62753664
 30
0.0
 10
3.0019265822
 20
5.6386098442
 30
0.0
 10
2.9999442073
 20
5.6495507034
 30
0.0
 10
2.9974121951
 20
5.6603180742
 30
0.0
 10
2.9943397208
 20
5.6708697885
 30
0.0
 10
2.9907441921
 20
5.6811628
 30
0.0
 10
2.9879968986
 20
5.6878600904
 30
0.0
 10
2.9865403665
 20
5.6911523025
 30
0.0
  0
SPLINE
  5
2B5
100
AcDbEntity
  8
0
100
AcDbSpline
 62
7
  6
CONTINUOUS
 70
0
 71
3
 72
23
 73
19
 74
0
 42
0.0000001
 43
0.0000001
 44
0.0000000001
 40
0.0
 40
0.0
 40
0.0
 40
0.0
 40
0.0607319663
 40
0.1221784974
 40
0.1842212068
 40
0.2467543206
 40
0.3096916835
 40
0.3729463542
 40
0.436418779
 40
0.5000000017
 40
0.563581224
 40
0.6270536482
 40
0.6903083183
 40
0.7532456808
 40
0.8157787942
 40
0.8778215031
 40
0.9392680339
 40
1.0
 40
1.0
 40
1.0
 40
1.0
 10
2.9789847648
 20
5.5191816267
 30
0.0
 10
2.9803550021
 20
5.5224776621
 30
0.0
 10
2.982938715
 20
5.5291817765
 30
0.0
 10
2.9863163481
 20
5.5394736012
 30
0.0
 10
2.9892025922
 20
5.5500239603
 30
0.0
 10
2.9915811157
 20
5.560789825
 30
0.0
 10
2.9934433205
 20
5.5717291198
 30
0.0
 10
2.9947790587
 20
5.5828006765
 30
0.0
 10
2.9955831484
 20
5.5939613704
 30
0.0
 10
2.99585245
 20
5.6051669649
 30
0.0
 10
2.9955831484
 20
5.6163725593
 30
0.0
 10
2.9947790586
 20
5.6275332531
 30
0.0
 10
2.9934433205
 20
5.6386048097
 30
0.0
 10
2.9915811157
 20
5.6495441044
 30
0.0
 10
2.9892025922
 20
5.6603099691
 30
0.0
 10
2.9863163481
 20
5.6708603281
 30
0.0
 10
2.982938715
 20
5.6811521528
 30
0.0
 10
2.9803550021
 20
5.6878562671
 30
0.0
 10
2.9789847648
 20
5.6911523025
 30
0.0
  0
SPLINE
  5
2B6
100
AcDbEntity
  8
0
100
AcDbSpline
 62
7
  6
CONTINUOUS
 70
0
 71
3
 72
21
 73
17
 74
0
 42
0.0000001
 43
0.0000001
 44
0.0000000001
 40
0.0
 40
0.0
 40
0.0
 40
0.0
 40
0.0603979277
 40
0.1216422192
 40
0.183598254
 40
0.2461427629
 40
0.3725438972
 40
0.4362074292
 40
0.5000000017
 40
0.5637925739
 40
0.6274561052
 40
0.7538572384
 40
0.816401747
 40
0.8783577813
 40
0.9396020724
 40
1.0
 40
1.0
 40
1.0
 40
1.0
 10
2.969350524
 20
5.5191816267
 30
0.0
 10
2.9706259001
 20
5.5224817325
 30
0.0
 10
2.9730299079
 20
5.5291930309
 30
0.0
 10
2.9761688742
 20
5.5394834595
 30
0.0
 10
2.978851173
 20
5.5500325815
 30
0.0
 10
2.9818085149
 20
5.5644332807
 30
0.0
 10
2.9837871257
 20
5.5791221427
 30
0.0
 10
2.9847807661
 20
5.5939629205
 30
0.0
 10
2.9850311045
 20
5.6051669649
 30
0.0
 10
2.9847807661
 20
5.6163710092
 30
0.0
 10
2.9837871257
 20
5.6312117869
 30
0.0
 10
2.9818085149
 20
5.6459006488
 30
0.0
 10
2.9788511729
 20
5.6603013479
 30
0.0
 10
2.9761688742
 20
5.6708504698
 30
0.0
 10
2.9730299079
 20
5.6811408983
 30
0.0
 10
2.9706259001
 20
5.6878521967
 30
0.0
 10
2.969350524
 20
5.6911523025
 30
0.0
  0
SPLINE
  5
2B7
100
AcDbEntity
  8
0
100
AcDbSpline
 62
7
  6
CONTINUOUS
 70
0
 71
3
 72
19
 73
15
 74
0
 42
0.0000001
 43
0.0000001
 44
0.0000000001
 40
0.0
 40
0.0
 40
0.0
 40
0.0
 40
0.0600571553
 40
0.1210953749
 40
0.2454897165
 40
0.3721386788
 40
0.435994633
 40
0.5000000017
 40
0.56400537
 40
0.6278613236
 40
0.7545102848
 40
0.8789046256
 40
0.9399428449
 40
1.0
 40
1.0
 40
1.0
 40
1.0
 10
2.9576970426
 20
5.5191816267
 30
0.0
 10
2.9588695038
 20
5.5224859644
 30
0.0
 10
2.9610787009
 20
5.5292047043
 30
0.0
 10
2.9649442926
 20
5.5430093348
 30
0.0
 10
2.9686948956
 20
5.5608633932
 30
0.0
 10
2.9709522154
 20
5.5791308099
 30
0.0
 10
2.9718640783
 20
5.5939647576
 30
0.0
 10
2.9720938063
 20
5.6051669649
 30
0.0
 10
2.9718640783
 20
5.6163691721
 30
0.0
 10
2.9709522153
 20
5.6312031197
 30
0.0
 10
2.9686948956
 20
5.6494705363
 30
0.0
 10
2.9649442926
 20
5.6673245945
 30
0.0
 10
2.9610787009
 20
5.6811292249
 30
0.0
 10
2.9588695038
 20
5.6878479648
 30
0.0
 10
2.9576970426
 20
5.6911523025
 30
0.0
  0
SPLINE
  5
2B8
100
AcDbEntity
  8
0
100
AcDbSpline
 62
7
  6
CONTINUOUS
 70
0
 71
3
 72
19
 73
15
 74
0
 42
0.0000001
 43
0.0000001
 44
0.0000000001
 40
0.0
 40
0.0
 40
0.0
 40
0.0
 40
0.0597151881
 40
0.1205456599
 40
0.2448610455
 40
0.3717470385
 40
0.4357888173
 40
0.5000000017
 40
0.5642111858
 40
0.6282529639
 40
0.7551389559
 40
0.8794543406
 40
0.940284812
 40
1.0
 40
1.0
 40
1.0
 40
1.0
 10
2.944096168
 20
5.5191816267
 30
0.0
 10
2.9451582282
 20
5.522490257
 30
0.0
 10
2.9471586133
 20
5.5292163265
 30
0.0
 10
2.9506578122
 20
5.5430320487
 30
0.0
 10
2.9540493016
 20
5.5608905073
 30
0.0
 10
2.9560881801
 20
5.579139671
 30
0.0
 10
2.9569126161
 20
5.5939664794
 30
0.0
 10
2.9571203701
 20
5.6051669649
 30
0.0
 10
2.9569126161
 20
5.6163674503
 30
0.0
 10
2.95608818
 20
5.6311942586
 30
0.0
 10
2.9540493016
 20
5.6494434221
 30
0.0
 10
2.9506578122
 20
5.6673018806
 30
0.0
 10
2.9471586132
 20
5.6811176027
 30
0.0
 10
2.9451582282
 20
5.6878436722
 30
0.0
 10
2.944096168
 20
5.6911523025
 30
0.0
  0
SPLINE
  5
2B9
100
AcDbEntity
  8
0
100
AcDbSpline
 62
7
  6
CONTINUOUS
 70
0
 71
3
 72
19
 73
15
 74
0
 42
0.0000001
 43
0.0000001
 44
0.0000000001
 40
0.0
 40
0.0
 40
0.0
 40
0.0
 40
0.0593849924
 40
0.1200155267
 40
0.2442559663
 40
0.3713705134
 40
0.435590999
 40
0.5000000017
 40
0.5644090041
 40
0.628629489
 40
0.7557440351
 40
0.8799844738
 40
0.9406150077
 40
1.0
 40
1.0
 40
1.0
 40
1.0
 10
2.9286317543
 20
5.5191816267
 30
0.0
 10
2.929576551
 20
5.5224944951
 30
0.0
 10
2.9313553524
 20
5.5292276987
 30
0.0
 10
2.9344660361
 20
5.5430540774
 30
0.0
 10
2.9374778307
 20
5.5609164581
 30
0.0
 10
2.9392865282
 20
5.579148102
 30
0.0
 10
2.9400185825
 20
5.593968115
 30
0.0
 10
2.9402031006
 20
5.6051669649
 30
0.0
 10
2.9400185826
 20
5.6163658147
 30
0.0
 10
2.9392865282
 20
5.6311858276
 30
0.0
 10
2.9374778306
 20
5.6494174713
 30
0.0
 10
2.934466036
 20
5.6672798519
 30
0.0
 10
2.9313553524
 20
5.6811062305
 30
0.0
 10
2.929576551
 20
5.6878394341
 30
0.0
 10
2.9286317543
 20
5.6911523025
 30
0.0
  0
SPLINE
  5
2BA
100
AcDbEntity
  8
0
100
AcDbSpline
 62
7
  6
CONTINUOUS
 70
0
 71
3
 72
19
 73
15
 74
0
 42
0.0000001
 43
0.0000001
 44
0.0000000001
 40
0.0
 40
0.0
 40
0.0
 40
0.0
 40
0.0590756045
 40
0.1195193932
 40
0.243690759
 40
0.3710191684
 40
0.4354064573
 40
0.5000000017
 40
0.5645935458
 40
0.6289808339
 40
0.7563092423
 40
0.8804806073
 40
0.9409243956
 40
1.0
 40
1.0
 40
1.0
 40
1.0
 10
2.9113991446
 20
5.5191816267
 30
0.0
 10
2.9122204969
 20
5.5224985517
 30
0.0
 10
2.9137662678
 20
5.5292384894
 30
0.0
 10
2.9164686756
 20
5.5430748023
 30
0.0
 10
2.9190825951
 20
5.5609405679
 30
0.0
 10
2.9206508405
 20
5.579155892
 30
0.0
 10
2.9212861343
 20
5.5939696241
 30
0.0
 10
2.9214462987
 20
5.6051669649
 30
0.0
 10
2.9212861343
 20
5.6163643056
 30
0.0
 10
2.9206508404
 20
5.6311780376
 30
0.0
 10
2.9190825951
 20
5.6493933615
 30
0.0
 10
2.9164686756
 20
5.667259127
 30
0.0
 10
2.9137662678
 20
5.6810954399
 30
0.0
 10
2.9122204969
 20
5.6878353775
 30
0.0
 10
2.9113991446
 20
5.6911523025
 30
0.0
  0
SPLINE
  5
2BB
100
AcDbEntity
  8
0
100
AcDbSpline
 62
7
  6
CONTINUOUS
 70
0
 71
3
 72
19
 73
15
 74
0
 42
0.0000001
 43
0.0000001
 44
0.0000000001
 40
0.0
 40
0.0
 40
0.0
 40
0.0
 40
0.0587958873
 40
0.1190713365
 40
0.2431812076
 40
0.3707027245
 40
0.4352402863
 40
0.5000000017
 40
0.5647597169
 40
0.6292972779
 40
0.7568187938
 40
0.880928664
 40
0.9412041128
 40
1.0
 40
1.0
 40
1.0
 40
1.0
 10
2.8925045837
 20
5.5191816267
 30
0.0
 10
2.893197051
 20
5.5225022924
 30
0.0
 10
2.8944997681
 20
5.5292483589
 30
0.0
 10
2.8967766563
 20
5.5430936086
 30
0.0
 10
2.8989770095
 20
5.5609621939
 30
0.0
 10
2.9002960131
 20
5.579162845
 30
0.0
 10
2.9008307634
 20
5.5939709692
 30
0.0
 10
2.9009656062
 20
5.6051669649
 30
0.0
 10
2.9008307634
 20
5.6163629605
 30
0.0
 10
2.9002960131
 20
5.6311710846
 30
0.0
 10
2.8989770095
 20
5.6493717356
 30
0.0
 10
2.8967766563
 20
5.6672403207
 30
0.0
 10
2.8944997681
 20
5.6810855704
 30
0.0
 10
2.893197051
 20
5.6878316368
 30
0.0
 10
2.8925045837
 20
5.6911523025
 30
0.0
  0
SPLINE
  5
2BC
100
AcDbEntity
  8
0
100
AcDbSpline
 62
7
  6
CONTINUOUS
 70
0
 71
3
 72
17
 73
13
 74
0
 42
0.0000001
 43
0.0000001
 44
0.0000000001
 40
0.0
 40
0.0
 40
0.0
 40
0.0
 40
0.0585549091
 40
0.1186860203
 40
0.242745004
 40
0.3704347528
 40
0.5000000017
 40
0.6295652496
 40
0.7572549974
 40
0.8813139802
 40
0.941445091
 40
1.0
 40
1.0
 40
1.0
 40
1.0
 10
2.8720645629
 20
5.5191816267
 30
0.0
 10
2.8726235027
 20
5.5225055821
 30
0.0
 10
2.8736746604
 20
5.5292569767
 30
0.0
 10
2.8755114334
 20
5.5431098986
 30
0.0
 10
2.8772851576
 20
5.5609808486
 30
0.0
 10
2.8785652145
 20
5.5828987971
 30
0.0
 10
2.8789949542
 20
5.6051669648
 30
0.0
 10
2.8785652145
 20
5.6274351325
 30
0.0
 10
2.8772851575
 20
5.6493530809
 30
0.0
 10
2.8755114334
 20
5.6672240307
 30
0.0
 10
2.8736746604
 20
5.6810769525
 30
0.0
 10
2.8726235027
 20
5.6878283471
 30
0.0
 10
2.8720645629
 20
5.6911523025
 30
0.0
  0
SPLINE
  5
2BD
100
AcDbEntity
  8
0
100
AcDbSpline
 62
7
  6
CONTINUOUS
 70
0
 71
3
 72
17
 73
13
 74
0
 42
0.0000001
 43
0.0000001
 44
0.0000000001
 40
0.0
 40
0.0
 40
0.0
 40
0.0
 40
0.0583584063
 40
0.1183716998
 40
0.2423879837
 40
0.370212218
 40
0.5000000017
 40
0.6297877844
 40
0.7576120177
 40
0.8816283007
 40
0.9416415939
 40
1.0
 40
1.0
 40
1.0
 40
1.0
 10
2.8502051017
 20
5.5191816267
 30
0.0
 10
2.8506267254
 20
5.5225082925
 30
0.0
 10
2.8514194144
 20
5.5292640295
 30
0.0
 10
2.8528042769
 20
5.5431231714
 30
0.0
 10
2.8541407481
 20
5.5609957767
 30
0.0
 10
2.8551048951
 20
5.5829061149
 30
0.0
 10
2.8554285797
 20
5.6051669648
 30
0.0
 10
2.8551048951
 20
5.6274278147
 30
0.0
 10
2.854140748
 20
5.6493381527
 30
0.0
 10
2.8528042769
 20
5.6672107579
 30
0.0
 10
2.8514194144
 20
5.6810698997
 30
0.0
 10
2.8506267254
 20
5.6878256367
 30
0.0
 10
2.8502051017
 20
5.6911523025
 30
0.0
  0
SPLINE
  5
2BE
100
AcDbEntity
  8
0
100
AcDbSpline
 62
7
  6
CONTINUOUS
 70
0
 71
3
 72
17
 73
13
 74
0
 42
0.0000001
 43
0.0000001
 44
0.0000000001
 40
0.0
 40
0.0
 40
0.0
 40
0.0
 40
0.058213748
 40
0.1181404598
 40
0.2421255953
 40
0.3700487597
 40
0.5000000017
 40
0.6299512427
 40
0.7578744061
 40
0.8818595407
 40
0.9417862522
 40
1.0
 40
1.0
 40
1.0
 40
1.0
 10
2.8270609709
 20
5.5191816267
 30
0.0
 10
2.8273423941
 20
5.5225103111
 30
0.0
 10
2.8278713786
 20
5.5292692562
 30
0.0
 10
2.8287954043
 20
5.5431329622
 30
0.0
 10
2.8296867202
 20
5.5610067154
 30
0.0
 10
2.8303295568
 20
5.5829114608
 30
0.0
 10
2.8305453719
 20
5.6051669648
 30
0.0
 10
2.8303295568
 20
5.6274224688
 30
0.0
 10
2.8296867201
 20
5.649327214
 30
0.0
 10
2.8287954043
 20
5.6672009671
 30
0.0
 10
2.8278713785
 20
5.681064673
 30
0.0
 10
2.8273423941
 20
5.6878236181
 30
0.0
 10
2.8270609709
 20
5.6911523025
 30
0.0
  0
SPLINE
  5
2BF
100
AcDbEntity
  8
0
100
AcDbSpline
 62
7
  6
CONTINUOUS
 70
0
 71
3
 72
15
 73
11
 74
0
 42
0.0000001
 43
0.0000001
 44
0.0000000001
 40
0.0
 40
0.0
 40
0.0
 40
0.0
 40
0.1179993275
 40
0.241965734
 40
0.3699492399
 40
0.5000000017
 40
0.6300507625
 40
0.7580342674
 40
0.882000673
 40
1.0
 40
1.0
 40
1.0
 40
1.0
 10
2.8027748619
 20
5.5191816267
 30
0.0
 10
2.8030576173
 20
5.5259416084
 30
0.0
 10
2.8035508186
 20
5.5398071344
 30
0.0
 10
2.8040740858
 20
5.5610133376
 30
0.0
 10
2.8043919794
 20
5.582914704
 30
0.0
 10
2.8044987373
 20
5.6051669648
 30
0.0
 10
2.8043919794
 20
5.6274192256
 30
0.0
 10
2.8040740858
 20
5.6493205918
 30
0.0
 10
2.8035508186
 20
5.6705267949
 30
0.0
 10
2.8030576173
 20
5.6843923208
 30
0.0
 10
2.8027748619
 20
5.6911523025
 30
0.0
  0
SPLINE
  5
2C0
100
AcDbEntity
  8
0
100
AcDbSpline
 62
7
  6
CONTINUOUS
 70
0
 71
3
 72
17
 73
13
 74
0
 42
0.0000001
 43
0.0000001
 44
0.0000000001
 40
0.0
 40
0.0
 40
0.0
 40
0.0
 40
0.1240348489
 40
0.186391207
 40
0.248917335
 40
0.3743130782
 40
0.5000000004
 40
0.6256869226
 40
0.7510826658
 40
0.8136087937
 40
0.8759651515
 40
1.0
 40
1.0
 40
1.0
 40
1.0
 10
8.8235099797
 20
5.5191816267
 30
0.0
 10
8.8268357083
 20
5.5257599078
 30
0.0
 10
8.8312548147
 20
5.5359536926
 30
0.0
 10
8.835926913
 20
5.5499955522
 30
0.0
 10
8.8397914044
 20
5.5643662959
 30
0.0
 10
8.8430429254
 20
5.5827643063
 30
0.0
 10
8.8443493097
 20
5.6051669647
 30
0.0
 10
8.8430429254
 20
5.627569623
 30
0.0
 10
8.8397914044
 20
5.6459676334
 30
0.0
 10
8.835926913
 20
5.6603383771
 30
0.0
 10
8.8312548147
 20
5.6743802366
 30
0.0
 10
8.8268357083
 20
5.6845740214
 30
0.0
 10
8.8235099797
 20
5.6911523025
 30
0.0
  0
SPLINE
  5
2C1
100
AcDbEntity
  8
0
100
AcDbSpline
 62
7
  6
CONTINUOUS
 70
0
 71
3
 72
15
 73
11
 74
0
 42
0.0000001
 43
0.0000001
 44
0.0000000001
 40
0.0
 40
0.0
 40
0.0
 40
0.0
 40
0.1236671191
 40
0.248447907
 40
0.3740205128
 40
0.5000000004
 40
0.6259794881
 40
0.7515520938
 40
0.8763328814
 40
1.0
 40
1.0
 40
1.0
 40
1.0
 10
8.8226029615
 20
5.5195638327
 30
0.0
 10
8.8257852028
 20
5.526129106
 30
0.0
 10
8.8314242276
 20
5.5396990826
 30
0.0
 10
8.8375425662
 20
5.560946027
 30
0.0
 10
8.8412601888
 20
5.5828826107
 30
0.0
 10
8.842506758
 20
5.6051669646
 30
0.0
 10
8.8412601888
 20
5.6274513184
 30
0.0
 10
8.8375425662
 20
5.6493879021
 30
0.0
 10
8.8314242276
 20
5.6706348465
 30
0.0
 10
8.8257852029
 20
5.684204823
 30
0.0
 10
8.8226029616
 20
5.6907700963
 30
0.0
  0
SPLINE
  5
2C2
100
AcDbEntity
  8
0
100
AcDbSpline
 62
7
  6
CONTINUOUS
 70
0
 71
3
 72
15
 73
11
 74
0
 42
0.0000001
 43
0.0000001
 44
0.0000000001
 40
0.0
 40
0.0
 40
0.0
 40
0.0
 40
0.1232567559
 40
0.2479720429
 40
0.3737207922
 40
0.5000000004
 40
0.6262792085
 40
0.7520279577
 40
0.8767432445
 40
1.0
 40
1.0
 40
1.0
 40
1.0
 10
8.8196592761
 20
5.5202923969
 30
0.0
 10
8.8226555289
 20
5.526824204
 30
0.0
 10
8.8279587423
 20
5.5403106401
 30
0.0
 10
8.8337008278
 20
5.5613709596
 30
0.0
 10
8.837188833
 20
5.5831002412
 30
0.0
 10
8.8383582461
 20
5.6051669644
 30
0.0
 10
8.8371888331
 20
5.6272336875
 30
0.0
 10
8.8337008279
 20
5.6489629691
 30
0.0
 10
8.8279587425
 20
5.6700232885
 30
0.0
 10
8.8226555292
 20
5.6835097247
 30
0.0
 10
8.8196592763
 20
5.6900415318
 30
0.0
  0
SPLINE
  5
2C3
100
AcDbEntity
  8
0
100
AcDbSpline
 62
7
  6
CONTINUOUS
 70
0
 71
3
 72
15
 73
11
 74
0
 42
0.0000001
 43
0.0000001
 44
0.0000000001
 40
0.0
 40
0.0
 40
0.0
 40
0.0
 40
0.1227166064
 40
0.2473476161
 40
0.3733273961
 40
0.5000000004
 40
0.6266726048
 40
0.7526523846
 40
0.877283394
 40
1.0
 40
1.0
 40
1.0
 40
1.0
 10
8.8137151165
 20
5.5191816267
 30
0.0
 10
8.8166416008
 20
5.5257963846
 30
0.0
 10
8.8218171723
 20
5.5394612009
 30
0.0
 10
8.8274117212
 20
5.5607821287
 30
0.0
 10
8.8308110378
 20
5.5827989842
 30
0.0
 10
8.8319509045
 20
5.6051669647
 30
0.0
 10
8.8308110378
 20
5.6275349451
 30
0.0
 10
8.8274117211
 20
5.6495518006
 30
0.0
 10
8.8218171723
 20
5.6708727284
 30
0.0
 10
8.8166416008
 20
5.6845375446
 30
0.0
 10
8.8137151165
 20
5.6911523025
 30
0.0
  0
SPLINE
  5
2C4
100
AcDbEntity
  8
0
100
AcDbSpline
 62
7
  6
CONTINUOUS
 70
0
 71
3
 72
15
 73
11
 74
0
 42
0.0000001
 43
0.0000001
 44
0.0000000001
 40
0.0
 40
0.0
 40
0.0
 40
0.0
 40
0.1221931678
 40
0.2467430652
 40
0.3729471828
 40
0.5000000004
 40
0.6270528181
 40
0.7532569356
 40
0.8778068327
 40
1.0
 40
1.0
 40
1.0
 40
1.0
 10
8.8061595148
 20
5.5191816267
 30
0.0
 10
8.8089156095
 20
5.5258112711
 30
0.0
 10
8.813783726
 20
5.5394989826
 30
0.0
 10
8.8190345678
 20
5.5608086068
 30
0.0
 10
8.8222249114
 20
5.5828125499
 30
0.0
 10
8.8232947033
 20
5.6051669647
 30
0.0
 10
8.8222249113
 20
5.6275213794
 30
0.0
 10
8.8190345678
 20
5.6495253225
 30
0.0
 10
8.8137837259
 20
5.6708349466
 30
0.0
 10
8.8089156095
 20
5.6845226581
 30
0.0
 10
8.8061595148
 20
5.6911523025
 30
0.0
  0
SPLINE
  5
2C5
100
AcDbEntity
  8
0
100
AcDbSpline
 62
7
  6
CONTINUOUS
 70
0
 71
3
 72
17
 73
13
 74
0
 42
0.0000001
 43
0.0000001
 44
0.0000000001
 40
0.0
 40
0.0
 40
0.0
 40
0.0
 40
0.1216407112
 40
0.24609934
 40
0.3091422518
 40
0.3725610255
 40
0.5000000004
 40
0.6274389754
 40
0.690857749
 40
0.7539006608
 40
0.8783592892
 40
1.0
 40
1.0
 40
1.0
 40
1.0
 10
8.796525274
 20
5.5191816267
 30
0.0
 10
8.799093519
 20
5.5258271018
 30
0.0
 10
8.8036235063
 20
5.5395379829
 30
0.0
 10
8.807669615
 20
5.5572136673
 30
0.0
 10
8.8099667478
 20
5.5717338708
 30
0.0
 10
8.8116249445
 20
5.5865165199
 30
0.0
 10
8.8124543689
 20
5.6051669647
 30
0.0
 10
8.8116249445
 20
5.6238174094
 30
0.0
 10
8.8099667478
 20
5.6386000586
 30
0.0
 10
8.807669615
 20
5.653120262
 30
0.0
 10
8.8036235063
 20
5.6707959464
 30
0.0
 10
8.799093519
 20
5.6845068274
 30
0.0
 10
8.796525274
 20
5.6911523025
 30
0.0
  0
SPLINE
  5
2C6
100
AcDbEntity
  8
0
100
AcDbSpline
 62
7
  6
CONTINUOUS
 70
0
 71
3
 72
15
 73
11
 74
0
 42
0.0000001
 43
0.0000001
 44
0.0000000001
 40
0.0
 40
0.0
 40
0.0
 40
0.0
 40
0.1210957219
 40
0.2454791371
 40
0.3721536213
 40
0.5000000004
 40
0.6278463795
 40
0.7545208637
 40
0.8789042785
 40
1.0
 40
1.0
 40
1.0
 40
1.0
 10
8.7848717926
 20
5.5191816267
 30
0.0
 10
8.7872356057
 20
5.5258435415
 30
0.0
 10
8.7913989682
 20
5.5395788641
 30
0.0
 10
8.7958694332
 20
5.5608635765
 30
0.0
 10
8.7985855776
 20
5.5828403899
 30
0.0
 10
8.7994963965
 20
5.6051669647
 30
0.0
 10
8.7985855776
 20
5.6274935394
 30
0.0
 10
8.7958694332
 20
5.6494703528
 30
0.0
 10
8.7913989682
 20
5.6707550652
 30
0.0
 10
8.7872356057
 20
5.6844903877
 30
0.0
 10
8.7848717926
 20
5.6911523025
 30
0.0
  0
SPLINE
  5
2C7
100
AcDbEntity
  8
0
100
AcDbSpline
 62
7
  6
CONTINUOUS
 70
0
 71
3
 72
17
 73
13
 74
0
 42
0.0000001
 43
0.0000001
 44
0.0000000001
 40
0.0
 40
0.0
 40
0.0
 40
0.0
 40
0.0597403771
 40
0.1205676989
 40
0.2448635314
 40
0.3717661519
 40
0.5000000004
 40
0.628233849
 40
0.7551364693
 40
0.8794323015
 40
0.940259623
 40
1.0
 40
1.0
 40
1.0
 40
1.0
 10
8.771270918
 20
5.5191816267
 30
0.0
 10
8.77233338
 20
5.5224915087
 30
0.0
 10
8.7743344701
 20
5.5292183977
 30
0.0
 10
8.7778332555
 20
5.5430336934
 30
0.0
 10
8.7812240437
 20
5.5608915314
 30
0.0
 10
8.783678008
 20
5.582853771
 30
0.0
 10
8.784501054
 20
5.6051669647
 30
0.0
 10
8.7836780079
 20
5.6274801583
 30
0.0
 10
8.7812240437
 20
5.6494423979
 30
0.0
 10
8.7778332555
 20
5.6673002359
 30
0.0
 10
8.7743344701
 20
5.6811155315
 30
0.0
 10
8.77233338
 20
5.6878424205
 30
0.0
 10
8.771270918
 20
5.6911523025
 30
0.0
  0
SPLINE
  5
2C8
100
AcDbEntity
  8
0
100
AcDbSpline
 62
7
  6
CONTINUOUS
 70
0
 71
3
 72
19
 73
15
 74
0
 42
0.0000001
 43
0.0000001
 44
0.0000000001
 40
0.0
 40
0.0
 40
0.0
 40
0.0
 40
0.0594071489
 40
0.1200317167
 40
0.1817020197
 40
0.2442659022
 40
0.3713910887
 40
0.5000000004
 40
0.6286089122
 40
0.7557340986
 40
0.818297981
 40
0.8799682837
 40
0.9405928513
 40
1.0
 40
1.0
 40
1.0
 40
1.0
 10
8.7558065042
 20
5.5191816267
 30
0.0
 10
8.7567516569
 20
5.5224957432
 30
0.0
 10
8.7585310525
 20
5.5292297243
 30
0.0
 10
8.7608450719
 20
5.5395155058
 30
0.0
 10
8.7628215102
 20
5.5500580183
 30
0.0
 10
8.7650059089
 20
5.5644774899
 30
0.0
 10
8.7668302656
 20
5.5828671834
 30
0.0
 10
8.7675606302
 20
5.6051669647
 30
0.0
 10
8.7668302656
 20
5.627466746
 30
0.0
 10
8.7650059089
 20
5.6458564394
 30
0.0
 10
8.7628215102
 20
5.660275911
 30
0.0
 10
8.7608450719
 20
5.6708184235
 30
0.0
 10
8.7585310525
 20
5.6811042049
 30
0.0
 10
8.7567516569
 20
5.687838186
 30
0.0
 10
8.7558065042
 20
5.6911523025
 30
0.0
  0
SPLINE
  5
2C9
100
AcDbEntity
  8
0
100
AcDbSpline
 62
7
  6
CONTINUOUS
 70
0
 71
3
 72
19
 73
15
 74
0
 42
0.0000001
 43
0.0000001
 44
0.0000000001
 40
0.0
 40
0.0
 40
0.0
 40
0.0
 40
0.0590975929
 40
0.1195354988
 40
0.1811249508
 40
0.2436962927
 40
0.371035412
 40
0.5000000004
 40
0.6289645888
 40
0.7563037081
 40
0.8188750499
 40
0.8804645017
 40
0.9409024072
 40
1.0
 40
1.0
 40
1.0
 40
1.0
 10
8.7385738945
 20
5.5191816267
 30
0.0
 10
8.7393955551
 20
5.5224997964
 30
0.0
 10
8.7409418446
 20
5.5292405458
 30
0.0
 10
8.7429504183
 20
5.5395247405
 30
0.0
 10
8.7446659908
 20
5.550065616
 30
0.0
 10
8.7465631047
 20
5.5644907901
 30
0.0
 10
8.7481461059
 20
5.5828790389
 30
0.0
 10
8.7487796252
 20
5.6051669647
 30
0.0
 10
8.7481461059
 20
5.6274548904
 30
0.0
 10
8.7465631047
 20
5.6458431392
 30
0.0
 10
8.7446659907
 20
5.6602683133
 30
0.0
 10
8.7429504183
 20
5.6708091888
 30
0.0
 10
8.7409418446
 20
5.6810933835
 30
0.0
 10
8.7393955551
 20
5.6878341328
 30
0.0
 10
8.7385738945
 20
5.6911523025
 30
0.0
  0
SPLINE
  5
2CA
100
AcDbEntity
  8
0
100
AcDbSpline
 62
7
  6
CONTINUOUS
 70
0
 71
3
 72
19
 73
15
 74
0
 42
0.0000001
 43
0.0000001
 44
0.0000000001
 40
0.0
 40
0.0
 40
0.0
 40
0.0
 40
0.0588177319
 40
0.119087383
 40
0.1806043018
 40
0.2431827532
 40
0.3707150638
 40
0.5000000004
 40
0.6292849371
 40
0.7568172475
 40
0.8193956989
 40
0.8809126174
 40
0.9411822682
 40
1.0
 40
1.0
 40
1.0
 40
1.0
 10
8.7196793337
 20
5.5191816267
 30
0.0
 10
8.7203720599
 20
5.522503534
 30
0.0
 10
8.7216752155
 20
5.5292504424
 30
0.0
 10
8.7233661964
 20
5.5395331246
 30
0.0
 10
8.7248105257
 20
5.5500724725
 30
0.0
 10
8.7264084778
 20
5.5645027296
 30
0.0
 10
8.7277407762
 20
5.582889609
 30
0.0
 10
8.7282738037
 20
5.6051669647
 30
0.0
 10
8.7277407762
 20
5.6274443203
 30
0.0
 10
8.7264084778
 20
5.6458311997
 30
0.0
 10
8.7248105257
 20
5.6602614568
 30
0.0
 10
8.7233661964
 20
5.6708008046
 30
0.0
 10
8.7216752155
 20
5.6810834868
 30
0.0
 10
8.7203720599
 20
5.6878303952
 30
0.0
 10
8.7196793337
 20
5.6911523025
 30
0.0
  0
SPLINE
  5
2CB
100
AcDbEntity
  8
0
100
AcDbSpline
 62
7
  6
CONTINUOUS
 70
0
 71
3
 72
19
 73
15
 74
0
 42
0.0000001
 43
0.0000001
 44
0.0000000001
 40
0.0
 40
0.0
 40
0.0
 40
0.0
 40
0.0585759184
 40
0.118700575
 40
0.1801552516
 40
0.2427401241
 40
0.3704391901
 40
0.5000000004
 40
0.6295608108
 40
0.7572598767
 40
0.8198447491
 40
0.8812994254
 40
0.9414240818
 40
1.0
 40
1.0
 40
1.0
 40
1.0
 10
8.6992393129
 20
5.5191816267
 30
0.0
 10
8.699798461
 20
5.5225068209
 30
0.0
 10
8.7008499718
 20
5.5292590811
 30
0.0
 10
8.7022131726
 20
5.5395403957
 30
0.0
 10
8.7033775508
 20
5.5500783871
 30
0.0
 10
8.7046663221
 20
5.5645129811
 30
0.0
 10
8.7057400966
 20
5.5828986305
 30
0.0
 10
8.7061695866
 20
5.6051669647
 30
0.0
 10
8.7057400966
 20
5.6274352989
 30
0.0
 10
8.704666322
 20
5.6458209482
 30
0.0
 10
8.7033775508
 20
5.6602555422
 30
0.0
 10
8.7022131726
 20
5.6707935336
 30
0.0
 10
8.7008499718
 20
5.6810748482
 30
0.0
 10
8.699798461
 20
5.6878271082
 30
0.0
 10
8.6992393129
 20
5.6911523025
 30
0.0
  0
SPLINE
  5
2CC
100
AcDbEntity
  8
0
100
AcDbSpline
 62
7
  6
CONTINUOUS
 70
0
 71
3
 72
17
 73
13
 74
0
 42
0.0000001
 43
0.0000001
 44
0.0000000001
 40
0.0
 40
0.0
 40
0.0
 40
0.0
 40
0.0583800929
 40
0.1183877911
 40
0.2423795561
 40
0.3702148664
 40
0.5000000004
 40
0.6297851345
 40
0.7576204447
 40
0.8816122093
 40
0.9416199072
 40
1.0
 40
1.0
 40
1.0
 40
1.0
 10
8.6773798517
 20
5.5191816267
 30
0.0
 10
8.6778016321
 20
5.522509529
 30
0.0
 10
8.678594609
 20
5.5292661639
 30
0.0
 10
8.6799793017
 20
5.5431248403
 30
0.0
 10
8.6813154469
 20
5.5609963695
 30
0.0
 10
8.6822797871
 20
5.5829057773
 30
0.0
 10
8.6826032196
 20
5.6051669647
 30
0.0
 10
8.6822797871
 20
5.627428152
 30
0.0
 10
8.6813154469
 20
5.6493375598
 30
0.0
 10
8.6799793017
 20
5.6672090889
 30
0.0
 10
8.678594609
 20
5.6810677653
 30
0.0
 10
8.6778016321
 20
5.6878244001
 30
0.0
 10
8.6773798517
 20
5.6911523025
 30
0.0
  0
SPLINE
  5
2CD
100
AcDbEntity
  8
0
100
AcDbSpline
 62
7
  6
CONTINUOUS
 70
0
 71
3
 72
15
 73
11
 74
0
 42
0.0000001
 43
0.0000001
 44
0.0000000001
 40
0.0
 40
0.0
 40
0.0
 40
0.0
 40
0.1181549636
 40
0.242116128
 40
0.3700508827
 40
0.5000000005
 40
0.6299491182
 40
0.7578838727
 40
0.8818450369
 40
1.0
 40
1.0
 40
1.0
 40
1.0
 10
8.6542357209
 20
5.5191816267
 30
0.0
 10
8.6548069161
 20
5.5259377462
 30
0.0
 10
8.6558037392
 20
5.5397970628
 30
0.0
 10
8.6568614872
 20
5.5610072307
 30
0.0
 10
8.6575043865
 20
5.5829111438
 30
0.0
 10
8.657720056
 20
5.6051669647
 30
0.0
 10
8.6575043865
 20
5.6274227855
 30
0.0
 10
8.6568614871
 20
5.6493266986
 30
0.0
 10
8.6558037392
 20
5.6705368665
 30
0.0
 10
8.6548069161
 20
5.684396183
 30
0.0
 10
8.6542357209
 20
5.6911523025
 30
0.0
  0
SPLINE
  5
2CE
100
AcDbEntity
  8
0
100
AcDbSpline
 62
7
  6
CONTINUOUS
 70
0
 71
3
 72
15
 73
11
 74
0
 42
0.0000001
 43
0.0000001
 44
0.0000000001
 40
0.0
 40
0.0
 40
0.0
 40
0.0
 40
0.1180153089
 40
0.2419572844
 40
0.3699518748
 40
0.5000000005
 40
0.6300481261
 40
0.7580427164
 40
0.8819846915
 40
1.0
 40
1.0
 40
1.0
 40
1.0
 10
8.6299496119
 20
5.5191816267
 30
0.0
 10
8.6302324055
 20
5.525942524
 30
0.0
 10
8.630725677
 20
5.5398075632
 30
0.0
 10
8.6312488093
 20
5.561013921
 30
0.0
 10
8.6315667791
 20
5.5829143698
 30
0.0
 10
8.6316734495
 20
5.6051669647
 30
0.0
 10
8.6315667791
 20
5.6274195595
 30
0.0
 10
8.6312488093
 20
5.6493200083
 30
0.0
 10
8.630725677
 20
5.6705263661
 30
0.0
 10
8.6302324055
 20
5.6843914052
 30
0.0
 10
8.6299496119
 20
5.6911523025
 30
0.0
  0
SPLINE
  5
2CF
100
AcDbEntity
  8
0
100
AcDbSpline
 62
7
  6
CONTINUOUS
 70
0
 71
3
 72
15
 73
11
 74
0
 42
0.0000001
 43
0.0000001
 44
0.0000000001
 40
0.0
 40
0.0
 40
0.0
 40
0.0
 40
0.1180153085
 40
0.2419572838
 40
0.3699518742
 40
0.4999999998
 40
0.6300481254
 40
0.7580427158
 40
0.8819846912
 40
1.0
 40
1.0
 40
1.0
 40
1.0
 10
8.3080703476
 20
5.6911523025
 30
0.0
 10
8.3077875539
 20
5.6843914052
 30
0.0
 10
8.3072942824
 20
5.6705263661
 30
0.0
 10
8.3067711502
 20
5.6493200083
 30
0.0
 10
8.3064531804
 20
5.6274195595
 30
0.0
 10
8.3063465099
 20
5.6051669646
 30
0.0
 10
8.3064531804
 20
5.5829143698
 30
0.0
 10
8.3067711502
 20
5.561013921
 30
0.0
 10
8.3072942824
 20
5.5398075632
 30
0.0
 10
8.3077875539
 20
5.525942524
 30
0.0
 10
8.3080703476
 20
5.5191816267
 30
0.0
  0
SPLINE
  5
2D0
100
AcDbEntity
  8
0
100
AcDbSpline
 62
7
  6
CONTINUOUS
 70
0
 71
3
 72
15
 73
11
 74
0
 42
0.0000001
 43
0.0000001
 44
0.0000000001
 40
0.0
 40
0.0
 40
0.0
 40
0.0
 40
0.1181549632
 40
0.2421161274
 40
0.3700508821
 40
0.4999999998
 40
0.6299491175
 40
0.7578838721
 40
0.8818450365
 40
1.0
 40
1.0
 40
1.0
 40
1.0
 10
8.2837842385
 20
5.6911523025
 30
0.0
 10
8.2832130434
 20
5.684396183
 30
0.0
 10
8.2822162203
 20
5.6705368665
 30
0.0
 10
8.2811584723
 20
5.6493266986
 30
0.0
 10
8.280515573
 20
5.6274227855
 30
0.0
 10
8.2802999034
 20
5.6051669646
 30
0.0
 10
8.280515573
 20
5.5829111438
 30
0.0
 10
8.2811584723
 20
5.5610072307
 30
0.0
 10
8.2822162203
 20
5.5397970628
 30
0.0
 10
8.2832130434
 20
5.5259377462
 30
0.0
 10
8.2837842385
 20
5.5191816267
 30
0.0
  0
SPLINE
  5
2D1
100
AcDbEntity
  8
0
100
AcDbSpline
 62
7
  6
CONTINUOUS
 70
0
 71
3
 72
17
 73
13
 74
0
 42
0.0000001
 43
0.0000001
 44
0.0000000001
 40
0.0
 40
0.0
 40
0.0
 40
0.0
 40
0.1240348485
 40
0.1863912064
 40
0.2489173344
 40
0.3743130776
 40
0.4999999998
 40
0.625686922
 40
0.7510826652
 40
0.8136087931
 40
0.8759651511
 40
1.0
 40
1.0
 40
1.0
 40
1.0
 10
8.1145099797
 20
5.6911523025
 30
0.0
 10
8.1111842512
 20
5.6845740214
 30
0.0
 10
8.1067651447
 20
5.6743802366
 30
0.0
 10
8.1020930464
 20
5.6603383771
 30
0.0
 10
8.0982285551
 20
5.6459676334
 30
0.0
 10
8.0949770341
 20
5.627569623
 30
0.0
 10
8.0936706497
 20
5.6051669646
 30
0.0
 10
8.0949770341
 20
5.5827643062
 30
0.0
 10
8.098228555
 20
5.5643662958
 30
0.0
 10
8.1020930464
 20
5.5499955521
 30
0.0
 10
8.1067651447
 20
5.5359536926
 30
0.0
 10
8.1111842512
 20
5.5257599078
 30
0.0
 10
8.1145099797
 20
5.5191816267
 30
0.0
  0
SPLINE
  5
2D2
100
AcDbEntity
  8
0
100
AcDbSpline
 62
7
  6
CONTINUOUS
 70
0
 71
3
 72
15
 73
11
 74
0
 42
0.0000001
 43
0.0000001
 44
0.0000000001
 40
0.0
 40
0.0
 40
0.0
 40
0.0
 40
0.1236671187
 40
0.2484479064
 40
0.3740205122
 40
0.4999999998
 40
0.6259794874
 40
0.7515520932
 40
0.876332881
 40
1.0
 40
1.0
 40
1.0
 40
1.0
 10
8.1154169979
 20
5.6907700963
 30
0.0
 10
8.1122347566
 20
5.684204823
 30
0.0
 10
8.1065957318
 20
5.6706348465
 30
0.0
 10
8.1004773932
 20
5.6493879021
 30
0.0
 10
8.0967597707
 20
5.6274513184
 30
0.0
 10
8.0955132015
 20
5.6051669646
 30
0.0
 10
8.0967597707
 20
5.5828826107
 30
0.0
 10
8.1004773933
 20
5.560946027
 30
0.0
 10
8.1065957319
 20
5.5396990826
 30
0.0
 10
8.1122347567
 20
5.5261291061
 30
0.0
 10
8.115416998
 20
5.5195638327
 30
0.0
  0
SPLINE
  5
2D3
100
AcDbEntity
  8
0
100
AcDbSpline
 62
7
  6
CONTINUOUS
 70
0
 71
3
 72
15
 73
11
 74
0
 42
0.0000001
 43
0.0000001
 44
0.0000000001
 40
0.0
 40
0.0
 40
0.0
 40
0.0
 40
0.1232567555
 40
0.2479720424
 40
0.3737207917
 40
0.4999999998
 40
0.626279208
 40
0.7520279572
 40
0.8767432442
 40
1.0
 40
1.0
 40
1.0
 40
1.0
 10
8.1183606832
 20
5.6900415319
 30
0.0
 10
8.1153644303
 20
5.6835097247
 30
0.0
 10
8.110061217
 20
5.6700232886
 30
0.0
 10
8.1043191315
 20
5.6489629692
 30
0.0
 10
8.1008311264
 20
5.6272336876
 30
0.0
 10
8.0996617134
 20
5.6051669644
 30
0.0
 10
8.1008311264
 20
5.5831002412
 30
0.0
 10
8.1043191316
 20
5.5613709596
 30
0.0
 10
8.1100612171
 20
5.5403106402
 30
0.0
 10
8.1153644305
 20
5.5268242041
 30
0.0
 10
8.1183606833
 20
5.5202923969
 30
0.0
  0
SPLINE
  5
2D4
100
AcDbEntity
  8
0
100
AcDbSpline
 62
7
  6
CONTINUOUS
 70
0
 71
3
 72
15
 73
11
 74
0
 42
0.0000001
 43
0.0000001
 44
0.0000000001
 40
0.0
 40
0.0
 40
0.0
 40
0.0
 40
0.122716606
 40
0.2473476155
 40
0.3733273954
 40
0.4999999998
 40
0.6266726042
 40
0.7526523841
 40
0.8772833936
 40
1.0
 40
1.0
 40
1.0
 40
1.0
 10
8.1243048429
 20
5.6911523025
 30
0.0
 10
8.1213783587
 20
5.6845375446
 30
0.0
 10
8.1162027871
 20
5.6708727284
 30
0.0
 10
8.1106082383
 20
5.6495518005
 30
0.0
 10
8.1072089216
 20
5.6275349451
 30
0.0
 10
8.1060690549
 20
5.6051669646
 30
0.0
 10
8.1072089216
 20
5.5827989842
 30
0.0
 10
8.1106082383
 20
5.5607821287
 30
0.0
 10
8.1162027871
 20
5.5394612009
 30
0.0
 10
8.1213783587
 20
5.5257963846
 30
0.0
 10
8.1243048429
 20
5.5191816267
 30
0.0
  0
SPLINE
  5
2D5
100
AcDbEntity
  8
0
100
AcDbSpline
 62
7
  6
CONTINUOUS
 70
0
 71
3
 72
15
 73
11
 74
0
 42
0.0000001
 43
0.0000001
 44
0.0000000001
 40
0.0
 40
0.0
 40
0.0
 40
0.0
 40
0.1221931674
 40
0.2467430646
 40
0.3729471822
 40
0.4999999998
 40
0.6270528174
 40
0.753256935
 40
0.8778068323
 40
1.0
 40
1.0
 40
1.0
 40
1.0
 10
8.1318604447
 20
5.6911523025
 30
0.0
 10
8.1291043499
 20
5.6845226581
 30
0.0
 10
8.1242362335
 20
5.6708349466
 30
0.0
 10
8.1189853916
 20
5.6495253224
 30
0.0
 10
8.1157950481
 20
5.6275213794
 30
0.0
 10
8.1147252562
 20
5.6051669646
 30
0.0
 10
8.1157950481
 20
5.5828125499
 30
0.0
 10
8.1189853916
 20
5.5608086068
 30
0.0
 10
8.1242362335
 20
5.5394989826
 30
0.0
 10
8.1291043499
 20
5.5258112711
 30
0.0
 10
8.1318604447
 20
5.5191816267
 30
0.0
  0
SPLINE
  5
2D6
100
AcDbEntity
  8
0
100
AcDbSpline
 62
7
  6
CONTINUOUS
 70
0
 71
3
 72
17
 73
13
 74
0
 42
0.0000001
 43
0.0000001
 44
0.0000000001
 40
0.0
 40
0.0
 40
0.0
 40
0.0
 40
0.1216407108
 40
0.2460993394
 40
0.3091422512
 40
0.3725610248
 40
0.4999999998
 40
0.6274389748
 40
0.6908577484
 40
0.7539006602
 40
0.8783592888
 40
1.0
 40
1.0
 40
1.0
 40
1.0
 10
8.1414946855
 20
5.6911523025
 30
0.0
 10
8.1389264405
 20
5.6845068274
 30
0.0
 10
8.1343964532
 20
5.6707959464
 30
0.0
 10
8.1303503445
 20
5.653120262
 30
0.0
 10
8.1280532117
 20
5.6386000585
 30
0.0
 10
8.126395015
 20
5.6238174094
 30
0.0
 10
8.1255655906
 20
5.6051669646
 30
0.0
 10
8.126395015
 20
5.5865165199
 30
0.0
 10
8.1280532117
 20
5.5717338707
 30
0.0
 10
8.1303503445
 20
5.5572136673
 30
0.0
 10
8.1343964532
 20
5.5395379829
 30
0.0
 10
8.1389264404
 20
5.5258271018
 30
0.0
 10
8.1414946855
 20
5.5191816267
 30
0.0
  0
SPLINE
  5
2D7
100
AcDbEntity
  8
0
100
AcDbSpline
 62
7
  6
CONTINUOUS
 70
0
 71
3
 72
15
 73
11
 74
0
 42
0.0000001
 43
0.0000001
 44
0.0000000001
 40
0.0
 40
0.0
 40
0.0
 40
0.0
 40
0.1210957215
 40
0.2454791365
 40
0.3721536207
 40
0.4999999998
 40
0.6278463789
 40
0.7545208631
 40
0.8789042782
 40
1.0
 40
1.0
 40
1.0
 40
1.0
 10
8.1531481669
 20
5.6911523025
 30
0.0
 10
8.1507843538
 20
5.6844903877
 30
0.0
 10
8.1466209913
 20
5.6707550652
 30
0.0
 10
8.1421505262
 20
5.6494703528
 30
0.0
 10
8.1394343818
 20
5.6274935394
 30
0.0
 10
8.138523563
 20
5.6051669646
 30
0.0
 10
8.1394343818
 20
5.5828403899
 30
0.0
 10
8.1421505262
 20
5.5608635765
 30
0.0
 10
8.1466209912
 20
5.5395788641
 30
0.0
 10
8.1507843537
 20
5.5258435415
 30
0.0
 10
8.1531481669
 20
5.5191816267
 30
0.0
  0
SPLINE
  5
2D8
100
AcDbEntity
  8
0
100
AcDbSpline
 62
7
  6
CONTINUOUS
 70
0
 71
3
 72
17
 73
13
 74
0
 42
0.0000001
 43
0.0000001
 44
0.0000000001
 40
0.0
 40
0.0
 40
0.0
 40
0.0
 40
0.059740377
 40
0.1205676985
 40
0.2448635308
 40
0.3717661512
 40
0.4999999998
 40
0.6282338484
 40
0.7551364688
 40
0.8794323012
 40
0.9402596229
 40
1.0
 40
1.0
 40
1.0
 40
1.0
 10
8.1667490415
 20
5.6911523025
 30
0.0
 10
8.1656865795
 20
5.6878424205
 30
0.0
 10
8.1636854894
 20
5.6811155315
 30
0.0
 10
8.1601867039
 20
5.6673002359
 30
0.0
 10
8.1567959157
 20
5.6494423979
 30
0.0
 10
8.1543419515
 20
5.6274801582
 30
0.0
 10
8.1535189055
 20
5.6051669646
 30
0.0
 10
8.1543419515
 20
5.582853771
 30
0.0
 10
8.1567959157
 20
5.5608915313
 30
0.0
 10
8.1601867039
 20
5.5430336933
 30
0.0
 10
8.1636854894
 20
5.5292183977
 30
0.0
 10
8.1656865795
 20
5.5224915087
 30
0.0
 10
8.1667490415
 20
5.5191816267
 30
0.0
  0
SPLINE
  5
2D9
100
AcDbEntity
  8
0
100
AcDbSpline
 62
7
  6
CONTINUOUS
 70
0
 71
3
 72
19
 73
15
 74
0
 42
0.0000001
 43
0.0000001
 44
0.0000000001
 40
0.0
 40
0.0
 40
0.0
 40
0.0
 40
0.0594071487
 40
0.1200317163
 40
0.1817020192
 40
0.2442659016
 40
0.3713910881
 40
0.4999999998
 40
0.6286089115
 40
0.755734098
 40
0.8182979804
 40
0.8799682834
 40
0.9405928512
 40
1.0
 40
1.0
 40
1.0
 40
1.0
 10
8.1822134552
 20
5.6911523025
 30
0.0
 10
8.1812683025
 20
5.687838186
 30
0.0
 10
8.1794889069
 20
5.6811042049
 30
0.0
 10
8.1771748876
 20
5.6708184235
 30
0.0
 10
8.1751984493
 20
5.660275911
 30
0.0
 10
8.1730140506
 20
5.6458564394
 30
0.0
 10
8.1711896938
 20
5.6274667459
 30
0.0
 10
8.1704593292
 20
5.6051669646
 30
0.0
 10
8.1711896938
 20
5.5828671833
 30
0.0
 10
8.1730140505
 20
5.5644774899
 30
0.0
 10
8.1751984493
 20
5.5500580183
 30
0.0
 10
8.1771748876
 20
5.5395155058
 30
0.0
 10
8.1794889069
 20
5.5292297243
 30
0.0
 10
8.1812683025
 20
5.5224957432
 30
0.0
 10
8.1822134552
 20
5.5191816267
 30
0.0
  0
SPLINE
  5
2DA
100
AcDbEntity
  8
0
100
AcDbSpline
 62
7
  6
CONTINUOUS
 70
0
 71
3
 72
19
 73
15
 74
0
 42
0.0000001
 43
0.0000001
 44
0.0000000001
 40
0.0
 40
0.0
 40
0.0
 40
0.0
 40
0.0590975928
 40
0.1195354984
 40
0.1811249503
 40
0.2436962921
 40
0.3710354114
 40
0.4999999998
 40
0.6289645882
 40
0.7563037075
 40
0.8188750493
 40
0.8804645013
 40
0.9409024071
 40
1.0
 40
1.0
 40
1.0
 40
1.0
 10
8.1994460649
 20
5.6911523025
 30
0.0
 10
8.1986244043
 20
5.6878341328
 30
0.0
 10
8.1970781149
 20
5.6810933835
 30
0.0
 10
8.1950695411
 20
5.6708091888
 30
0.0
 10
8.1933539687
 20
5.6602683133
 30
0.0
 10
8.1914568548
 20
5.6458431392
 30
0.0
 10
8.1898738536
 20
5.6274548904
 30
0.0
 10
8.1892403342
 20
5.6051669646
 30
0.0
 10
8.1898738536
 20
5.5828790389
 30
0.0
 10
8.1914568547
 20
5.56449079
 30
0.0
 10
8.1933539687
 20
5.5500656159
 30
0.0
 10
8.1950695411
 20
5.5395247405
 30
0.0
 10
8.1970781149
 20
5.5292405457
 30
0.0
 10
8.1986244043
 20
5.5224997964
 30
0.0
 10
8.1994460649
 20
5.5191816267
 30
0.0
  0
SPLINE
  5
2DB
100
AcDbEntity
  8
0
100
AcDbSpline
 62
7
  6
CONTINUOUS
 70
0
 71
3
 72
19
 73
15
 74
0
 42
0.0000001
 43
0.0000001
 44
0.0000000001
 40
0.0
 40
0.0
 40
0.0
 40
0.0
 40
0.0588177318
 40
0.1190873827
 40
0.1806043013
 40
0.2431827526
 40
0.3707150632
 40
0.4999999998
 40
0.6292849364
 40
0.7568172469
 40
0.8193956983
 40
0.880912617
 40
0.9411822681
 40
1.0
 40
1.0
 40
1.0
 40
1.0
 10
8.2183406258
 20
5.6911523025
 30
0.0
 10
8.2176478996
 20
5.6878303952
 30
0.0
 10
8.216344744
 20
5.6810834868
 30
0.0
 10
8.214653763
 20
5.6708008046
 30
0.0
 10
8.2132094337
 20
5.6602614568
 30
0.0
 10
8.2116114817
 20
5.6458311997
 30
0.0
 10
8.2102791832
 20
5.6274443203
 30
0.0
 10
8.2097461558
 20
5.6051669646
 30
0.0
 10
8.2102791832
 20
5.582889609
 30
0.0
 10
8.2116114817
 20
5.5645027296
 30
0.0
 10
8.2132094337
 20
5.5500724725
 30
0.0
 10
8.214653763
 20
5.5395331246
 30
0.0
 10
8.216344744
 20
5.5292504424
 30
0.0
 10
8.2176478996
 20
5.522503534
 30
0.0
 10
8.2183406258
 20
5.5191816267
 30
0.0
  0
SPLINE
  5
2DC
100
AcDbEntity
  8
0
100
AcDbSpline
 62
7
  6
CONTINUOUS
 70
0
 71
3
 72
19
 73
15
 74
0
 42
0.0000001
 43
0.0000001
 44
0.0000000001
 40
0.0
 40
0.0
 40
0.0
 40
0.0
 40
0.0585759183
 40
0.1187005746
 40
0.180155251
 40
0.2427401235
 40
0.3704391894
 40
0.4999999998
 40
0.6295608101
 40
0.7572598761
 40
0.8198447485
 40
0.881299425
 40
0.9414240816
 40
1.0
 40
1.0
 40
1.0
 40
1.0
 10
8.2387806466
 20
5.6911523025
 30
0.0
 10
8.2382214985
 20
5.6878271082
 30
0.0
 10
8.2371699876
 20
5.6810748482
 30
0.0
 10
8.2358067868
 20
5.6707935336
 30
0.0
 10
8.2346424087
 20
5.6602555421
 30
0.0
 10
8.2333536374
 20
5.6458209482
 30
0.0
 10
8.2322798628
 20
5.6274352988
 30
0.0
 10
8.2318503729
 20
5.6051669646
 30
0.0
 10
8.2322798628
 20
5.5828986304
 30
0.0
 10
8.2333536374
 20
5.564512981
 30
0.0
 10
8.2346424086
 20
5.5500783871
 30
0.0
 10
8.2358067868
 20
5.5395403956
 30
0.0
 10
8.2371699876
 20
5.529259081
 30
0.0
 10
8.2382214985
 20
5.5225068209
 30
0.0
 10
8.2387806466
 20
5.5191816267
 30
0.0
  0
SPLINE
  5
2DD
100
AcDbEntity
  8
0
100
AcDbSpline
 62
7
  6
CONTINUOUS
 70
0
 71
3
 72
17
 73
13
 74
0
 42
0.0000001
 43
0.0000001
 44
0.0000000001
 40
0.0
 40
0.0
 40
0.0
 40
0.0
 40
0.0583800928
 40
0.1183877908
 40
0.2423795555
 40
0.3702148657
 40
0.4999999998
 40
0.6297851338
 40
0.7576204441
 40
0.8816122089
 40
0.9416199071
 40
1.0
 40
1.0
 40
1.0
 40
1.0
 10
8.2606401078
 20
5.6911523025
 30
0.0
 10
8.2602183273
 20
5.6878244001
 30
0.0
 10
8.2594253505
 20
5.6810677653
 30
0.0
 10
8.2580406577
 20
5.6672090889
 30
0.0
 10
8.2567045126
 20
5.6493375597
 30
0.0
 10
8.2557401724
 20
5.6274281519
 30
0.0
 10
8.2554167398
 20
5.6051669646
 30
0.0
 10
8.2557401724
 20
5.5829057773
 30
0.0
 10
8.2567045126
 20
5.5609963695
 30
0.0
 10
8.2580406577
 20
5.5431248403
 30
0.0
 10
8.2594253505
 20
5.5292661639
 30
0.0
 10
8.2602183273
 20
5.522509529
 30
0.0
 10
8.2606401078
 20
5.5191816267
 30
0.0
  0
SPLINE
  5
2DE
100
AcDbEntity
  8
0
100
AcDbSpline
 62
7
  6
CONTINUOUS
 70
0
 71
3
 72
21
 73
17
 74
0
 42
0.0000001
 43
0.0000001
 44
0.0000000001
 40
0.0
 40
0.0
 40
0.0
 40
0.0
 40
0.0623815553
 40
0.1248469998
 40
0.187348936
 40
0.2498614385
 40
0.3123870209
 40
0.3749313875
 40
0.5000000017
 40
0.6250686148
 40
0.6876129809
 40
0.7501385628
 40
0.812651065
 40
0.8751530007
 40
0.9376184448
 40
1.0
 40
1.0
 40
1.0
 40
1.0
 10
2.3395742915
 20
5.5191816267
 30
0.0
 10
2.3378007607
 20
5.5224590973
 30
0.0
 10
2.3344518747
 20
5.5291292564
 30
0.0
 10
2.3300495428
 20
5.5394262082
 30
0.0
 10
2.3262873197
 20
5.5499828224
 30
0.0
 10
2.323186694
 20
5.5607558686
 30
0.0
 10
2.3207590226
 20
5.5717032952
 30
0.0
 10
2.3184376693
 20
5.5864728405
 30
0.0
 10
2.3172670646
 20
5.6051669648
 30
0.0
 10
2.3184376694
 20
5.6238610891
 30
0.0
 10
2.3207590227
 20
5.6386306343
 30
0.0
 10
2.323186694
 20
5.6495780608
 30
0.0
 10
2.3262873197
 20
5.6603511069
 30
0.0
 10
2.3300495428
 20
5.6709077211
 30
0.0
 10
2.3344518747
 20
5.6812046729
 30
0.0
 10
2.3378007607
 20
5.6878748319
 30
0.0
 10
2.3395742915
 20
5.6911523025
 30
0.0
  0
SPLINE
  5
2DF
100
AcDbEntity
  8
0
100
AcDbSpline
 62
7
  6
CONTINUOUS
 70
0
 71
3
 72
19
 73
15
 74
0
 42
0.0000001
 43
0.0000001
 44
0.0000000001
 40
0.0
 40
0.0
 40
0.0
 40
0.0
 40
0.1249172339
 40
0.1874466036
 40
0.2499657486
 40
0.3124809011
 40
0.3750017354
 40
0.5000000017
 40
0.6249982669
 40
0.6875191006
 40
0.7500342528
 40
0.8125533974
 40
0.8750827666
 40
1.0
 40
1.0
 40
1.0
 40
1.0
 10
2.3259734169
 20
5.5191816267
 30
0.0
 10
2.322394705
 20
5.5257349268
 30
0.0
 10
2.3176241199
 20
5.5359146135
 30
0.0
 10
2.312565316
 20
5.549980568
 30
0.0
 10
2.3094357717
 20
5.5607545087
 30
0.0
 10
2.3069857378
 20
5.5717021104
 30
0.0
 10
2.3046430406
 20
5.5864712274
 30
0.0
 10
2.303461411
 20
5.6051669648
 30
0.0
 10
2.3046430406
 20
5.6238627022
 30
0.0
 10
2.3069857379
 20
5.6386318191
 30
0.0
 10
2.3094357718
 20
5.6495794207
 30
0.0
 10
2.3125653161
 20
5.6603533613
 30
0.0
 10
2.3176241199
 20
5.6744193158
 30
0.0
 10
2.322394705
 20
5.6845990024
 30
0.0
 10
2.3259734169
 20
5.6911523025
 30
0.0
  0
SPLINE
  5
2E0
100
AcDbEntity
  8
0
100
AcDbSpline
 62
7
  6
CONTINUOUS
 70
0
 71
3
 72
19
 73
15
 74
0
 42
0.0000001
 43
0.0000001
 44
0.0000000001
 40
0.0
 40
0.0
 40
0.0
 40
0.0
 40
0.1249541765
 40
0.187490043
 40
0.2500089653
 40
0.3125183751
 40
0.3750292285
 40
0.5000000017
 40
0.6249707739
 40
0.6874816267
 40
0.7499910361
 40
0.8125099579
 40
0.875045824
 40
1.0
 40
1.0
 40
1.0
 40
1.0
 10
2.3143199355
 20
5.5191816267
 30
0.0
 10
2.3107312716
 20
5.5257339727
 30
0.0
 10
2.3059467975
 20
5.5359130536
 30
0.0
 10
2.3008727771
 20
5.5499799924
 30
0.0
 10
2.2977340084
 20
5.560754028
 30
0.0
 10
2.2952767521
 20
5.5717017377
 30
0.0
 10
2.2929271916
 20
5.5864706992
 30
0.0
 10
2.2917420064
 20
5.6051669648
 30
0.0
 10
2.2929271916
 20
5.6238632305
 30
0.0
 10
2.2952767521
 20
5.6386321918
 30
0.0
 10
2.2977340084
 20
5.6495799014
 30
0.0
 10
2.3008727772
 20
5.6603539369
 30
0.0
 10
2.3059467976
 20
5.6744208757
 30
0.0
 10
2.3107312717
 20
5.6845999565
 30
0.0
 10
2.3143199355
 20
5.6911523025
 30
0.0
  0
SPLINE
  5
2E1
100
AcDbEntity
  8
0
100
AcDbSpline
 62
7
  6
CONTINUOUS
 70
0
 71
3
 72
19
 73
15
 74
0
 42
0.0000001
 43
0.0000001
 44
0.0000000001
 40
0.0
 40
0.0
 40
0.0
 40
0.0
 40
0.1249130778
 40
0.1874417168
 40
0.249960887
 40
0.3124766857
 40
0.3749986428
 40
0.5000000017
 40
0.6250013595
 40
0.6875233161
 40
0.7500391143
 40
0.8125582841
 40
0.8750869226
 40
1.0
 40
1.0
 40
1.0
 40
1.0
 10
2.3046856947
 20
5.5191816267
 30
0.0
 10
2.3011081038
 20
5.5257350342
 30
0.0
 10
2.2963390828
 20
5.5359147891
 30
0.0
 10
2.2912819924
 20
5.5499806328
 30
0.0
 10
2.2881534868
 20
5.5607545628
 30
0.0
 10
2.2857042663
 20
5.5717021523
 30
0.0
 10
2.283362342
 20
5.5864712868
 30
0.0
 10
2.2821811127
 20
5.6051669648
 30
0.0
 10
2.283362342
 20
5.6238626428
 30
0.0
 10
2.2857042663
 20
5.6386317772
 30
0.0
 10
2.2881534869
 20
5.6495793666
 30
0.0
 10
2.2912819924
 20
5.6603532966
 30
0.0
 10
2.2963390828
 20
5.6744191402
 30
0.0
 10
2.3011081038
 20
5.684598895
 30
0.0
 10
2.3046856947
 20
5.6911523025
 30
0.0
  0
SPLINE
  5
2E2
100
AcDbEntity
  8
0
100
AcDbSpline
 62
7
  6
CONTINUOUS
 70
0
 71
3
 72
19
 73
15
 74
0
 42
0.0000001
 43
0.0000001
 44
0.0000000001
 40
0.0
 40
0.0
 40
0.0
 40
0.0
 40
0.0588099353
 40
0.1190938557
 40
0.2432068254
 40
0.3707186139
 40
0.4352486261
 40
0.5
 40
0.5647513739
 40
0.6292813861
 40
0.7567931746
 40
0.8809061443
 40
0.9411900647
 40
1.0
 40
1.0
 40
1.0
 40
1.0
 10
2.6418352298
 20
5.6911523025
 30
0.0
 10
2.6411357638
 20
5.687831825
 30
0.0
 10
2.6398198551
 20
5.6810860635
 30
0.0
 10
2.6375198799
 20
5.6672412555
 30
0.0
 10
2.6352971142
 20
5.6493728048
 30
0.0
 10
2.6339646215
 20
5.6311714217
 30
0.0
 10
2.6334244237
 20
5.6163630233
 30
0.0
 10
2.6332882087
 20
5.6051669646
 30
0.0
 10
2.6334244237
 20
5.5939709059
 30
0.0
 10
2.6339646215
 20
5.5791625075
 30
0.0
 10
2.6352971142
 20
5.5609611244
 30
0.0
 10
2.6375198799
 20
5.5430926737
 30
0.0
 10
2.6398198551
 20
5.5292478657
 30
0.0
 10
2.6411357638
 20
5.5225021042
 30
0.0
 10
2.6418352298
 20
5.5191816267
 30
0.0
  0
SPLINE
  5
2E3
100
AcDbEntity
  8
0
100
AcDbSpline
 62
7
  6
CONTINUOUS
 70
0
 71
3
 72
17
 73
13
 74
0
 42
0.0000001
 43
0.0000001
 44
0.0000000001
 40
0.0
 40
0.0
 40
0.0
 40
0.0
 40
0.0585667311
 40
0.1187049378
 40
0.242766504
 40
0.3704481576
 40
0.4999999992
 40
0.6295518413
 40
0.7572334952
 40
0.8812950618
 40
0.9414332687
 40
1.0
 40
1.0
 40
1.0
 40
1.0
 10
2.6140214803
 20
5.6911523025
 30
0.0
 10
2.614587645
 20
5.687828509
 30
0.0
 10
2.6156524082
 20
5.6810773751
 30
0.0
 10
2.6175129766
 20
5.6672248282
 30
0.0
 10
2.6193097482
 20
5.6493539815
 30
0.0
 10
2.6206064671
 20
5.6274355747
 30
0.0
 10
2.6210418004
 20
5.6051669647
 30
0.0
 10
2.6206064671
 20
5.5828983547
 30
0.0
 10
2.6193097482
 20
5.5609799479
 30
0.0
 10
2.6175129766
 20
5.543109101
 30
0.0
 10
2.6156524082
 20
5.5292565541
 30
0.0
 10
2.614587645
 20
5.5225054202
 30
0.0
 10
2.6140214803
 20
5.5191816267
 30
0.0
  0
SPLINE
  5
2E4
100
AcDbEntity
  8
0
100
AcDbSpline
 62
7
  6
CONTINUOUS
 70
0
 71
3
 72
19
 73
15
 74
0
 42
0.0000001
 43
0.0000001
 44
0.0000000001
 40
0.0
 40
0.0
 40
0.0
 40
0.0
 40
0.0590914332
 40
0.119544762
 40
0.2437196348
 40
0.3710371096
 40
0.4354158797
 40
0.5000000017
 40
0.5645841234
 40
0.6289628928
 40
0.7562803666
 40
0.8804552385
 40
0.940908567
 40
1.0
 40
1.0
 40
1.0
 40
1.0
 10
2.6140214803
 20
5.5191816267
 30
0.0
 10
2.6131934001
 20
5.5224983421
 30
0.0
 10
2.6116349348
 20
5.5292379341
 30
0.0
 10
2.6089102941
 20
5.54307374
 30
0.0
 10
2.6062747361
 20
5.5609393393
 30
0.0
 10
2.6046934316
 20
5.579155496
 30
0.0
 10
2.6040528763
 20
5.5939695475
 30
0.0
 10
2.6038913873
 20
5.6051669649
 30
0.0
 10
2.6040528763
 20
5.6163643822
 30
0.0
 10
2.6046934316
 20
5.6311784336
 30
0.0
 10
2.6062747361
 20
5.6493945901
 30
0.0
 10
2.6089102941
 20
5.6672601893
 30
0.0
 10
2.6116349348
 20
5.6810959951
 30
0.0
 10
2.6131934001
 20
5.6878355871
 30
0.0
 10
2.6140214803
 20
5.6911523025
 30
0.0
  0
SPLINE
  5
2E5
100
AcDbEntity
  8
0
100
AcDbSpline
 62
7
  6
CONTINUOUS
 70
0
 71
3
 72
17
 73
13
 74
0
 42
0.0000001
 43
0.0000001
 44
0.0000000001
 40
0.0
 40
0.0
 40
0.0
 40
0.0
 40
0.0583676269
 40
0.1183864433
 40
0.2424047202
 40
0.3702226457
 40
0.4999999992
 40
0.6297773531
 40
0.757595279
 40
0.8816135563
 40
0.941632373
 40
1.0
 40
1.0
 40
1.0
 40
1.0
 10
2.5863792119
 20
5.6911523025
 30
0.0
 10
2.5868082402
 20
5.6878257647
 30
0.0
 10
2.5876148615
 20
5.6810702319
 30
0.0
 10
2.5890240771
 20
5.6672113813
 30
0.0
 10
2.5903840913
 20
5.6493388514
 30
0.0
 10
2.5913652393
 20
5.6274281565
 30
0.0
 10
2.5916946314
 20
5.6051669647
 30
0.0
 10
2.5913652393
 20
5.5829057729
 30
0.0
 10
2.5903840913
 20
5.5609950779
 30
0.0
 10
2.5890240771
 20
5.5431225479
 30
0.0
 10
2.5876148615
 20
5.5292636973
 30
0.0
 10
2.5868082402
 20
5.5225081645
 30
0.0
 10
2.5863792119
 20
5.5191816267
 30
0.0
  0
SPLINE
  5
2E6
100
AcDbEntity
  8
0
100
AcDbSpline
 62
7
  6
CONTINUOUS
 70
0
 71
3
 72
19
 73
15
 74
0
 42
0.0000001
 43
0.0000001
 44
0.0000000001
 40
0.0
 40
0.0
 40
0.0
 40
0.0
 40
0.0594021575
 40
0.1200430694
 40
0.2442873738
 40
0.3713900474
 40
0.4356012604
 40
0.5000000017
 40
0.5643987427
 40
0.628609955
 40
0.7557126276
 40
0.8799569311
 40
0.9405978427
 40
1.0
 40
1.0
 40
1.0
 40
1.0
 10
2.5863792119
 20
5.5191816267
 30
0.0
 10
2.5854279988
 20
5.5224942725
 30
0.0
 10
2.5836370785
 20
5.5292271038
 30
0.0
 10
2.5805051535
 20
5.5430529299
 30
0.0
 10
2.5774726278
 20
5.5609151147
 30
0.0
 10
2.5756513816
 20
5.5791476667
 30
0.0
 10
2.5749142845
 20
5.5939680306
 30
0.0
 10
2.5747284977
 20
5.6051669649
 30
0.0
 10
2.5749142845
 20
5.6163658991
 30
0.0
 10
2.5756513816
 20
5.6311862629
 30
0.0
 10
2.5774726279
 20
5.6494188148
 30
0.0
 10
2.5805051535
 20
5.6672809994
 30
0.0
 10
2.5836370785
 20
5.6811068254
 30
0.0
 10
2.5854279988
 20
5.6878396567
 30
0.0
 10
2.5863792119
 20
5.6911523025
 30
0.0
  0
SPLINE
  5
2E7
100
AcDbEntity
  8
0
100
AcDbSpline
 62
7
  6
CONTINUOUS
 70
0
 71
3
 72
17
 73
13
 74
0
 42
0.0000001
 43
0.0000001
 44
0.0000000001
 40
0.0
 40
0.0
 40
0.0
 40
0.0
 40
0.0582200695
 40
0.118150562
 40
0.242137053
 40
0.3700558947
 40
0.4999999992
 40
0.6299441042
 40
0.7578629462
 40
0.8818494376
 40
0.9417799304
 40
1.0
 40
1.0
 40
1.0
 40
1.0
 10
2.5590788483
 20
5.6911523025
 30
0.0
 10
2.5593678063
 20
5.6878237067
 30
0.0
 10
2.559910959
 20
5.681064902
 30
0.0
 10
2.5608597399
 20
5.6672013953
 30
0.0
 10
2.5617749535
 20
5.6493276911
 30
0.0
 10
2.5624350333
 20
5.6274227016
 30
0.0
 10
2.5626566372
 20
5.6051669647
 30
0.0
 10
2.5624350333
 20
5.5829112278
 30
0.0
 10
2.5617749535
 20
5.5610062382
 30
0.0
 10
2.5608597399
 20
5.543132534
 30
0.0
 10
2.559910959
 20
5.5292690272
 30
0.0
 10
2.5593678063
 20
5.5225102225
 30
0.0
 10
2.5590788483
 20
5.5191816267
 30
0.0
  0
SPLINE
  5
2E8
100
AcDbEntity
  8
0
100
AcDbSpline
 62
7
  6
CONTINUOUS
 70
0
 71
3
 72
19
 73
15
 74
0
 42
0.0000001
 43
0.0000001
 44
0.0000000001
 40
0.0
 40
0.0
 40
0.0
 40
0.0
 40
0.1249130774
 40
0.187441716
 40
0.249960886
 40
0.3124766844
 40
0.3749986411
 40
0.4999999993
 40
0.6250013578
 40
0.6875233147
 40
0.7500391132
 40
0.8125582833
 40
0.8750869222
 40
1.0
 40
1.0
 40
1.0
 40
1.0
 10
2.9789847648
 20
5.6911523025
 30
0.0
 10
2.9825623557
 20
5.684598895
 30
0.0
 10
2.9873313767
 20
5.6744191402
 30
0.0
 10
2.9923884671
 20
5.6603532965
 30
0.0
 10
2.9955169726
 20
5.6495793666
 30
0.0
 10
2.9979661932
 20
5.6386317771
 30
0.0
 10
3.0003081175
 20
5.6238626427
 30
0.0
 10
3.0014893468
 20
5.6051669647
 30
0.0
 10
3.0003081175
 20
5.5864712867
 30
0.0
 10
2.9979661932
 20
5.5717021522
 30
0.0
 10
2.9955169727
 20
5.5607545628
 30
0.0
 10
2.9923884671
 20
5.5499806328
 30
0.0
 10
2.9873313767
 20
5.5359147891
 30
0.0
 10
2.9825623557
 20
5.5257350342
 30
0.0
 10
2.9789847648
 20
5.5191816267
 30
0.0
  0
SPLINE
  5
2E9
100
AcDbEntity
  8
0
100
AcDbSpline
 62
7
  6
CONTINUOUS
 70
0
 71
3
 72
19
 73
15
 74
0
 42
0.0000001
 43
0.0000001
 44
0.0000000001
 40
0.0
 40
0.0
 40
0.0
 40
0.0
 40
0.124954176
 40
0.1874900422
 40
0.2500089642
 40
0.3125183738
 40
0.3750292268
 40
0.4999999993
 40
0.6249707722
 40
0.6874816253
 40
0.749991035
 40
0.8125099571
 40
0.8750458236
 40
1.0
 40
1.0
 40
1.0
 40
1.0
 10
2.969350524
 20
5.6911523025
 30
0.0
 10
2.9729391878
 20
5.6845999565
 30
0.0
 10
2.9777236619
 20
5.6744208757
 30
0.0
 10
2.9827976823
 20
5.6603539369
 30
0.0
 10
2.9859364511
 20
5.6495799013
 30
0.0
 10
2.9883937074
 20
5.6386321917
 30
0.0
 10
2.9907432679
 20
5.6238632303
 30
0.0
 10
2.9919284531
 20
5.6051669647
 30
0.0
 10
2.9907432679
 20
5.586470699
 30
0.0
 10
2.9883937074
 20
5.5717017376
 30
0.0
 10
2.9859364511
 20
5.560754028
 30
0.0
 10
2.9827976823
 20
5.5499799924
 30
0.0
 10
2.977723662
 20
5.5359130536
 30
0.0
 10
2.9729391879
 20
5.5257339727
 30
0.0
 10
2.969350524
 20
5.5191816267
 30
0.0
  0
SPLINE
  5
2EA
100
AcDbEntity
  8
0
100
AcDbSpline
 62
7
  6
CONTINUOUS
 70
0
 71
3
 72
19
 73
15
 74
0
 42
0.0000001
 43
0.0000001
 44
0.0000000001
 40
0.0
 40
0.0
 40
0.0
 40
0.0
 40
0.1249172335
 40
0.1874466028
 40
0.2499657475
 40
0.3124808998
 40
0.3750017337
 40
0.4999999993
 40
0.6249982652
 40
0.6875190993
 40
0.7500342517
 40
0.8125533966
 40
0.8750827662
 40
1.0
 40
1.0
 40
1.0
 40
1.0
 10
2.9576970426
 20
5.6911523025
 30
0.0
 10
2.9612757545
 20
5.6845990024
 30
0.0
 10
2.9660463396
 20
5.6744193157
 30
0.0
 10
2.9711051434
 20
5.6603533613
 30
0.0
 10
2.9742346878
 20
5.6495794206
 30
0.0
 10
2.9766847217
 20
5.638631819
 30
0.0
 10
2.9790274189
 20
5.6238627021
 30
0.0
 10
2.9802090485
 20
5.6051669647
 30
0.0
 10
2.9790274189
 20
5.5864712273
 30
0.0
 10
2.9766847217
 20
5.5717021103
 30
0.0
 10
2.9742346878
 20
5.5607545087
 30
0.0
 10
2.9711051435
 20
5.549980568
 30
0.0
 10
2.9660463396
 20
5.5359146135
 30
0.0
 10
2.9612757545
 20
5.5257349268
 30
0.0
 10
2.9576970426
 20
5.5191816267
 30
0.0
  0
SPLINE
  5
2EB
100
AcDbEntity
  8
0
100
AcDbSpline
 62
7
  6
CONTINUOUS
 70
0
 71
3
 72
21
 73
17
 74
0
 42
0.0000001
 43
0.0000001
 44
0.0000000001
 40
0.0
 40
0.0
 40
0.0
 40
0.0
 40
0.0623815552
 40
0.1248469994
 40
0.1873489352
 40
0.2498614375
 40
0.3123870196
 40
0.3749313858
 40
0.4999999993
 40
0.6250686131
 40
0.6876129795
 40
0.7501385618
 40
0.8126510642
 40
0.8751530002
 40
0.9376184447
 40
1.0
 40
1.0
 40
1.0
 40
1.0
 10
2.944096168
 20
5.6911523025
 30
0.0
 10
2.9458696988
 20
5.6878748319
 30
0.0
 10
2.9492185848
 20
5.6812046729
 30
0.0
 10
2.9536209167
 20
5.6709077211
 30
0.0
 10
2.9573831398
 20
5.6603511069
 30
0.0
 10
2.9604837655
 20
5.6495780607
 30
0.0
 10
2.9629114368
 20
5.6386306342
 30
0.0
 10
2.9652327901
 20
5.623861089
 30
0.0
 10
2.9664033949
 20
5.6051669647
 30
0.0
 10
2.9652327901
 20
5.5864728404
 30
0.0
 10
2.9629114369
 20
5.5717032951
 30
0.0
 10
2.9604837655
 20
5.5607558686
 30
0.0
 10
2.9573831398
 20
5.5499828224
 30
0.0
 10
2.9536209167
 20
5.5394262081
 30
0.0
 10
2.9492185848
 20
5.5291292564
 30
0.0
 10
2.9458696988
 20
5.5224590973
 30
0.0
 10
2.944096168
 20
5.5191816267
 30
0.0
  0
SPLINE
  5
2EC
100
AcDbEntity
  8
0
100
AcDbSpline
 62
7
  6
CONTINUOUS
 70
0
 71
3
 72
19
 73
15
 74
0
 42
0.0000001
 43
0.0000001
 44
0.0000000001
 40
0.0
 40
0.0
 40
0.0
 40
0.0
 40
0.0597332092
 40
0.1205746117
 40
0.2448941241
 40
0.3717676343
 40
0.4357996394
 40
0.5000000017
 40
0.5642003637
 40
0.6282323681
 40
0.7551058773
 40
0.8794253888
 40
0.9402667909
 40
1.0
 40
1.0
 40
1.0
 40
1.0
 10
2.5590788483
 20
5.5191816267
 30
0.0
 10
2.558010721
 20
5.5224900284
 30
0.0
 10
2.5559988656
 20
5.5292157101
 30
0.0
 10
2.5524795471
 20
5.5430308492
 30
0.0
 10
2.5490683645
 20
5.5608890845
 30
0.0
 10
2.5470175266
 20
5.5791392074
 30
0.0
 10
2.5461882977
 20
5.5939663893
 30
0.0
 10
2.5459793387
 20
5.6051669649
 30
0.0
 10
2.5461882977
 20
5.6163675404
 30
0.0
 10
2.5470175267
 20
5.6311947222
 30
0.0
 10
2.5490683646
 20
5.649444845
 30
0.0
 10
2.5524795471
 20
5.6673030801
 30
0.0
 10
2.5559988656
 20
5.6811182191
 30
0.0
 10
2.558010721
 20
5.6878439008
 30
0.0
 10
2.5590788483
 20
5.6911523025
 30
0.0
  0
SPLINE
  5
2ED
100
AcDbEntity
  8
0
100
AcDbSpline
 62
7
  6
CONTINUOUS
 70
0
 71
3
 72
23
 73
19
 74
0
 42
0.0000001
 43
0.0000001
 44
0.0000000001
 40
0.0
 40
0.0
 40
0.0
 40
0.0
 40
0.061891195
 40
0.1240500974
 40
0.186409756
 40
0.2489216512
 40
0.3115626846
 40
0.3743114128
 40
0.4371367993
 40
0.4999999993
 40
0.5628631994
 40
0.6256885861
 40
0.6884373145
 40
0.751078348
 40
0.8135902433
 40
0.8759499023
 40
0.9381088049
 40
1.0
 40
1.0
 40
1.0
 40
1.0
 10
2.8925045837
 20
5.6911523025
 30
0.0
 10
2.8941670885
 20
5.6878695736
 30
0.0
 10
2.8973051666
 20
5.6811895863
 30
0.0
 10
2.9014237979
 20
5.6708939155
 30
0.0
 10
2.9049434389
 20
5.6603389947
 30
0.0
 10
2.9078440618
 20
5.6495679044
 30
0.0
 10
2.9101150613
 20
5.6386230692
 30
0.0
 10
2.911744066
 20
5.6275455866
 30
0.0
 10
2.9127247021
 20
5.6163787832
 30
0.0
 10
2.9130531339
 20
5.6051669647
 30
0.0
 10
2.9127247021
 20
5.5939551462
 30
0.0
 10
2.911744066
 20
5.5827883428
 30
0.0
 10
2.9101150613
 20
5.5717108601
 30
0.0
 10
2.9078440619
 20
5.5607660249
 30
0.0
 10
2.9049434389
 20
5.5499949345
 30
0.0
 10
2.9014237979
 20
5.5394400138
 30
0.0
 10
2.8973051666
 20
5.5291443429
 30
0.0
 10
2.8941670885
 20
5.5224643556
 30
0.0
 10
2.8925045837
 20
5.5191816267
 30
0.0
  0
SPLINE
  5
2EE
100
AcDbEntity
  8
0
100
AcDbSpline
 62
7
  6
CONTINUOUS
 70
0
 71
3
 72
23
 73
19
 74
0
 42
0.0000001
 43
0.0000001
 44
0.0000000001
 40
0.0
 40
0.0
 40
0.0
 40
0.0
 40
0.061649809
 40
0.1236597358
 40
0.185952646
 40
0.2484684463
 40
0.3111710872
 40
0.3740255209
 40
0.4369863606
 40
0.4999999993
 40
0.5630136381
 40
0.625974478
 40
0.6888289119
 40
0.7515315529
 40
0.8140473534
 40
0.8763402639
 40
0.9383501909
 40
1.0
 40
1.0
 40
1.0
 40
1.0
 10
2.8720645629
 20
5.6911523025
 30
0.0
 10
2.8736695472
 20
5.6878668835
 30
0.0
 10
2.8766984504
 20
5.6811819329
 30
0.0
 10
2.8806705739
 20
5.6708869736
 30
0.0
 10
2.8840649613
 20
5.6603329382
 30
0.0
 10
2.8868623242
 20
5.6495628995
 30
0.0
 10
2.8890524649
 20
5.638619206
 30
0.0
 10
2.8906234565
 20
5.6275429657
 30
0.0
 10
2.8915691671
 20
5.6163774571
 30
0.0
 10
2.891885901
 20
5.6051669647
 30
0.0
 10
2.8915691671
 20
5.5939564723
 30
0.0
 10
2.8906234566
 20
5.5827909637
 30
0.0
 10
2.8890524649
 20
5.5717147234
 30
0.0
 10
2.8868623242
 20
5.5607710298
 30
0.0
 10
2.8840649613
 20
5.550000991
 30
0.0
 10
2.880670574
 20
5.5394469557
 30
0.0
 10
2.8766984504
 20
5.5291519963
 30
0.0
 10
2.8736695472
 20
5.5224670456
 30
0.0
 10
2.8720645629
 20
5.5191816267
 30
0.0
  0
SPLINE
  5
2EF
100
AcDbEntity
  8
0
100
AcDbSpline
 62
7
  6
CONTINUOUS
 70
0
 71
3
 72
23
 73
19
 74
0
 42
0.0000001
 43
0.0000001
 44
0.0000000001
 40
0.0
 40
0.0
 40
0.0
 40
0.0
 40
0.0613752519
 40
0.1232161374
 40
0.1854336058
 40
0.2479541775
 40
0.310726956
 40
0.3737013961
 40
0.4368158417
 40
0.4999999993
 40
0.563184157
 40
0.6262986028
 40
0.6892730431
 40
0.7520458217
 40
0.8145663936
 40
0.8767838623
 40
0.938624748
 40
1.0
 40
1.0
 40
1.0
 40
1.0
 10
2.8502051017
 20
5.6911523025
 30
0.0
 10
2.8517427623
 20
5.6878637732
 30
0.0
 10
2.8546439248
 20
5.681173138
 30
0.0
 10
2.8584449878
 20
5.6708790442
 30
0.0
 10
2.8616931447
 20
5.6603260571
 30
0.0
 10
2.8643699647
 20
5.6495572382
 30
0.0
 10
2.866465719
 20
5.6386148511
 30
0.0
 10
2.8679689959
 20
5.6275400186
 30
0.0
 10
2.8688739415
 20
5.6163759683
 30
0.0
 10
2.8691770219
 20
5.6051669647
 30
0.0
 10
2.8688739415
 20
5.5939579612
 30
0.0
 10
2.867968996
 20
5.5827939108
 30
0.0
 10
2.8664657191
 20
5.5717190782
 30
0.0
 10
2.8643699648
 20
5.5607766912
 30
0.0
 10
2.8616931447
 20
5.5500078722
 30
0.0
 10
2.8584449878
 20
5.539454885
 30
0.0
 10
2.8546439248
 20
5.5291607912
 30
0.0
 10
2.8517427623
 20
5.522470156
 30
0.0
 10
2.8502051017
 20
5.5191816267
 30
0.0
  0
SPLINE
  5
2F0
100
AcDbEntity
  8
0
100
AcDbSpline
 62
7
  6
CONTINUOUS
 70
0
 71
3
 72
23
 73
19
 74
0
 42
0.0000001
 43
0.0000001
 44
0.0000000001
 40
0.0
 40
0.0
 40
0.0
 40
0.0
 40
0.0610730734
 40
0.1227284141
 40
0.1848634412
 40
0.2473896675
 40
0.3102397153
 40
0.3733459569
 40
0.436628895
 40
0.4999999993
 40
0.5633711037
 40
0.626654042
 40
0.6897602838
 40
0.7526103317
 40
0.8151365581
 40
0.8772715855
 40
0.9389269265
 40
1.0
 40
1.0
 40
1.0
 40
1.0
 10
2.8270609709
 20
5.6911523025
 30
0.0
 10
2.8285218557
 20
5.687860286
 30
0.0
 10
2.8312774026
 20
5.6811633469
 30
0.0
 10
2.8348839418
 20
5.6708702764
 30
0.0
 10
2.837965827
 20
5.6603184937
 30
0.0
 10
2.8405055959
 20
5.6495510458
 30
0.0
 10
2.8424940438
 20
5.6386101061
 30
0.0
 10
2.8439203413
 20
5.6275368164
 30
0.0
 10
2.8447789457
 20
5.6163743532
 30
0.0
 10
2.8450665053
 20
5.6051669647
 30
0.0
 10
2.8447789457
 20
5.5939595762
 30
0.0
 10
2.8439203413
 20
5.582797113
 30
0.0
 10
2.8424940438
 20
5.5717238233
 30
0.0
 10
2.8405055959
 20
5.5607828835
 30
0.0
 10
2.8379658271
 20
5.5500154356
 30
0.0
 10
2.8348839418
 20
5.5394636529
 30
0.0
 10
2.8312774026
 20
5.5291705823
 30
0.0
 10
2.8285218557
 20
5.5224736432
 30
0.0
 10
2.8270609709
 20
5.5191816267
 30
0.0
  0
SPLINE
  5
2F1
100
AcDbEntity
  8
0
100
AcDbSpline
 62
7
  6
CONTINUOUS
 70
0
 71
3
 72
23
 73
19
 74
0
 42
0.0000001
 43
0.0000001
 44
0.0000000001
 40
0.0
 40
0.0
 40
0.0
 40
0.0
 40
0.0607496751
 40
0.1222070297
 40
0.1842545121
 40
0.246787255
 40
0.3097200822
 40
0.372967056
 40
0.4364296615
 40
0.4999999993
 40
0.5635703371
 40
0.6270329429
 40
0.6902799169
 40
0.7532127442
 40
0.8157454873
 40
0.8777929699
 40
0.9392503248
 40
1.0
 40
1.0
 40
1.0
 40
1.0
 10
2.8027748619
 20
5.6911523025
 30
0.0
 10
2.8041499221
 20
5.6878564779
 30
0.0
 10
2.806742775
 20
5.6811527376
 30
0.0
 10
2.8101325663
 20
5.6708608459
 30
0.0
 10
2.8130292013
 20
5.6603104113
 30
0.0
 10
2.8154162885
 20
5.6495444635
 30
0.0
 10
2.817285198
 20
5.638605083
 30
0.0
 10
2.8186257455
 20
5.6275334366
 30
0.0
 10
2.8194327304
 20
5.6163726516
 30
0.0
 10
2.8197030016
 20
5.6051669647
 30
0.0
 10
2.8194327304
 20
5.5939612778
 30
0.0
 10
2.8186257455
 20
5.5828004928
 30
0.0
 10
2.817285198
 20
5.5717288463
 30
0.0
 10
2.8154162885
 20
5.5607894658
 30
0.0
 10
2.8130292013
 20
5.550023518
 30
0.0
 10
2.8101325663
 20
5.5394730834
 30
0.0
 10
2.806742775
 20
5.5291811916
 30
0.0
 10
2.8041499221
 20
5.5224774513
 30
0.0
 10
2.8027748619
 20
5.5191816267
 30
0.0
  0
SPLINE
  5
2F2
100
AcDbEntity
  8
0
100
AcDbSpline
 62
7
  6
CONTINUOUS
 70
0
 71
3
 72
21
 73
17
 74
0
 42
0.0000001
 43
0.0000001
 44
0.0000000001
 40
0.0
 40
0.0
 40
0.0
 40
0.0
 40
0.0604162002
 40
0.121671636
 40
0.1836325776
 40
0.2461767088
 40
0.3725650645
 40
0.4362185549
 40
0.4999999992
 40
0.5637814437
 40
0.6274349345
 40
0.7538232904
 40
0.8163674218
 40
0.8783283636
 40
0.9395837997
 40
1.0
 40
1.0
 40
1.0
 40
1.0
 10
2.7774965065
 20
5.6911523025
 30
0.0
 10
2.77877715
 20
5.6878524187
 30
0.0
 10
2.781191133
 20
5.6811415087
 30
0.0
 10
2.784343328
 20
5.6708510064
 30
0.0
 10
2.7870369314
 20
5.6603018008
 30
0.0
 10
2.7900066426
 20
5.6459014601
 30
0.0
 10
2.7919936718
 20
5.6312122694
 30
0.0
 10
2.7929915145
 20
5.616371104
 30
0.0
 10
2.7932429088
 20
5.6051669647
 30
0.0
 10
2.7929915145
 20
5.5939628254
 30
0.0
 10
2.7919936718
 20
5.5791216599
 30
0.0
 10
2.7900066426
 20
5.5644324692
 30
0.0
 10
2.7870369314
 20
5.5500321285
 30
0.0
 10
2.784343328
 20
5.5394829229
 30
0.0
 10
2.781191133
 20
5.5291924205
 30
0.0
 10
2.77877715
 20
5.5224815105
 30
0.0
 10
2.7774965065
 20
5.5191816267
 30
0.0
  0
SPLINE
  5
2F3
100
AcDbEntity
  8
0
100
AcDbSpline
 62
7
  6
CONTINUOUS
 70
0
 71
3
 72
21
 73
17
 74
0
 42
0.0000001
 43
0.0000001
 44
0.0000000001
 40
0.0
 40
0.0
 40
0.0
 40
0.0
 40
0.0600720693
 40
0.1211179456
 40
0.1829868504
 40
0.2455383432
 40
0.3721672042
 40
0.4360094393
 40
0.4999999992
 40
0.5639905593
 40
0.6278327947
 40
0.7544616561
 40
0.817013149
 40
0.8788820541
 40
0.9399279306
 40
1.0
 40
1.0
 40
1.0
 40
1.0
 10
2.7513817543
 20
5.6911523025
 30
0.0
 10
2.7525598986
 20
5.6878481929
 30
0.0
 10
2.7547798416
 20
5.6811299391
 30
0.0
 10
2.7576751102
 20
5.6708408754
 30
0.0
 10
2.7601491607
 20
5.6602932775
 30
0.0
 10
2.762878451
 20
5.6458862372
 30
0.0
 10
2.7647021549
 20
5.6312032456
 30
0.0
 10
2.7656184205
 20
5.6163693284
 30
0.0
 10
2.76584931
 20
5.6051669647
 30
0.0
 10
2.7656184205
 20
5.593964601
 30
0.0
 10
2.7647021549
 20
5.5791306837
 30
0.0
 10
2.7628784511
 20
5.5644476921
 30
0.0
 10
2.7601491607
 20
5.5500406518
 30
0.0
 10
2.7576751102
 20
5.5394930539
 30
0.0
 10
2.7547798416
 20
5.5292039901
 30
0.0
 10
2.7525598986
 20
5.5224857362
 30
0.0
 10
2.7513817543
 20
5.5191816267
 30
0.0
  0
SPLINE
  5
2F4
100
AcDbEntity
  8
0
100
AcDbSpline
 62
7
  6
CONTINUOUS
 70
0
 71
3
 72
15
 73
11
 74
0
 42
0.0000001
 43
0.0000001
 44
0.0000000001
 40
0.0
 40
0.0
 40
0.0
 40
0.0
 40
0.1180044207
 40
0.241971527
 40
0.3699528503
 40
0.5000000017
 40
0.6300471521
 40
0.7580284743
 40
0.8819955798
 40
1.0
 40
1.0
 40
1.0
 40
1.0
 10
2.7513817543
 20
5.5191816267
 30
0.0
 10
2.7510835459
 20
5.5259414336
 30
0.0
 10
2.7505633808
 20
5.5398067514
 30
0.0
 10
2.750011495
 20
5.5610130936
 30
0.0
 10
2.7496762156
 20
5.5829145865
 30
0.0
 10
2.7495636192
 20
5.6051669648
 30
0.0
 10
2.7496762156
 20
5.6274193431
 30
0.0
 10
2.750011495
 20
5.6493208359
 30
0.0
 10
2.7505633808
 20
5.6705271779
 30
0.0
 10
2.7510835459
 20
5.6843924956
 30
0.0
 10
2.7513817543
 20
5.6911523025
 30
0.0
  0
SPLINE
  5
2F5
100
AcDbEntity
  8
0
100
AcDbSpline
 62
7
  6
CONTINUOUS
 70
0
 71
3
 72
19
 73
15
 74
0
 42
0.0000001
 43
0.0000001
 44
0.0000000001
 40
0.0
 40
0.0
 40
0.0
 40
0.0
 40
0.0597332091
 40
0.1205746112
 40
0.244894123
 40
0.3717676325
 40
0.4357996372
 40
0.4999999992
 40
0.5642003615
 40
0.6282323664
 40
0.7551058762
 40
0.8794253884
 40
0.9402667908
 40
1.0
 40
1.0
 40
1.0
 40
1.0
 10
2.7245916112
 20
5.6911523025
 30
0.0
 10
2.7256597385
 20
5.6878439008
 30
0.0
 10
2.7276715939
 20
5.6811182191
 30
0.0
 10
2.7311909124
 20
5.6673030801
 30
0.0
 10
2.7346020949
 20
5.6494448449
 30
0.0
 10
2.7366529328
 20
5.6311947221
 30
0.0
 10
2.7374821618
 20
5.6163675402
 30
0.0
 10
2.7376911208
 20
5.6051669647
 30
0.0
 10
2.7374821618
 20
5.5939663892
 30
0.0
 10
2.7366529329
 20
5.5791392073
 30
0.0
 10
2.734602095
 20
5.5608890844
 30
0.0
 10
2.7311909124
 20
5.5430308492
 30
0.0
 10
2.7276715939
 20
5.5292157101
 30
0.0
 10
2.7256597385
 20
5.5224900284
 30
0.0
 10
2.7245916112
 20
5.5191816267
 30
0.0
  0
SPLINE
  5
2F6
100
AcDbEntity
  8
0
100
AcDbSpline
 62
7
  6
CONTINUOUS
 70
0
 71
3
 72
17
 73
13
 74
0
 42
0.0000001
 43
0.0000001
 44
0.0000000001
 40
0.0
 40
0.0
 40
0.0
 40
0.0
 40
0.0582200696
 40
0.1181505624
 40
0.2421370541
 40
0.3700558965
 40
0.5000000017
 40
0.6299441059
 40
0.7578629473
 40
0.8818494381
 40
0.9417799306
 40
1.0
 40
1.0
 40
1.0
 40
1.0
 10
2.7245916112
 20
5.5191816267
 30
0.0
 10
2.7243026532
 20
5.5225102225
 30
0.0
 10
2.7237595005
 20
5.5292690272
 30
0.0
 10
2.7228107196
 20
5.543132534
 30
0.0
 10
2.721895506
 20
5.5610062383
 30
0.0
 10
2.7212354262
 20
5.5829112279
 30
0.0
 10
2.7210138223
 20
5.6051669648
 30
0.0
 10
2.7212354262
 20
5.6274227017
 30
0.0
 10
2.721895506
 20
5.6493276912
 30
0.0
 10
2.7228107196
 20
5.6672013953
 30
0.0
 10
2.7237595005
 20
5.681064902
 30
0.0
 10
2.7243026532
 20
5.6878237067
 30
0.0
 10
2.7245916112
 20
5.6911523025
 30
0.0
  0
SPLINE
  5
2F7
100
AcDbEntity
  8
0
100
AcDbSpline
 62
7
  6
CONTINUOUS
 70
0
 71
3
 72
19
 73
15
 74
0
 42
0.0000001
 43
0.0000001
 44
0.0000000001
 40
0.0
 40
0.0
 40
0.0
 40
0.0
 40
0.0594021573
 40
0.1200430689
 40
0.2442873727
 40
0.3713900457
 40
0.4356012582
 40
0.4999999992
 40
0.5643987405
 40
0.6286099532
 40
0.7557126265
 40
0.8799569307
 40
0.9405978426
 40
1.0
 40
1.0
 40
1.0
 40
1.0
 10
2.6972912476
 20
5.6911523025
 30
0.0
 10
2.6982424607
 20
5.6878396567
 30
0.0
 10
2.700033381
 20
5.6811068254
 30
0.0
 10
2.703165306
 20
5.6672809994
 30
0.0
 10
2.7061978316
 20
5.6494188147
 30
0.0
 10
2.7080190779
 20
5.6311862628
 30
0.0
 10
2.708756175
 20
5.6163658989
 30
0.0
 10
2.7089419618
 20
5.6051669647
 30
0.0
 10
2.708756175
 20
5.5939680305
 30
0.0
 10
2.7080190779
 20
5.5791476666
 30
0.0
 10
2.7061978317
 20
5.5609151146
 30
0.0
 10
2.703165306
 20
5.5430529299
 30
0.0
 10
2.700033381
 20
5.5292271038
 30
0.0
 10
2.6982424607
 20
5.5224942725
 30
0.0
 10
2.6972912476
 20
5.5191816267
 30
0.0
  0
SPLINE
  5
2F8
100
AcDbEntity
  8
0
100
AcDbSpline
 62
7
  6
CONTINUOUS
 70
0
 71
3
 72
17
 73
13
 74
0
 42
0.0000001
 43
0.0000001
 44
0.0000000001
 40
0.0
 40
0.0
 40
0.0
 40
0.0
 40
0.058367627
 40
0.1183864437
 40
0.2424047213
 40
0.3702226475
 40
0.5000000017
 40
0.6297773549
 40
0.7575952801
 40
0.8816135568
 40
0.9416323731
 40
1.0
 40
1.0
 40
1.0
 40
1.0
 10
2.6972912476
 20
5.5191816267
 30
0.0
 10
2.6968622193
 20
5.5225081645
 30
0.0
 10
2.696055598
 20
5.5292636973
 30
0.0
 10
2.6946463824
 20
5.5431225479
 30
0.0
 10
2.6932863682
 20
5.560995078
 30
0.0
 10
2.6923052202
 20
5.582905773
 30
0.0
 10
2.6919758281
 20
5.6051669648
 30
0.0
 10
2.6923052202
 20
5.6274281566
 30
0.0
 10
2.6932863682
 20
5.6493388514
 30
0.0
 10
2.6946463824
 20
5.6672113814
 30
0.0
 10
2.696055598
 20
5.6810702319
 30
0.0
 10
2.6968622193
 20
5.6878257647
 30
0.0
 10
2.6972912476
 20
5.6911523025
 30
0.0
  0
SPLINE
  5
2F9
100
AcDbEntity
  8
0
100
AcDbSpline
 62
7
  6
CONTINUOUS
 70
0
 71
3
 72
19
 73
15
 74
0
 42
0.0000001
 43
0.0000001
 44
0.0000000001
 40
0.0
 40
0.0
 40
0.0
 40
0.0
 40
0.0590914331
 40
0.1195447616
 40
0.2437196337
 40
0.3710371079
 40
0.4354158774
 40
0.4999999992
 40
0.5645841212
 40
0.628962891
 40
0.7562803655
 40
0.8804552381
 40
0.9409085668
 40
1.0
 40
1.0
 40
1.0
 40
1.0
 10
2.6696489792
 20
5.6911523025
 30
0.0
 10
2.6704770594
 20
5.6878355871
 30
0.0
 10
2.6720355247
 20
5.6810959951
 30
0.0
 10
2.6747601654
 20
5.6672601893
 30
0.0
 10
2.6773957234
 20
5.6493945901
 30
0.0
 10
2.6789770279
 20
5.6311784335
 30
0.0
 10
2.6796175832
 20
5.6163643821
 30
0.0
 10
2.6797790722
 20
5.6051669647
 30
0.0
 10
2.6796175832
 20
5.5939695473
 30
0.0
 10
2.6789770279
 20
5.5791554959
 30
0.0
 10
2.6773957234
 20
5.5609393392
 30
0.0
 10
2.6747601654
 20
5.54307374
 30
0.0
 10
2.6720355247
 20
5.5292379341
 30
0.0
 10
2.6704770594
 20
5.5224983421
 30
0.0
 10
2.6696489792
 20
5.5191816267
 30
0.0
  0
SPLINE
  5
2FA
100
AcDbEntity
  8
0
100
AcDbSpline
 62
7
  6
CONTINUOUS
 70
0
 71
3
 72
15
 73
11
 74
0
 42
0.0000001
 43
0.0000001
 44
0.0000000001
 40
0.0
 40
0.0
 40
0.0
 40
0.0
 40
0.1180044203
 40
0.2419715259
 40
0.3699528485
 40
0.4999999992
 40
0.6300471504
 40
0.7580284733
 40
0.8819955794
 40
1.0
 40
1.0
 40
1.0
 40
1.0
 10
2.5322887052
 20
5.6911523025
 30
0.0
 10
2.5325869136
 20
5.6843924956
 30
0.0
 10
2.5331070787
 20
5.6705271779
 30
0.0
 10
2.5336589645
 20
5.6493208358
 30
0.0
 10
2.5339942439
 20
5.6274193429
 30
0.0
 10
2.5341068403
 20
5.6051669647
 30
0.0
 10
2.5339942439
 20
5.5829145864
 30
0.0
 10
2.5336589645
 20
5.5610130935
 30
0.0
 10
2.5331070787
 20
5.5398067513
 30
0.0
 10
2.5325869136
 20
5.5259414336
 30
0.0
 10
2.5322887052
 20
5.5191816267
 30
0.0
  0
SPLINE
  5
2FB
100
AcDbEntity
  8
0
100
AcDbSpline
 62
7
  6
CONTINUOUS
 70
0
 71
3
 72
21
 73
17
 74
0
 42
0.0000001
 43
0.0000001
 44
0.0000000001
 40
0.0
 40
0.0
 40
0.0
 40
0.0
 40
0.0600720694
 40
0.121117946
 40
0.1829868512
 40
0.2455383442
 40
0.372167206
 40
0.4360094415
 40
0.5000000017
 40
0.5639905615
 40
0.6278327964
 40
0.7544616571
 40
0.8170131498
 40
0.8788820545
 40
0.9399279307
 40
1.0
 40
1.0
 40
1.0
 40
1.0
 10
2.5322887052
 20
5.5191816267
 30
0.0
 10
2.5311105609
 20
5.5224857362
 30
0.0
 10
2.5288906179
 20
5.5292039901
 30
0.0
 10
2.5259953493
 20
5.5394930539
 30
0.0
 10
2.5235212988
 20
5.5500406518
 30
0.0
 10
2.5207920084
 20
5.5644476922
 30
0.0
 10
2.5189683046
 20
5.5791306838
 30
0.0
 10
2.518052039
 20
5.5939646012
 30
0.0
 10
2.5178211495
 20
5.6051669649
 30
0.0
 10
2.518052039
 20
5.6163693285
 30
0.0
 10
2.5189683046
 20
5.6312032458
 30
0.0
 10
2.5207920085
 20
5.6458862372
 30
0.0
 10
2.5235212988
 20
5.6602932775
 30
0.0
 10
2.5259953493
 20
5.6708408754
 30
0.0
 10
2.5288906179
 20
5.6811299391
 30
0.0
 10
2.5311105609
 20
5.687848193
 30
0.0
 10
2.5322887052
 20
5.6911523025
 30
0.0
  0
SPLINE
  5
2FC
100
AcDbEntity
  8
0
100
AcDbSpline
 62
7
  6
CONTINUOUS
 70
0
 71
3
 72
21
 73
17
 74
0
 42
0.0000001
 43
0.0000001
 44
0.0000000001
 40
0.0
 40
0.0
 40
0.0
 40
0.0
 40
0.0604162003
 40
0.1216716365
 40
0.1836325784
 40
0.2461767099
 40
0.3725650662
 40
0.4362185572
 40
0.5000000017
 40
0.5637814459
 40
0.6274349362
 40
0.7538232915
 40
0.8163674226
 40
0.878328364
 40
0.9395837999
 40
1.0
 40
1.0
 40
1.0
 40
1.0
 10
2.506173953
 20
5.5191816267
 30
0.0
 10
2.5048933095
 20
5.5224815105
 30
0.0
 10
2.5024793265
 20
5.5291924205
 30
0.0
 10
2.4993271315
 20
5.5394829229
 30
0.0
 10
2.4966335281
 20
5.5500321285
 30
0.0
 10
2.4936638169
 20
5.5644324692
 30
0.0
 10
2.4916767876
 20
5.57912166
 30
0.0
 10
2.490678945
 20
5.5939628255
 30
0.0
 10
2.4904275507
 20
5.6051669649
 30
0.0
 10
2.490678945
 20
5.6163711042
 30
0.0
 10
2.4916767877
 20
5.6312122695
 30
0.0
 10
2.493663817
 20
5.6459014602
 30
0.0
 10
2.4966335281
 20
5.6603018008
 30
0.0
 10
2.4993271315
 20
5.6708510064
 30
0.0
 10
2.5024793265
 20
5.6811415087
 30
0.0
 10
2.5048933095
 20
5.6878524187
 30
0.0
 10
2.506173953
 20
5.6911523025
 30
0.0
  0
SPLINE
  5
2FD
100
AcDbEntity
  8
0
100
AcDbSpline
 62
7
  6
CONTINUOUS
 70
0
 71
3
 72
23
 73
19
 74
0
 42
0.0000001
 43
0.0000001
 44
0.0000000001
 40
0.0
 40
0.0
 40
0.0
 40
0.0
 40
0.0624663941
 40
0.1249602534
 40
0.1874534714
 40
0.2499514972
 40
0.3124583261
 40
0.3749698614
 40
0.437484071
 40
0.4999999998
 40
0.5625159286
 40
0.6250301382
 40
0.6875416735
 40
0.7500485024
 40
0.8125465281
 40
0.8750397462
 40
0.9375336058
 40
1.0
 40
1.0
 40
1.0
 40
1.0
 10
8.8061595148
 20
5.6911523025
 30
0.0
 10
8.8079490288
 20
5.6878742825
 30
0.0
 10
8.8113280081
 20
5.6812048305
 30
0.0
 10
8.8157693669
 20
5.670907736
 30
0.0
 10
8.8195631335
 20
5.6603523002
 30
0.0
 10
8.8226916789
 20
5.6495802195
 30
0.0
 10
8.8251406542
 20
5.6386324108
 30
0.0
 10
8.8268981635
 20
5.6275515574
 30
0.0
 10
8.8279562377
 20
5.6163816191
 30
0.0
 10
8.828309198
 20
5.6051669646
 30
0.0
 10
8.8279562377
 20
5.5939523102
 30
0.0
 10
8.8268981635
 20
5.5827823719
 30
0.0
 10
8.8251406542
 20
5.5717015185
 30
0.0
 10
8.822691679
 20
5.5607537097
 30
0.0
 10
8.8195631335
 20
5.5499816291
 30
0.0
 10
8.815769367
 20
5.5394261933
 30
0.0
 10
8.8113280081
 20
5.5291290987
 30
0.0
 10
8.8079490288
 20
5.5224596467
 30
0.0
 10
8.8061595148
 20
5.5191816267
 30
0.0
  0
SPLINE
  5
2FE
100
AcDbEntity
  8
0
100
AcDbSpline
 62
7
  6
CONTINUOUS
 70
0
 71
3
 72
23
 73
19
 74
0
 42
0.0000001
 43
0.0000001
 44
0.0000000001
 40
0.0
 40
0.0
 40
0.0
 40
0.0
 40
0.0624918213
 40
0.1250014581
 40
0.1875018083
 40
0.249999506
 40
0.3124998647
 40
0.3750002182
 40
0.437500055
 40
0.4999999998
 40
0.5624999446
 40
0.6249997814
 40
0.6875001349
 40
0.7500004936
 40
0.8124981913
 40
0.8749985416
 40
0.9375081786
 40
1.0
 40
1.0
 40
1.0
 40
1.0
 10
8.796525274
 20
5.6911523025
 30
0.0
 10
8.7983204691
 20
5.6878745535
 30
0.0
 10
8.8017102364
 20
5.6812056155
 30
0.0
 10
8.8061661458
 20
5.6709084591
 30
0.0
 10
8.8099723499
 20
5.6603529381
 30
0.0
 10
8.8131111568
 20
5.6495807545
 30
0.0
 10
8.8155681679
 20
5.6386328269
 30
0.0
 10
8.8173314461
 20
5.6275518421
 30
0.0
 10
8.8183929942
 20
5.6163817637
 30
0.0
 10
8.8187471134
 20
5.6051669646
 30
0.0
 10
8.8183929942
 20
5.5939521656
 30
0.0
 10
8.8173314461
 20
5.5827820872
 30
0.0
 10
8.815568168
 20
5.5717011023
 30
0.0
 10
8.8131111568
 20
5.5607531748
 30
0.0
 10
8.8099723499
 20
5.5499809912
 30
0.0
 10
8.8061661459
 20
5.5394254702
 30
0.0
 10
8.8017102364
 20
5.5291283137
 30
0.0
 10
8.7983204691
 20
5.5224593757
 30
0.0
 10
8.796525274
 20
5.5191816267
 30
0.0
  0
SPLINE
  5
2FF
100
AcDbEntity
  8
0
100
AcDbSpline
 62
7
  6
CONTINUOUS
 70
0
 71
3
 72
23
 73
19
 74
0
 42
0.0000001
 43
0.0000001
 44
0.0000000001
 40
0.0
 40
0.0
 40
0.0
 40
0.0
 40
0.0624689655
 40
0.1249644203
 40
0.1874583593
 40
0.2499563517
 40
0.3124625263
 40
0.3749729309
 40
0.4374856872
 40
0.4999999998
 40
0.5625143124
 40
0.6250270687
 40
0.6875374733
 40
0.7500436479
 40
0.8125416403
 40
0.8750355794
 40
0.9375310344
 40
1.0
 40
1.0
 40
1.0
 40
1.0
 10
8.7848717926
 20
5.6911523025
 30
0.0
 10
8.7866618816
 20
5.68787431
 30
0.0
 10
8.790041953
 20
5.6812049099
 30
0.0
 10
8.7944847845
 20
5.6709078091
 30
0.0
 10
8.79827981
 20
5.6603523647
 30
0.0
 10
8.801409394
 20
5.6495802736
 30
0.0
 10
8.8038591826
 20
5.6386324528
 30
0.0
 10
8.8056172758
 20
5.6275515862
 30
0.0
 10
8.8066757016
 20
5.6163816337
 30
0.0
 10
8.8070287792
 20
5.6051669646
 30
0.0
 10
8.8066757016
 20
5.5939522956
 30
0.0
 10
8.8056172758
 20
5.5827823431
 30
0.0
 10
8.8038591826
 20
5.5717014764
 30
0.0
 10
8.801409394
 20
5.5607536556
 30
0.0
 10
8.79827981
 20
5.5499815646
 30
0.0
 10
8.7944847846
 20
5.5394261201
 30
0.0
 10
8.790041953
 20
5.5291290193
 30
0.0
 10
8.7866618816
 20
5.5224596192
 30
0.0
 10
8.7848717926
 20
5.5191816267
 30
0.0
  0
SPLINE
  5
300
100
AcDbEntity
  8
0
100
AcDbSpline
 62
7
  6
CONTINUOUS
 70
0
 71
3
 72
23
 73
19
 74
0
 42
0.0000001
 43
0.0000001
 44
0.0000000001
 40
0.0
 40
0.0
 40
0.0
 40
0.0
 40
0.0607496752
 40
0.1222070302
 40
0.1842545129
 40
0.2467872561
 40
0.3097200836
 40
0.3729670577
 40
0.4364296637
 40
0.5000000017
 40
0.5635703393
 40
0.6270329447
 40
0.6902799182
 40
0.7532127453
 40
0.8157454881
 40
0.8777929703
 40
0.939250325
 40
1.0
 40
1.0
 40
1.0
 40
1.0
 10
2.4808955976
 20
5.5191816267
 30
0.0
 10
2.4795205374
 20
5.5224774513
 30
0.0
 10
2.4769276845
 20
5.5291811916
 30
0.0
 10
2.4735378932
 20
5.5394730834
 30
0.0
 10
2.4706412582
 20
5.5500235181
 30
0.0
 10
2.468254171
 20
5.5607894659
 30
0.0
 10
2.4663852615
 20
5.5717288464
 30
0.0
 10
2.465044714
 20
5.5828004929
 30
0.0
 10
2.4642377291
 20
5.593961278
 30
0.0
 10
2.4639674579
 20
5.6051669649
 30
0.0
 10
2.4642377291
 20
5.6163726517
 30
0.0
 10
2.465044714
 20
5.6275334367
 30
0.0
 10
2.4663852616
 20
5.6386050831
 30
0.0
 10
2.468254171
 20
5.6495444635
 30
0.0
 10
2.4706412582
 20
5.6603104113
 30
0.0
 10
2.4735378932
 20
5.6708608459
 30
0.0
 10
2.4769276845
 20
5.6811527376
 30
0.0
 10
2.4795205374
 20
5.6878564779
 30
0.0
 10
2.4808955976
 20
5.6911523025
 30
0.0
  0
SPLINE
  5
301
100
AcDbEntity
  8
0
100
AcDbSpline
 62
7
  6
CONTINUOUS
 70
0
 71
3
 72
21
 73
17
 74
0
 42
0.0000001
 43
0.0000001
 44
0.0000000001
 40
0.0
 40
0.0
 40
0.0
 40
0.0
 40
0.1248056246
 40
0.1872870974
 40
0.2497933763
 40
0.3123249177
 40
0.3748737871
 40
0.4374338767
 40
0.4999999998
 40
0.5625661229
 40
0.6251262125
 40
0.6876750819
 40
0.7502066233
 40
0.8127129022
 40
0.875194375
 40
1.0
 40
1.0
 40
1.0
 40
1.0
 10
8.771270918
 20
5.6911523025
 30
0.0
 10
8.7748192061
 20
5.6845950946
 30
0.0
 10
8.7795477765
 20
5.6744141154
 30
0.0
 10
8.7845573667
 20
5.6603510522
 30
0.0
 10
8.7876585903
 20
5.6495786628
 30
0.0
 10
8.7900858679
 20
5.6386313299
 30
0.0
 10
8.7918278769
 20
5.6275507869
 30
0.0
 10
8.7928765995
 20
5.6163812345
 30
0.0
 10
8.7932264436
 20
5.6051669646
 30
0.0
 10
8.7928765995
 20
5.5939526948
 30
0.0
 10
8.7918278769
 20
5.5827831424
 30
0.0
 10
8.790085868
 20
5.5717025994
 30
0.0
 10
8.7876585904
 20
5.5607552664
 30
0.0
 10
8.7845573667
 20
5.549982877
 30
0.0
 10
8.7795477766
 20
5.5359198139
 30
0.0
 10
8.7748192061
 20
5.5257388346
 30
0.0
 10
8.771270918
 20
5.5191816267
 30
0.0
  0
SPLINE
  5
302
100
AcDbEntity
  8
0
100
AcDbSpline
 62
7
  6
CONTINUOUS
 70
0
 71
3
 72
17
 73
13
 74
0
 42
0.0000001
 43
0.0000001
 44
0.0000000001
 40
0.0
 40
0.0
 40
0.0
 40
0.0
 40
0.1240541884
 40
0.1864139175
 40
0.2489399196
 40
0.37432732
 40
0.4999999998
 40
0.6256726796
 40
0.7510600799
 40
0.8135860821
 40
0.8759458113
 40
1.0
 40
1.0
 40
1.0
 40
1.0
 10
8.7196793337
 20
5.6911523025
 30
0.0
 10
8.7230105759
 20
5.6845745381
 30
0.0
 10
8.7274373268
 20
5.6743810628
 30
0.0
 10
8.7321177398
 20
5.6603386763
 30
0.0
 10
8.7359889004
 20
5.6459681819
 30
0.0
 10
8.7392461526
 20
5.6275701452
 30
0.0
 10
8.7405548657
 20
5.6051669646
 30
0.0
 10
8.7392461526
 20
5.5827637841
 30
0.0
 10
8.7359889005
 20
5.5643657473
 30
0.0
 10
8.7321177398
 20
5.549995253
 30
0.0
 10
8.7274373268
 20
5.5359528664
 30
0.0
 10
8.7230105759
 20
5.5257593911
 30
0.0
 10
8.7196793337
 20
5.5191816267
 30
0.0
  0
SPLINE
  5
303
100
AcDbEntity
  8
0
100
AcDbSpline
 62
7
  6
CONTINUOUS
 70
0
 71
3
 72
15
 73
11
 74
0
 42
0.0000001
 43
0.0000001
 44
0.0000000001
 40
0.0
 40
0.0
 40
0.0
 40
0.0
 40
0.1236764255
 40
0.2484590346
 40
0.3740274842
 40
0.4999999998
 40
0.6259725154
 40
0.7515409649
 40
0.8763235742
 40
1.0
 40
1.0
 40
1.0
 40
1.0
 10
8.6992393129
 20
5.6911523025
 30
0.0
 10
8.7024577967
 20
5.6845640341
 30
0.0
 10
8.708161982
 20
5.6709414551
 30
0.0
 10
8.7143524844
 20
5.6496007868
 30
0.0
 10
8.7181144069
 20
5.6275603142
 30
0.0
 10
8.7193759111
 20
5.6051669646
 30
0.0
 10
8.7181144069
 20
5.582773615
 30
0.0
 10
8.7143524844
 20
5.5607331424
 30
0.0
 10
8.708161982
 20
5.5393924741
 30
0.0
 10
8.7024577967
 20
5.5257698951
 30
0.0
 10
8.6992393129
 20
5.5191816267
 30
0.0
  0
SPLINE
  5
304
100
AcDbEntity
  8
0
100
AcDbSpline
 62
7
  6
CONTINUOUS
 70
0
 71
3
 72
15
 73
11
 74
0
 42
0.0000001
 43
0.0000001
 44
0.0000000001
 40
0.0
 40
0.0
 40
0.0
 40
0.0
 40
0.1232320992
 40
0.2479440676
 40
0.3737029265
 40
0.4999999998
 40
0.6262970731
 40
0.752055932
 40
0.8767679005
 40
1.0
 40
1.0
 40
1.0
 40
1.0
 10
8.6773798517
 20
5.6911523025
 30
0.0
 10
8.6804660887
 20
5.6845518988
 30
0.0
 10
8.6859306075
 20
5.6709097297
 30
0.0
 10
8.6918501061
 20
5.6495780401
 30
0.0
 10
8.6954470888
 20
5.6275484898
 30
0.0
 10
8.6966532549
 20
5.6051669646
 30
0.0
 10
8.6954470888
 20
5.5827854394
 30
0.0
 10
8.6918501061
 20
5.5607558892
 30
0.0
 10
8.6859306075
 20
5.5394241995
 30
0.0
 10
8.6804660887
 20
5.5257820304
 30
0.0
 10
8.6773798517
 20
5.5191816267
 30
0.0
  0
SPLINE
  5
305
100
AcDbEntity
  8
0
100
AcDbSpline
 62
7
  6
CONTINUOUS
 70
0
 71
3
 72
23
 73
19
 74
0
 42
0.0000001
 43
0.0000001
 44
0.0000000001
 40
0.0
 40
0.0
 40
0.0
 40
0.0
 40
0.0610730735
 40
0.1227284145
 40
0.184863442
 40
0.2473896686
 40
0.3102397166
 40
0.3733459587
 40
0.4366288972
 40
0.5000000017
 40
0.5633711059
 40
0.6266540437
 40
0.6897602852
 40
0.7526103328
 40
0.8151365589
 40
0.877271586
 40
0.9389269267
 40
1.0
 40
1.0
 40
1.0
 40
1.0
 10
2.4566094886
 20
5.5191816267
 30
0.0
 10
2.4551486038
 20
5.5224736432
 30
0.0
 10
2.4523930569
 20
5.5291705823
 30
0.0
 10
2.4487865177
 20
5.5394636529
 30
0.0
 10
2.4457046324
 20
5.5500154357
 30
0.0
 10
2.4431648636
 20
5.5607828835
 30
0.0
 10
2.4411764157
 20
5.5717238233
 30
0.0
 10
2.4397501182
 20
5.5827971131
 30
0.0
 10
2.4388915138
 20
5.5939595764
 30
0.0
 10
2.4386039542
 20
5.6051669649
 30
0.0
 10
2.4388915138
 20
5.6163743533
 30
0.0
 10
2.4397501182
 20
5.6275368165
 30
0.0
 10
2.4411764157
 20
5.6386101062
 30
0.0
 10
2.4431648636
 20
5.6495510459
 30
0.0
 10
2.4457046325
 20
5.6603184937
 30
0.0
 10
2.4487865177
 20
5.6708702764
 30
0.0
 10
2.4523930569
 20
5.6811633469
 30
0.0
 10
2.4551486038
 20
5.687860286
 30
0.0
 10
2.4566094886
 20
5.6911523025
 30
0.0
  0
SPLINE
  5
306
100
AcDbEntity
  8
0
100
AcDbSpline
 62
7
  6
CONTINUOUS
 70
0
 71
3
 72
15
 73
11
 74
0
 42
0.0000001
 43
0.0000001
 44
0.0000000001
 40
0.0
 40
0.0
 40
0.0
 40
0.0
 40
0.1227436961
 40
0.2473789335
 40
0.3733471033
 40
0.4999999998
 40
0.6266528963
 40
0.7526210661
 40
0.8772563036
 40
1.0
 40
1.0
 40
1.0
 40
1.0
 10
8.6542357209
 20
5.6911523025
 30
0.0
 10
8.657170787
 20
5.6845383064
 30
0.0
 10
8.6623618641
 20
5.670874678
 30
0.0
 10
8.6679738021
 20
5.6495531754
 30
0.0
 10
8.671383694
 20
5.6275356523
 30
0.0
 10
8.6725271073
 20
5.6051669646
 30
0.0
 10
8.671383694
 20
5.582798277
 30
0.0
 10
8.6679738021
 20
5.5607807538
 30
0.0
 10
8.6623618641
 20
5.5394592512
 30
0.0
 10
8.657170787
 20
5.5257956228
 30
0.0
 10
8.6542357209
 20
5.5191816267
 30
0.0
  0
SPLINE
  5
307
100
AcDbEntity
  8
0
100
AcDbSpline
 62
7
  6
CONTINUOUS
 70
0
 71
3
 72
15
 73
11
 74
0
 42
0.0000001
 43
0.0000001
 44
0.0000000001
 40
0.0
 40
0.0
 40
0.0
 40
0.0
 40
0.1222217278
 40
0.2467760223
 40
0.3729678991
 40
0.4999999998
 40
0.6270321005
 40
0.7532239773
 40
0.8777782719
 40
1.0
 40
1.0
 40
1.0
 40
1.0
 10
8.6299496119
 20
5.6911523025
 30
0.0
 10
8.6327152421
 20
5.6845234786
 30
0.0
 10
8.6376005439
 20
5.6708370135
 30
0.0
 10
8.642870543
 20
5.6495267629
 30
0.0
 10
8.6460725317
 20
5.6275221147
 30
0.0
 10
8.6471462283
 20
5.6051669646
 30
0.0
 10
8.6460725318
 20
5.5828118145
 30
0.0
 10
8.642870543
 20
5.5608071664
 30
0.0
 10
8.6376005439
 20
5.5394969157
 30
0.0
 10
8.6327152421
 20
5.5258104506
 30
0.0
 10
8.6299496119
 20
5.5191816267
 30
0.0
  0
SPLINE
  5
308
100
AcDbEntity
  8
0
100
AcDbSpline
 62
7
  6
CONTINUOUS
 70
0
 71
3
 72
17
 73
13
 74
0
 42
0.0000001
 43
0.0000001
 44
0.0000000001
 40
0.0
 40
0.0
 40
0.0
 40
0.0
 40
0.0585667313
 40
0.1187049383
 40
0.2427665051
 40
0.3704481593
 40
0.5000000017
 40
0.6295518431
 40
0.7572334963
 40
0.8812950622
 40
0.9414332689
 40
1.0
 40
1.0
 40
1.0
 40
1.0
 10
2.6696489792
 20
5.5191816267
 30
0.0
 10
2.6690828145
 20
5.5225054202
 30
0.0
 10
2.6680180513
 20
5.5292565541
 30
0.0
 10
2.6661574829
 20
5.5431091011
 30
0.0
 10
2.6643607113
 20
5.5609799479
 30
0.0
 10
2.6630639924
 20
5.5828983548
 30
0.0
 10
2.6626286591
 20
5.6051669648
 30
0.0
 10
2.6630639924
 20
5.6274355748
 30
0.0
 10
2.6643607113
 20
5.6493539815
 30
0.0
 10
2.6661574829
 20
5.6672248282
 30
0.0
 10
2.6680180513
 20
5.6810773751
 30
0.0
 10
2.6690828145
 20
5.687828509
 30
0.0
 10
2.6696489792
 20
5.6911523025
 30
0.0
  0
SPLINE
  5
309
100
AcDbEntity
  8
0
100
AcDbSpline
 62
7
  6
CONTINUOUS
 70
0
 71
3
 72
17
 73
13
 74
0
 42
0.0000001
 43
0.0000001
 44
0.0000000001
 40
0.0
 40
0.0
 40
0.0
 40
0.0
 40
0.1216700177
 40
0.2461330394
 40
0.3091713689
 40
0.3725823303
 40
0.4999999998
 40
0.6274176693
 40
0.6908286307
 40
0.7538669602
 40
0.878329982
 40
1.0
 40
1.0
 40
1.0
 40
1.0
 10
8.6046712565
 20
5.6911523025
 30
0.0
 10
8.607249947
 20
5.6845076903
 30
0.0
 10
8.6117987041
 20
5.6707980886
 30
0.0
 10
8.6158622224
 20
5.6531211679
 30
0.0
 10
8.6181691146
 20
5.6386003364
 30
0.0
 10
8.6198342765
 20
5.6238177932
 30
0.0
 10
8.620667232
 20
5.6051669646
 30
0.0
 10
8.6198342765
 20
5.586516136
 30
0.0
 10
8.6181691146
 20
5.5717335928
 30
0.0
 10
8.6158622225
 20
5.5572127614
 30
0.0
 10
8.6117987041
 20
5.5395358406
 30
0.0
 10
8.6072499471
 20
5.5258262389
 30
0.0
 10
8.6046712565
 20
5.5191816267
 30
0.0
  0
SPLINE
  5
30A
100
AcDbEntity
  8
0
100
AcDbSpline
 62
7
  6
CONTINUOUS
 70
0
 71
3
 72
15
 73
11
 74
0
 42
0.0000001
 43
0.0000001
 44
0.0000000001
 40
0.0
 40
0.0
 40
0.0
 40
0.0
 40
0.1211251941
 40
0.2455130167
 40
0.3721748689
 40
0.4999999998
 40
0.6278251307
 40
0.7544869829
 40
0.8788748056
 40
1.0
 40
1.0
 40
1.0
 40
1.0
 10
8.5785565042
 20
5.6911523025
 30
0.0
 10
8.5809316232
 20
5.6844912737
 30
0.0
 10
8.5851152345
 20
5.670757222
 30
0.0
 10
8.5896079843
 20
5.6494718194
 30
0.0
 10
8.5923376665
 20
5.6274942765
 30
0.0
 10
8.5932530235
 20
5.6051669646
 30
0.0
 10
8.5923376665
 20
5.5828396527
 30
0.0
 10
8.5896079843
 20
5.5608621099
 30
0.0
 10
8.5851152345
 20
5.5395767072
 30
0.0
 10
8.5809316232
 20
5.5258426555
 30
0.0
 10
8.5785565042
 20
5.5191816267
 30
0.0
  0
SPLINE
  5
30B
100
AcDbEntity
  8
0
100
AcDbSpline
 62
7
  6
CONTINUOUS
 70
0
 71
3
 72
15
 73
11
 74
0
 42
0.0000001
 43
0.0000001
 44
0.0000000001
 40
0.0
 40
0.0
 40
0.0
 40
0.0
 40
0.1180204036
 40
0.2419630777
 40
0.3699554853
 40
0.5000000005
 40
0.6300445156
 40
0.7580369231
 40
0.8819795969
 40
1.0
 40
1.0
 40
1.0
 40
1.0
 10
8.5785565042
 20
5.5191816267
 30
0.0
 10
8.5782582555
 20
5.5259423492
 30
0.0
 10
8.5777380164
 20
5.5398071799
 30
0.0
 10
8.577186273
 20
5.5610136772
 30
0.0
 10
8.5768509131
 20
5.5829142524
 30
0.0
 10
8.576738409
 20
5.6051669647
 30
0.0
 10
8.5768509131
 20
5.627419677
 30
0.0
 10
8.577186273
 20
5.6493202521
 30
0.0
 10
8.5777380164
 20
5.6705267493
 30
0.0
 10
8.5782582555
 20
5.68439158
 30
0.0
 10
8.5785565042
 20
5.6911523025
 30
0.0
  0
SPLINE
  5
30C
100
AcDbEntity
  8
0
100
AcDbSpline
 62
7
  6
CONTINUOUS
 70
0
 71
3
 72
17
 73
13
 74
0
 42
0.0000001
 43
0.0000001
 44
0.0000000001
 40
0.0
 40
0.0
 40
0.0
 40
0.0
 40
0.0597584404
 40
0.1205967205
 40
0.2448967355
 40
0.3717869357
 40
0.4999999998
 40
0.6282130639
 40
0.7551032641
 40
0.8794032791
 40
0.9402415595
 40
1.0
 40
1.0
 40
1.0
 40
1.0
 10
8.5517663612
 20
5.6911523025
 30
0.0
 10
8.5528348927
 20
5.6878426489
 30
0.0
 10
8.5548474568
 20
5.6811161488
 30
0.0
 10
8.5583663599
 20
5.6673014357
 30
0.0
 10
8.561776837
 20
5.6494438155
 30
0.0
 10
8.5642451481
 20
5.6274808707
 30
0.0
 10
8.5650730066
 20
5.6051669646
 30
0.0
 10
8.5642451481
 20
5.5828530585
 30
0.0
 10
8.561776837
 20
5.5608901138
 30
0.0
 10
8.5583663599
 20
5.5430324935
 30
0.0
 10
8.5548474568
 20
5.5292177805
 30
0.0
 10
8.5528348927
 20
5.5224912803
 30
0.0
 10
8.5517663612
 20
5.5191816267
 30
0.0
  0
SPLINE
  5
30D
100
AcDbEntity
  8
0
100
AcDbSpline
 62
7
  6
CONTINUOUS
 70
0
 71
3
 72
15
 73
11
 74
0
 42
0.0000001
 43
0.0000001
 44
0.0000000001
 40
0.0
 40
0.0
 40
0.0
 40
0.0
 40
0.1181634071
 40
0.2421279139
 40
0.3700577308
 40
0.5
 40
0.6299422693
 40
0.7578720861
 40
0.8818365929
 40
1.0
 40
1.0
 40
1.0
 40
1.0
 10
8.5517663612
 20
5.5191816267
 30
0.0
 10
8.5511798947
 20
5.5259373141
 30
0.0
 10
8.5501563782
 20
5.5397962417
 30
0.0
 10
8.549070221
 20
5.5610066657
 30
0.0
 10
8.5484100899
 20
5.5829109187
 30
0.0
 10
8.5481886195
 20
5.6051669646
 30
0.0
 10
8.5484100899
 20
5.6274230105
 30
0.0
 10
8.549070221
 20
5.6493272635
 30
0.0
 10
8.5501563782
 20
5.6705376875
 30
0.0
 10
8.5511798947
 20
5.6843966151
 30
0.0
 10
8.5517663612
 20
5.6911523025
 30
0.0
  0
SPLINE
  5
30E
100
AcDbEntity
  8
0
100
AcDbSpline
 62
7
  6
CONTINUOUS
 70
0
 71
3
 72
19
 73
15
 74
0
 42
0.0000001
 43
0.0000001
 44
0.0000000001
 40
0.0
 40
0.0
 40
0.0
 40
0.0
 40
0.0594243234
 40
0.1200592643
 40
0.181734072
 40
0.244297553
 40
0.3714108628
 40
0.4999999998
 40
0.6285891368
 40
0.7557024466
 40
0.8182659276
 40
0.8799407354
 40
0.9405756765
 40
1.0
 40
1.0
 40
1.0
 40
1.0
 10
8.5244659976
 20
5.6911523025
 30
0.0
 10
8.5254175692
 20
5.6878384084
 30
0.0
 10
8.5272090876
 20
5.6811048015
 30
0.0
 10
8.5295390193
 20
5.6708189346
 30
0.0
 10
8.5315290476
 20
5.6602763329
 30
0.0
 10
8.5337284
 20
5.6458571802
 30
0.0
 10
8.5355653376
 20
5.6274674088
 30
0.0
 10
8.5363007534
 20
5.6051669646
 30
0.0
 10
8.5355653376
 20
5.5828665205
 30
0.0
 10
8.5337284
 20
5.5644767491
 30
0.0
 10
8.5315290476
 20
5.5500575963
 30
0.0
 10
8.5295390193
 20
5.5395149946
 30
0.0
 10
8.5272090876
 20
5.5292291278
 30
0.0
 10
8.5254175692
 20
5.5224955208
 30
0.0
 10
8.5244659976
 20
5.5191816267
 30
0.0
  0
SPLINE
  5
30F
100
AcDbEntity
  8
0
100
AcDbSpline
 62
7
  6
CONTINUOUS
 70
0
 71
3
 72
17
 73
13
 74
0
 42
0.0000001
 43
0.0000001
 44
0.0000000001
 40
0.0
 40
0.0
 40
0.0
 40
0.0
 40
0.0583893196
 40
0.1184025394
 40
0.2423962945
 40
0.3702252965
 40
0.5000000004
 40
0.6297747044
 40
0.7576037062
 40
0.881597461
 40
0.9416106805
 40
1.0
 40
1.0
 40
1.0
 40
1.0
 10
8.5244659976
 20
5.5191816267
 30
0.0
 10
8.5240368098
 20
5.5225094012
 30
0.0
 10
8.5232298957
 20
5.5292658312
 30
0.0
 10
8.5218208527
 20
5.543124217
 30
0.0
 10
8.5204611702
 20
5.5609956712
 30
0.0
 10
8.5194798257
 20
5.5829054353
 30
0.0
 10
8.5191506901
 20
5.6051669647
 30
0.0
 10
8.5194798257
 20
5.6274284941
 30
0.0
 10
8.5204611702
 20
5.6493382581
 30
0.0
 10
8.5218208527
 20
5.6672097123
 30
0.0
 10
8.5232298957
 20
5.681068098
 30
0.0
 10
8.5240368098
 20
5.687824528
 30
0.0
 10
8.5244659976
 20
5.6911523025
 30
0.0
  0
SPLINE
  5
310
100
AcDbEntity
  8
0
100
AcDbSpline
 62
7
  6
CONTINUOUS
 70
0
 71
3
 72
19
 73
15
 74
0
 42
0.0000001
 43
0.0000001
 44
0.0000000001
 40
0.0
 40
0.0
 40
0.0
 40
0.0
 40
0.0591134298
 40
0.119560871
 40
0.1811544434
 40
0.2437253932
 40
0.3710535738
 40
0.4999999998
 40
0.6289464258
 40
0.7562746063
 40
0.8188455562
 40
0.8804391287
 40
0.9408865701
 40
1.0
 40
1.0
 40
1.0
 40
1.0
 10
8.4968237292
 20
5.6911523025
 30
0.0
 10
8.4976521202
 20
5.6878343422
 30
0.0
 10
8.4992111082
 20
5.6810939403
 30
0.0
 10
8.5012362961
 20
5.6708096622
 30
0.0
 10
8.5029660579
 20
5.6602687017
 30
0.0
 10
8.5048788097
 20
5.6458438173
 30
0.0
 10
8.5064749325
 20
5.6274554927
 30
0.0
 10
8.5071137143
 20
5.6051669646
 30
0.0
 10
8.5064749325
 20
5.5828784365
 30
0.0
 10
8.5048788097
 20
5.564490112
 30
0.0
 10
8.5029660579
 20
5.5500652276
 30
0.0
 10
8.5012362961
 20
5.539524267
 30
0.0
 10
8.4992111082
 20
5.5292399889
 30
0.0
 10
8.4976521202
 20
5.522499587
 30
0.0
 10
8.4968237292
 20
5.5191816267
 30
0.0
  0
SPLINE
  5
311
100
AcDbEntity
  8
0
100
AcDbSpline
 62
7
  6
CONTINUOUS
 70
0
 71
3
 72
23
 73
19
 74
0
 42
0.0000001
 43
0.0000001
 44
0.0000000001
 40
0.0
 40
0.0
 40
0.0
 40
0.0
 40
0.061375252
 40
0.1232161378
 40
0.1854336066
 40
0.2479541786
 40
0.3107269573
 40
0.3737013979
 40
0.4368158438
 40
0.5000000017
 40
0.5631841592
 40
0.6262986045
 40
0.6892730445
 40
0.7520458228
 40
0.8145663944
 40
0.8767838627
 40
0.9386247481
 40
1.0
 40
1.0
 40
1.0
 40
1.0
 10
2.4334653578
 20
5.5191816267
 30
0.0
 10
2.4319276972
 20
5.522470156
 30
0.0
 10
2.4290265347
 20
5.5291607912
 30
0.0
 10
2.4252254717
 20
5.539454885
 30
0.0
 10
2.4219773148
 20
5.5500078722
 30
0.0
 10
2.4193004947
 20
5.5607766912
 30
0.0
 10
2.4172047404
 20
5.5717190783
 30
0.0
 10
2.4157014635
 20
5.5827939109
 30
0.0
 10
2.414796518
 20
5.5939579613
 30
0.0
 10
2.4144934376
 20
5.6051669649
 30
0.0
 10
2.414796518
 20
5.6163759684
 30
0.0
 10
2.4157014636
 20
5.6275400187
 30
0.0
 10
2.4172047405
 20
5.6386148512
 30
0.0
 10
2.4193004948
 20
5.6495572382
 30
0.0
 10
2.4219773148
 20
5.6603260571
 30
0.0
 10
2.4252254717
 20
5.6708790443
 30
0.0
 10
2.4290265347
 20
5.681173138
 30
0.0
 10
2.4319276972
 20
5.6878637732
 30
0.0
 10
2.4334653578
 20
5.6911523025
 30
0.0
  0
SPLINE
  5
312
100
AcDbEntity
  8
0
100
AcDbSpline
 62
7
  6
CONTINUOUS
 70
0
 71
3
 72
19
 73
15
 74
0
 42
0.0000001
 43
0.0000001
 44
0.0000000001
 40
0.0
 40
0.0
 40
0.0
 40
0.0
 40
0.0585877274
 40
0.1187194565
 40
0.1801771634
 40
0.2427617164
 40
0.3704526426
 40
0.5000000004
 40
0.6295473583
 40
0.7572382844
 40
0.8198228373
 40
0.8812805439
 40
0.9414122728
 40
1.0
 40
1.0
 40
1.0
 40
1.0
 10
8.4968237292
 20
5.5191816267
 30
0.0
 10
8.4962573534
 20
5.5225066592
 30
0.0
 10
8.4951922325
 20
5.5292586573
 30
0.0
 10
8.4938113256
 20
5.53954004
 30
0.0
 10
8.4926318247
 20
5.5500780985
 30
0.0
 10
8.4913263423
 20
5.5645124818
 30
0.0
 10
8.4902386076
 20
5.5828981923
 30
0.0
 10
8.4898035287
 20
5.6051669647
 30
0.0
 10
8.4902386076
 20
5.6274357371
 30
0.0
 10
8.4913263423
 20
5.6458214475
 30
0.0
 10
8.4926318248
 20
5.6602558308
 30
0.0
 10
8.4938113256
 20
5.6707938893
 30
0.0
 10
8.4951922325
 20
5.6810752719
 30
0.0
 10
8.4962573534
 20
5.68782727
 30
0.0
 10
8.4968237292
 20
5.6911523025
 30
0.0
  0
SPLINE
  5
313
100
AcDbEntity
  8
0
100
AcDbSpline
 62
7
  6
CONTINUOUS
 70
0
 71
3
 72
19
 73
15
 74
0
 42
0.0000001
 43
0.0000001
 44
0.0000000001
 40
0.0
 40
0.0
 40
0.0
 40
0.0
 40
0.0588317681
 40
0.1191098464
 40
0.1806303902
 40
0.2432084767
 40
0.3707311028
 40
0.4999999998
 40
0.6292688967
 40
0.7567915229
 40
0.8193696094
 40
0.8808901533
 40
0.9411682318
 40
1.0
 40
1.0
 40
1.0
 40
1.0
 10
8.4690099797
 20
5.6911523025
 30
0.0
 10
8.469709707
 20
5.6878305843
 30
0.0
 10
8.4710260584
 20
5.6810839857
 30
0.0
 10
8.4727342524
 20
5.6708012259
 30
0.0
 10
8.4741932828
 20
5.6602618004
 30
0.0
 10
8.4758074599
 20
5.6458317966
 30
0.0
 10
8.4771533402
 20
5.6274448471
 30
0.0
 10
8.4776918095
 20
5.6051669646
 30
0.0
 10
8.4771533402
 20
5.5828890822
 30
0.0
 10
8.4758074599
 20
5.5645021326
 30
0.0
 10
8.4741932828
 20
5.5500721289
 30
0.0
 10
8.4727342524
 20
5.5395327033
 30
0.0
 10
8.4710260584
 20
5.5292499435
 30
0.0
 10
8.469709707
 20
5.5225033449
 30
0.0
 10
8.4690099797
 20
5.5191816267
 30
0.0
  0
SPLINE
  5
314
100
AcDbEntity
  8
0
100
AcDbSpline
 62
7
  6
CONTINUOUS
 70
0
 71
3
 72
19
 73
15
 74
0
 42
0.0000001
 43
0.0000001
 44
0.0000000001
 40
0.0
 40
0.0
 40
0.0
 40
0.0
 40
0.0588317683
 40
0.1191098468
 40
0.1806303907
 40
0.2432084773
 40
0.3707311035
 40
0.5000000004
 40
0.6292688974
 40
0.7567915234
 40
0.81936961
 40
0.8808901537
 40
0.9411682319
 40
1.0
 40
1.0
 40
1.0
 40
1.0
 10
8.4690099797
 20
5.5191816267
 30
0.0
 10
8.4683102525
 20
5.5225033449
 30
0.0
 10
8.466993901
 20
5.5292499435
 30
0.0
 10
8.465285707
 20
5.5395327033
 30
0.0
 10
8.4638266766
 20
5.5500721289
 30
0.0
 10
8.4622124995
 20
5.5645021327
 30
0.0
 10
8.4608666192
 20
5.5828890822
 30
0.0
 10
8.46032815
 20
5.6051669647
 30
0.0
 10
8.4608666192
 20
5.6274448471
 30
0.0
 10
8.4622124996
 20
5.6458317966
 30
0.0
 10
8.4638266766
 20
5.6602618004
 30
0.0
 10
8.4652857071
 20
5.6708012259
 30
0.0
 10
8.466993901
 20
5.6810839857
 30
0.0
 10
8.4683102525
 20
5.6878305843
 30
0.0
 10
8.4690099797
 20
5.6911523025
 30
0.0
  0
SPLINE
  5
315
100
AcDbEntity
  8
0
100
AcDbSpline
 62
7
  6
CONTINUOUS
 70
0
 71
3
 72
19
 73
15
 74
0
 42
0.0000001
 43
0.0000001
 44
0.0000000001
 40
0.0
 40
0.0
 40
0.0
 40
0.0
 40
0.0585877273
 40
0.1187194561
 40
0.1801771629
 40
0.2427617158
 40
0.3704526419
 40
0.4999999998
 40
0.6295473576
 40
0.7572382838
 40
0.8198228367
 40
0.8812805436
 40
0.9414122726
 40
1.0
 40
1.0
 40
1.0
 40
1.0
 10
8.4411962303
 20
5.6911523025
 30
0.0
 10
8.441762606
 20
5.68782727
 30
0.0
 10
8.4428277269
 20
5.6810752719
 30
0.0
 10
8.4442086338
 20
5.6707938892
 30
0.0
 10
8.4453881347
 20
5.6602558308
 30
0.0
 10
8.4466936172
 20
5.6458214474
 30
0.0
 10
8.4477813519
 20
5.627435737
 30
0.0
 10
8.4482164307
 20
5.6051669646
 30
0.0
 10
8.4477813519
 20
5.5828981922
 30
0.0
 10
8.4466936172
 20
5.5645124818
 30
0.0
 10
8.4453881347
 20
5.5500780985
 30
0.0
 10
8.4442086338
 20
5.53954004
 30
0.0
 10
8.4428277269
 20
5.5292586573
 30
0.0
 10
8.441762606
 20
5.5225066592
 30
0.0
 10
8.4411962303
 20
5.5191816267
 30
0.0
  0
SPLINE
  5
316
100
AcDbEntity
  8
0
100
AcDbSpline
 62
7
  6
CONTINUOUS
 70
0
 71
3
 72
19
 73
15
 74
0
 42
0.0000001
 43
0.0000001
 44
0.0000000001
 40
0.0
 40
0.0
 40
0.0
 40
0.0
 40
0.0591134299
 40
0.1195608714
 40
0.181154444
 40
0.2437253938
 40
0.3710535745
 40
0.5000000004
 40
0.6289464264
 40
0.7562746069
 40
0.8188455567
 40
0.880439129
 40
0.9408865702
 40
1.0
 40
1.0
 40
1.0
 40
1.0
 10
8.4411962303
 20
5.5191816267
 30
0.0
 10
8.4403678392
 20
5.522499587
 30
0.0
 10
8.4388088513
 20
5.5292399889
 30
0.0
 10
8.4367836633
 20
5.539524267
 30
0.0
 10
8.4350539015
 20
5.5500652276
 30
0.0
 10
8.4331411497
 20
5.564490112
 30
0.0
 10
8.4315450269
 20
5.5828784366
 30
0.0
 10
8.4309062451
 20
5.6051669647
 30
0.0
 10
8.4315450269
 20
5.6274554928
 30
0.0
 10
8.4331411498
 20
5.6458438173
 30
0.0
 10
8.4350539015
 20
5.6602687017
 30
0.0
 10
8.4367836633
 20
5.6708096622
 30
0.0
 10
8.4388088513
 20
5.6810939403
 30
0.0
 10
8.4403678392
 20
5.6878343422
 30
0.0
 10
8.4411962303
 20
5.6911523025
 30
0.0
  0
SPLINE
  5
317
100
AcDbEntity
  8
0
100
AcDbSpline
 62
7
  6
CONTINUOUS
 70
0
 71
3
 72
17
 73
13
 74
0
 42
0.0000001
 43
0.0000001
 44
0.0000000001
 40
0.0
 40
0.0
 40
0.0
 40
0.0
 40
0.0583893195
 40
0.1184025391
 40
0.242396294
 40
0.3702252958
 40
0.4999999998
 40
0.6297747038
 40
0.7576037056
 40
0.8815974606
 40
0.9416106804
 40
1.0
 40
1.0
 40
1.0
 40
1.0
 10
8.4135539619
 20
5.6911523025
 30
0.0
 10
8.4139831497
 20
5.687824528
 30
0.0
 10
8.4147900638
 20
5.681068098
 30
0.0
 10
8.4161991067
 20
5.6672097123
 30
0.0
 10
8.4175587892
 20
5.6493382581
 30
0.0
 10
8.4185401338
 20
5.627428494
 30
0.0
 10
8.4188692694
 20
5.6051669646
 30
0.0
 10
8.4185401338
 20
5.5829054352
 30
0.0
 10
8.4175587892
 20
5.5609956712
 30
0.0
 10
8.4161991067
 20
5.5431242169
 30
0.0
 10
8.4147900638
 20
5.5292658312
 30
0.0
 10
8.4139831497
 20
5.5225094012
 30
0.0
 10
8.4135539619
 20
5.5191816267
 30
0.0
  0
SPLINE
  5
318
100
AcDbEntity
  8
0
100
AcDbSpline
 62
7
  6
CONTINUOUS
 70
0
 71
3
 72
19
 73
15
 74
0
 42
0.0000001
 43
0.0000001
 44
0.0000000001
 40
0.0
 40
0.0
 40
0.0
 40
0.0
 40
0.0594243235
 40
0.1200592647
 40
0.1817340725
 40
0.2442975536
 40
0.3714108634
 40
0.5000000004
 40
0.6285891374
 40
0.7557024472
 40
0.8182659281
 40
0.8799407358
 40
0.9405756766
 40
1.0
 40
1.0
 40
1.0
 40
1.0
 10
8.4135539619
 20
5.5191816267
 30
0.0
 10
8.4126023903
 20
5.5224955208
 30
0.0
 10
8.4108108718
 20
5.5292291278
 30
0.0
 10
8.4084809401
 20
5.5395149946
 30
0.0
 10
8.4064909119
 20
5.5500575964
 30
0.0
 10
8.4042915594
 20
5.5644767491
 30
0.0
 10
8.4024546218
 20
5.5828665205
 30
0.0
 10
8.401719206
 20
5.6051669647
 30
0.0
 10
8.4024546218
 20
5.6274674088
 30
0.0
 10
8.4042915594
 20
5.6458571802
 30
0.0
 10
8.4064909119
 20
5.6602763329
 30
0.0
 10
8.4084809401
 20
5.6708189346
 30
0.0
 10
8.4108108718
 20
5.6811048015
 30
0.0
 10
8.4126023903
 20
5.6878384084
 30
0.0
 10
8.4135539619
 20
5.6911523025
 30
0.0
  0
SPLINE
  5
319
100
AcDbEntity
  8
0
100
AcDbSpline
 62
7
  6
CONTINUOUS
 70
0
 71
3
 72
19
 73
15
 74
0
 42
0.0000001
 43
0.0000001
 44
0.0000000001
 40
0.0
 40
0.0
 40
0.0
 40
0.0
 40
0.0588099353
 40
0.1190938557
 40
0.2432068254
 40
0.3707186139
 40
0.4352486261
 40
0.5
 40
0.5647513739
 40
0.6292813861
 40
0.7567931746
 40
0.8809061443
 40
0.9411900647
 40
1.0
 40
1.0
 40
1.0
 40
1.0
 10
2.6418352298
 20
5.5191816267
 30
0.0
 10
2.6425346957
 20
5.5225021042
 30
0.0
 10
2.6438506045
 20
5.5292478657
 30
0.0
 10
2.6461505796
 20
5.5430926737
 30
0.0
 10
2.6483733454
 20
5.5609611244
 30
0.0
 10
2.649705838
 20
5.5791625075
 30
0.0
 10
2.6502460358
 20
5.5939709059
 30
0.0
 10
2.6503822509
 20
5.6051669646
 30
0.0
 10
2.6502460358
 20
5.6163630233
 30
0.0
 10
2.649705838
 20
5.6311714217
 30
0.0
 10
2.6483733454
 20
5.6493728048
 30
0.0
 10
2.6461505796
 20
5.6672412555
 30
0.0
 10
2.6438506045
 20
5.6810860635
 30
0.0
 10
2.6425346957
 20
5.687831825
 30
0.0
 10
2.6418352298
 20
5.6911523025
 30
0.0
  0
SPLINE
  5
31A
100
AcDbEntity
  8
0
100
AcDbSpline
 62
7
  6
CONTINUOUS
 70
0
 71
3
 72
15
 73
11
 74
0
 42
0.0000001
 43
0.0000001
 44
0.0000000001
 40
0.0
 40
0.0
 40
0.0
 40
0.0
 40
0.118164987
 40
0.2421275316
 40
0.3700579914
 40
0.4999999998
 40
0.6299420082
 40
0.757872468
 40
0.8818350126
 40
1.0
 40
1.0
 40
1.0
 40
1.0
 10
8.3862535982
 20
5.6911523025
 30
0.0
 10
8.3868400726
 20
5.6843965248
 30
0.0
 10
8.3878635967
 20
5.6705376197
 30
0.0
 10
8.3889497205
 20
5.6493271792
 30
0.0
 10
8.3896098652
 20
5.6274230175
 30
0.0
 10
8.3898313195
 20
5.6051669646
 30
0.0
 10
8.3896098652
 20
5.5829109118
 30
0.0
 10
8.3889497205
 20
5.56100675
 30
0.0
 10
8.3878635967
 20
5.5397963095
 30
0.0
 10
8.3868400726
 20
5.5259374044
 30
0.0
 10
8.3862535982
 20
5.5191816267
 30
0.0
  0
SPLINE
  5
31B
100
AcDbEntity
  8
0
100
AcDbSpline
 62
7
  6
CONTINUOUS
 70
0
 71
3
 72
17
 73
13
 74
0
 42
0.0000001
 43
0.0000001
 44
0.0000000001
 40
0.0
 40
0.0
 40
0.0
 40
0.0
 40
0.0597584405
 40
0.1205967209
 40
0.2448967361
 40
0.3717869364
 40
0.5000000004
 40
0.6282130645
 40
0.7551032647
 40
0.8794032795
 40
0.9402415596
 40
1.0
 40
1.0
 40
1.0
 40
1.0
 10
8.3862535982
 20
5.5191816267
 30
0.0
 10
8.3851850668
 20
5.5224912803
 30
0.0
 10
8.3831725026
 20
5.5292177805
 30
0.0
 10
8.3796535995
 20
5.5430324935
 30
0.0
 10
8.3762431225
 20
5.5608901138
 30
0.0
 10
8.3737748114
 20
5.5828530586
 30
0.0
 10
8.3729469529
 20
5.6051669647
 30
0.0
 10
8.3737748114
 20
5.6274808708
 30
0.0
 10
8.3762431225
 20
5.6494438155
 30
0.0
 10
8.3796535995
 20
5.6673014357
 30
0.0
 10
8.3831725026
 20
5.6811161488
 30
0.0
 10
8.3851850668
 20
5.6878426489
 30
0.0
 10
8.3862535982
 20
5.6911523025
 30
0.0
  0
SPLINE
  5
31C
100
AcDbEntity
  8
0
100
AcDbSpline
 62
7
  6
CONTINUOUS
 70
0
 71
3
 72
15
 73
11
 74
0
 42
0.0000001
 43
0.0000001
 44
0.0000000001
 40
0.0
 40
0.0
 40
0.0
 40
0.0
 40
0.1180204032
 40
0.2419630771
 40
0.3699554847
 40
0.4999999998
 40
0.6300445149
 40
0.7580369225
 40
0.8819795965
 40
1.0
 40
1.0
 40
1.0
 40
1.0
 10
8.3594634552
 20
5.6911523025
 30
0.0
 10
8.359761704
 20
5.68439158
 30
0.0
 10
8.3602819431
 20
5.6705267493
 30
0.0
 10
8.3608336864
 20
5.6493202521
 30
0.0
 10
8.3611690463
 20
5.6274196769
 30
0.0
 10
8.3612815505
 20
5.6051669646
 30
0.0
 10
8.3611690463
 20
5.5829142523
 30
0.0
 10
8.3608336864
 20
5.5610136771
 30
0.0
 10
8.3602819431
 20
5.5398071799
 30
0.0
 10
8.359761704
 20
5.5259423492
 30
0.0
 10
8.3594634552
 20
5.5191816267
 30
0.0
  0
SPLINE
  5
31D
100
AcDbEntity
  8
0
100
AcDbSpline
 62
7
  6
CONTINUOUS
 70
0
 71
3
 72
15
 73
11
 74
0
 42
0.0000001
 43
0.0000001
 44
0.0000000001
 40
0.0
 40
0.0
 40
0.0
 40
0.0
 40
0.1211251944
 40
0.2455130173
 40
0.3721748695
 40
0.5000000004
 40
0.6278251314
 40
0.7544869835
 40
0.878874806
 40
1.0
 40
1.0
 40
1.0
 40
1.0
 10
8.3594634552
 20
5.5191816267
 30
0.0
 10
8.3570883363
 20
5.5258426555
 30
0.0
 10
8.3529047249
 20
5.5395767073
 30
0.0
 10
8.3484119752
 20
5.5608621099
 30
0.0
 10
8.3456822929
 20
5.5828396528
 30
0.0
 10
8.344766936
 20
5.6051669647
 30
0.0
 10
8.3456822929
 20
5.6274942766
 30
0.0
 10
8.3484119752
 20
5.6494718194
 30
0.0
 10
8.352904725
 20
5.670757222
 30
0.0
 10
8.3570883363
 20
5.6844912737
 30
0.0
 10
8.3594634552
 20
5.6911523025
 30
0.0
  0
SPLINE
  5
31E
100
AcDbEntity
  8
0
100
AcDbSpline
 62
7
  6
CONTINUOUS
 70
0
 71
3
 72
23
 73
19
 74
0
 42
0.0000001
 43
0.0000001
 44
0.0000000001
 40
0.0
 40
0.0
 40
0.0
 40
0.0
 40
0.0616498091
 40
0.1236597362
 40
0.1859526468
 40
0.2484684474
 40
0.3111710886
 40
0.3740255226
 40
0.4369863627
 40
0.5000000017
 40
0.5630136403
 40
0.6259744797
 40
0.6888289132
 40
0.7515315539
 40
0.8140473542
 40
0.8763402643
 40
0.938350191
 40
1.0
 40
1.0
 40
1.0
 40
1.0
 10
2.4116058966
 20
5.5191816267
 30
0.0
 10
2.4100009123
 20
5.5224670456
 30
0.0
 10
2.4069720091
 20
5.5291519963
 30
0.0
 10
2.4029998855
 20
5.5394469557
 30
0.0
 10
2.3996054981
 20
5.5500009911
 30
0.0
 10
2.3968081353
 20
5.5607710299
 30
0.0
 10
2.3946179946
 20
5.5717147235
 30
0.0
 10
2.3930470029
 20
5.5827909638
 30
0.0
 10
2.3921012924
 20
5.5939564725
 30
0.0
 10
2.3917845585
 20
5.6051669649
 30
0.0
 10
2.3921012924
 20
5.6163774573
 30
0.0
 10
2.393047003
 20
5.6275429658
 30
0.0
 10
2.3946179946
 20
5.638619206
 30
0.0
 10
2.3968081353
 20
5.6495628996
 30
0.0
 10
2.3996054982
 20
5.6603329383
 30
0.0
 10
2.4029998856
 20
5.6708869736
 30
0.0
 10
2.4069720091
 20
5.6811819329
 30
0.0
 10
2.4100009123
 20
5.6878668835
 30
0.0
 10
2.4116058966
 20
5.6911523025
 30
0.0
  0
SPLINE
  5
31F
100
AcDbEntity
  8
0
100
AcDbSpline
 62
7
  6
CONTINUOUS
 70
0
 71
3
 72
17
 73
13
 74
0
 42
0.0000001
 43
0.0000001
 44
0.0000000001
 40
0.0
 40
0.0
 40
0.0
 40
0.0
 40
0.1216700181
 40
0.24613304
 40
0.3091713695
 40
0.3725823309
 40
0.5000000004
 40
0.62741767
 40
0.6908286313
 40
0.7538669608
 40
0.8783299824
 40
1.0
 40
1.0
 40
1.0
 40
1.0
 10
8.333348703
 20
5.5191816267
 30
0.0
 10
8.3307700124
 20
5.5258262389
 30
0.0
 10
8.3262212553
 20
5.5395358406
 30
0.0
 10
8.322157737
 20
5.5572127614
 30
0.0
 10
8.3198508448
 20
5.5717335929
 30
0.0
 10
8.3181856829
 20
5.586516136
 30
0.0
 10
8.3173527274
 20
5.6051669647
 30
0.0
 10
8.3181856829
 20
5.6238177933
 30
0.0
 10
8.3198508449
 20
5.6386003364
 30
0.0
 10
8.322157737
 20
5.6531211679
 30
0.0
 10
8.3262212553
 20
5.6707980886
 30
0.0
 10
8.3307700124
 20
5.6845076903
 30
0.0
 10
8.333348703
 20
5.6911523025
 30
0.0
  0
SPLINE
  5
320
100
AcDbEntity
  8
0
100
AcDbSpline
 62
7
  6
CONTINUOUS
 70
0
 71
3
 72
15
 73
11
 74
0
 42
0.0000001
 43
0.0000001
 44
0.0000000001
 40
0.0
 40
0.0
 40
0.0
 40
0.0
 40
0.1222217281
 40
0.2467760229
 40
0.3729678997
 40
0.5000000004
 40
0.6270321011
 40
0.7532239779
 40
0.8777782723
 40
1.0
 40
1.0
 40
1.0
 40
1.0
 10
8.3080703476
 20
5.5191816267
 30
0.0
 10
8.3053047173
 20
5.5258104506
 30
0.0
 10
8.3004194156
 20
5.5394969157
 30
0.0
 10
8.2951494164
 20
5.5608071664
 30
0.0
 10
8.2919474277
 20
5.5828118146
 30
0.0
 10
8.2908737312
 20
5.6051669647
 30
0.0
 10
8.2919474277
 20
5.6275221148
 30
0.0
 10
8.2951494165
 20
5.6495267629
 30
0.0
 10
8.3004194156
 20
5.6708370135
 30
0.0
 10
8.3053047173
 20
5.6845234786
 30
0.0
 10
8.3080703476
 20
5.6911523025
 30
0.0
  0
SPLINE
  5
321
100
AcDbEntity
  8
0
100
AcDbSpline
 62
7
  6
CONTINUOUS
 70
0
 71
3
 72
23
 73
19
 74
0
 42
0.0000001
 43
0.0000001
 44
0.0000000001
 40
0.0
 40
0.0
 40
0.0
 40
0.0
 40
0.0618911951
 40
0.1240500978
 40
0.1864097568
 40
0.2489216523
 40
0.3115626859
 40
0.3743114145
 40
0.4371368014
 40
0.5000000017
 40
0.5628632016
 40
0.6256885878
 40
0.6884373159
 40
0.7510783491
 40
0.8135902441
 40
0.8759499027
 40
0.938108805
 40
1.0
 40
1.0
 40
1.0
 40
1.0
 10
2.3911658758
 20
5.5191816267
 30
0.0
 10
2.389503371
 20
5.5224643556
 30
0.0
 10
2.3863652929
 20
5.5291443429
 30
0.0
 10
2.3822466616
 20
5.5394400138
 30
0.0
 10
2.3787270206
 20
5.5499949346
 30
0.0
 10
2.3758263976
 20
5.560766025
 30
0.0
 10
2.3735553982
 20
5.5717108602
 30
0.0
 10
2.3719263935
 20
5.5827883429
 30
0.0
 10
2.3709457574
 20
5.5939551464
 30
0.0
 10
2.3706173256
 20
5.6051669649
 30
0.0
 10
2.3709457574
 20
5.6163787833
 30
0.0
 10
2.3719263936
 20
5.6275455867
 30
0.0
 10
2.3735553983
 20
5.6386230693
 30
0.0
 10
2.3758263977
 20
5.6495679044
 30
0.0
 10
2.3787270206
 20
5.6603389948
 30
0.0
 10
2.3822466616
 20
5.6708939155
 30
0.0
 10
2.3863652929
 20
5.6811895863
 30
0.0
 10
2.389503371
 20
5.6878695736
 30
0.0
 10
2.3911658758
 20
5.6911523025
 30
0.0
  0
SPLINE
  5
322
100
AcDbEntity
  8
0
100
AcDbSpline
 62
7
  6
CONTINUOUS
 70
0
 71
3
 72
21
 73
17
 74
0
 42
0.0000001
 43
0.0000001
 44
0.0000000001
 40
0.0
 40
0.0
 40
0.0
 40
0.0
 40
0.1247974051
 40
0.1872774438
 40
0.2497837837
 40
0.3123166163
 40
0.37486772
 40
0.4374306823
 40
0.5000000004
 40
0.5625693186
 40
0.6251322808
 40
0.6876833845
 40
0.750216217
 40
0.8127225569
 40
0.8752025954
 40
1.0
 40
1.0
 40
1.0
 40
1.0
 10
8.1243048429
 20
5.5191816267
 30
0.0
 10
8.1207587925
 20
5.5257390485
 30
0.0
 10
8.116033342
 20
5.5359201628
 30
0.0
 10
8.1110271651
 20
5.5499830052
 30
0.0
 10
8.1079280124
 20
5.5607553735
 30
0.0
 10
8.1055023561
 20
5.5717026826
 30
0.0
 10
8.103761511
 20
5.5827831993
 30
0.0
 10
8.1027134894
 20
5.5939527237
 30
0.0
 10
8.1023638791
 20
5.6051669647
 30
0.0
 10
8.1027134894
 20
5.6163812057
 30
0.0
 10
8.1037615111
 20
5.6275507301
 30
0.0
 10
8.1055023561
 20
5.6386312467
 30
0.0
 10
8.1079280124
 20
5.6495785558
 30
0.0
 10
8.1110271651
 20
5.6603509241
 30
0.0
 10
8.1160333421
 20
5.6744137664
 30
0.0
 10
8.1207587925
 20
5.6845948808
 30
0.0
 10
8.1243048429
 20
5.6911523025
 30
0.0
  0
SPLINE
  5
323
100
AcDbEntity
  8
0
100
AcDbSpline
 62
7
  6
CONTINUOUS
 70
0
 71
3
 72
23
 73
19
 74
0
 42
0.0000001
 43
0.0000001
 44
0.0000000001
 40
0.0
 40
0.0
 40
0.0
 40
0.0
 40
0.0624663942
 40
0.1249602538
 40
0.187453472
 40
0.2499514977
 40
0.3124583267
 40
0.374969862
 40
0.4374840717
 40
0.5000000004
 40
0.5625159292
 40
0.6250301388
 40
0.6875416741
 40
0.750048503
 40
0.8125465287
 40
0.8750397466
 40
0.937533606
 40
1.0
 40
1.0
 40
1.0
 40
1.0
 10
8.1318604447
 20
5.5191816267
 30
0.0
 10
8.1300709307
 20
5.5224596467
 30
0.0
 10
8.1266919513
 20
5.5291290987
 30
0.0
 10
8.1222505925
 20
5.5394261933
 30
0.0
 10
8.1184568259
 20
5.5499816291
 30
0.0
 10
8.1153282805
 20
5.5607537097
 30
0.0
 10
8.1128793052
 20
5.5717015185
 30
0.0
 10
8.1111217959
 20
5.5827823719
 30
0.0
 10
8.1100637217
 20
5.5939523102
 30
0.0
 10
8.1097107614
 20
5.6051669647
 30
0.0
 10
8.1100637217
 20
5.6163816191
 30
0.0
 10
8.111121796
 20
5.6275515574
 30
0.0
 10
8.1128793053
 20
5.6386324108
 30
0.0
 10
8.1153282805
 20
5.6495802196
 30
0.0
 10
8.1184568259
 20
5.6603523002
 30
0.0
 10
8.1222505925
 20
5.670907736
 30
0.0
 10
8.1266919513
 20
5.6812048305
 30
0.0
 10
8.1300709307
 20
5.6878742825
 30
0.0
 10
8.1318604447
 20
5.6911523025
 30
0.0
  0
SPLINE
  5
324
100
AcDbEntity
  8
0
100
AcDbSpline
 62
7
  6
CONTINUOUS
 70
0
 71
3
 72
23
 73
19
 74
0
 42
0.0000001
 43
0.0000001
 44
0.0000000001
 40
0.0
 40
0.0
 40
0.0
 40
0.0
 40
0.0624918214
 40
0.1250014585
 40
0.1875018089
 40
0.2499995066
 40
0.3124998653
 40
0.3750002188
 40
0.4375000556
 40
0.5000000004
 40
0.5624999452
 40
0.6249997821
 40
0.6875001355
 40
0.7500004942
 40
0.8124981918
 40
0.874998542
 40
0.9375081787
 40
1.0
 40
1.0
 40
1.0
 40
1.0
 10
8.1414946855
 20
5.5191816267
 30
0.0
 10
8.1396994904
 20
5.5224593757
 30
0.0
 10
8.136309723
 20
5.5291283137
 30
0.0
 10
8.1318538136
 20
5.5394254702
 30
0.0
 10
8.1280476095
 20
5.5499809912
 30
0.0
 10
8.1249088027
 20
5.5607531748
 30
0.0
 10
8.1224517915
 20
5.5717011024
 30
0.0
 10
8.1206885133
 20
5.5827820872
 30
0.0
 10
8.1196269653
 20
5.5939521656
 30
0.0
 10
8.119272846
 20
5.6051669647
 30
0.0
 10
8.1196269653
 20
5.6163817637
 30
0.0
 10
8.1206885133
 20
5.6275518421
 30
0.0
 10
8.1224517915
 20
5.638632827
 30
0.0
 10
8.1249088027
 20
5.6495807545
 30
0.0
 10
8.1280476096
 20
5.6603529381
 30
0.0
 10
8.1318538136
 20
5.6709084591
 30
0.0
 10
8.136309723
 20
5.6812056155
 30
0.0
 10
8.1396994904
 20
5.6878745535
 30
0.0
 10
8.1414946855
 20
5.6911523025
 30
0.0
  0
SPLINE
  5
325
100
AcDbEntity
  8
0
100
AcDbSpline
 62
7
  6
CONTINUOUS
 70
0
 71
3
 72
23
 73
19
 74
0
 42
0.0000001
 43
0.0000001
 44
0.0000000001
 40
0.0
 40
0.0
 40
0.0
 40
0.0
 40
0.0624689656
 40
0.1249644206
 40
0.1874583599
 40
0.2499563523
 40
0.3124625269
 40
0.3749729315
 40
0.4374856878
 40
0.5000000004
 40
0.562514313
 40
0.6250270693
 40
0.6875374739
 40
0.7500436485
 40
0.8125416408
 40
0.8750355798
 40
0.9375310345
 40
1.0
 40
1.0
 40
1.0
 40
1.0
 10
8.1531481669
 20
5.5191816267
 30
0.0
 10
8.1513580778
 20
5.5224596192
 30
0.0
 10
8.1479780064
 20
5.5291290193
 30
0.0
 10
8.1435351749
 20
5.5394261201
 30
0.0
 10
8.1397401495
 20
5.5499815646
 30
0.0
 10
8.1366105654
 20
5.5607536557
 30
0.0
 10
8.1341607768
 20
5.5717014765
 30
0.0
 10
8.1324026836
 20
5.5827823431
 30
0.0
 10
8.1313442578
 20
5.5939522956
 30
0.0
 10
8.1309911803
 20
5.6051669647
 30
0.0
 10
8.1313442578
 20
5.6163816337
 30
0.0
 10
8.1324026837
 20
5.6275515862
 30
0.0
 10
8.1341607769
 20
5.6386324529
 30
0.0
 10
8.1366105655
 20
5.6495802737
 30
0.0
 10
8.1397401495
 20
5.6603523647
 30
0.0
 10
8.1435351749
 20
5.6709078091
 30
0.0
 10
8.1479780065
 20
5.6812049099
 30
0.0
 10
8.1513580778
 20
5.68787431
 30
0.0
 10
8.1531481669
 20
5.6911523025
 30
0.0
  0
SPLINE
  5
326
100
AcDbEntity
  8
0
100
AcDbSpline
 62
7
  6
CONTINUOUS
 70
0
 71
3
 72
21
 73
17
 74
0
 42
0.0000001
 43
0.0000001
 44
0.0000000001
 40
0.0
 40
0.0
 40
0.0
 40
0.0
 40
0.124805625
 40
0.1872870979
 40
0.2497933769
 40
0.3123249183
 40
0.3748737878
 40
0.4374338773
 40
0.5000000004
 40
0.5625661236
 40
0.6251262131
 40
0.6876750825
 40
0.7502066239
 40
0.8127129027
 40
0.8751943754
 40
1.0
 40
1.0
 40
1.0
 40
1.0
 10
8.1667490415
 20
5.5191816267
 30
0.0
 10
8.1632007534
 20
5.5257388346
 30
0.0
 10
8.1584721829
 20
5.5359198139
 30
0.0
 10
8.1534625927
 20
5.5499828771
 30
0.0
 10
8.1503613691
 20
5.5607552665
 30
0.0
 10
8.1479340915
 20
5.5717025994
 30
0.0
 10
8.1461920825
 20
5.5827831424
 30
0.0
 10
8.14514336
 20
5.5939526948
 30
0.0
 10
8.1447935159
 20
5.6051669647
 30
0.0
 10
8.14514336
 20
5.6163812345
 30
0.0
 10
8.1461920825
 20
5.6275507869
 30
0.0
 10
8.1479340915
 20
5.6386313299
 30
0.0
 10
8.1503613691
 20
5.6495786629
 30
0.0
 10
8.1534625927
 20
5.6603510522
 30
0.0
 10
8.1584721829
 20
5.6744141154
 30
0.0
 10
8.1632007534
 20
5.6845950946
 30
0.0
 10
8.1667490415
 20
5.6911523025
 30
0.0
  0
SPLINE
  5
327
100
AcDbEntity
  8
0
100
AcDbSpline
 62
7
  6
CONTINUOUS
 70
0
 71
3
 72
17
 73
13
 74
0
 42
0.0000001
 43
0.0000001
 44
0.0000000001
 40
0.0
 40
0.0
 40
0.0
 40
0.0
 40
0.1240541888
 40
0.1864139181
 40
0.2489399202
 40
0.3743273206
 40
0.5000000004
 40
0.6256726802
 40
0.7510600805
 40
0.8135860826
 40
0.8759458117
 40
1.0
 40
1.0
 40
1.0
 40
1.0
 10
8.2183406258
 20
5.5191816267
 30
0.0
 10
8.2150093836
 20
5.5257593911
 30
0.0
 10
8.2105826327
 20
5.5359528664
 30
0.0
 10
8.2059022196
 20
5.549995253
 30
0.0
 10
8.202031059
 20
5.5643657474
 30
0.0
 10
8.1987738068
 20
5.5827637841
 30
0.0
 10
8.1974650937
 20
5.6051669647
 30
0.0
 10
8.1987738068
 20
5.6275701452
 30
0.0
 10
8.202031059
 20
5.645968182
 30
0.0
 10
8.2059022197
 20
5.6603386763
 30
0.0
 10
8.2105826327
 20
5.6743810628
 30
0.0
 10
8.2150093836
 20
5.6845745381
 30
0.0
 10
8.2183406258
 20
5.6911523025
 30
0.0
  0
SPLINE
  5
328
100
AcDbEntity
  8
0
100
AcDbSpline
 62
7
  6
CONTINUOUS
 70
0
 71
3
 72
15
 73
11
 74
0
 42
0.0000001
 43
0.0000001
 44
0.0000000001
 40
0.0
 40
0.0
 40
0.0
 40
0.0
 40
0.1236764259
 40
0.2484590352
 40
0.3740274848
 40
0.5000000004
 40
0.625972516
 40
0.7515409655
 40
0.8763235746
 40
1.0
 40
1.0
 40
1.0
 40
1.0
 10
8.2387806466
 20
5.5191816267
 30
0.0
 10
8.2355621628
 20
5.5257698951
 30
0.0
 10
8.2298579775
 20
5.5393924741
 30
0.0
 10
8.223667475
 20
5.5607331425
 30
0.0
 10
8.2199055525
 20
5.5827736151
 30
0.0
 10
8.2186440484
 20
5.6051669647
 30
0.0
 10
8.2199055525
 20
5.6275603143
 30
0.0
 10
8.223667475
 20
5.6496007868
 30
0.0
 10
8.2298579775
 20
5.6709414552
 30
0.0
 10
8.2355621628
 20
5.6845640341
 30
0.0
 10
8.2387806466
 20
5.6911523025
 30
0.0
  0
SPLINE
  5
329
100
AcDbEntity
  8
0
100
AcDbSpline
 62
7
  6
CONTINUOUS
 70
0
 71
3
 72
15
 73
11
 74
0
 42
0.0000001
 43
0.0000001
 44
0.0000000001
 40
0.0
 40
0.0
 40
0.0
 40
0.0
 40
0.1232320996
 40
0.2479440682
 40
0.3737029271
 40
0.5000000004
 40
0.6262970737
 40
0.7520559325
 40
0.8767679009
 40
1.0
 40
1.0
 40
1.0
 40
1.0
 10
8.2606401078
 20
5.5191816267
 30
0.0
 10
8.2575538708
 20
5.5257820304
 30
0.0
 10
8.2520893519
 20
5.5394241995
 30
0.0
 10
8.2461698533
 20
5.5607558892
 30
0.0
 10
8.2425728706
 20
5.5827854394
 30
0.0
 10
8.2413667046
 20
5.6051669647
 30
0.0
 10
8.2425728706
 20
5.6275484899
 30
0.0
 10
8.2461698534
 20
5.6495780401
 30
0.0
 10
8.252089352
 20
5.6709097297
 30
0.0
 10
8.2575538708
 20
5.6845518988
 30
0.0
 10
8.2606401078
 20
5.6911523025
 30
0.0
  0
SPLINE
  5
32A
100
AcDbEntity
  8
0
100
AcDbSpline
 62
7
  6
CONTINUOUS
 70
0
 71
3
 72
15
 73
11
 74
0
 42
0.0000001
 43
0.0000001
 44
0.0000000001
 40
0.0
 40
0.0
 40
0.0
 40
0.0
 40
0.1227436965
 40
0.247378934
 40
0.3733471039
 40
0.5000000004
 40
0.6266528969
 40
0.7526210667
 40
0.877256304
 40
1.0
 40
1.0
 40
1.0
 40
1.0
 10
8.2837842385
 20
5.5191816267
 30
0.0
 10
8.2808491725
 20
5.5257956228
 30
0.0
 10
8.2756580954
 20
5.5394592513
 30
0.0
 10
8.2700461573
 20
5.5607807538
 30
0.0
 10
8.2666362655
 20
5.582798277
 30
0.0
 10
8.2654928521
 20
5.6051669647
 30
0.0
 10
8.2666362655
 20
5.6275356523
 30
0.0
 10
8.2700461574
 20
5.6495531755
 30
0.0
 10
8.2756580954
 20
5.670874678
 30
0.0
 10
8.2808491725
 20
5.6845383064
 30
0.0
 10
8.2837842385
 20
5.6911523025
 30
0.0
  0
ENDSEC
  0
SECTION
  2
OBJECTS
  0
DICTIONARY
  5
C
100
AcDbDictionary
280
0
281
1
  3
ACAD_GROUP
350
D
  3
ACAD_MLINESTYLE
350
17
  3
ACAD_LAYOUT
350
1A
  3
ACAD_PLOTSETTINGS
350
19
  3
ACAD_PLOTSTYLENAME
350
E
  0
DICTIONARY
  5
D
102
{ACAD_REACTORS
330
C
102
}
100
AcDbDictionary
280
0
281
1
  0
ACDBDICTIONARYWDFLT
  5
E
102
{ACAD_REACTORS
330
C
102
}
100
AcDbDictionary
281
1
  3
Normal
350
F
100
AcDbDictionaryWithDefault
340
F
  0
DICTIONARY
  5
17
102
{ACAD_REACTORS
330
C
102
}
100
AcDbDictionary
280
0
281
1
  3
Standard
350
18
  0
DICTIONARY
  5
19
102
{ACAD_REACTORS
330
C
102
}
100
AcDbDictionary
281
1
  0
DICTIONARY
  5
1A
102
{ACAD_REACTORS
330
C
102
}
100
AcDbDictionary
281
1
  3
Model
350
32B
  3
Layout1
350
32C
  0
ACDBPLACEHOLDER
  5
F
102
{ACAD_REACTORS
330
E
102
}
  0
MLINESTYLE
  5
18
102
{ACAD_REACTORS
330
17
102
}
100
AcDbMlineStyle
  2
STANDARD
 70
0
  3

 62
256
 51
90.0
 52
90.0
 71
2
 49
0.5
 62
256
  6
BYLAYER
 49
-0.5
 62
256
  6
BYLAYER
  0
LAYOUT
  5
32B
102
{ACAD_REACTORS
330
1A
102
}
100
AcDbPlotSettings
  1

  2
none_device
  4
ANSI_A_(11.00_x_8.50_Inches)
  6

 40
0.0
 41
0.0
 42
0.0
 43
0.0
 44
279.4
 45
215.9
 46
0.0
 47
0.0
 48
0.0
 49
0.0
140
0.0
141
0.0
142
1.0
143
1.0
 70
1024
 72
0
 73
0
 74
0
  7

 75
0
147
1.0
148
0.0
149
0.0
100
AcDbLayout
  1
Model
 70
0
 71
0
 10
0.0
 20
0.0
 11
11.0
 21
8.5
 12
0.0
 22
0.0
 32
0.0
 14
0.0
 24
0.0
 34
0.0
 15
0.0
 25
0.0
 35
0.0
146
0.0
 13
0.0
 23
0.0
 33
0.0
 16
1.0
 26
0.0
 36
0.0
 17
0.0
 27
1.0
 37
0.0
 76
0
330
203
345
0
346
0
  0
LAYOUT
  5
32C
102
{ACAD_REACTORS
330
1A
102
}
100
AcDbPlotSettings
  1

  2
none_device
  4
ANSI_A_(11.00_x_8.50_Inches)
  6

 40
0.0
 41
0.0
 42
0.0
 43
0.0
 44
279.4
 45
215.9
 46
0.0
 47
0.0
 48
0.0
 49
0.0
140
0.0
141
0.0
142
1.0
143
1.0
 70
0
 72
0
 73
0
 74
0
  7

 75
0
147
1.0
148
0.0
149
0.0
100
AcDbLayout
  1
Layout1
 70
0
 71
1
 10
0.0
 20
0.0
 11
11.0
 21
8.5
 12
0.0
 22
0.0
 32
0.0
 14
0.0
 24
0.0
 34
0.0
 15
0.0
 25
0.0
 35
0.0
146
0.0
 13
0.0
 23
0.0
 33
0.0
 16
1.0
 26
0.0
 36
0.0
 17
0.0
 27
1.0
 37
0.0
 76
0
330
204
345
0
346
0
  0
ENDSEC
  0
EOF
