999
DXF file: E:\BT Custom\CADOUTPUT\_FRONT.dxf
999
Pro/ENGINEER 2018400 by Parametric Technology Corporation
  0
SECTION
  2
HEADER
  9
$ACADVER
  1
AC1018
  9
$DWGCODEPAGE
  3
ANSI_1252
  9
$EXTMAX
 10
22.0
 20
17.0
 30
0.0
  9
$EXTMIN
 10
0.0
 20
0.0
 30
0.0
  9
$LIMMIN
 10
0.0
 20
0.0
  9
$LIMMAX
 10
22.0
 20
17.0
  9
$VIEWCTR
 10
11.0
 20
8.5
  9
$VIEWSIZE
 40
17.0
  9
$CLAYER
  8
0
  9
$LTSCALE
 40
1.21
  9
$CELTYPE
  6
BYLAYER
  9
$DIMSCALE
 40
1.0
  9
$DIMASZ
 40
0.1
  9
$DIMEXO
 40
0.0625
  9
$DIMDLI
 40
0.836
  9
$DIMEXE
 40
0.125
  9
$DIMCEN
 40
0.198
  9
$DIMLFAC
 40
1.0
  9
$DIMBLK
  1
_FILLED
  9
$DIMALT
 70
1
  9
$DIMALTD
 70
2
  9
$DIMALTTD
 70
2
  9
$DIMALTF
 40
25.4
  9
$DIMTXT
 40
0.08
  9
$DIMTOL
 70
1
  9
$DIMLIM
 70
0
  9
$DIMTFAC
 40
1.0
  9
$DIMTP
 40
0.001
  9
$DIMTM
 40
0.001
  9
$DIMGAP
 40
0.09
  9
$DIMDSEP
 70
46
  9
$AUNITS
 70
0
  9
$PDMODE
 70
3
  9
$PDSIZE
 40
0.06
  9
$HANDSEED
  5
2EB
  9
$TILEMODE
 70
1
  9
$MEASUREMENT
 70
0
  9
$INSUNITS
 70
1
  0
ENDSEC
  0
SECTION
  2
CLASSES
  0
CLASS
  1
ACDBDICTIONARYWDFLT
  2
AcDbDictionaryWithDefault
  3
AutoCAD 2000
 90
0
 91
1
280
0
281
0
  0
CLASS
  1
ACDBPLACEHOLDER
  2
AcDbPlaceHolder
  3
AutoCAD 2000
 90
0
 91
1
280
0
281
0
  0
CLASS
  1
LAYOUT
  2
AcDbLayout
  3
AutoCAD 2000
 90
0
 91
0
280
0
281
0
  0
ENDSEC
  0
SECTION
  2
TABLES
  0
TABLE
  2
VPORT
  5
8
100
AcDbSymbolTable
 70
2
  0
VPORT
  5
1F4
100
AcDbSymbolTableRecord
100
AcDbViewportTableRecord
  2
*ACTIVE
 70
0
 10
0.0
 20
0.0
 11
1.0
 21
1.0
 12
11.0
 22
8.5
 13
0.0
 23
0.0
 14
1.0
 24
1.0
 15
0.0
 25
0.0
 16
0.0
 26
0.0
 36
1.0
 17
0.0
 27
0.0
 37
0.0
 40
17.0
 41
1.2941176471
 42
50.0
 43
0.0
 44
0.0
 50
0.0
 51
0.0
 71
0
 72
100
 73
1
 74
1
 75
0
 76
0
 77
0
 78
0
  0
ENDTAB
  0
TABLE
  2
LTYPE
  5
5
100
AcDbSymbolTable
 70
6
  0
LTYPE
  5
14
100
AcDbSymbolTableRecord
100
AcDbLinetypeTableRecord
  2
BYBLOCK
 70
0
  3

 72
65
 73
0
 40
0.0
  0
LTYPE
  5
15
100
AcDbSymbolTableRecord
100
AcDbLinetypeTableRecord
  2
BYLAYER
 70
0
  3

 72
65
 73
0
 40
0.0
  0
LTYPE
  5
16
100
AcDbSymbolTableRecord
100
AcDbLinetypeTableRecord
  2
CONTINUOUS
 70
64
  3
Solid line
 72
65
 73
0
 40
0.0
  0
LTYPE
  5
1F5
100
AcDbSymbolTableRecord
100
AcDbLinetypeTableRecord
  2
CENTER
 70
64
  3
____ _ ____ _ ____ _ ____ _ ____ _ ____ _ ____
 72
65
 73
4
 40
0.6
 49
0.375
 74
0
 49
-0.075
 74
0
 49
0.075
 74
0
 49
-0.075
 74
0
  0
LTYPE
  5
1F6
100
AcDbSymbolTableRecord
100
AcDbLinetypeTableRecord
  2
HIDDEN
 70
64
  3
- - - - - - - - - - - - - - - - - - - -
 72
65
 73
2
 40
0.2
 49
0.1
 74
0
 49
-0.1
 74
0
  0
LTYPE
  5
1F7
100
AcDbSymbolTableRecord
100
AcDbLinetypeTableRecord
  2
PHANTOM
 70
64
  3
_____ _ _ _____ _ _ _____ _ _ _____
 72
65
 73
6
 40
0.8
 49
0.45
 74
0
 49
-0.05
 74
0
 49
0.1
 74
0
 49
-0.05
 74
0
 49
0.1
 74
0
 49
-0.05
 74
0
  0
LTYPE
  5
1F8
100
AcDbSymbolTableRecord
100
AcDbLinetypeTableRecord
  2
DOT
 70
64
  3
. . . . . . . . . . . . . . . . . . . .
 72
65
 73
2
 40
0.2
 49
0.1
 74
0
 49
-0.1
 74
0
  0
LTYPE
  5
1F9
100
AcDbSymbolTableRecord
100
AcDbLinetypeTableRecord
  2
DASHED
 70
64
  3
- - - - - - - - - - - - - - - - - - - -
 72
65
 73
2
 40
0.2
 49
0.1
 74
0
 49
-0.1
 74
0
  0
ENDTAB
  0
TABLE
  2
LAYER
  5
2
100
AcDbSymbolTable
 70
36
  0
LAYER
  5
10
100
AcDbSymbolTableRecord
100
AcDbLayerTableRecord
  2
0
 70
0
 62
7
  6
CONTINUOUS
370
-3
390
F
  0
LAYER
  5
1FA
100
AcDbSymbolTableRecord
100
AcDbLayerTableRecord
  2
DEFAULT_1
 70
0
 62
7
  6
CENTER
370
-3
390
F
  0
LAYER
  5
1FB
100
AcDbSymbolTableRecord
100
AcDbLayerTableRecord
  2
DEFAULT_2
 70
0
 62
8
  6
HIDDEN
370
-3
390
F
  0
LAYER
  5
1FC
100
AcDbSymbolTableRecord
100
AcDbLayerTableRecord
  2
DEFAULT_3
 70
0
 62
7
  6
PHANTOM
370
-3
390
F
  0
LAYER
  5
1FD
100
AcDbSymbolTableRecord
100
AcDbLayerTableRecord
  2
ALL_FEATURES
 70
0
 62
7
  6
CONTINUOUS
370
-3
390
F
  0
LAYER
  5
1FE
100
AcDbSymbolTableRecord
100
AcDbLayerTableRecord
  2
AXES_FEATURES
 70
0
 62
7
  6
CONTINUOUS
370
-3
390
F
  0
LAYER
  5
1FF
100
AcDbSymbolTableRecord
100
AcDbLayerTableRecord
  2
DEFAULT_COORDINATE_SYSTEM
 70
0
 62
7
  6
CONTINUOUS
370
-3
390
F
  0
LAYER
  5
200
100
AcDbSymbolTableRecord
100
AcDbLayerTableRecord
  2
DEFAULT_DATUM_AXES
 70
0
 62
7
  6
CONTINUOUS
370
-3
390
F
  0
LAYER
  5
201
100
AcDbSymbolTableRecord
100
AcDbLayerTableRecord
  2
DEFAULT_DATUM_PLANES
 70
0
 62
7
  6
CONTINUOUS
370
-3
390
F
  0
LAYER
  5
202
100
AcDbSymbolTableRecord
100
AcDbLayerTableRecord
  2
DIMENSIONS
 70
0
 62
7
  6
CONTINUOUS
370
-3
390
F
  0
ENDTAB
  0
TABLE
  2
STYLE
  5
3
100
AcDbSymbolTable
 70
1
  0
STYLE
  5
11
100
AcDbSymbolTableRecord
100
AcDbTextStyleTableRecord
  2
STANDARD
 70
0
 40
0.0
 41
0.8
 50
0.0
 71
0
 42
0.2
  3
txt
  4

  0
STYLE
  5
203
100
AcDbSymbolTableRecord
100
AcDbTextStyleTableRecord
  2
TEXTSTYLE_1
 70
0
 40
0.0
 41
0.8
 50
0.0
 71
0
 42
0.2
  3
gdt
  4

  0
ENDTAB
  0
TABLE
  2
VIEW
  5
6
100
AcDbSymbolTable
 70
0
  0
ENDTAB
  0
TABLE
  2
UCS
  5
7
100
AcDbSymbolTable
 70
0
  0
ENDTAB
  0
TABLE
  2
APPID
  5
9
100
AcDbSymbolTable
 70
1
  0
APPID
  5
204
100
AcDbSymbolTableRecord
100
AcDbRegAppTableRecord
  2
ACAD
 70
0
  0
ENDTAB
  0
TABLE
  2
BLOCK_RECORD
  5
1
100
AcDbSymbolTable
 70
0
  0
BLOCK_RECORD
  5
205
100
AcDbSymbolTableRecord
100
AcDbBlockTableRecord
  2
*Model_Space
  0
BLOCK_RECORD
  5
206
100
AcDbSymbolTableRecord
100
AcDbBlockTableRecord
  2
*Paper_Space
  0
BLOCK_RECORD
  5
207
100
AcDbSymbolTableRecord
100
AcDbBlockTableRecord
  2
_FILLED
  0
ENDTAB
  0
TABLE
  2
DIMSTYLE
  5
A
100
AcDbSymbolTable
 70
1
100
AcDbDimStyleTable
 71
0
  0
DIMSTYLE
105
208
100
AcDbSymbolTableRecord
100
AcDbDimStyleTableRecord
  2
STANDARD
 70
0
  3

  4

 40
1.0
 41
0.1
 42
0.0625
 43
0.38
 44
0.125
 45
0.0
 46
0.0
 47
0.001
 48
0.001
140
0.08
141
0.09
142
0.0
143
25.4
144
1.0
145
0.0
146
1.0
147
0.09
 71
1.0
 72
0.0
 73
1
 74
1
 75
0
 76
0
 77
0
 78
4
 79
1
170
1
171
2
172
0
173
0
174
0
175
0
176
0
177
0
178
0
270
2
179
3
271
3
272
3
273
2
274
2
275
0
280
0
281
0
282
0
283
1
284
4
285
0
286
0
287
3
288
0
340
11
278
46
341
207
342
207
343
207
344
207
  0
ENDTAB
  0
ENDSEC
  0
SECTION
  2
BLOCKS
  0
BLOCK
  5
20
100
AcDbEntity
  8
0
100
AcDbBlockBegin
  2
*Model_Space
 70
0
 10
0.0
 20
0.0
 30
0.0
  3
*Model_Space
  1

  0
ENDBLK
  5
21
100
AcDbEntity
  8
0
100
AcDbBlockEnd
  0
BLOCK
  5
1C
100
AcDbEntity
  8
0
100
AcDbBlockBegin
  2
*Paper_Space
 70
0
 10
0.0
 20
0.0
 30
0.0
  3
*Paper_Space
  1

  0
ENDBLK
  5
1D
100
AcDbEntity
  8
0
100
AcDbBlockEnd
  0
BLOCK
  5
209
100
AcDbEntity
  8
0
100
AcDbBlockBegin
  2
_FILLED
 70
64
 10
0.0
 20
0.0
  3
_FILLED
  1

  0
SOLID
  5
20A
100
AcDbEntity
  8
0
  6
BYBLOCK
 62
0
100
AcDbTrace
 10
0.0
 20
0.0
 11
-1.0
 21
0.2
 12
-1.0
 22
-0.2
 13
-1.0
 23
-0.2
  0
ENDBLK
  5
20B
100
AcDbEntity
  8
0
  6
BYBLOCK
 62
0
100
AcDbBlockEnd
  0
ENDSEC
  0
SECTION
  2
ENTITIES
  0
LINE
  5
20C
100
AcDbEntity
  8
0
100
AcDbLine
 62
7
  6
CONTINUOUS
 10
10.790140146
 20
7.5445130788
 11
10.7901554597
 21
7.5445042452
  0
LINE
  5
20D
100
AcDbEntity
  8
0
100
AcDbLine
 62
9
  6
CONTINUOUS
 10
10.7801923443
 20
10.8403804205
 11
10.7805174661
 21
10.8407518679
  0
LWPOLYLINE
  5
20E
100
AcDbEntity
  8
0
100
AcDbPolyline
 62
7
  6
CONTINUOUS
 90
3
 70
0
 10
10.7788271536
 20
7.5514411164
 10
10.7796711032
 20
7.549019943
 10
10.780193776
 20
7.5442705551
  0
LINE
  5
20F
100
AcDbEntity
  8
0
100
AcDbLine
 62
7
  6
CONTINUOUS
 10
10.7599147122
 20
8.6494576035
 11
10.7490545152
 21
8.6555396061
  0
LINE
  5
210
100
AcDbEntity
  8
0
100
AcDbLine
 62
7
  6
CONTINUOUS
 10
10.7345569648
 20
8.6644237164
 11
10.7242074345
 21
8.6713390514
  0
LINE
  5
211
100
AcDbEntity
  8
0
100
AcDbLine
 62
7
  6
CONTINUOUS
 10
10.7104516146
 20
8.6813332397
 11
10.7006765594
 21
8.6890392718
  0
LINE
  5
212
100
AcDbEntity
  8
0
100
AcDbLine
 62
7
  6
CONTINUOUS
 10
10.687747279
 20
8.7000819205
 11
10.6786069653
 21
8.7085311395
  0
LINE
  5
213
100
AcDbEntity
  8
0
100
AcDbLine
 62
7
  6
CONTINUOUS
 10
10.6665839378
 20
8.720554167
 11
10.6581347188
 21
8.7296944807
  0
LINE
  5
214
100
AcDbEntity
  8
0
100
AcDbLine
 62
7
  6
CONTINUOUS
 10
10.6470920701
 20
8.7426237611
 11
10.639386038
 21
8.7523988163
  0
LINE
  5
215
100
AcDbEntity
  8
0
100
AcDbLine
 62
7
  6
CONTINUOUS
 10
10.6293918498
 20
8.7661546362
 11
10.6224765147
 21
8.7765041665
  0
LINE
  5
216
100
AcDbEntity
  8
0
100
AcDbLine
 62
7
  6
CONTINUOUS
 10
10.6135924044
 20
8.7910017169
 11
10.6075104018
 21
8.8018619139
  0
LINE
  5
217
100
AcDbEntity
  8
0
100
AcDbLine
 62
7
  6
CONTINUOUS
 10
10.5632774016
 20
8.9587003023
 11
10.5627887239
 21
8.9711379801
  0
LINE
  5
218
100
AcDbEntity
  8
0
100
AcDbLine
 62
7
  6
CONTINUOUS
 10
10.5627887239
 20
8.9881411087
 11
10.5632774016
 21
9.0005787865
  0
LINE
  5
219
100
AcDbEntity
  8
0
100
AcDbLine
 62
7
  6
CONTINUOUS
 10
10.5646114517
 20
9.0175295001
 11
10.5660744719
 21
9.0298904956
  0
LINE
  5
21A
100
AcDbEntity
  8
0
100
AcDbLine
 62
7
  6
CONTINUOUS
 10
11.2878278595
 20
8.9241835266
 11
11.309306064
 21
8.9293875879
  0
LINE
  5
21B
100
AcDbEntity
  8
0
100
AcDbLine
 62
7
  6
CONTINUOUS
 10
10.6293960034
 20
8.7661556243
 11
10.6508958182
 21
8.7712696725
  0
LINE
  5
21C
100
AcDbEntity
  8
0
100
AcDbLine
 62
7
  6
CONTINUOUS
 10
11.2823974795
 20
8.8968831629
 11
11.3042177799
 21
8.9003860214
  0
LINE
  5
21D
100
AcDbEntity
  8
0
100
AcDbLine
 62
7
  6
CONTINUOUS
 10
10.6135966228
 20
8.7910023759
 11
10.6354314045
 21
8.7944138032
  0
LINE
  5
21E
100
AcDbEntity
  8
0
100
AcDbLine
 62
7
  6
CONTINUOUS
 10
11.2748418778
 20
8.8700930199
 11
11.2968697445
 21
8.8718730792
  0
LINE
  5
21F
100
AcDbEntity
  8
0
100
AcDbLine
 62
7
  6
CONTINUOUS
 10
10.5997954001
 20
8.8170121385
 11
10.6218305299
 21
8.8186999123
  0
LINE
  5
220
100
AcDbEntity
  8
0
100
AcDbLine
 62
7
  6
CONTINUOUS
 10
11.265207637
 20
8.8439782677
 11
11.2873072611
 21
8.8440245531
  0
LINE
  5
221
100
AcDbEntity
  8
0
100
AcDbLine
 62
7
  6
CONTINUOUS
 10
10.5880774244
 20
8.8440245531
 11
10.6101770485
 21
8.8439782677
  0
LINE
  5
222
100
AcDbEntity
  8
0
100
AcDbLine
 62
7
  6
CONTINUOUS
 10
11.2535541556
 20
8.8186999123
 11
11.2755892854
 21
8.8170121385
  0
LINE
  5
223
100
AcDbEntity
  8
0
100
AcDbLine
 62
7
  6
CONTINUOUS
 10
10.5785149409
 20
8.8718730792
 11
10.6005428077
 21
8.8700930199
  0
LINE
  5
224
100
AcDbEntity
  8
0
100
AcDbLine
 62
7
  6
CONTINUOUS
 10
11.239953281
 20
8.7944138032
 11
11.2617880626
 21
8.7910023759
  0
LINE
  5
225
100
AcDbEntity
  8
0
100
AcDbLine
 62
7
  6
CONTINUOUS
 10
10.5711669056
 20
8.9003860214
 11
10.592987206
 21
8.8968831629
  0
LINE
  5
226
100
AcDbEntity
  8
0
100
AcDbLine
 62
7
  6
CONTINUOUS
 10
11.2244888672
 20
8.7712696725
 11
11.245988682
 21
8.7661556243
  0
LINE
  5
227
100
AcDbEntity
  8
0
100
AcDbLine
 62
7
  6
CONTINUOUS
 10
10.5660786214
 20
8.9293875879
 11
10.587556826
 21
8.9241835266
  0
LINE
  5
228
100
AcDbEntity
  8
0
100
AcDbLine
 62
7
  6
CONTINUOUS
 10
11.2072562575
 20
8.7494102113
 11
11.228288552
 21
8.7426250719
  0
LINE
  5
229
100
AcDbEntity
  8
0
100
AcDbLine
 62
7
  6
CONTINUOUS
 10
10.5632814595
 20
8.9586989744
 11
10.5842851479
 21
8.951825795
  0
LINE
  5
22A
100
AcDbEntity
  8
0
100
AcDbLine
 62
7
  6
CONTINUOUS
 10
11.1883616967
 20
8.7289701905
 11
11.2087967997
 21
8.7205557927
  0
LINE
  5
22B
100
AcDbEntity
  8
0
100
AcDbLine
 62
7
  6
CONTINUOUS
 10
10.5627926651
 20
8.9881394666
 11
10.5831923427
 21
8.9796395444
  0
LINE
  5
22C
100
AcDbEntity
  8
0
100
AcDbLine
 62
7
  6
CONTINUOUS
 10
11.1679216759
 20
8.7100756296
 11
11.1876335982
 21
8.7000838509
  0
LINE
  5
22D
100
AcDbEntity
  8
0
100
AcDbLine
 62
7
  6
CONTINUOUS
 10
10.5646152519
 20
9.0175275538
 11
10.5842851479
 21
9.0074532939
  0
LINE
  5
22E
100
AcDbEntity
  8
0
100
AcDbLine
 62
7
  6
CONTINUOUS
 10
11.1460622147
 20
8.6928430199
 11
11.1649294258
 21
8.6813354629
  0
LINE
  5
22F
100
AcDbEntity
  8
0
100
AcDbLine
 62
7
  6
CONTINUOUS
 10
10.568737983
 20
9.0466820489
 11
10.587556826
 21
9.0350955623
  0
LINE
  5
230
100
AcDbEntity
  8
0
100
AcDbLine
 62
7
  6
CONTINUOUS
 10
11.1229180839
 20
8.6773786062
 11
11.1408242612
 21
8.6644262188
  0
LINE
  5
231
100
AcDbEntity
  8
0
100
AcDbLine
 62
7
  6
CONTINUOUS
 10
10.5751354404
 20
9.0754232047
 11
10.592987206
 21
9.0623959259
  0
LINE
  5
232
100
AcDbEntity
  8
0
100
AcDbLine
 62
7
  6
CONTINUOUS
 10
11.0986319749
 20
8.6637777316
 11
11.1154667208
 21
8.6494603696
  0
LINE
  5
233
100
AcDbEntity
  8
0
100
AcDbLine
 62
7
  6
CONTINUOUS
 10
10.5837681817
 20
9.1035738223
 11
10.6005428077
 21
9.0891860689
  0
LINE
  5
234
100
AcDbEntity
  8
0
100
AcDbLine
 62
7
  6
CONTINUOUS
 10
10.5945829832
 20
9.130960344
 11
10.6101770485
 21
9.1153008212
  0
LINE
  5
235
100
AcDbEntity
  8
0
100
AcDbLine
 62
7
  6
CONTINUOUS
 10
10.599791143
 20
8.8170118124
 11
10.5945799704
 21
8.8283157195
  0
LINE
  5
236
100
AcDbEntity
  8
0
100
AcDbLine
 62
7
  6
CONTINUOUS
 10
10.5880731548
 20
8.844024562
 11
10.5837649409
 21
8.8557024869
  0
LINE
  5
237
100
AcDbEntity
  8
0
100
AcDbLine
 62
7
  6
CONTINUOUS
 10
10.5785106852
 20
8.8718734231
 11
10.5751319915
 21
8.8838533673
  0
LINE
  5
238
100
AcDbEntity
  8
0
100
AcDbLine
 62
7
  6
CONTINUOUS
 10
10.57116269
 20
8.9003866981
 11
10.5687343472
 21
8.9125948015
  0
LINE
  5
239
100
AcDbEntity
  8
0
100
AcDbLine
 62
7
  6
CONTINUOUS
 10
10.5660744719
 20
8.9293885933
 11
10.5646114517
 21
8.9417495887
  0
LINE
  5
23A
100
AcDbEntity
  8
0
100
AcDbLine
 62
7
  6
CONTINUOUS
 10
10.7750649368
 20
9.317536487
 11
10.7767527106
 21
9.2955013573
  0
LINE
  5
23B
100
AcDbEntity
  8
0
100
AcDbLine
 62
7
  6
CONTINUOUS
 10
10.7801923427
 20
10.8403862531
 11
10.7801923427
 21
8.0497338847
  0
LINE
  5
23C
100
AcDbEntity
  8
0
100
AcDbLine
 62
7
  6
CONTINUOUS
 10
10.7801923427
 20
6.9964912089
 11
10.7801923427
 21
7.5442181402
  0
LINE
  5
23D
100
AcDbEntity
  8
0
100
AcDbLine
 62
7
  6
CONTINUOUS
 10
10.5687343472
 20
9.0466842874
 11
10.57116269
 21
9.0588923908
  0
LINE
  5
23E
100
AcDbEntity
  8
0
100
AcDbLine
 62
7
  6
CONTINUOUS
 10
10.5751319915
 20
9.0754257215
 11
10.5785106852
 21
9.0874056658
  0
LINE
  5
23F
100
AcDbEntity
  8
0
100
AcDbLine
 62
7
  6
CONTINUOUS
 10
10.5837649409
 20
9.103576602
 11
10.5880731548
 21
9.1152545269
  0
LINE
  5
240
100
AcDbEntity
  8
0
100
AcDbLine
 62
7
  6
CONTINUOUS
 10
10.5945799704
 20
9.1309633693
 11
10.599791143
 21
9.1422672765
  0
LINE
  5
241
100
AcDbEntity
  8
0
100
AcDbLine
 62
7
  6
CONTINUOUS
 10
10.6075104018
 20
9.1574171749
 11
10.6135924044
 21
9.168277372
  0
LINE
  5
242
100
AcDbEntity
  8
0
100
AcDbLine
 62
7
  6
CONTINUOUS
 10
10.6224765147
 20
9.1827749223
 11
10.6293918498
 21
9.1931244526
  0
LINE
  5
243
100
AcDbEntity
  8
0
100
AcDbLine
 62
7
  6
CONTINUOUS
 10
10.639386038
 20
9.2068802726
 11
10.6470920701
 21
9.2166553278
  0
LINE
  5
244
100
AcDbEntity
  8
0
100
AcDbLine
 62
7
  6
CONTINUOUS
 10
10.6581347188
 20
9.2295846082
 11
10.6665839378
 21
9.2387249218
  0
LINE
  5
245
100
AcDbEntity
  8
0
100
AcDbLine
 62
7
  6
CONTINUOUS
 10
10.6786069653
 20
9.2507479493
 11
10.687747279
 21
9.2591971684
  0
LINE
  5
246
100
AcDbEntity
  8
0
100
AcDbLine
 62
7
  6
CONTINUOUS
 10
10.6075131679
 20
9.1574139225
 11
10.6218305299
 21
9.1405791766
  0
LINE
  5
247
100
AcDbEntity
  8
0
100
AcDbLine
 62
7
  6
CONTINUOUS
 10
10.6224790171
 20
9.1827714629
 11
10.6354314045
 21
9.1648652856
  0
LINE
  5
248
100
AcDbEntity
  8
0
100
AcDbLine
 62
7
  6
CONTINUOUS
 10
10.6393882612
 20
9.2068766275
 11
10.6508958182
 21
9.1880094164
  0
LINE
  5
249
100
AcDbEntity
  8
0
100
AcDbLine
 62
7
  6
CONTINUOUS
 10
10.6581366492
 20
9.2295807999
 11
10.6681284279
 21
9.2098688776
  0
LINE
  5
24A
100
AcDbEntity
  8
0
100
AcDbLine
 62
7
  6
CONTINUOUS
 10
10.678608591
 20
9.2507440014
 11
10.6870229888
 21
9.2303088984
  0
LINE
  5
24B
100
AcDbEntity
  8
0
100
AcDbLine
 62
7
  6
CONTINUOUS
 10
10.7006778702
 20
9.2702357537
 11
10.7074630096
 21
9.2492034592
  0
LINE
  5
24C
100
AcDbEntity
  8
0
100
AcDbLine
 62
7
  6
CONTINUOUS
 10
10.7242084226
 20
9.2879358837
 11
10.7293224708
 21
9.2664360689
  0
LINE
  5
24D
100
AcDbEntity
  8
0
100
AcDbLine
 62
7
  6
CONTINUOUS
 10
10.7490551742
 20
9.3037352643
 11
10.7524666015
 21
9.2819004827
  0
LINE
  5
24E
100
AcDbEntity
  8
0
100
AcDbLine
 62
7
  6
CONTINUOUS
 10
10.7767527106
 20
8.6637777316
 11
10.7750649368
 21
8.6417426018
  0
LINE
  5
24F
100
AcDbEntity
  8
0
100
AcDbLine
 62
7
  6
CONTINUOUS
 10
10.7524666015
 20
8.6773786062
 11
10.7490551742
 21
8.6555438245
  0
LINE
  5
250
100
AcDbEntity
  8
0
100
AcDbLine
 62
7
  6
CONTINUOUS
 10
10.7293224708
 20
8.6928430199
 11
10.7242084226
 21
8.6713432051
  0
LINE
  5
251
100
AcDbEntity
  8
0
100
AcDbLine
 62
7
  6
CONTINUOUS
 10
10.7074630096
 20
8.7100756296
 11
10.7006778702
 21
8.6890433352
  0
LINE
  5
252
100
AcDbEntity
  8
0
100
AcDbLine
 62
7
  6
CONTINUOUS
 10
10.6870229888
 20
8.7289701905
 11
10.678608591
 21
8.7085350875
  0
LINE
  5
253
100
AcDbEntity
  8
0
100
AcDbLine
 62
7
  6
CONTINUOUS
 10
10.6681284279
 20
8.7494102113
 11
10.6581366492
 21
8.7296982889
  0
LINE
  5
254
100
AcDbEntity
  8
0
100
AcDbLine
 62
7
  6
CONTINUOUS
 10
10.6508958182
 20
8.7712696725
 11
10.6393882612
 21
8.7524024613
  0
LINE
  5
255
100
AcDbEntity
  8
0
100
AcDbLine
 62
7
  6
CONTINUOUS
 10
10.7006765594
 20
9.270239817
 11
10.7104516146
 21
9.2779458492
  0
LINE
  5
256
100
AcDbEntity
  8
0
100
AcDbLine
 62
7
  6
CONTINUOUS
 10
10.7242074345
 20
9.2879400374
 11
10.7345569648
 21
9.2948553725
  0
LINE
  5
257
100
AcDbEntity
  8
0
100
AcDbLine
 62
7
  6
CONTINUOUS
 10
10.7490545152
 20
9.3037394827
 11
10.7599147122
 21
9.3098214853
  0
LINE
  5
258
100
AcDbEntity
  8
0
100
AcDbLine
 62
7
  6
CONTINUOUS
 10
10.587556826
 20
9.0350955623
 11
10.5660786214
 21
9.029891501
  0
LINE
  5
259
100
AcDbEntity
  8
0
100
AcDbLine
 62
7
  6
CONTINUOUS
 10
11.245988682
 20
9.1931234646
 11
11.2244888672
 21
9.1880094164
  0
LINE
  5
25A
100
AcDbEntity
  8
0
100
AcDbLine
 62
7
  6
CONTINUOUS
 10
10.592987206
 20
9.0623959259
 11
10.5711669056
 21
9.0588930675
  0
LINE
  5
25B
100
AcDbEntity
  8
0
100
AcDbLine
 62
7
  6
CONTINUOUS
 10
11.2617880626
 20
9.1682767129
 11
11.239953281
 21
9.1648652856
  0
LINE
  5
25C
100
AcDbEntity
  8
0
100
AcDbLine
 62
7
  6
CONTINUOUS
 10
10.6005428077
 20
9.0891860689
 11
10.5785149409
 21
9.0874060097
  0
LINE
  5
25D
100
AcDbEntity
  8
0
100
AcDbLine
 62
7
  6
CONTINUOUS
 10
11.2755892853
 20
9.1422669504
 11
11.2535541556
 21
9.1405791766
  0
LINE
  5
25E
100
AcDbEntity
  8
0
100
AcDbLine
 62
7
  6
CONTINUOUS
 10
10.6101770485
 20
9.1153008212
 11
10.5880774244
 21
9.1152545358
  0
LINE
  5
25F
100
AcDbEntity
  8
0
100
AcDbLine
 62
7
  6
CONTINUOUS
 10
11.2873072611
 20
9.1152545358
 11
11.265207637
 21
9.1153008212
  0
LINE
  5
260
100
AcDbEntity
  8
0
100
AcDbLine
 62
7
  6
CONTINUOUS
 10
10.6218305299
 20
9.1405791766
 11
10.5997954001
 21
9.1422669504
  0
LINE
  5
261
100
AcDbEntity
  8
0
100
AcDbLine
 62
7
  6
CONTINUOUS
 10
11.2968697445
 20
9.0874060097
 11
11.2748418778
 21
9.0891860689
  0
LINE
  5
262
100
AcDbEntity
  8
0
100
AcDbLine
 62
7
  6
CONTINUOUS
 10
10.6354314045
 20
9.1648652856
 11
10.6135966228
 21
9.1682767129
  0
LINE
  5
263
100
AcDbEntity
  8
0
100
AcDbLine
 62
7
  6
CONTINUOUS
 10
11.3042180402
 20
9.0588930257
 11
11.2823974795
 21
9.0623959259
  0
LINE
  5
264
100
AcDbEntity
  8
0
100
AcDbLine
 62
7
  6
CONTINUOUS
 10
10.6508958182
 20
9.1880094164
 11
10.6293960034
 21
9.1931234646
  0
LINE
  5
265
100
AcDbEntity
  8
0
100
AcDbLine
 62
7
  6
CONTINUOUS
 10
11.309306064
 20
9.029891501
 11
11.2878278595
 21
9.0350955623
  0
LINE
  5
266
100
AcDbEntity
  8
0
100
AcDbLine
 62
7
  6
CONTINUOUS
 10
10.6681284279
 20
9.2098688776
 11
10.6470961335
 21
9.2166540169
  0
LINE
  5
267
100
AcDbEntity
  8
0
100
AcDbLine
 62
7
  6
CONTINUOUS
 10
11.312103226
 20
9.0005801144
 11
11.2910995375
 21
9.0074532939
  0
LINE
  5
268
100
AcDbEntity
  8
0
100
AcDbLine
 62
7
  6
CONTINUOUS
 10
10.6870229888
 20
9.2303088984
 11
10.6665878858
 21
9.2387232962
  0
LINE
  5
269
100
AcDbEntity
  8
0
100
AcDbLine
 62
7
  6
CONTINUOUS
 10
11.3125920204
 20
8.9711396223
 11
11.2921923427
 21
8.9796395444
  0
LINE
  5
26A
100
AcDbEntity
  8
0
100
AcDbLine
 62
7
  6
CONTINUOUS
 10
10.7074630096
 20
9.2492034592
 11
10.6877510873
 21
9.259195238
  0
LINE
  5
26B
100
AcDbEntity
  8
0
100
AcDbLine
 62
7
  6
CONTINUOUS
 10
11.3107694336
 20
8.941751535
 11
11.2910995375
 21
8.951825795
  0
LINE
  5
26C
100
AcDbEntity
  8
0
100
AcDbLine
 62
7
  6
CONTINUOUS
 10
10.7293224708
 20
9.2664360689
 11
10.7104552597
 21
9.277943626
  0
LINE
  5
26D
100
AcDbEntity
  8
0
100
AcDbLine
 62
7
  6
CONTINUOUS
 10
11.3066467025
 20
8.9125970399
 11
11.2878278595
 21
8.9241835266
  0
LINE
  5
26E
100
AcDbEntity
  8
0
100
AcDbLine
 62
7
  6
CONTINUOUS
 10
10.7524666015
 20
9.2819004827
 11
10.7345604242
 21
9.2948528701
  0
LINE
  5
26F
100
AcDbEntity
  8
0
100
AcDbLine
 62
7
  6
CONTINUOUS
 10
11.3002492451
 20
8.8838558842
 11
11.2823974795
 21
8.8968831629
  0
LINE
  5
270
100
AcDbEntity
  8
0
100
AcDbLine
 62
7
  6
CONTINUOUS
 10
10.7767527106
 20
9.2955013573
 11
10.7599179646
 21
9.3098187193
  0
LINE
  5
271
100
AcDbEntity
  8
0
100
AcDbLine
 62
7
  6
CONTINUOUS
 10
11.2916165038
 20
8.8557052665
 11
11.2748418778
 21
8.8700930199
  0
LINE
  5
272
100
AcDbEntity
  8
0
100
AcDbLine
 62
7
  6
CONTINUOUS
 10
11.2808017023
 20
8.8283187449
 11
11.265207637
 21
8.8439782677
  0
LINE
  5
273
100
AcDbEntity
  8
0
100
AcDbLine
 62
7
  6
CONTINUOUS
 10
11.2678715176
 20
8.8018651663
 11
11.2535541556
 21
8.8186999123
  0
LINE
  5
274
100
AcDbEntity
  8
0
100
AcDbLine
 62
7
  6
CONTINUOUS
 10
11.2529056684
 20
8.7765076259
 11
11.239953281
 21
8.7944138032
  0
LINE
  5
275
100
AcDbEntity
  8
0
100
AcDbLine
 62
7
  6
CONTINUOUS
 10
11.2359964243
 20
8.7524024614
 11
11.2244888672
 21
8.7712696725
  0
LINE
  5
276
100
AcDbEntity
  8
0
100
AcDbLine
 62
7
  6
CONTINUOUS
 10
11.2172480363
 20
8.729698289
 11
11.2072562575
 21
8.7494102113
  0
LINE
  5
277
100
AcDbEntity
  8
0
100
AcDbLine
 62
7
  6
CONTINUOUS
 10
11.1003197487
 20
8.6417426018
 11
11.0986319749
 21
8.6637777316
  0
LINE
  5
278
100
AcDbEntity
  8
0
100
AcDbLine
 62
7
  6
CONTINUOUS
 10
11.0951923427
 20
6.9964912089
 11
11.0951923427
 21
7.5442176006
  0
LINE
  5
279
100
AcDbEntity
  8
0
100
AcDbLine
 62
7
  6
CONTINUOUS
 10
11.0951923427
 20
10.8403862238
 11
11.0951923427
 21
8.0495056869
  0
LWPOLYLINE
  5
27A
100
AcDbEntity
  8
0
100
AcDbPolyline
 62
7
  6
CONTINUOUS
 90
9
 70
0
 10
11.0952138845
 20
10.8407282892
 10
11.0961057955
 20
10.8538618172
 10
11.1003170052
 20
10.8719420101
 10
11.1080123329
 20
10.8892945857
 10
11.1188589239
 20
10.9048755081
 10
11.1321365929
 20
10.9178518071
 10
11.1468358603
 20
10.927723084
 10
11.1617899852
 20
10.9343905681
 10
11.1703797549
 20
10.9369628465
  0
LINE
  5
27B
100
AcDbEntity
  8
0
100
AcDbLine
 62
7
  6
CONTINUOUS
 10
11.0986319749
 20
9.2955013573
 11
11.1003197487
 21
9.3175364871
  0
LINE
  5
27C
100
AcDbEntity
  8
0
100
AcDbLine
 62
7
  6
CONTINUOUS
 10
11.1229180839
 20
9.2819004827
 11
11.1263295112
 21
9.3037352643
  0
LINE
  5
27D
100
AcDbEntity
  8
0
100
AcDbLine
 62
7
  6
CONTINUOUS
 10
10.6354314045
 20
8.7944138032
 11
10.6224790171
 21
8.7765076259
  0
LINE
  5
27E
100
AcDbEntity
  8
0
100
AcDbLine
 62
7
  6
CONTINUOUS
 10
10.6218305299
 20
8.8186999123
 11
10.6075131679
 21
8.8018651663
  0
LINE
  5
27F
100
AcDbEntity
  8
0
100
AcDbLine
 62
7
  6
CONTINUOUS
 10
10.6101770485
 20
8.8439782677
 11
10.5945829832
 21
8.8283187449
  0
LINE
  5
280
100
AcDbEntity
  8
0
100
AcDbLine
 62
7
  6
CONTINUOUS
 10
10.6005428077
 20
8.8700930199
 11
10.5837681817
 21
8.8557052665
  0
LINE
  5
281
100
AcDbEntity
  8
0
100
AcDbLine
 62
7
  6
CONTINUOUS
 10
11.1154667208
 20
9.3098187193
 11
11.0986319749
 21
9.2955013573
  0
LINE
  5
282
100
AcDbEntity
  8
0
100
AcDbLine
 62
7
  6
CONTINUOUS
 10
10.592987206
 20
8.8968831629
 11
10.5751354404
 21
8.8838558842
  0
LINE
  5
283
100
AcDbEntity
  8
0
100
AcDbLine
 62
7
  6
CONTINUOUS
 10
11.1408242612
 20
9.2948528701
 11
11.1229180839
 21
9.2819004827
  0
LINE
  5
284
100
AcDbEntity
  8
0
100
AcDbLine
 62
7
  6
CONTINUOUS
 10
10.587556826
 20
8.9241835266
 11
10.568737983
 21
8.9125970399
  0
LINE
  5
285
100
AcDbEntity
  8
0
100
AcDbLine
 62
7
  6
CONTINUOUS
 10
11.1649294258
 20
9.277943626
 11
11.1460622147
 21
9.2664360689
  0
LINE
  5
286
100
AcDbEntity
  8
0
100
AcDbLine
 62
7
  6
CONTINUOUS
 10
10.5842851479
 20
8.951825795
 11
10.5646152519
 21
8.941751535
  0
LINE
  5
287
100
AcDbEntity
  8
0
100
AcDbLine
 62
7
  6
CONTINUOUS
 10
11.1876335982
 20
9.259195238
 11
11.1679216759
 21
9.2492034592
  0
LINE
  5
288
100
AcDbEntity
  8
0
100
AcDbLine
 62
7
  6
CONTINUOUS
 10
10.5831923427
 20
8.9796395444
 11
10.5627926651
 21
8.9711396223
  0
LINE
  5
289
100
AcDbEntity
  8
0
100
AcDbLine
 62
7
  6
CONTINUOUS
 10
11.2087967997
 20
9.2387232962
 11
11.1883616967
 21
9.2303088984
  0
LINE
  5
28A
100
AcDbEntity
  8
0
100
AcDbLine
 62
7
  6
CONTINUOUS
 10
10.5842851479
 20
9.0074532939
 11
10.5632814594
 21
9.0005801144
  0
LINE
  5
28B
100
AcDbEntity
  8
0
100
AcDbLine
 62
7
  6
CONTINUOUS
 10
11.228288552
 20
9.2166540169
 11
11.2072562575
 21
9.2098688776
  0
LINE
  5
28C
100
AcDbEntity
  8
0
100
AcDbLine
 62
7
  6
CONTINUOUS
 10
11.1154699732
 20
9.3098214853
 11
11.1263301703
 21
9.3037394827
  0
LINE
  5
28D
100
AcDbEntity
  8
0
100
AcDbLine
 62
7
  6
CONTINUOUS
 10
11.1408277206
 20
9.2948553725
 11
11.1511772509
 21
9.2879400374
  0
LINE
  5
28E
100
AcDbEntity
  8
0
100
AcDbLine
 62
7
  6
CONTINUOUS
 10
11.1649330709
 20
9.2779458492
 11
11.1747081261
 21
9.270239817
  0
LINE
  5
28F
100
AcDbEntity
  8
0
100
AcDbLine
 62
7
  6
CONTINUOUS
 10
11.1876374065
 20
9.2591971684
 11
11.1967777201
 21
9.2507479493
  0
LINE
  5
290
100
AcDbEntity
  8
0
100
AcDbLine
 62
7
  6
CONTINUOUS
 10
11.2088007477
 20
9.2387249218
 11
11.2172499667
 21
9.2295846082
  0
LINE
  5
291
100
AcDbEntity
  8
0
100
AcDbLine
 62
7
  6
CONTINUOUS
 10
11.2282926153
 20
9.2166553278
 11
11.2359986475
 21
9.2068802726
  0
LINE
  5
292
100
AcDbEntity
  8
0
100
AcDbLine
 62
7
  6
CONTINUOUS
 10
11.1967760945
 20
8.7085350875
 11
11.1883616967
 21
8.7289701905
  0
LINE
  5
293
100
AcDbEntity
  8
0
100
AcDbLine
 62
7
  6
CONTINUOUS
 10
11.1747068152
 20
8.6890433352
 11
11.1679216759
 21
8.7100756296
  0
LINE
  5
294
100
AcDbEntity
  8
0
100
AcDbLine
 62
7
  6
CONTINUOUS
 10
11.1511762629
 20
8.6713432051
 11
11.1460622147
 21
8.6928430199
  0
LINE
  5
295
100
AcDbEntity
  8
0
100
AcDbLine
 62
7
  6
CONTINUOUS
 10
11.1263295112
 20
8.6555438245
 11
11.1229180839
 21
8.6773786062
  0
LINE
  5
296
100
AcDbEntity
  8
0
100
AcDbLine
 62
7
  6
CONTINUOUS
 10
11.3121072839
 20
9.0005787865
 11
11.3125959616
 21
8.9881411087
  0
LWPOLYLINE
  5
297
100
AcDbEntity
  8
0
100
AcDbPolyline
 62
7
  6
CONTINUOUS
 90
3
 70
0
 10
11.0951921286
 20
7.5442666476
 10
11.0957181064
 20
7.5490425101
 10
11.0965707951
 20
7.5514845393
  0
LINE
  5
298
100
AcDbEntity
  8
0
100
AcDbLine
 62
7
  6
CONTINUOUS
 10
11.1460622147
 20
9.2664360689
 11
11.1511762629
 21
9.2879358837
  0
LINE
  5
299
100
AcDbEntity
  8
0
100
AcDbLine
 62
7
  6
CONTINUOUS
 10
11.1679216759
 20
9.2492034592
 11
11.1747068152
 21
9.2702357537
  0
LINE
  5
29A
100
AcDbEntity
  8
0
100
AcDbLine
 62
7
  6
CONTINUOUS
 10
11.1883616967
 20
9.2303088984
 11
11.1967760945
 21
9.2507440014
  0
LINE
  5
29B
100
AcDbEntity
  8
0
100
AcDbLine
 62
7
  6
CONTINUOUS
 10
11.2072562575
 20
9.2098688776
 11
11.2172480363
 21
9.2295807999
  0
LINE
  5
29C
100
AcDbEntity
  8
0
100
AcDbLine
 62
7
  6
CONTINUOUS
 10
11.2244888672
 20
9.1880094164
 11
11.2359964243
 21
9.2068766275
  0
LINE
  5
29D
100
AcDbEntity
  8
0
100
AcDbLine
 62
7
  6
CONTINUOUS
 10
11.239953281
 20
9.1648652856
 11
11.2529056684
 21
9.1827714629
  0
LINE
  5
29E
100
AcDbEntity
  8
0
100
AcDbLine
 62
7
  6
CONTINUOUS
 10
11.2535541556
 20
9.1405791766
 11
11.2678715176
 21
9.1574139225
  0
LINE
  5
29F
100
AcDbEntity
  8
0
100
AcDbLine
 62
7
  6
CONTINUOUS
 10
11.265207637
 20
9.1153008212
 11
11.2808017023
 21
9.130960344
  0
LINE
  5
2A0
100
AcDbEntity
  8
0
100
AcDbLine
 62
7
  6
CONTINUOUS
 10
11.2748418778
 20
9.0891860689
 11
11.2916165038
 21
9.1035738224
  0
LINE
  5
2A1
100
AcDbEntity
  8
0
100
AcDbLine
 62
7
  6
CONTINUOUS
 10
10.7599179647
 20
8.6494603696
 11
10.7767527106
 21
8.6637777316
  0
LINE
  5
2A2
100
AcDbEntity
  8
0
100
AcDbLine
 62
7
  6
CONTINUOUS
 10
11.2823974795
 20
9.0623959259
 11
11.3002492451
 21
9.0754232047
  0
LINE
  5
2A3
100
AcDbEntity
  8
0
100
AcDbLine
 62
7
  6
CONTINUOUS
 10
10.7345604242
 20
8.6644262188
 11
10.7524666015
 21
8.6773786062
  0
LINE
  5
2A4
100
AcDbEntity
  8
0
100
AcDbLine
 62
7
  6
CONTINUOUS
 10
11.2459928357
 20
9.1931244526
 11
11.2529081708
 21
9.1827749223
  0
LINE
  5
2A5
100
AcDbEntity
  8
0
100
AcDbLine
 62
7
  6
CONTINUOUS
 10
11.261792281
 20
9.168277372
 11
11.2678742836
 21
9.1574171749
  0
LINE
  5
2A6
100
AcDbEntity
  8
0
100
AcDbLine
 62
7
  6
CONTINUOUS
 10
11.2755935425
 20
9.1422672765
 11
11.280804715
 21
9.1309633693
  0
LINE
  5
2A7
100
AcDbEntity
  8
0
100
AcDbLine
 62
7
  6
CONTINUOUS
 10
11.2873115306
 20
9.1152545269
 11
11.2916197446
 21
9.103576602
  0
LINE
  5
2A8
100
AcDbEntity
  8
0
100
AcDbLine
 62
7
  6
CONTINUOUS
 10
11.2968740002
 20
9.0874056658
 11
11.300252694
 21
9.0754257215
  0
LINE
  5
2A9
100
AcDbEntity
  8
0
100
AcDbLine
 62
7
  6
CONTINUOUS
 10
11.3042219955
 20
9.0588923908
 11
11.3066503382
 21
9.0466842874
  0
LINE
  5
2AA
100
AcDbEntity
  8
0
100
AcDbLine
 62
7
  6
CONTINUOUS
 10
11.3093102136
 20
9.0298904956
 11
11.3107732338
 21
9.0175295001
  0
LINE
  5
2AB
100
AcDbEntity
  8
0
100
AcDbLine
 62
7
  6
CONTINUOUS
 10
11.3125959616
 20
8.9711379801
 11
11.3121072839
 21
8.9587003023
  0
LINE
  5
2AC
100
AcDbEntity
  8
0
100
AcDbLine
 62
7
  6
CONTINUOUS
 10
11.3107732338
 20
8.9417495887
 11
11.3093102136
 21
8.9293885933
  0
LINE
  5
2AD
100
AcDbEntity
  8
0
100
AcDbLine
 62
7
  6
CONTINUOUS
 10
11.3066503382
 20
8.9125948015
 11
11.3042219955
 21
8.9003866981
  0
LINE
  5
2AE
100
AcDbEntity
  8
0
100
AcDbLine
 62
7
  6
CONTINUOUS
 10
11.300252694
 20
8.8838533673
 11
11.2968740002
 21
8.8718734231
  0
LINE
  5
2AF
100
AcDbEntity
  8
0
100
AcDbLine
 62
7
  6
CONTINUOUS
 10
11.2916197446
 20
8.8557024869
 11
11.2873115306
 21
8.844024562
  0
LINE
  5
2B0
100
AcDbEntity
  8
0
100
AcDbLine
 62
7
  6
CONTINUOUS
 10
11.280804715
 20
8.8283157195
 11
11.2755935425
 21
8.8170118124
  0
LINE
  5
2B1
100
AcDbEntity
  8
0
100
AcDbLine
 62
7
  6
CONTINUOUS
 10
11.2678742836
 20
8.8018619139
 11
11.261792281
 21
8.7910017169
  0
LINE
  5
2B2
100
AcDbEntity
  8
0
100
AcDbLine
 62
7
  6
CONTINUOUS
 10
11.2529081708
 20
8.7765041665
 11
11.2459928357
 21
8.7661546362
  0
LINE
  5
2B3
100
AcDbEntity
  8
0
100
AcDbLine
 62
7
  6
CONTINUOUS
 10
11.2359986475
 20
8.7523988163
 11
11.2282926153
 21
8.7426237611
  0
LINE
  5
2B4
100
AcDbEntity
  8
0
100
AcDbLine
 62
7
  6
CONTINUOUS
 10
11.2878278595
 20
9.0350955623
 11
11.3066467025
 21
9.0466820489
  0
LINE
  5
2B5
100
AcDbEntity
  8
0
100
AcDbLine
 62
7
  6
CONTINUOUS
 10
10.7104552597
 20
8.6813354629
 11
10.7293224708
 21
8.6928430199
  0
LINE
  5
2B6
100
AcDbEntity
  8
0
100
AcDbLine
 62
7
  6
CONTINUOUS
 10
11.2910995375
 20
9.0074532939
 11
11.3107694336
 21
9.0175275538
  0
LINE
  5
2B7
100
AcDbEntity
  8
0
100
AcDbLine
 62
7
  6
CONTINUOUS
 10
10.6877510873
 20
8.7000838509
 11
10.7074630096
 21
8.7100756296
  0
LINE
  5
2B8
100
AcDbEntity
  8
0
100
AcDbLine
 62
7
  6
CONTINUOUS
 10
11.2921923427
 20
8.9796395444
 11
11.3125920204
 21
8.9881394666
  0
LINE
  5
2B9
100
AcDbEntity
  8
0
100
AcDbLine
 62
7
  6
CONTINUOUS
 10
10.6665878858
 20
8.7205557927
 11
10.6870229888
 21
8.7289701905
  0
LINE
  5
2BA
100
AcDbEntity
  8
0
100
AcDbLine
 62
7
  6
CONTINUOUS
 10
11.2910995375
 20
8.951825795
 11
11.312103226
 21
8.9586989744
  0
LINE
  5
2BB
100
AcDbEntity
  8
0
100
AcDbLine
 62
7
  6
CONTINUOUS
 10
10.6470961335
 20
8.7426250719
 11
10.6681284279
 21
8.7494102113
  0
LINE
  5
2BC
100
AcDbEntity
  8
0
100
AcDbLine
 62
7
  6
CONTINUOUS
 10
11.2172499667
 20
8.7296944807
 11
11.2088007477
 21
8.720554167
  0
LINE
  5
2BD
100
AcDbEntity
  8
0
100
AcDbLine
 62
7
  6
CONTINUOUS
 10
11.1967777201
 20
8.7085311395
 11
11.1876374065
 21
8.7000819205
  0
LINE
  5
2BE
100
AcDbEntity
  8
0
100
AcDbLine
 62
7
  6
CONTINUOUS
 10
11.1747081261
 20
8.6890392718
 11
11.1649330709
 21
8.6813332397
  0
LINE
  5
2BF
100
AcDbEntity
  8
0
100
AcDbLine
 62
7
  6
CONTINUOUS
 10
11.1511772509
 20
8.6713390514
 11
11.1408277206
 21
8.6644237164
  0
LINE
  5
2C0
100
AcDbEntity
  8
0
100
AcDbLine
 62
7
  6
CONTINUOUS
 10
11.1263301703
 20
8.6555396061
 11
11.1154699732
 21
8.6494576035
  0
LINE
  5
2C1
100
AcDbEntity
  8
0
100
AcDbLine
 62
9
  6
CONTINUOUS
 10
11.094867219
 20
10.8407518316
 11
11.0951923413
 21
10.840380577
  0
LINE
  5
2C2
100
AcDbEntity
  8
0
100
AcDbLine
 62
7
  6
CONTINUOUS
 10
11.0852160206
 20
7.5444966302
 11
11.0852442227
 21
7.544512896
  0
LWPOLYLINE
  5
2C3
100
AcDbEntity
  8
0
100
AcDbPolyline
 62
7
  6
CONTINUOUS
 90
9
 70
0
 10
10.7050044357
 20
10.9369629704
 10
10.7135955652
 20
10.9343902678
 10
10.7285502762
 20
10.9277223044
 10
10.7432499783
 20
10.9178503257
 10
10.7565277431
 20
10.9048732616
 10
10.7673740115
 20
10.8892917993
 10
10.7750686998
 20
10.8719392502
 10
10.7792792436
 20
10.8538599571
 10
10.7801709015
 20
10.8407283357
  0
ARC
  5
2C4
100
AcDbEntity
  8
0
100
AcDbCircle
 62
7
  6
CONTINUOUS
 10
10.9376923427
 20
8.9796395444
 40
1.063
100
AcDbArc
 50
283.8617188344
 51
81.4674553942
  0
ARC
  5
2C5
100
AcDbEntity
  8
0
100
AcDbCircle
 62
7
  6
CONTINUOUS
 10
10.9376923427
 20
8.9796395444
 40
1.063
100
AcDbArc
 50
98.5325446058
 51
256.1309550666
  0
ARC
  5
2C6
100
AcDbEntity
  8
0
100
AcDbCircle
 62
7
  6
CONTINUOUS
 10
10.9376923427
 20
8.9796395444
 40
1.0365357021
100
AcDbArc
 50
98.751649524
 51
256.6130249865
  0
ARC
  5
2C7
100
AcDbEntity
  8
0
100
AcDbCircle
 62
7
  6
CONTINUOUS
 10
10.9376923427
 20
8.9796395444
 40
1.0365357021
100
AcDbArc
 50
283.3798816187
 51
81.248350476
  0
ARC
  5
2C8
100
AcDbEntity
  8
0
100
AcDbCircle
 62
7
  6
CONTINUOUS
 10
10.9376923427
 20
8.9796395444
 40
0.9055
100
AcDbArc
 50
100.0362464927
 51
259.9637535073
  0
ARC
  5
2C9
100
AcDbEntity
  8
0
100
AcDbCircle
 62
7
  6
CONTINUOUS
 10
10.9376923427
 20
8.9796395444
 40
0.9055
100
AcDbArc
 50
280.0362464927
 51
79.9637535073
  0
ARC
  5
2CA
100
AcDbEntity
  8
0
100
AcDbCircle
 62
7
  6
CONTINUOUS
 10
10.9376923427
 20
8.9796395444
 40
0.7755
100
AcDbArc
 50
281.7487356538
 51
78.2512643462
  0
ARC
  5
2CB
100
AcDbEntity
  8
0
100
AcDbCircle
 62
7
  6
CONTINUOUS
 10
10.9376923427
 20
8.9796395444
 40
0.7755
100
AcDbArc
 50
101.7487356538
 51
258.2512643462
  0
ARC
  5
2CC
100
AcDbEntity
  8
0
100
AcDbCircle
 62
7
  6
CONTINUOUS
 10
10.9376923427
 20
8.9796395444
 40
0.375
100
AcDbArc
 50
114.8382006622
 51
115.7009453645
  0
ARC
  5
2CD
100
AcDbEntity
  8
0
100
AcDbCircle
 62
7
  6
CONTINUOUS
 10
10.9376923427
 20
8.9796395444
 40
0.375
100
AcDbArc
 50
244.2990546355
 51
245.1617993378
  0
ARC
  5
2CE
100
AcDbEntity
  8
0
100
AcDbCircle
 62
7
  6
CONTINUOUS
 10
10.9376923427
 20
8.9796395444
 40
0.375
100
AcDbArc
 50
294.8382006622
 51
295.7009453645
  0
ARC
  5
2CF
100
AcDbEntity
  8
0
100
AcDbCircle
 62
7
  6
CONTINUOUS
 10
10.9376923427
 20
8.9796395444
 40
0.375
100
AcDbArc
 50
64.2990546355
 51
65.1617993378
  0
ARC
  5
2D0
100
AcDbEntity
  8
0
100
AcDbCircle
 62
7
  6
CONTINUOUS
 10
10.9376923427
 20
8.9796395444
 40
0.3545
100
AcDbArc
 50
296.4769397656
 51
63.5230602344
  0
ARC
  5
2D1
100
AcDbEntity
  8
0
100
AcDbCircle
 62
7
  6
CONTINUOUS
 10
10.9376923427
 20
8.9796395444
 40
0.3545
100
AcDbArc
 50
116.4769397656
 51
243.5230602344
  0
ARC
  5
2D2
100
AcDbEntity
  8
0
100
AcDbCircle
 62
7
  6
CONTINUOUS
 10
10.9378058051
 20
7.8004721779
 40
0.2954996347
100
AcDbArc
 50
238.4036930279
 51
240.0187304181
  0
ARC
  5
2D3
100
AcDbEntity
  8
0
100
AcDbCircle
 62
7
  6
CONTINUOUS
 10
10.9376274136
 20
7.8003911237
 40
0.2954052615
100
AcDbArc
 50
299.9746871128
 51
301.6029219543
  0
ARC
  5
2D4
100
AcDbEntity
  8
0
100
AcDbCircle
 62
7
  6
CONTINUOUS
 10
10.9376925969
 20
7.8002722579
 40
0.2952700361
100
AcDbArc
 50
301.6043473739
 51
238.402078953
  0
ARC
  5
2D5
100
AcDbEntity
  8
0
100
AcDbCircle
 62
7
  6
CONTINUOUS
 10
10.9376923427
 20
8.9796395444
 40
0.235
100
AcDbArc
 50
312.1261622038
 51
47.8738377962
  0
ARC
  5
2D6
100
AcDbEntity
  8
0
100
AcDbCircle
 62
7
  6
CONTINUOUS
 10
10.9376923427
 20
8.9796395444
 40
0.235
100
AcDbArc
 50
132.1261622038
 51
227.8738377962
  0
ARC
  5
2D7
100
AcDbEntity
  8
0
100
AcDbCircle
 62
7
  6
CONTINUOUS
 10
10.9376923427
 20
6.9964895444
 40
0.1575
100
AcDbArc
 50
180.0
 51
360.0
  0
SPLINE
  5
2D8
100
AcDbEntity
  8
0
100
AcDbSpline
 62
7
  6
CONTINUOUS
 70
0
 71
3
 72
24
 73
20
 74
0
 42
0.0000001
 43
0.0000001
 44
0.0000000001
 40
0.0
 40
0.0
 40
0.0
 40
0.0
 40
0.050651963
 40
0.1017400941
 40
0.1536739736
 40
0.2068299012
 40
0.2615431806
 40
0.3180746621
 40
0.347092375
 40
0.3766327547
 40
0.4373313782
 40
0.5002782513
 40
0.5654904082
 40
0.632933533
 40
0.7025409993
 40
0.7742154421
 40
0.8478065361
 40
0.9231335649
 40
1.0
 40
1.0
 40
1.0
 40
1.0
 10
11.5676923427
 20
11.3026395444
 30
0.0
 10
11.5676923427
 20
11.2928575809
 30
0.0
 10
11.5665057579
 20
11.2731897429
 30
0.0
 10
11.5612158553
 20
11.2439219806
 30
0.0
 10
11.5524583999
 20
11.2149920655
 30
0.0
 10
11.5402783649
 20
11.1865698211
 30
0.0
 10
11.5247288931
 20
11.1588262137
 30
0.0
 10
11.5091964767
 20
11.1365807946
 30
0.0
 10
11.4952538142
 20
11.1192638801
 30
0.0
 10
11.4800237392
 20
11.1019785614
 30
0.0
 10
11.4590404779
 20
11.0810714711
 30
0.0
 10
11.4311932768
 20
11.0574635966
 30
0.0
 10
11.4006233108
 20
11.0352180017
 30
0.0
 10
11.367505574
 20
11.0144513656
 30
0.0
 10
11.3320159345
 20
10.9952815368
 30
0.0
 10
11.2943402423
 20
10.9778305888
 30
0.0
 10
11.2546959841
 20
10.962174768
 30
0.0
 10
11.2133058833
 20
10.9483949028
 30
0.0
 10
11.1849548704
 20
10.940584269
 30
0.0
 10
11.1705483388
 20
10.9370048883
 30
0.0
  0
SPLINE
  5
2D9
100
AcDbEntity
  8
0
100
AcDbSpline
 62
7
  6
CONTINUOUS
 70
0
 71
3
 72
51
 73
47
 74
0
 42
0.0000001
 43
0.0000001
 44
0.0000000001
 40
0.0
 40
0.0
 40
0.0
 40
0.0
 40
0.0118628432
 40
0.0237702168
 40
0.0357654559
 40
0.047890326
 40
0.0601845242
 40
0.0726838629
 40
0.0854202932
 40
0.0984223525
 40
0.1117149397
 40
0.1253175433
 40
0.153499505
 40
0.1681101819
 40
0.1830699075
 40
0.2140254573
 40
0.2463431626
 40
0.2799412216
 40
0.3147040888
 40
0.3504812325
 40
0.3871001914
 40
0.4243661862
 40
0.4620721156
 40
0.5
 40
0.5379278844
 40
0.5756338138
 40
0.6128998086
 40
0.6495187675
 40
0.6852959112
 40
0.7200587784
 40
0.7536568374
 40
0.7859745427
 40
0.8169300925
 40
0.8318898181
 40
0.846500495
 40
0.8746824567
 40
0.8882850603
 40
0.9015776475
 40
0.9145797068
 40
0.9273161371
 40
0.9398154758
 40
0.952109674
 40
0.9642345441
 40
0.9762297832
 40
0.9881371568
 40
1.0
 40
1.0
 40
1.0
 40
1.0
 10
11.5676923427
 20
11.3026395444
 30
0.0
 10
11.5676923427
 20
11.309080562
 30
0.0
 10
11.5671824678
 20
11.3219924682
 30
0.0
 10
11.5648970468
 20
11.341295442
 30
0.0
 10
11.5610983972
 20
11.3605042991
 30
0.0
 10
11.5557944746
 20
11.3795703763
 30
0.0
 10
11.548994031
 20
11.3984457997
 30
0.0
 10
11.5407198402
 20
11.4170859984
 30
0.0
 10
11.5309943136
 20
11.4354468567
 30
0.0
 10
11.5198400544
 20
11.4534837074
 30
0.0
 10
11.5072800857
 20
11.4711514867
 30
0.0
 10
11.4884887445
 20
11.494433317
 30
0.0
 10
11.4671795434
 20
11.5165276964
 30
0.0
 10
11.4436978568
 20
11.5373235083
 30
0.0
 10
11.4180176971
 20
11.5578504341
 30
0.0
 10
11.3829397918
 20
11.5819228392
 30
0.0
 10
11.337068239
 20
11.6077795956
 30
0.0
 10
11.2873860993
 20
11.6307139201
 30
0.0
 10
11.2343614765
 20
11.6504900411
 30
0.0
 10
11.1785051606
 20
11.6669415393
 30
0.0
 10
11.1203452025
 20
11.6798936291
 30
0.0
 10
11.0604405398
 20
11.6892422824
 30
0.0
 10
10.9993610942
 20
11.6948798589
 30
0.0
 10
10.9376923427
 20
11.6967712355
 30
0.0
 10
10.8760235913
 20
11.6948798589
 30
0.0
 10
10.8149441457
 20
11.6892422824
 30
0.0
 10
10.7550394829
 20
11.6798936291
 30
0.0
 10
10.6968795249
 20
11.6669415393
 30
0.0
 10
10.6410232089
 20
11.6504900411
 30
0.0
 10
10.5879985862
 20
11.6307139201
 30
0.0
 10
10.5383164465
 20
11.6077795956
 30
0.0
 10
10.4924448936
 20
11.5819228392
 30
0.0
 10
10.4573669884
 20
11.5578504341
 30
0.0
 10
10.4316868287
 20
11.5373235083
 30
0.0
 10
10.4082051421
 20
11.5165276964
 30
0.0
 10
10.386895941
 20
11.494433317
 30
0.0
 10
10.3681045998
 20
11.4711514867
 30
0.0
 10
10.3555446311
 20
11.4534837074
 30
0.0
 10
10.3443903719
 20
11.4354468567
 30
0.0
 10
10.3346648453
 20
11.4170859984
 30
0.0
 10
10.3263906545
 20
11.3984457997
 30
0.0
 10
10.3195902109
 20
11.3795703763
 30
0.0
 10
10.3142862883
 20
11.3605042991
 30
0.0
 10
10.3104876387
 20
11.341295442
 30
0.0
 10
10.3082022177
 20
11.3219924682
 30
0.0
 10
10.3076923427
 20
11.309080562
 30
0.0
 10
10.3076923427
 20
11.3026395444
 30
0.0
  0
SPLINE
  5
2DA
100
AcDbEntity
  8
0
100
AcDbSpline
 62
7
  6
CONTINUOUS
 70
0
 71
3
 72
24
 73
20
 74
0
 42
0.0000001
 43
0.0000001
 44
0.0000000001
 40
0.0
 40
0.0
 40
0.0
 40
0.0
 40
0.0768664351
 40
0.1521934639
 40
0.2257845579
 40
0.2974590007
 40
0.367066467
 40
0.4345095918
 40
0.4997217487
 40
0.5626686218
 40
0.6233672453
 40
0.652907625
 40
0.6819253379
 40
0.7384568194
 40
0.7931700988
 40
0.8463260264
 40
0.8982599059
 40
0.949348037
 40
1.0
 40
1.0
 40
1.0
 40
1.0
 10
10.7048363466
 20
10.9370048883
 30
0.0
 10
10.690429815
 20
10.940584269
 30
0.0
 10
10.6620788022
 20
10.9483949028
 30
0.0
 10
10.6206887013
 20
10.962174768
 30
0.0
 10
10.5810444432
 20
10.9778305888
 30
0.0
 10
10.543368751
 20
10.9952815368
 30
0.0
 10
10.5078791115
 20
11.0144513656
 30
0.0
 10
10.4747613747
 20
11.0352180017
 30
0.0
 10
10.4441914087
 20
11.0574635966
 30
0.0
 10
10.4163442076
 20
11.0810714711
 30
0.0
 10
10.3953609463
 20
11.1019785614
 30
0.0
 10
10.3801308712
 20
11.1192638801
 30
0.0
 10
10.3661882087
 20
11.1365807946
 30
0.0
 10
10.3506557923
 20
11.1588262137
 30
0.0
 10
10.3351063206
 20
11.1865698211
 30
0.0
 10
10.3229262856
 20
11.2149920655
 30
0.0
 10
10.3141688301
 20
11.2439219806
 30
0.0
 10
10.3088789276
 20
11.2731897429
 30
0.0
 10
10.3076923427
 20
11.2928575809
 30
0.0
 10
10.3076923427
 20
11.3026395444
 30
0.0
  0
SPLINE
  5
2DB
100
AcDbEntity
  8
0
100
AcDbSpline
 62
9
  6
CONTINUOUS
 70
0
 71
3
 72
27
 73
23
 74
0
 42
0.0000001
 43
0.0000001
 44
0.0000000001
 40
0.0
 40
0.0
 40
0.0
 40
0.0
 40
0.0929815594
 40
0.1850175541
 40
0.2751392122
 40
0.3625758672
 40
0.5267395497
 40
0.6024181638
 40
0.6731796357
 40
0.7385488276
 40
0.7980372999
 40
0.8511161557
 40
0.8972202531
 40
0.9174696854
 40
0.9357474018
 40
0.9519779306
 40
0.9660898156
 40
0.9780121766
 40
0.9876768481
 40
0.9950236417
 40
0.9978109594
 40
1.0
 40
1.0
 40
1.0
 40
1.0
 10
10.9376923427
 20
10.884681642
 30
0.0
 10
10.9428068387
 20
10.8846814366
 30
0.0
 10
10.9529860028
 20
10.8843941228
 30
0.0
 10
10.9680751897
 20
10.8831429749
 30
0.0
 10
10.9827754788
 20
10.8811395082
 30
0.0
 10
11.0012544538
 20
10.8776657444
 30
0.0
 10
11.0187050554
 20
10.87314003
 30
0.0
 10
11.0349646189
 20
10.8678864333
 30
0.0
 10
11.0459240286
 20
10.8639262951
 30
0.0
 10
11.0559284925
 20
10.8599612123
 30
0.0
 10
11.0649265996
 20
10.8561075418
 30
0.0
 10
11.0728634365
 20
10.8524751344
 30
0.0
 10
11.0787754887
 20
10.8496093799
 30
0.0
 10
11.0829301587
 20
10.8475093412
 30
0.0
 10
11.0856036469
 20
10.8461219734
 30
0.0
 10
11.0879638081
 20
10.8448640953
 30
0.0
 10
11.0900014526
 20
10.8437447382
 30
0.0
 10
11.0917081469
 20
10.8427733726
 30
0.0
 10
11.093075435
 20
10.8419587287
 30
0.0
 10
11.0939959848
 20
10.8413761709
 30
0.0
 10
11.0945539164
 20
10.8409911212
 30
0.0
 10
11.0947733886
 20
10.8408272918
 30
0.0
 10
11.094867219
 20
10.8407518316
 30
0.0
  0
SPLINE
  5
2DC
100
AcDbEntity
  8
0
100
AcDbSpline
 62
9
  6
CONTINUOUS
 70
0
 71
3
 72
26
 73
22
 74
0
 42
0.0000001
 43
0.0000001
 44
0.0000000001
 40
0.0
 40
0.0
 40
0.0
 40
0.0
 40
0.0160706121
 40
0.0323762968
 40
0.0491387618
 40
0.0665571681
 40
0.1039852397
 40
0.1242998991
 40
0.1457948305
 40
0.1925551663
 40
0.2445963812
 40
0.3019775486
 40
0.3645629721
 40
0.4320786615
 40
0.5041325798
 40
0.5802397367
 40
0.6598418454
 40
0.7423031134
 40
0.8269604324
 40
0.9131317566
 40
1.0
 40
1.0
 40
1.0
 40
1.0
 10
10.780192623
 20
7.5442180539
 30
0.0
 10
10.7801926183
 20
7.5432600138
 30
0.0
 10
10.7803191178
 20
7.5413276091
 30
0.0
 10
10.7808869137
 20
7.5384462018
 30
0.0
 10
10.7818313622
 20
7.5355806408
 30
0.0
 10
10.7836290147
 20
7.5317000225
 30
0.0
 10
10.7861649024
 20
7.5279656351
 30
0.0
 10
10.7892897243
 20
7.5244198583
 30
0.0
 10
10.7930790444
 20
7.5207354987
 30
0.0
 10
10.7987368275
 20
7.5162957148
 30
0.0
 10
10.806658892
 20
7.511377036
 30
0.0
 10
10.8158319355
 20
7.5067679731
 30
0.0
 10
10.826175211
 20
7.5025100037
 30
0.0
 10
10.837597481
 20
7.4986447136
 30
0.0
 10
10.8499939658
 20
7.4952105241
 30
0.0
 10
10.8632486
 20
7.4922416141
 30
0.0
 10
10.8772347404
 20
7.4897698017
 30
0.0
 10
10.8918169929
 20
7.4878191302
 30
0.0
 10
10.9068547525
 20
7.4864108742
 30
0.0
 10
10.9221970813
 20
7.485560823
 30
0.0
 10
10.9325137436
 20
7.4853709473
 30
0.0
 10
10.9376923427
 20
7.4853709337
 30
0.0
  0
SPLINE
  5
2DD
100
AcDbEntity
  8
0
100
AcDbSpline
 62
7
  6
CONTINUOUS
 70
0
 71
3
 72
23
 73
19
 74
0
 42
0.0000001
 43
0.0000001
 44
0.0000000001
 40
0.0
 40
0.0
 40
0.0
 40
0.0
 40
0.0654429145
 40
0.1308076691
 40
0.1959361097
 40
0.2607511747
 40
0.3251679376
 40
0.389107318
 40
0.4525127155
 40
0.5153469901
 40
0.5775924266
 40
0.63925431
 40
0.7003613785
 40
0.7609644742
 40
0.8211309066
 40
0.8809519846
 40
0.9405518484
 40
1.0
 40
1.0
 40
1.0
 40
1.0
 10
10.9376923427
 20
9.0324288172
 30
0.0
 10
10.9428290568
 20
9.0324288172
 30
0.0
 10
10.9531021567
 20
9.03288617
 30
0.0
 10
10.968364192
 20
9.0349333161
 30
0.0
 10
10.983335502
 20
9.0383262465
 30
0.0
 10
10.9978693739
 20
9.043031165
 30
0.0
 10
11.0118296317
 20
9.0490022219
 30
0.0
 10
11.0250817134
 20
9.0561849758
 30
0.0
 10
11.0374988895
 20
9.0645101998
 30
0.0
 10
11.0489626895
 20
9.073898427
 30
0.0
 10
11.0593618504
 20
9.0842617118
 30
0.0
 10
11.0685974319
 20
9.0955000746
 30
0.0
 10
11.0765798467
 20
9.1075069649
 30
0.0
 10
11.0832307175
 20
9.1201678155
 30
0.0
 10
11.0884875648
 20
9.1333599315
 30
0.0
 10
11.0922979176
 20
9.1469594096
 30
0.0
 10
11.0946227503
 20
9.1608313425
 30
0.0
 10
11.0951702637
 20
9.170180986
 30
0.0
 10
11.0951910574
 20
9.1748471157
 30
0.0
  0
LINE
  5
2DE
100
AcDbEntity
  8
0
100
AcDbLine
 62
7
  6
CONTINUOUS
 10
11.0951910574
 20
9.1748471157
 11
11.0951920193
 21
9.1751347145
  0
SPLINE
  5
2DF
100
AcDbEntity
  8
0
100
AcDbSpline
 62
9
  6
CONTINUOUS
 70
0
 71
3
 72
16
 73
12
 74
0
 42
0.0000001
 43
0.0000001
 44
0.0000000001
 40
0.0
 40
0.0
 40
0.0
 40
0.0
 40
0.0483500122
 40
0.0991477445
 40
0.2077958702
 40
0.3252134991
 40
0.450347015
 40
0.5819142214
 40
0.7184400211
 40
0.8583826872
 40
1.0
 40
1.0
 40
1.0
 40
1.0
 10
10.790154628
 20
7.5445047439
 30
0.0
 10
10.7922802753
 20
7.5432787258
 30
0.0
 10
10.7967108681
 20
7.5408873245
 30
0.0
 10
10.8062313441
 20
7.5363429433
 30
0.0
 10
10.8193151402
 20
7.5311690968
 30
0.0
 10
10.8363500253
 20
7.5258776959
 30
0.0
 10
10.8548250893
 20
7.5214435922
 30
0.0
 10
10.8744807599
 20
7.5179289649
 30
0.0
 10
10.895041729
 20
7.5153815127
 30
0.0
 10
10.9162126838
 20
7.5138393146
 30
0.0
 10
10.9305049399
 20
7.5134953252
 30
0.0
 10
10.9376923427
 20
7.5134953076
 30
0.0
  0
SPLINE
  5
2E0
100
AcDbEntity
  8
0
100
AcDbSpline
 62
9
  6
CONTINUOUS
 70
0
 71
3
 72
27
 73
23
 74
0
 42
0.0000001
 43
0.0000001
 44
0.0000000001
 40
0.0
 40
0.0
 40
0.0
 40
0.0
 40
0.0021889054
 40
0.0049762956
 40
0.0123235239
 40
0.0219885718
 40
0.0339108749
 40
0.0480223867
 40
0.0642524875
 40
0.0825299425
 40
0.1027793161
 40
0.1488836726
 40
0.2019628585
 40
0.2614511338
 40
0.3268198022
 40
0.3975810941
 40
0.4732598736
 40
0.6374238046
 40
0.7248604387
 40
0.8149820029
 40
0.9070183641
 40
1.0
 40
1.0
 40
1.0
 40
1.0
 10
10.7805174661
 20
10.8407518679
 30
0.0
 10
10.780611307
 20
10.8408273032
 30
0.0
 10
10.7808307864
 20
10.8409911153
 30
0.0
 10
10.7813887124
 20
10.8413762091
 30
0.0
 10
10.7823092249
 20
10.8419589156
 30
0.0
 10
10.7836764818
 20
10.8427736964
 30
0.0
 10
10.7853831955
 20
10.8437450244
 30
0.0
 10
10.7874208682
 20
10.8448642333
 30
0.0
 10
10.789781056
 20
10.8461219378
 30
0.0
 10
10.7924545524
 20
10.8475092011
 30
0.0
 10
10.7966092302
 20
10.8496092181
 30
0.0
 10
10.8025212261
 20
10.8524751538
 30
0.0
 10
10.8104579186
 20
10.856107936
 30
0.0
 10
10.819456032
 20
10.8599615564
 30
0.0
 10
10.8294606499
 20
10.8639261233
 30
0.0
 10
10.840420107
 20
10.8678860359
 30
0.0
 10
10.8566795925
 20
10.8731398939
 30
0.0
 10
10.8741299763
 20
10.8776665822
 30
0.0
 10
10.8926090212
 20
10.8811401662
 30
0.0
 10
10.9073094704
 20
10.8831425986
 30
0.0
 10
10.9223986606
 20
10.8843936085
 30
0.0
 10
10.9325778415
 20
10.8846815458
 30
0.0
 10
10.9376923427
 20
10.8846816754
 30
0.0
  0
LINE
  5
2E1
100
AcDbEntity
  8
0
100
AcDbLine
 62
7
  6
CONTINUOUS
 10
10.7801926662
 20
9.1751347145
 11
10.780193628
 21
9.1748471157
  0
SPLINE
  5
2E2
100
AcDbEntity
  8
0
100
AcDbSpline
 62
7
  6
CONTINUOUS
 70
0
 71
3
 72
23
 73
19
 74
0
 42
0.0000001
 43
0.0000001
 44
0.0000000001
 40
0.0
 40
0.0
 40
0.0
 40
0.0
 40
0.0594481516
 40
0.1190480154
 40
0.1788690934
 40
0.2390355258
 40
0.2996386215
 40
0.36074569
 40
0.4224075734
 40
0.4846530099
 40
0.5474872845
 40
0.610892682
 40
0.6748320624
 40
0.7392488253
 40
0.8040638903
 40
0.8691923309
 40
0.9345570855
 40
1.0
 40
1.0
 40
1.0
 40
1.0
 10
10.780193628
 20
9.1748471157
 30
0.0
 10
10.7802144218
 20
9.170180986
 30
0.0
 10
10.7807619352
 20
9.1608313425
 30
0.0
 10
10.7830867679
 20
9.1469594096
 30
0.0
 10
10.7868971207
 20
9.1333599315
 30
0.0
 10
10.7921539679
 20
9.1201678155
 30
0.0
 10
10.7988048388
 20
9.1075069649
 30
0.0
 10
10.8067872536
 20
9.0955000746
 30
0.0
 10
10.8160228351
 20
9.0842617118
 30
0.0
 10
10.826421996
 20
9.073898427
 30
0.0
 10
10.837885796
 20
9.0645101998
 30
0.0
 10
10.8503029721
 20
9.0561849758
 30
0.0
 10
10.8635550538
 20
9.0490022219
 30
0.0
 10
10.8775153115
 20
9.043031165
 30
0.0
 10
10.8920491835
 20
9.0383262465
 30
0.0
 10
10.9070204935
 20
9.0349333161
 30
0.0
 10
10.9222825287
 20
9.03288617
 30
0.0
 10
10.9325556286
 20
9.0324288172
 30
0.0
 10
10.9376923427
 20
9.0324288172
 30
0.0
  0
SPLINE
  5
2E3
100
AcDbEntity
  8
0
100
AcDbSpline
 62
7
  6
CONTINUOUS
 70
0
 71
3
 72
23
 73
19
 74
0
 42
0.0000001
 43
0.0000001
 44
0.0000000001
 40
0.0
 40
0.0
 40
0.0
 40
0.0
 40
0.0654510213
 40
0.1308234722
 40
0.1959583875
 40
0.2607783555
 40
0.3251981146
 40
0.3891383483
 40
0.452542414
 40
0.5153733191
 40
0.5776136786
 40
0.6392693066
 40
0.7003696519
 40
0.7609664135
 40
0.8211278441
 40
0.88094627
 40
0.9405469285
 40
1.0
 40
1.0
 40
1.0
 40
1.0
 10
10.9376923427
 20
9.0318492043
 30
0.0
 10
10.9325424118
 20
9.0318492043
 30
0.0
 10
10.9222428809
 20
9.0323089191
 30
0.0
 10
10.9069423377
 20
9.0343665815
 30
0.0
 10
10.8919347588
 20
9.0377768446
 30
0.0
 10
10.8773679691
 20
9.0425055657
 30
0.0
 10
10.8633791513
 20
9.0485064286
 30
0.0
 10
10.8501038433
 20
9.0557244403
 30
0.0
 10
10.8376696514
 20
9.0640896781
 30
0.0
 10
10.826195821
 20
9.0735218843
 30
0.0
 10
10.8157943006
 20
9.0839322456
 30
0.0
 10
10.8065645628
 20
9.0952198106
 30
0.0
 10
10.7985966141
 20
9.1072770075
 30
0.0
 10
10.7919691121
 20
9.1199881868
 30
0.0
 10
10.7867446253
 20
9.1332295272
 30
0.0
 10
10.7829756059
 20
9.1468760064
 30
0.0
 10
10.7807008727
 20
9.1607915373
 30
0.0
 10
10.7801923857
 20
9.1701669185
 30
0.0
 10
10.780192344
 20
9.1748449083
 30
0.0
  0
SPLINE
  5
2E4
100
AcDbEntity
  8
0
100
AcDbSpline
 62
9
  6
CONTINUOUS
 70
0
 71
3
 72
26
 73
22
 74
0
 42
0.0000001
 43
0.0000001
 44
0.0000000001
 40
0.0
 40
0.0
 40
0.0
 40
0.0
 40
0.0868684446
 40
0.1730401267
 40
0.2576975864
 40
0.3401588264
 40
0.4197609011
 40
0.4958680393
 40
0.5679219161
 40
0.6354375191
 40
0.6980229221
 40
0.7554043428
 40
0.8074463242
 40
0.8542071648
 40
0.8757018998
 40
0.8960160246
 40
0.933442106
 40
0.9508594962
 40
0.967621542
 40
0.983927873
 40
1.0
 40
1.0
 40
1.0
 40
1.0
 10
10.9376923427
 20
7.4853709337
 30
0.0
 10
10.9428709517
 20
7.4853709366
 30
0.0
 10
10.9531876432
 20
7.4855608409
 30
0.0
 10
10.9685300048
 20
7.4864109211
 30
0.0
 10
10.9835677896
 20
7.4878191385
 30
0.0
 10
10.9981500435
 20
7.4897697924
 30
0.0
 10
11.0121361723
 20
7.4922416085
 30
0.0
 10
11.0253907984
 20
7.4952105006
 30
0.0
 10
11.0377872778
 20
7.4986446566
 30
0.0
 10
11.0492095425
 20
7.5025099194
 30
0.0
 10
11.0595528282
 20
7.506767875
 30
0.0
 10
11.0687258989
 20
7.5113770182
 30
0.0
 10
11.0766479128
 20
7.5162959509
 30
0.0
 10
11.0823056591
 20
7.5207358678
 30
0.0
 10
11.0860949916
 20
7.5244201898
 30
0.0
 10
11.0892197672
 20
7.5279657852
 30
0.0
 10
11.0917556824
 20
7.5316998924
 30
0.0
 10
11.0935533507
 20
7.5355802792
 30
0.0
 10
11.0944977998
 20
7.5384457919
 30
0.0
 10
11.0950655766
 20
7.5413273091
 30
0.0
 10
11.0951920642
 20
7.5432598421
 30
0.0
 10
11.0951920582
 20
7.5442179721
 30
0.0
  0
SPLINE
  5
2E5
100
AcDbEntity
  8
0
100
AcDbSpline
 62
7
  6
CONTINUOUS
 70
0
 71
3
 72
23
 73
19
 74
0
 42
0.0000001
 43
0.0000001
 44
0.0000000001
 40
0.0
 40
0.0
 40
0.0
 40
0.0
 40
0.0594530715
 40
0.11905373
 40
0.1788721559
 40
0.2390335865
 40
0.2996303481
 40
0.3607306934
 40
0.4223863214
 40
0.4846266809
 40
0.547457586
 40
0.6108616517
 40
0.6748018854
 40
0.7392216445
 40
0.8040416125
 40
0.8691765278
 40
0.9345489787
 40
1.0
 40
1.0
 40
1.0
 40
1.0
 10
11.0951923414
 20
9.1748449083
 30
0.0
 10
11.0951922998
 20
9.1701669185
 30
0.0
 10
11.0946838128
 20
9.1607915373
 30
0.0
 10
11.0924090796
 20
9.1468760064
 30
0.0
 10
11.0886400601
 20
9.1332295272
 30
0.0
 10
11.0834155733
 20
9.1199881868
 30
0.0
 10
11.0767880714
 20
9.1072770075
 30
0.0
 10
11.0688201227
 20
9.0952198106
 30
0.0
 10
11.0595903849
 20
9.0839322456
 30
0.0
 10
11.0491888645
 20
9.0735218843
 30
0.0
 10
11.0377150341
 20
9.0640896781
 30
0.0
 10
11.0252808421
 20
9.0557244403
 30
0.0
 10
11.0120055342
 20
9.0485064286
 30
0.0
 10
10.9980167164
 20
9.0425055657
 30
0.0
 10
10.9834499267
 20
9.0377768446
 30
0.0
 10
10.9684423477
 20
9.0343665815
 30
0.0
 10
10.9531418046
 20
9.0323089191
 30
0.0
 10
10.9428422737
 20
9.0318492043
 30
0.0
 10
10.9376923427
 20
9.0318492043
 30
0.0
  0
SPLINE
  5
2E6
100
AcDbEntity
  8
0
100
AcDbSpline
 62
9
  6
CONTINUOUS
 70
0
 71
3
 72
31
 73
27
 74
0
 42
0.0000001
 43
0.0000001
 44
0.0000000001
 40
0.0
 40
0.0
 40
0.0
 40
0.0
 40
0.0019711963
 40
0.0045618964
 40
0.0077805583
 40
0.0116275414
 40
0.0160996847
 40
0.0211919966
 40
0.0332072484
 40
0.047604977
 40
0.0643099377
 40
0.0832327498
 40
0.104270529
 40
0.1273191752
 40
0.1522757527
 40
0.2075059149
 40
0.269165544
 40
0.336501309
 40
0.4087975409
 40
0.4853738689
 40
0.5655932484
 40
0.6488387517
 40
0.734501077
 40
0.8219878918
 40
0.9107120547
 40
1.0
 40
1.0
 40
1.0
 40
1.0
 10
10.7048363466
 20
10.9370048883
 30
0.0
 10
10.7049858946
 20
10.9369677761
 30
0.0
 10
10.7053400983
 20
10.9369162517
 30
0.0
 10
10.7059475381
 20
10.936882821
 30
0.0
 10
10.7067027369
 20
10.9368848177
 30
0.0
 10
10.7076039561
 20
10.9369223271
 30
0.0
 10
10.7086498586
 20
10.936995524
 30
0.0
 10
10.7103297398
 20
10.9371495691
 30
0.0
 10
10.712775968
 20
10.9374367892
 30
0.0
 10
10.716115207
 20
10.9378949957
 30
0.0
 10
10.7199820114
 20
10.938477757
 30
0.0
 10
10.7243560254
 20
10.9391763621
 30
0.0
 10
10.7292151306
 20
10.9399812161
 30
0.0
 10
10.7345362539
 20
10.9408826956
 30
0.0
 10
10.7424899731
 20
10.9422458306
 30
0.0
 10
10.7534176063
 20
10.9441237489
 30
0.0
 10
10.7676199234
 20
10.9465051632
 30
0.0
 10
10.7831579915
 20
10.9489852686
 30
0.0
 10
10.7998757438
 20
10.9514669987
 30
0.0
 10
10.8176241001
 20
10.9538548808
 30
0.0
 10
10.836258622
 20
10.9560588903
 30
0.0
 10
10.8556372241
 20
10.9579935186
 30
0.0
 10
10.8756175079
 20
10.959581322
 30
0.0
 10
10.8960552315
 20
10.9607612812
 30
0.0
 10
10.9167975549
 20
10.9614914007
 30
0.0
 10
10.9307129011
 20
10.9616587167
 30
0.0
 10
10.9376923427
 20
10.9616586879
 30
0.0
  0
SPLINE
  5
2E7
100
AcDbEntity
  8
0
100
AcDbSpline
 62
9
  6
CONTINUOUS
 70
0
 71
3
 72
31
 73
27
 74
0
 42
0.0000001
 43
0.0000001
 44
0.0000000001
 40
0.0
 40
0.0
 40
0.0
 40
0.0
 40
0.0892882106
 40
0.1780117523
 40
0.2654971505
 40
0.3511596967
 40
0.4344064927
 40
0.5146258906
 40
0.5912018136
 40
0.6634982615
 40
0.7308336638
 40
0.7924927257
 40
0.8477244716
 40
0.8726818126
 40
0.8957302803
 40
0.9167670686
 40
0.9356891137
 40
0.9523945681
 40
0.9667938829
 40
0.9788104586
 40
0.9839028883
 40
0.9883746951
 40
0.9922210589
 40
0.9954390088
 40
0.9980291006
 40
1.0
 40
1.0
 40
1.0
 40
1.0
 10
10.9376923427
 20
10.9616586879
 30
0.0
 10
10.9446718045
 20
10.9616586491
 30
0.0
 10
10.9585871216
 20
10.9614917564
 30
0.0
 10
10.9793293245
 20
10.9607618775
 30
0.0
 10
10.9997668388
 20
10.9595807499
 30
0.0
 10
11.0197471041
 20
10.9579927903
 30
0.0
 10
11.0391259181
 20
10.9560590986
 30
0.0
 10
11.057760525
 20
10.9538551726
 30
0.0
 10
11.0755088262
 20
10.9514670014
 30
0.0
 10
11.0922265466
 20
10.9489853666
 30
0.0
 10
11.1077645527
 20
10.9465052291
 30
0.0
 10
11.121966872
 20
10.9441235297
 30
0.0
 10
11.1328946758
 20
10.9422457906
 30
0.0
 10
11.1408485912
 20
10.9408828013
 30
0.0
 10
11.1461696812
 20
10.9399813194
 30
0.0
 10
11.1510286139
 20
10.9391763542
 30
0.0
 10
11.15540251
 20
10.9384776386
 30
0.0
 10
11.1592694211
 20
10.9378948949
 30
0.0
 10
11.1626089488
 20
10.9374368314
 30
0.0
 10
11.1650554272
 20
10.9371497213
 30
0.0
 10
11.1667353956
 20
10.9369956886
 30
0.0
 10
11.1677812304
 20
10.9369224675
 30
0.0
 10
11.1686823171
 20
10.9368849165
 30
0.0
 10
11.169437364
 20
10.9368828737
 30
0.0
 10
11.1700446795
 20
10.9369162671
 30
0.0
 10
11.1703988139
 20
10.9369677798
 30
0.0
 10
11.1705483388
 20
10.9370048883
 30
0.0
  0
SPLINE
  5
2E8
100
AcDbEntity
  8
0
100
AcDbSpline
 62
9
  6
CONTINUOUS
 70
0
 71
3
 72
16
 73
12
 74
0
 42
0.0000001
 43
0.0000001
 44
0.0000000001
 40
0.0
 40
0.0
 40
0.0
 40
0.0
 40
0.1416128284
 40
0.2815514629
 40
0.418073708
 40
0.5496388445
 40
0.6747720557
 40
0.7921913881
 40
0.9008436791
 40
0.9516449081
 40
1.0
 40
1.0
 40
1.0
 40
1.0
 10
10.9376923427
 20
7.5134953076
 30
0.0
 10
10.9448787994
 20
7.5134953105
 30
0.0
 10
10.9591691926
 20
7.5138392844
 30
0.0
 10
10.9803374308
 20
7.5153810561
 30
0.0
 10
11.0008959074
 20
7.5179277751
 30
0.0
 10
11.0205494019
 20
7.5214415015
 30
0.0
 10
11.0390227474
 20
7.5258744555
 30
0.0
 10
11.0560564669
 20
7.5311645289
 30
0.0
 10
11.0691397523
 20
7.5363371085
 30
0.0
 10
11.0786602659
 20
7.5408804592
 30
0.0
 10
11.0830910512
 20
7.5432713563
 30
0.0
 10
11.0852168542
 20
7.5444971293
 30
0.0
  0
ENDSEC
  0
SECTION
  2
OBJECTS
  0
DICTIONARY
  5
C
100
AcDbDictionary
280
0
281
1
  3
ACAD_GROUP
350
D
  3
ACAD_MLINESTYLE
350
17
  3
ACAD_LAYOUT
350
1A
  3
ACAD_PLOTSETTINGS
350
19
  3
ACAD_PLOTSTYLENAME
350
E
  0
DICTIONARY
  5
D
102
{ACAD_REACTORS
330
C
102
}
100
AcDbDictionary
280
0
281
1
  0
ACDBDICTIONARYWDFLT
  5
E
102
{ACAD_REACTORS
330
C
102
}
100
AcDbDictionary
281
1
  3
Normal
350
F
100
AcDbDictionaryWithDefault
340
F
  0
DICTIONARY
  5
17
102
{ACAD_REACTORS
330
C
102
}
100
AcDbDictionary
280
0
281
1
  3
Standard
350
18
  0
DICTIONARY
  5
19
102
{ACAD_REACTORS
330
C
102
}
100
AcDbDictionary
281
1
  0
DICTIONARY
  5
1A
102
{ACAD_REACTORS
330
C
102
}
100
AcDbDictionary
281
1
  3
Model
350
2E9
  3
Layout1
350
2EA
  0
ACDBPLACEHOLDER
  5
F
102
{ACAD_REACTORS
330
E
102
}
  0
MLINESTYLE
  5
18
102
{ACAD_REACTORS
330
17
102
}
100
AcDbMlineStyle
  2
STANDARD
 70
0
  3

 62
256
 51
90.0
 52
90.0
 71
2
 49
0.5
 62
256
  6
BYLAYER
 49
-0.5
 62
256
  6
BYLAYER
  0
LAYOUT
  5
2E9
102
{ACAD_REACTORS
330
1A
102
}
100
AcDbPlotSettings
  1

  2
none_device
  4
ANSI_C_(22.00_x_17.00_Inches)
  6

 40
0.0
 41
0.0
 42
0.0
 43
0.0
 44
558.8
 45
431.8
 46
0.0
 47
0.0
 48
0.0
 49
0.0
140
0.0
141
0.0
142
1.0
143
1.0
 70
1024
 72
0
 73
0
 74
0
  7

 75
0
147
1.0
148
0.0
149
0.0
100
AcDbLayout
  1
Model
 70
0
 71
0
 10
0.0
 20
0.0
 11
22.0
 21
17.0
 12
0.0
 22
0.0
 32
0.0
 14
0.0
 24
0.0
 34
0.0
 15
0.0
 25
0.0
 35
0.0
146
0.0
 13
0.0
 23
0.0
 33
0.0
 16
1.0
 26
0.0
 36
0.0
 17
0.0
 27
1.0
 37
0.0
 76
0
330
205
345
0
346
0
  0
LAYOUT
  5
2EA
102
{ACAD_REACTORS
330
1A
102
}
100
AcDbPlotSettings
  1

  2
none_device
  4
ANSI_C_(22.00_x_17.00_Inches)
  6

 40
0.0
 41
0.0
 42
0.0
 43
0.0
 44
558.8
 45
431.8
 46
0.0
 47
0.0
 48
0.0
 49
0.0
140
0.0
141
0.0
142
1.0
143
1.0
 70
0
 72
0
 73
0
 74
0
  7

 75
0
147
1.0
148
0.0
149
0.0
100
AcDbLayout
  1
Layout1
 70
0
 71
1
 10
0.0
 20
0.0
 11
22.0
 21
17.0
 12
0.0
 22
0.0
 32
0.0
 14
0.0
 24
0.0
 34
0.0
 15
0.0
 25
0.0
 35
0.0
146
0.0
 13
0.0
 23
0.0
 33
0.0
 16
1.0
 26
0.0
 36
0.0
 17
0.0
 27
1.0
 37
0.0
 76
0
330
206
345
0
346
0
  0
ENDSEC
  0
EOF
