999
DXF file: E:\BT Custom\CADOUTPUT\_RIGHT.dxf
999
Pro/ENGINEER 2018400 by Parametric Technology Corporation
  0
SECTION
  2
HEADER
  9
$ACADVER
  1
AC1018
  9
$DWGCODEPAGE
  3
ANSI_1252
  9
$EXTMAX
 10
22.0
 20
17.0
 30
0.0
  9
$EXTMIN
 10
0.0
 20
0.0
 30
0.0
  9
$LIMMIN
 10
0.0
 20
0.0
  9
$LIMMAX
 10
22.0
 20
17.0
  9
$VIEWCTR
 10
11.0
 20
8.5
  9
$VIEWSIZE
 40
17.0
  9
$CLAYER
  8
0
  9
$LTSCALE
 40
1.21
  9
$CELTYPE
  6
BYLAYER
  9
$DIMSCALE
 40
1.0
  9
$DIMASZ
 40
0.1
  9
$DIMEXO
 40
0.0625
  9
$DIMDLI
 40
0.836
  9
$DIMEXE
 40
0.125
  9
$DIMCEN
 40
0.198
  9
$DIMLFAC
 40
1.0
  9
$DIMBLK
  1
_FILLED
  9
$DIMALT
 70
1
  9
$DIMALTD
 70
2
  9
$DIMALTTD
 70
2
  9
$DIMALTF
 40
25.4
  9
$DIMTXT
 40
0.08
  9
$DIMTOL
 70
1
  9
$DIMLIM
 70
0
  9
$DIMTFAC
 40
1.0
  9
$DIMTP
 40
0.001
  9
$DIMTM
 40
0.001
  9
$DIMGAP
 40
0.09
  9
$DIMDSEP
 70
46
  9
$AUNITS
 70
0
  9
$PDMODE
 70
3
  9
$PDSIZE
 40
0.06
  9
$HANDSEED
  5
2A2
  9
$TILEMODE
 70
1
  9
$MEASUREMENT
 70
0
  9
$INSUNITS
 70
1
  0
ENDSEC
  0
SECTION
  2
CLASSES
  0
CLASS
  1
ACDBDICTIONARYWDFLT
  2
AcDbDictionaryWithDefault
  3
AutoCAD 2000
 90
0
 91
1
280
0
281
0
  0
CLASS
  1
ACDBPLACEHOLDER
  2
AcDbPlaceHolder
  3
AutoCAD 2000
 90
0
 91
1
280
0
281
0
  0
CLASS
  1
LAYOUT
  2
AcDbLayout
  3
AutoCAD 2000
 90
0
 91
0
280
0
281
0
  0
ENDSEC
  0
SECTION
  2
TABLES
  0
TABLE
  2
VPORT
  5
8
100
AcDbSymbolTable
 70
2
  0
VPORT
  5
1F4
100
AcDbSymbolTableRecord
100
AcDbViewportTableRecord
  2
*ACTIVE
 70
0
 10
0.0
 20
0.0
 11
1.0
 21
1.0
 12
11.0
 22
8.5
 13
0.0
 23
0.0
 14
1.0
 24
1.0
 15
0.0
 25
0.0
 16
0.0
 26
0.0
 36
1.0
 17
0.0
 27
0.0
 37
0.0
 40
17.0
 41
1.2941176471
 42
50.0
 43
0.0
 44
0.0
 50
0.0
 51
0.0
 71
0
 72
100
 73
1
 74
1
 75
0
 76
0
 77
0
 78
0
  0
ENDTAB
  0
TABLE
  2
LTYPE
  5
5
100
AcDbSymbolTable
 70
6
  0
LTYPE
  5
14
100
AcDbSymbolTableRecord
100
AcDbLinetypeTableRecord
  2
BYBLOCK
 70
0
  3

 72
65
 73
0
 40
0.0
  0
LTYPE
  5
15
100
AcDbSymbolTableRecord
100
AcDbLinetypeTableRecord
  2
BYLAYER
 70
0
  3

 72
65
 73
0
 40
0.0
  0
LTYPE
  5
16
100
AcDbSymbolTableRecord
100
AcDbLinetypeTableRecord
  2
CONTINUOUS
 70
64
  3
Solid line
 72
65
 73
0
 40
0.0
  0
LTYPE
  5
1F5
100
AcDbSymbolTableRecord
100
AcDbLinetypeTableRecord
  2
CENTER
 70
64
  3
____ _ ____ _ ____ _ ____ _ ____ _ ____ _ ____
 72
65
 73
4
 40
0.6
 49
0.375
 74
0
 49
-0.075
 74
0
 49
0.075
 74
0
 49
-0.075
 74
0
  0
LTYPE
  5
1F6
100
AcDbSymbolTableRecord
100
AcDbLinetypeTableRecord
  2
HIDDEN
 70
64
  3
- - - - - - - - - - - - - - - - - - - -
 72
65
 73
2
 40
0.2
 49
0.1
 74
0
 49
-0.1
 74
0
  0
LTYPE
  5
1F7
100
AcDbSymbolTableRecord
100
AcDbLinetypeTableRecord
  2
PHANTOM
 70
64
  3
_____ _ _ _____ _ _ _____ _ _ _____
 72
65
 73
6
 40
0.8
 49
0.45
 74
0
 49
-0.05
 74
0
 49
0.1
 74
0
 49
-0.05
 74
0
 49
0.1
 74
0
 49
-0.05
 74
0
  0
LTYPE
  5
1F8
100
AcDbSymbolTableRecord
100
AcDbLinetypeTableRecord
  2
DOT
 70
64
  3
. . . . . . . . . . . . . . . . . . . .
 72
65
 73
2
 40
0.2
 49
0.1
 74
0
 49
-0.1
 74
0
  0
LTYPE
  5
1F9
100
AcDbSymbolTableRecord
100
AcDbLinetypeTableRecord
  2
DASHED
 70
64
  3
- - - - - - - - - - - - - - - - - - - -
 72
65
 73
2
 40
0.2
 49
0.1
 74
0
 49
-0.1
 74
0
  0
ENDTAB
  0
TABLE
  2
LAYER
  5
2
100
AcDbSymbolTable
 70
36
  0
LAYER
  5
10
100
AcDbSymbolTableRecord
100
AcDbLayerTableRecord
  2
0
 70
0
 62
7
  6
CONTINUOUS
370
-3
390
F
  0
LAYER
  5
1FA
100
AcDbSymbolTableRecord
100
AcDbLayerTableRecord
  2
DEFAULT_1
 70
0
 62
7
  6
CENTER
370
-3
390
F
  0
LAYER
  5
1FB
100
AcDbSymbolTableRecord
100
AcDbLayerTableRecord
  2
DEFAULT_2
 70
0
 62
8
  6
HIDDEN
370
-3
390
F
  0
LAYER
  5
1FC
100
AcDbSymbolTableRecord
100
AcDbLayerTableRecord
  2
DEFAULT_3
 70
0
 62
7
  6
PHANTOM
370
-3
390
F
  0
LAYER
  5
1FD
100
AcDbSymbolTableRecord
100
AcDbLayerTableRecord
  2
ALL_FEATURES
 70
0
 62
7
  6
CONTINUOUS
370
-3
390
F
  0
LAYER
  5
1FE
100
AcDbSymbolTableRecord
100
AcDbLayerTableRecord
  2
AXES_FEATURES
 70
0
 62
7
  6
CONTINUOUS
370
-3
390
F
  0
LAYER
  5
1FF
100
AcDbSymbolTableRecord
100
AcDbLayerTableRecord
  2
DEFAULT_COORDINATE_SYSTEM
 70
0
 62
7
  6
CONTINUOUS
370
-3
390
F
  0
LAYER
  5
200
100
AcDbSymbolTableRecord
100
AcDbLayerTableRecord
  2
DEFAULT_DATUM_AXES
 70
0
 62
7
  6
CONTINUOUS
370
-3
390
F
  0
LAYER
  5
201
100
AcDbSymbolTableRecord
100
AcDbLayerTableRecord
  2
DEFAULT_DATUM_PLANES
 70
0
 62
7
  6
CONTINUOUS
370
-3
390
F
  0
LAYER
  5
202
100
AcDbSymbolTableRecord
100
AcDbLayerTableRecord
  2
DIMENSIONS
 70
0
 62
7
  6
CONTINUOUS
370
-3
390
F
  0
ENDTAB
  0
TABLE
  2
STYLE
  5
3
100
AcDbSymbolTable
 70
1
  0
STYLE
  5
11
100
AcDbSymbolTableRecord
100
AcDbTextStyleTableRecord
  2
STANDARD
 70
0
 40
0.0
 41
0.8
 50
0.0
 71
0
 42
0.2
  3
txt
  4

  0
STYLE
  5
203
100
AcDbSymbolTableRecord
100
AcDbTextStyleTableRecord
  2
TEXTSTYLE_1
 70
0
 40
0.0
 41
0.8
 50
0.0
 71
0
 42
0.2
  3
gdt
  4

  0
ENDTAB
  0
TABLE
  2
VIEW
  5
6
100
AcDbSymbolTable
 70
0
  0
ENDTAB
  0
TABLE
  2
UCS
  5
7
100
AcDbSymbolTable
 70
0
  0
ENDTAB
  0
TABLE
  2
APPID
  5
9
100
AcDbSymbolTable
 70
1
  0
APPID
  5
204
100
AcDbSymbolTableRecord
100
AcDbRegAppTableRecord
  2
ACAD
 70
0
  0
ENDTAB
  0
TABLE
  2
BLOCK_RECORD
  5
1
100
AcDbSymbolTable
 70
0
  0
BLOCK_RECORD
  5
205
100
AcDbSymbolTableRecord
100
AcDbBlockTableRecord
  2
*Model_Space
  0
BLOCK_RECORD
  5
206
100
AcDbSymbolTableRecord
100
AcDbBlockTableRecord
  2
*Paper_Space
  0
BLOCK_RECORD
  5
207
100
AcDbSymbolTableRecord
100
AcDbBlockTableRecord
  2
_FILLED
  0
ENDTAB
  0
TABLE
  2
DIMSTYLE
  5
A
100
AcDbSymbolTable
 70
1
100
AcDbDimStyleTable
 71
0
  0
DIMSTYLE
105
208
100
AcDbSymbolTableRecord
100
AcDbDimStyleTableRecord
  2
STANDARD
 70
0
  3

  4

 40
1.0
 41
0.1
 42
0.0625
 43
0.38
 44
0.125
 45
0.0
 46
0.0
 47
0.001
 48
0.001
140
0.08
141
0.09
142
0.0
143
25.4
144
1.0
145
0.0
146
1.0
147
0.09
 71
1.0
 72
0.0
 73
1
 74
1
 75
0
 76
0
 77
0
 78
4
 79
1
170
1
171
2
172
0
173
0
174
0
175
0
176
0
177
0
178
0
270
2
179
3
271
3
272
3
273
2
274
2
275
0
280
0
281
0
282
0
283
1
284
4
285
0
286
0
287
3
288
0
340
11
278
46
341
207
342
207
343
207
344
207
  0
ENDTAB
  0
ENDSEC
  0
SECTION
  2
BLOCKS
  0
BLOCK
  5
20
100
AcDbEntity
  8
0
100
AcDbBlockBegin
  2
*Model_Space
 70
0
 10
0.0
 20
0.0
 30
0.0
  3
*Model_Space
  1

  0
ENDBLK
  5
21
100
AcDbEntity
  8
0
100
AcDbBlockEnd
  0
BLOCK
  5
1C
100
AcDbEntity
  8
0
100
AcDbBlockBegin
  2
*Paper_Space
 70
0
 10
0.0
 20
0.0
 30
0.0
  3
*Paper_Space
  1

  0
ENDBLK
  5
1D
100
AcDbEntity
  8
0
100
AcDbBlockEnd
  0
BLOCK
  5
209
100
AcDbEntity
  8
0
100
AcDbBlockBegin
  2
_FILLED
 70
64
 10
0.0
 20
0.0
  3
_FILLED
  1

  0
SOLID
  5
20A
100
AcDbEntity
  8
0
  6
BYBLOCK
 62
0
100
AcDbTrace
 10
0.0
 20
0.0
 11
-1.0
 21
0.2
 12
-1.0
 22
-0.2
 13
-1.0
 23
-0.2
  0
ENDBLK
  5
20B
100
AcDbEntity
  8
0
  6
BYBLOCK
 62
0
100
AcDbBlockEnd
  0
ENDSEC
  0
SECTION
  2
ENTITIES
  0
LINE
  5
20C
100
AcDbEntity
  8
0
100
AcDbLine
 62
7
  6
CONTINUOUS
 10
12.2653100165
 20
7.9463618463
 11
12.3267627165
 21
7.9463618463
  0
LINE
  5
20D
100
AcDbEntity
  8
0
100
AcDbLine
 62
7
  6
CONTINUOUS
 10
11.8912923407
 20
8.3673618463
 11
11.9312923407
 21
8.3673618463
  0
LINE
  5
20E
100
AcDbEntity
  8
0
100
AcDbLine
 62
7
  6
CONTINUOUS
 10
12.1032630165
 20
8.3673618463
 11
12.1432630165
 21
8.3673618463
  0
LINE
  5
20F
100
AcDbEntity
  8
0
100
AcDbLine
 62
7
  6
CONTINUOUS
 10
11.8912923407
 20
8.4868618463
 11
11.8714181407
 21
8.4868618463
  0
LINE
  5
210
100
AcDbEntity
  8
0
100
AcDbLine
 62
7
  6
CONTINUOUS
 10
11.9312923407
 20
8.5862005696
 11
12.1032630165
 21
8.5862005696
  0
LINE
  5
211
100
AcDbEntity
  8
0
100
AcDbLine
 62
7
  6
CONTINUOUS
 10
11.9312923407
 20
8.6123153218
 11
12.1032630165
 21
8.6123153218
  0
LINE
  5
212
100
AcDbEntity
  8
0
100
AcDbLine
 62
7
  6
CONTINUOUS
 10
11.9312923407
 20
8.6391054648
 11
12.1032630165
 21
8.6391054648
  0
LINE
  5
213
100
AcDbEntity
  8
0
100
AcDbLine
 62
7
  6
CONTINUOUS
 10
11.9312923407
 20
8.6664058285
 11
12.1032630165
 21
8.6664058285
  0
LINE
  5
214
100
AcDbEntity
  8
0
100
AcDbLine
 62
7
  6
CONTINUOUS
 10
11.9312923407
 20
8.6940480969
 11
12.1032630165
 21
8.6940480969
  0
LINE
  5
215
100
AcDbEntity
  8
0
100
AcDbLine
 62
7
  6
CONTINUOUS
 10
11.9312923407
 20
8.7218618463
 11
12.1032630165
 21
8.7218618463
  0
LINE
  5
216
100
AcDbEntity
  8
0
100
AcDbLine
 62
7
  6
CONTINUOUS
 10
11.9312923407
 20
8.7496755958
 11
12.1032630165
 21
8.7496755958
  0
LINE
  5
217
100
AcDbEntity
  8
0
100
AcDbLine
 62
7
  6
CONTINUOUS
 10
11.9312923407
 20
8.7773178642
 11
12.1032630165
 21
8.7773178642
  0
LINE
  5
218
100
AcDbEntity
  8
0
100
AcDbLine
 62
7
  6
CONTINUOUS
 10
11.9312923407
 20
8.8046182278
 11
12.1032630165
 21
8.8046182278
  0
LINE
  5
219
100
AcDbEntity
  8
0
100
AcDbLine
 62
7
  6
CONTINUOUS
 10
11.9312923407
 20
8.8314083708
 11
12.1032630165
 21
8.8314083708
  0
LINE
  5
21A
100
AcDbEntity
  8
0
100
AcDbLine
 62
7
  6
CONTINUOUS
 10
10.6845608655
 20
8.9173570164
 11
10.6184082912
 21
8.7740715062
  0
LINE
  5
21B
100
AcDbEntity
  8
0
100
AcDbLine
 62
7
  6
CONTINUOUS
 10
11.9312923407
 20
8.8575231231
 11
12.1032630165
 21
8.8575231231
  0
LINE
  5
21C
100
AcDbEntity
  8
0
100
AcDbLine
 62
7
  6
CONTINUOUS
 10
11.8912923407
 20
8.9568618463
 11
11.8714181407
 21
8.9568618463
  0
LINE
  5
21D
100
AcDbEntity
  8
0
100
AcDbLine
 62
7
  6
CONTINUOUS
 10
11.8912923407
 20
9.0763618463
 11
11.9312923407
 21
9.0763618463
  0
LINE
  5
21E
100
AcDbEntity
  8
0
100
AcDbLine
 62
7
  6
CONTINUOUS
 10
12.1032630165
 20
9.0763618463
 11
12.1432630165
 21
9.0763618463
  0
LINE
  5
21F
100
AcDbEntity
  8
0
100
AcDbLine
 62
7
  6
CONTINUOUS
 10
12.2653100165
 20
9.4973618463
 11
12.3267627165
 21
9.4973618463
  0
LINE
  5
220
100
AcDbEntity
  8
0
100
AcDbLine
 62
7
  6
CONTINUOUS
 10
11.5758433407
 20
8.8793618463
 11
11.5758433407
 21
8.5643618463
  0
LINE
  5
221
100
AcDbEntity
  8
0
100
AcDbLine
 62
7
  6
CONTINUOUS
 10
11.8714181407
 20
8.9568618463
 11
11.8714181407
 21
8.4868618463
  0
LINE
  5
222
100
AcDbEntity
  8
0
100
AcDbLine
 62
7
  6
CONTINUOUS
 10
11.8912923407
 20
8.3673618463
 11
11.8912923407
 21
9.0763618463
  0
LINE
  5
223
100
AcDbEntity
  8
0
100
AcDbLine
 62
7
  6
CONTINUOUS
 10
11.9312923407
 20
8.3673618463
 11
11.9312923407
 21
9.0763618463
  0
LINE
  5
224
100
AcDbEntity
  8
0
100
AcDbLine
 62
7
  6
CONTINUOUS
 10
12.1032630165
 20
8.3673618463
 11
12.1032630165
 21
9.0763618463
  0
LINE
  5
225
100
AcDbEntity
  8
0
100
AcDbLine
 62
7
  6
CONTINUOUS
 10
12.1432630165
 20
8.3673618463
 11
12.1432630165
 21
9.0763618463
  0
LINE
  5
226
100
AcDbEntity
  8
0
100
AcDbLine
 62
7
  6
CONTINUOUS
 10
12.2653100165
 20
7.9463618463
 11
12.2653100165
 21
9.4973618463
  0
LINE
  5
227
100
AcDbEntity
  8
0
100
AcDbLine
 62
7
  6
CONTINUOUS
 10
12.3267627165
 20
7.9463618463
 11
12.3267627165
 21
9.4973618463
  0
LINE
  5
228
100
AcDbEntity
  8
0
100
AcDbLine
 62
7
  6
CONTINUOUS
 10
12.4818433407
 20
7.6853261442
 11
12.4818433407
 21
9.7583975485
  0
LINE
  5
229
100
AcDbEntity
  8
0
100
AcDbLine
 62
7
  6
CONTINUOUS
 10
12.5998433407
 20
7.6853261442
 11
12.5998433407
 21
9.7583975485
  0
ARC
  5
22A
100
AcDbEntity
  8
0
100
AcDbCircle
 62
7
  6
CONTINUOUS
 10
10.2058433407
 20
7.8804618463
 40
1.29925
100
AcDbArc
 50
210.1653067062
 51
32.6326686155
  0
ARC
  5
22B
100
AcDbEntity
  8
0
100
AcDbCircle
 62
7
  6
CONTINUOUS
 10
10.2058433407
 20
7.8804618463
 40
0.98425
100
AcDbArc
 50
212.9351019126
 51
65.2180029692
  0
ARC
  5
22C
100
AcDbEntity
  8
0
100
AcDbCircle
 62
7
  6
CONTINUOUS
 10
9.11526041
 20
7.5424944903
 40
0.29527
100
AcDbArc
 50
332.4105959072
 51
256.2244764489
  0
ARC
  5
22D
100
AcDbEntity
  8
0
100
AcDbCircle
 62
7
  6
CONTINUOUS
 10
9.0306640248
 20
7.197443444
 40
0.06
100
AcDbArc
 50
30.1653067062
 51
76.2244764489
  0
ARC
  5
22E
100
AcDbEntity
  8
0
100
AcDbCircle
 62
7
  6
CONTINUOUS
 10
9.4301323894
 20
7.3779575354
 40
0.06
100
AcDbArc
 50
152.4105945828
 51
212.9351057233
  0
ARC
  5
22F
100
AcDbEntity
  8
0
100
AcDbCircle
 62
7
  6
CONTINUOUS
 10
9.4498433407
 20
11.0448618463
 40
0.3935
100
AcDbArc
 50
303.1739346055
 51
240.0582527966
  0
ARC
  5
230
100
AcDbEntity
  8
0
100
AcDbCircle
 62
7
  6
CONTINUOUS
 10
9.2035279903
 20
10.617227659
 40
0.1
100
AcDbArc
 50
5.5527911286
 51
60.0582527713
  0
ARC
  5
231
100
AcDbEntity
  8
0
100
AcDbCircle
 62
7
  6
CONTINUOUS
 10
9.7198779045
 20
10.6317957689
 40
0.1
100
AcDbArc
 50
123.1739346162
 51
186.6403007425
  0
ARC
  5
232
100
AcDbEntity
  8
0
100
AcDbCircle
 62
7
  6
CONTINUOUS
 10
12.0172776786
 20
-71.2723021021
 40
79.8585489628
100
AcDbArc
 50
89.9383084469
 51
90.0616915531
  0
ARC
  5
233
100
AcDbEntity
  8
0
100
AcDbCircle
 62
7
  6
CONTINUOUS
 10
11.4778100234
 20
7.946257864
 40
0.7875
100
AcDbArc
 50
0.0075653946
 51
32.3259561738
  0
ARC
  5
234
100
AcDbEntity
  8
0
100
AcDbCircle
 62
7
  6
CONTINUOUS
 10
11.5789635156
 20
7.9738700898
 40
0.5905
100
AcDbArc
 50
60.3127019729
 51
90.3027496769
  0
ARC
  5
235
100
AcDbEntity
  8
0
100
AcDbCircle
 62
7
  6
CONTINUOUS
 10
12.0231232923
 20
8.5582992608
 40
0.1980782655
100
AcDbArc
 50
293.3647942607
 51
293.8651962199
  0
ARC
  5
236
100
AcDbEntity
  8
0
100
AcDbCircle
 62
7
  6
CONTINUOUS
 10
12.011432062
 20
8.5582992541
 40
0.1980782582
100
AcDbArc
 50
246.13480378
 51
246.6352054049
  0
ARC
  5
237
100
AcDbEntity
  8
0
100
AcDbCircle
 62
7
  6
CONTINUOUS
 10
12.0217763156
 20
8.5464470167
 40
0.1927884875
100
AcDbArc
 50
294.6780934763
 51
295.0035302284
  0
ARC
  5
238
100
AcDbEntity
  8
0
100
AcDbCircle
 62
7
  6
CONTINUOUS
 10
12.0127790385
 20
8.5464470101
 40
0.1927884803
100
AcDbArc
 50
244.9964697716
 51
245.3219063112
  0
ARC
  5
239
100
AcDbEntity
  8
0
100
AcDbCircle
 62
7
  6
CONTINUOUS
 10
12.0172776786
 20
8.5339288581
 40
0.186485786
100
AcDbArc
 50
242.5422646821
 51
297.4577353179
  0
ARC
  5
23A
100
AcDbEntity
  8
0
100
AcDbCircle
 62
7
  6
CONTINUOUS
 10
12.0172776786
 20
8.6175189257
 40
0.1862607372
100
AcDbArc
 50
242.5063488391
 51
297.4936511609
  0
ARC
  5
23B
100
AcDbEntity
  8
0
100
AcDbCircle
 62
7
  6
CONTINUOUS
 10
12.0172776786
 20
8.5330829112
 40
0.182835104
100
AcDbArc
 50
241.9472846095
 51
298.0527153905
  0
ARC
  5
23C
100
AcDbEntity
  8
0
100
AcDbCircle
 62
7
  6
CONTINUOUS
 10
12.0172776786
 20
8.5962384781
 40
0.1826729319
100
AcDbArc
 50
241.9202287083
 51
298.0797712917
  0
ARC
  5
23D
100
AcDbEntity
  8
0
100
AcDbCircle
 62
7
  6
CONTINUOUS
 10
12.0172776786
 20
8.5356499627
 40
0.180308095
100
AcDbArc
 50
241.5194013193
 51
298.4805986807
  0
ARC
  5
23E
100
AcDbEntity
  8
0
100
AcDbCircle
 62
7
  6
CONTINUOUS
 10
12.0172776786
 20
8.5779748247
 40
0.1802029893
100
AcDbArc
 50
241.5013084149
 51
298.4986915851
  0
ARC
  5
23F
100
AcDbEntity
  8
0
100
AcDbCircle
 62
7
  6
CONTINUOUS
 10
12.4818433407
 20
7.9738618463
 40
0.1575
100
AcDbArc
 50
190.0555661561
 51
270.0
  0
ARC
  5
240
100
AcDbEntity
  8
0
100
AcDbCircle
 62
7
  6
CONTINUOUS
 10
12.5408433407
 20
7.7378618463
 40
0.079
100
AcDbArc
 50
221.6830072544
 51
318.3169927456
  0
ARC
  5
241
100
AcDbEntity
  8
0
100
AcDbCircle
 62
7
  6
CONTINUOUS
 10
12.0172776786
 20
88.7160257948
 40
79.8585489628
100
AcDbArc
 50
269.9383084469
 51
270.0616915531
  0
ARC
  5
242
100
AcDbEntity
  8
0
100
AcDbCircle
 62
7
  6
CONTINUOUS
 10
11.5758433407
 20
10.8478618463
 40
2.2835
100
AcDbArc
 50
185.5527886982
 51
245.2180029692
  0
ARC
  5
243
100
AcDbEntity
  8
0
100
AcDbCircle
 62
7
  6
CONTINUOUS
 10
11.5758433407
 20
10.8478618463
 40
2.2835
100
AcDbArc
 50
263.0618203972
 51
270.0
  0
ARC
  5
244
100
AcDbEntity
  8
0
100
AcDbCircle
 62
7
  6
CONTINUOUS
 10
11.5758433407
 20
10.8478618463
 40
1.9685
100
AcDbArc
 50
186.6403154467
 51
270.0
  0
ARC
  5
245
100
AcDbEntity
  8
0
100
AcDbCircle
 62
7
  6
CONTINUOUS
 10
11.4778100234
 20
9.4974658287
 40
0.7875
100
AcDbArc
 50
327.6740438262
 51
359.9924346054
  0
ARC
  5
246
100
AcDbEntity
  8
0
100
AcDbCircle
 62
7
  6
CONTINUOUS
 10
11.5789635156
 20
9.4698536028
 40
0.5905
100
AcDbArc
 50
269.6972503231
 51
299.6872980271
  0
ARC
  5
247
100
AcDbEntity
  8
0
100
AcDbCircle
 62
7
  6
CONTINUOUS
 10
12.0231232926
 20
8.8854244327
 40
0.1980782646
100
AcDbArc
 50
66.1348037802
 51
66.6352056712
  0
ARC
  5
248
100
AcDbEntity
  8
0
100
AcDbCircle
 62
7
  6
CONTINUOUS
 10
12.0114320624
 20
8.8854244377
 40
0.1980782592
100
AcDbArc
 50
113.3647945273
 51
113.86519622
  0
ARC
  5
249
100
AcDbEntity
  8
0
100
AcDbCircle
 62
7
  6
CONTINUOUS
 10
12.0217763162
 20
8.8972766773
 40
0.1927884861
100
AcDbArc
 50
64.9964697713
 51
65.3219064809
  0
ARC
  5
24A
100
AcDbEntity
  8
0
100
AcDbCircle
 62
7
  6
CONTINUOUS
 10
12.0127790388
 20
8.897276682
 40
0.1927884809
100
AcDbArc
 50
114.6780936456
 51
115.0035302288
  0
ARC
  5
24B
100
AcDbEntity
  8
0
100
AcDbCircle
 62
7
  6
CONTINUOUS
 10
12.0172776786
 20
8.9097948393
 40
0.186485786
100
AcDbArc
 50
62.5422640085
 51
117.4577359915
  0
ARC
  5
24C
100
AcDbEntity
  8
0
100
AcDbCircle
 62
7
  6
CONTINUOUS
 10
12.0172776786
 20
8.8262047713
 40
0.1862607372
100
AcDbArc
 50
62.5063482256
 51
117.4936517744
  0
ARC
  5
24D
100
AcDbEntity
  8
0
100
AcDbCircle
 62
7
  6
CONTINUOUS
 10
12.0172776786
 20
8.9106407783
 40
0.182835104
100
AcDbArc
 50
61.9472850829
 51
118.0527149171
  0
ARC
  5
24E
100
AcDbEntity
  8
0
100
AcDbCircle
 62
7
  6
CONTINUOUS
 10
12.0172776786
 20
8.8474852109
 40
0.1826729319
100
AcDbArc
 50
61.9202292421
 51
118.0797707579
  0
ARC
  5
24F
100
AcDbEntity
  8
0
100
AcDbCircle
 62
7
  6
CONTINUOUS
 10
12.0172776786
 20
8.9080737199
 40
0.180308095
100
AcDbArc
 50
61.51940284
 51
118.48059716
  0
ARC
  5
250
100
AcDbEntity
  8
0
100
AcDbCircle
 62
7
  6
CONTINUOUS
 10
12.0172776786
 20
8.8657488577
 40
0.1802029893
100
AcDbArc
 50
61.5013099845
 51
118.4986900155
  0
ARC
  5
251
100
AcDbEntity
  8
0
100
AcDbCircle
 62
7
  6
CONTINUOUS
 10
12.4818433407
 20
9.4698618463
 40
0.1575
100
AcDbArc
 50
90.0
 51
169.9444338439
  0
ARC
  5
252
100
AcDbEntity
  8
0
100
AcDbCircle
 62
7
  6
CONTINUOUS
 10
12.5408433407
 20
9.7058618463
 40
0.079
100
AcDbArc
 50
41.6830072544
 51
138.3169927456
  0
SPLINE
  5
253
100
AcDbEntity
  8
0
100
AcDbSpline
 62
7
  6
CONTINUOUS
 70
0
 71
3
 72
17
 73
13
 74
0
 42
0.0000001
 43
0.0000001
 44
0.0000000001
 40
0.0
 40
0.0
 40
0.0
 40
0.0
 40
0.1239924552
 40
0.1863820123
 40
0.248929009
 40
0.3743156476
 40
0.5
 40
0.6256843524
 40
0.751070991
 40
0.8136179877
 40
0.8760075448
 40
1.0
 40
1.0
 40
1.0
 40
1.0
 10
11.9312923407
 20
9.0763618463
 30
0.0
 10
11.9378683591
 20
9.079686431
 30
0.0
 10
11.9480626649
 20
9.0841026063
 30
0.0
 10
11.9621039714
 20
9.0887783487
 30
0.0
 10
11.9764773149
 20
9.0926435063
 30
0.0
 10
11.9948758017
 20
9.0958956969
 30
0.0
 10
12.0172776786
 20
9.0971987164
 30
0.0
 10
12.0396795555
 20
9.0958956969
 30
0.0
 10
12.0580780423
 20
9.0926435063
 30
0.0
 10
12.0724513858
 20
9.0887783487
 30
0.0
 10
12.0864926923
 20
9.0841026063
 30
0.0
 10
12.0966869981
 20
9.079686431
 30
0.0
 10
12.1032630165
 20
9.0763618463
 30
0.0
  0
SPLINE
  5
254
100
AcDbEntity
  8
0
100
AcDbSpline
 62
7
  6
CONTINUOUS
 70
0
 71
3
 72
17
 73
13
 74
0
 42
0.0000001
 43
0.0000001
 44
0.0000000001
 40
0.0
 40
0.0
 40
0.0
 40
0.0
 40
0.1239924564
 40
0.1863820082
 40
0.2489289907
 40
0.3743156069
 40
0.5000000017
 40
0.6256843964
 40
0.7510710114
 40
0.8136179931
 40
0.8760075442
 40
1.0
 40
1.0
 40
1.0
 40
1.0
 10
11.9312923407
 20
8.3673618463
 30
0.0
 10
11.9378683592
 20
8.3640372617
 30
0.0
 10
11.9480626649
 20
8.3596210867
 30
0.0
 10
11.9621039702
 20
8.3549453445
 30
0.0
 10
11.9764773111
 20
8.3510801865
 30
0.0
 10
11.9948757982
 20
8.347827995
 30
0.0
 10
12.0172776789
 20
8.3465249789
 30
0.0
 10
12.0396795595
 20
8.347827995
 30
0.0
 10
12.0580780465
 20
8.3510801866
 30
0.0
 10
12.0724513872
 20
8.3549453446
 30
0.0
 10
12.0864926924
 20
8.3596210868
 30
0.0
 10
12.096686998
 20
8.3640372617
 30
0.0
 10
12.1032630165
 20
8.3673618463
 30
0.0
  0
LINE
  5
255
100
AcDbEntity
  8
0
100
AcDbLine
 62
7
  6
CONTINUOUS
 10
11.9312923407
 20
8.3684546515
 11
11.9316350848
 21
8.3682879999
  0
SPLINE
  5
256
100
AcDbEntity
  8
0
100
AcDbSpline
 62
7
  6
CONTINUOUS
 70
0
 71
3
 72
17
 73
13
 74
0
 42
0.0000001
 43
0.0000001
 44
0.0000000001
 40
0.0
 40
0.0
 40
0.0
 40
0.0
 40
0.1236136895
 40
0.1859359912
 40
0.2484845834
 40
0.3740351936
 40
0.5000000017
 40
0.6259648097
 40
0.7515154188
 40
0.8140640102
 40
0.8763863111
 40
1.0
 40
1.0
 40
1.0
 40
1.0
 10
11.9316350848
 20
8.3682879999
 30
0.0
 10
11.9382007086
 20
8.3651038003
 30
0.0
 10
11.9483654542
 20
8.360880644
 30
0.0
 10
11.9623429019
 20
8.3564141703
 30
0.0
 10
11.9766634982
 20
8.3527185294
 30
0.0
 10
11.994983676
 20
8.3496114057
 30
0.0
 10
12.0172776788
 20
8.3483671206
 30
0.0
 10
12.0395716815
 20
8.3496114057
 30
0.0
 10
12.0578918591
 20
8.3527185295
 30
0.0
 10
12.0722124553
 20
8.3564141703
 30
0.0
 10
12.0861899029
 20
8.360880644
 30
0.0
 10
12.0963546484
 20
8.3651038002
 30
0.0
 10
12.1029202721
 20
8.3682879998
 30
0.0
  0
LINE
  5
257
100
AcDbEntity
  8
0
100
AcDbLine
 62
7
  6
CONTINUOUS
 10
12.1029202721
 20
8.3682879998
 11
12.1032630165
 21
8.3684546515
  0
SPLINE
  5
258
100
AcDbEntity
  8
0
100
AcDbSpline
 62
7
  6
CONTINUOUS
 70
0
 71
3
 72
17
 73
13
 74
0
 42
0.0000001
 43
0.0000001
 44
0.0000000001
 40
0.0
 40
0.0
 40
0.0
 40
0.0
 40
0.1232053867
 40
0.1854547855
 40
0.2480047917
 40
0.3737326081
 40
0.5000000017
 40
0.6262673951
 40
0.7519952105
 40
0.8145452159
 40
0.8767946138
 40
1.0
 40
1.0
 40
1.0
 40
1.0
 10
11.9322860526
 20
8.371266311
 30
0.0
 10
11.9388234141
 20
8.3682624775
 30
0.0
 10
11.9489267291
 20
8.3642857247
 30
0.0
 10
11.9627912722
 20
8.3600852692
 30
0.0
 10
11.9770075844
 20
8.356606491
 30
0.0
 10
11.9951795872
 20
8.3536843037
 30
0.0
 10
12.0172776785
 20
8.3525147737
 30
0.0
 10
12.0393757698
 20
8.3536843037
 30
0.0
 10
12.0575477724
 20
8.3566064909
 30
0.0
 10
12.0717640845
 20
8.360085269
 30
0.0
 10
12.0856286275
 20
8.3642857245
 30
0.0
 10
12.0957319425
 20
8.3682624772
 30
0.0
 10
12.1022693039
 20
8.3712663107
 30
0.0
  0
SPLINE
  5
259
100
AcDbEntity
  8
0
100
AcDbSpline
 62
7
  6
CONTINUOUS
 70
0
 71
3
 72
11
 73
7
 74
0
 42
0.0000001
 43
0.0000001
 44
0.0000000001
 40
0.0
 40
0.0
 40
0.0
 40
0.0
 40
0.2474598816
 40
0.5000000016
 40
0.7525401205
 40
1.0
 40
1.0
 40
1.0
 40
1.0
 10
11.9328774136
 20
8.3764637141
 30
0.0
 10
11.945988536
 20
8.370799523
 30
0.0
 10
11.9737807549
 20
8.3621717385
 30
0.0
 10
12.0172776782
 20
8.3578536798
 30
0.0
 10
12.0607746014
 20
8.3621717383
 30
0.0
 10
12.0885668201
 20
8.3707995227
 30
0.0
 10
12.1016779425
 20
8.3764637137
 30
0.0
  0
SPLINE
  5
25A
100
AcDbEntity
  8
0
100
AcDbSpline
 62
7
  6
CONTINUOUS
 70
0
 71
3
 72
15
 73
11
 74
0
 42
0.0000001
 43
0.0000001
 44
0.0000000001
 40
0.0
 40
0.0
 40
0.0
 40
0.0
 40
0.1221522278
 40
0.2467546591
 40
0.3729496115
 40
0.5000000017
 40
0.6270503918
 40
0.7532453431
 40
0.8778477729
 40
1.0
 40
1.0
 40
1.0
 40
1.0
 10
11.9312923407
 20
8.3847123113
 30
0.0
 10
11.9379197514
 20
8.3819571451
 30
0.0
 10
11.9516088168
 20
8.377091091
 30
0.0
 10
11.9729175725
 20
8.3718366574
 30
0.0
 10
11.9949241071
 20
8.3686463931
 30
0.0
 10
12.0172776789
 20
8.3675790377
 30
0.0
 10
12.0396312507
 20
8.3686463932
 30
0.0
 10
12.061637785
 20
8.3718366575
 30
0.0
 10
12.0829465406
 20
8.377091091
 30
0.0
 10
12.0966356058
 20
8.3819571451
 30
0.0
 10
12.1032630165
 20
8.3847123113
 30
0.0
  0
SPLINE
  5
25B
100
AcDbEntity
  8
0
100
AcDbSpline
 62
7
  6
CONTINUOUS
 70
0
 71
3
 72
15
 73
11
 74
0
 42
0.0000001
 43
0.0000001
 44
0.0000000001
 40
0.0
 40
0.0
 40
0.0
 40
0.0
 40
0.121608052
 40
0.2461268692
 40
0.3725552024
 40
0.5000000017
 40
0.627444801
 40
0.753873133
 40
0.8783919487
 40
1.0
 40
1.0
 40
1.0
 40
1.0
 10
11.9312923407
 20
8.3943465521
 30
0.0
 10
11.9379355909
 20
8.3917791669
 30
0.0
 10
11.9516482692
 20
8.3872510255
 30
0.0
 10
11.9729449936
 20
8.3823723677
 30
0.0
 10
11.9949380197
 20
8.3794103618
 30
0.0
 10
12.0172776789
 20
8.3784193529
 30
0.0
 10
12.0396173381
 20
8.3794103618
 30
0.0
 10
12.061610364
 20
8.3823723678
 30
0.0
 10
12.0829070882
 20
8.3872510255
 30
0.0
 10
12.0966197663
 20
8.3917791669
 30
0.0
 10
12.1032630165
 20
8.3943465521
 30
0.0
  0
SPLINE
  5
25C
100
AcDbEntity
  8
0
100
AcDbSpline
 62
7
  6
CONTINUOUS
 70
0
 71
3
 72
15
 73
11
 74
0
 42
0.0000001
 43
0.0000001
 44
0.0000000001
 40
0.0
 40
0.0
 40
0.0
 40
0.0
 40
0.1210556176
 40
0.2454907721
 40
0.3721560309
 40
0.5000000018
 40
0.6278439724
 40
0.7545092301
 40
0.878944383
 40
1.0
 40
1.0
 40
1.0
 40
1.0
 10
11.9312923407
 20
8.4060000335
 30
0.0
 10
11.9379520397
 20
8.4036370066
 30
0.0
 10
11.9516885443
 20
8.3994754481
 30
0.0
 10
11.972972645
 20
8.3950018535
 30
0.0
 10
11.9949519401
 20
8.3922858103
 30
0.0
 10
12.0172776789
 20
8.3913770613
 30
0.0
 10
12.0396034176
 20
8.3922858103
 30
0.0
 10
12.0615827126
 20
8.3950018535
 30
0.0
 10
12.0828668131
 20
8.3994754481
 30
0.0
 10
12.0966033175
 20
8.4036370066
 30
0.0
 10
12.1032630165
 20
8.4060000335
 30
0.0
  0
SPLINE
  5
25D
100
AcDbEntity
  8
0
100
AcDbSpline
 62
7
  6
CONTINUOUS
 70
0
 71
3
 72
15
 73
11
 74
0
 42
0.0000001
 43
0.0000001
 44
0.0000000001
 40
0.0
 40
0.0
 40
0.0
 40
0.0
 40
0.1205086262
 40
0.2448621534
 40
0.3717620014
 40
0.5000000018
 40
0.6282380019
 40
0.7551378488
 40
0.8794913744
 40
1.0
 40
1.0
 40
1.0
 40
1.0
 10
11.9312923407
 20
8.4196009081
 30
0.0
 10
11.9379687044
 20
8.4174578158
 30
0.0
 10
11.9517286395
 20
8.4136893935
 30
0.0
 10
11.9729998394
 20
8.4096474104
 30
0.0
 10
11.9949655248
 20
8.4071933876
 30
0.0
 10
12.0172776789
 20
8.4063722657
 30
0.0
 10
12.0395898329
 20
8.4071933877
 30
0.0
 10
12.0615555182
 20
8.4096474105
 30
0.0
 10
12.0828267179
 20
8.4136893936
 30
0.0
 10
12.0965866529
 20
8.4174578158
 30
0.0
 10
12.1032630165
 20
8.4196009081
 30
0.0
  0
SPLINE
  5
25E
100
AcDbEntity
  8
0
100
AcDbSpline
 62
7
  6
CONTINUOUS
 70
0
 71
3
 72
15
 73
11
 74
0
 42
0.0000001
 43
0.0000001
 44
0.0000000001
 40
0.0
 40
0.0
 40
0.0
 40
0.0
 40
0.1199812875
 40
0.2442572606
 40
0.3713832629
 40
0.5000000018
 40
0.6286167404
 40
0.7557427416
 40
0.8800187131
 40
1.0
 40
1.0
 40
1.0
 40
1.0
 10
11.9312923407
 20
8.4350653218
 30
0.0
 10
11.9379851378
 20
8.4331566034
 30
0.0
 10
11.9517674929
 20
8.4298055349
 30
0.0
 10
11.9730258827
 20
8.4262188582
 30
0.0
 10
11.9949784371
 20
8.4240412036
 30
0.0
 10
12.0172776789
 20
8.4233125103
 30
0.0
 10
12.0395769206
 20
8.4240412037
 30
0.0
 10
12.0615294749
 20
8.4262188582
 30
0.0
 10
12.0827878645
 20
8.4298055349
 30
0.0
 10
12.0965702195
 20
8.4331566034
 30
0.0
 10
12.1032630165
 20
8.4350653218
 30
0.0
  0
SPLINE
  5
25F
100
AcDbEntity
  8
0
100
AcDbSpline
 62
7
  6
CONTINUOUS
 70
0
 71
3
 72
15
 73
11
 74
0
 42
0.0000001
 43
0.0000001
 44
0.0000000001
 40
0.0
 40
0.0
 40
0.0
 40
0.0
 40
0.1194879225
 40
0.2436923512
 40
0.3710299284
 40
0.5000000018
 40
0.628970075
 40
0.7563076511
 40
0.8805120781
 40
1.0
 40
1.0
 40
1.0
 40
1.0
 10
11.9312923407
 20
8.4522979315
 30
0.0
 10
11.9380008493
 20
8.4506367394
 30
0.0
 10
11.9518040149
 20
8.4477246972
 30
0.0
 10
11.9730500935
 20
8.4446140884
 30
0.0
 10
11.9949903562
 20
8.4427253946
 30
0.0
 10
12.0172776789
 20
8.4420933503
 30
0.0
 10
12.0395650015
 20
8.4427253947
 30
0.0
 10
12.0615052641
 20
8.4446140884
 30
0.0
 10
12.0827513425
 20
8.4477246972
 30
0.0
 10
12.096554508
 20
8.4506367394
 30
0.0
 10
12.1032630165
 20
8.4522979315
 30
0.0
  0
SPLINE
  5
260
100
AcDbEntity
  8
0
100
AcDbSpline
 62
7
  6
CONTINUOUS
 70
0
 71
3
 72
15
 73
11
 74
0
 42
0.0000001
 43
0.0000001
 44
0.0000000001
 40
0.0
 40
0.0
 40
0.0
 40
0.0
 40
0.1190424963
 40
0.2431831733
 40
0.3707117565
 40
0.5000000018
 40
0.6292882469
 40
0.7568168289
 40
0.8809575044
 40
1.0
 40
1.0
 40
1.0
 40
1.0
 10
11.9312923407
 20
8.4711924924
 30
0.0
 10
11.9380153221
 20
8.4697905311
 30
0.0
 10
11.9518371266
 20
8.4673364503
 30
0.0
 10
11.9730718234
 20
8.4647196897
 30
0.0
 10
11.995000985
 20
8.4631307635
 30
0.0
 10
12.0172776789
 20
8.4625989967
 30
0.0
 10
12.0395543727
 20
8.4631307635
 30
0.0
 10
12.0614835341
 20
8.4647196897
 30
0.0
 10
12.0827182307
 20
8.4673364503
 30
0.0
 10
12.0965400351
 20
8.4697905311
 30
0.0
 10
12.1032630165
 20
8.4711924924
 30
0.0
  0
SPLINE
  5
261
100
AcDbEntity
  8
0
100
AcDbSpline
 62
7
  6
CONTINUOUS
 70
0
 71
3
 72
15
 73
11
 74
0
 42
0.0000001
 43
0.0000001
 44
0.0000000001
 40
0.0
 40
0.0
 40
0.0
 40
0.0
 40
0.1186580985
 40
0.2427443999
 40
0.3704378089
 40
0.5000000018
 40
0.6295621945
 40
0.7572556023
 40
0.8813419021
 40
1.0
 40
1.0
 40
1.0
 40
1.0
 10
11.9312923407
 20
8.4916325132
 30
0.0
 10
11.9380280375
 20
8.490499872
 30
0.0
 10
11.9518658044
 20
8.4885197791
 30
0.0
 10
11.9730904784
 20
8.4864116454
 30
0.0
 10
11.9950100579
 20
8.48513149
 30
0.0
 10
12.0172776789
 20
8.4847030296
 30
0.0
 10
12.0395452998
 20
8.48513149
 30
0.0
 10
12.0614648792
 20
8.4864116454
 30
0.0
 10
12.0826895529
 20
8.4885197791
 30
0.0
 10
12.0965273197
 20
8.490499872
 30
0.0
 10
12.1032630165
 20
8.4916325132
 30
0.0
  0
SPLINE
  5
262
100
AcDbEntity
  8
0
100
AcDbSpline
 62
7
  6
CONTINUOUS
 70
0
 71
3
 72
15
 73
11
 74
0
 42
0.0000001
 43
0.0000001
 44
0.0000000001
 40
0.0
 40
0.0
 40
0.0
 40
0.0
 40
0.1183464008
 40
0.2423890467
 40
0.3702161004
 40
0.5000000018
 40
0.629783903
 40
0.7576109555
 40
0.8816535998
 40
1.0
 40
1.0
 40
1.0
 40
1.0
 10
11.9312923407
 20
8.5134919744
 30
0.0
 10
11.9380385051
 20
8.5126369612
 30
0.0
 10
11.9518891265
 20
8.5111438299
 30
0.0
 10
11.9731055388
 20
8.5095561005
 30
0.0
 10
11.9950173478
 20
8.5085919072
 30
0.0
 10
12.0172776789
 20
8.5082691775
 30
0.0
 10
12.0395380099
 20
8.5085919072
 30
0.0
 10
12.0614498188
 20
8.5095561005
 30
0.0
 10
12.0826662308
 20
8.5111438299
 30
0.0
 10
12.0965168521
 20
8.5126369612
 30
0.0
 10
12.1032630165
 20
8.5134919744
 30
0.0
  0
SPLINE
  5
263
100
AcDbEntity
  8
0
100
AcDbSpline
 62
7
  6
CONTINUOUS
 70
0
 71
3
 72
15
 73
11
 74
0
 42
0.0000001
 43
0.0000001
 44
0.0000000001
 40
0.0
 40
0.0
 40
0.0
 40
0.0
 40
0.1181171273
 40
0.242127911
 40
0.3700532637
 40
0.5000000018
 40
0.6299467397
 40
0.7578720912
 40
0.8818828733
 40
1.0
 40
1.0
 40
1.0
 40
1.0
 10
11.9312923407
 20
8.5366361051
 30
0.0
 10
11.9380462961
 20
8.536065093
 30
0.0
 10
11.9519063194
 20
8.5350687289
 30
0.0
 10
11.9731165788
 20
8.5340101931
 30
0.0
 10
11.995022672
 20
8.5333673399
 30
0.0
 10
12.0172776789
 20
8.533152157
 30
0.0
 10
12.0395326857
 20
8.5333673399
 30
0.0
 10
12.0614387788
 20
8.5340101931
 30
0.0
 10
12.0826490379
 20
8.5350687289
 30
0.0
 10
12.0965090611
 20
8.536065093
 30
0.0
 10
12.1032630165
 20
8.5366361051
 30
0.0
  0
SPLINE
  5
264
100
AcDbEntity
  8
0
100
AcDbSpline
 62
7
  6
CONTINUOUS
 70
0
 71
3
 72
13
 73
9
 74
0
 42
0.0000001
 43
0.0000001
 44
0.0000000001
 40
0.0
 40
0.0
 40
0.0
 40
0.0
 40
0.1179783129
 40
0.241970576
 40
0.5000000018
 40
0.7580294263
 40
0.8820216878
 40
1.0
 40
1.0
 40
1.0
 40
1.0
 10
11.9312923407
 20
8.5609222142
 30
0.0
 10
11.9380510766
 20
8.5606395109
 30
0.0
 10
11.951916806
 20
8.5601464005
 30
0.0
 10
11.9805775385
 20
8.559439282
 30
0.0
 10
12.0172776788
 20
8.5590957363
 30
0.0
 10
12.0539778191
 20
8.559439282
 30
0.0
 10
12.0826385513
 20
8.5601464005
 30
0.0
 10
12.0965042807
 20
8.5606395109
 30
0.0
 10
12.1032630165
 20
8.5609222142
 30
0.0
  0
SPLINE
  5
265
100
AcDbEntity
  8
0
100
AcDbSpline
 62
7
  6
CONTINUOUS
 70
0
 71
3
 72
13
 73
9
 74
0
 42
0.0000001
 43
0.0000001
 44
0.0000000001
 40
0.0
 40
0.0
 40
0.0
 40
0.0
 40
0.1179783123
 40
0.2419705742
 40
0.4999999992
 40
0.7580294245
 40
0.8820216872
 40
1.0
 40
1.0
 40
1.0
 40
1.0
 10
12.1032630165
 20
8.8828014785
 30
0.0
 10
12.0965042807
 20
8.8830841817
 30
0.0
 10
12.0826385513
 20
8.8835772922
 30
0.0
 10
12.053977819
 20
8.8842844106
 30
0.0
 10
12.0172776787
 20
8.8846279564
 30
0.0
 10
11.9805775384
 20
8.8842844106
 30
0.0
 10
11.951916806
 20
8.8835772922
 30
0.0
 10
11.9380510765
 20
8.8830841817
 30
0.0
 10
11.9312923407
 20
8.8828014785
 30
0.0
  0
SPLINE
  5
266
100
AcDbEntity
  8
0
100
AcDbSpline
 62
7
  6
CONTINUOUS
 70
0
 71
3
 72
15
 73
11
 74
0
 42
0.0000001
 43
0.0000001
 44
0.0000000001
 40
0.0
 40
0.0
 40
0.0
 40
0.0
 40
0.1181171268
 40
0.2421279093
 40
0.3700532611
 40
0.4999999992
 40
0.6299467372
 40
0.7578720895
 40
0.8818828728
 40
1.0
 40
1.0
 40
1.0
 40
1.0
 10
12.1032630165
 20
8.9070875875
 30
0.0
 10
12.0965090611
 20
8.9076585997
 30
0.0
 10
12.0826490379
 20
8.9086549637
 30
0.0
 10
12.0614387787
 20
8.9097134996
 30
0.0
 10
12.0395326856
 20
8.9103563528
 30
0.0
 10
12.0172776787
 20
8.9105715357
 30
0.0
 10
11.9950226718
 20
8.9103563528
 30
0.0
 10
11.9731165787
 20
8.9097134996
 30
0.0
 10
11.9519063194
 20
8.9086549638
 30
0.0
 10
11.9380462961
 20
8.9076585997
 30
0.0
 10
11.9312923407
 20
8.9070875875
 30
0.0
  0
SPLINE
  5
267
100
AcDbEntity
  8
0
100
AcDbSpline
 62
7
  6
CONTINUOUS
 70
0
 71
3
 72
15
 73
11
 74
0
 42
0.0000001
 43
0.0000001
 44
0.0000000001
 40
0.0
 40
0.0
 40
0.0
 40
0.0
 40
0.1183464003
 40
0.242389045
 40
0.3702160978
 40
0.4999999992
 40
0.6297839005
 40
0.7576109538
 40
0.8816535993
 40
1.0
 40
1.0
 40
1.0
 40
1.0
 10
12.1032630165
 20
8.9302317183
 30
0.0
 10
12.0965168521
 20
8.9310867314
 30
0.0
 10
12.0826662308
 20
8.9325798628
 30
0.0
 10
12.0614498187
 20
8.9341675921
 30
0.0
 10
12.0395380098
 20
8.9351317854
 30
0.0
 10
12.0172776787
 20
8.9354545152
 30
0.0
 10
11.9950173477
 20
8.9351317855
 30
0.0
 10
11.9731055387
 20
8.9341675922
 30
0.0
 10
11.9518891265
 20
8.9325798628
 30
0.0
 10
11.9380385051
 20
8.9310867314
 30
0.0
 10
11.9312923407
 20
8.9302317183
 30
0.0
  0
SPLINE
  5
268
100
AcDbEntity
  8
0
100
AcDbSpline
 62
7
  6
CONTINUOUS
 70
0
 71
3
 72
15
 73
11
 74
0
 42
0.0000001
 43
0.0000001
 44
0.0000000001
 40
0.0
 40
0.0
 40
0.0
 40
0.0
 40
0.118658098
 40
0.2427443982
 40
0.3704378064
 40
0.4999999992
 40
0.6295621919
 40
0.7572556006
 40
0.8813419016
 40
1.0
 40
1.0
 40
1.0
 40
1.0
 10
12.1032630165
 20
8.9520911795
 30
0.0
 10
12.0965273197
 20
8.9532238207
 30
0.0
 10
12.0826895529
 20
8.9552039136
 30
0.0
 10
12.0614648791
 20
8.9573120473
 30
0.0
 10
12.0395452997
 20
8.9585922027
 30
0.0
 10
12.0172776787
 20
8.959020663
 30
0.0
 10
11.9950100578
 20
8.9585922027
 30
0.0
 10
11.9730904783
 20
8.9573120473
 30
0.0
 10
11.9518658044
 20
8.9552039136
 30
0.0
 10
11.9380280375
 20
8.9532238207
 30
0.0
 10
11.9312923407
 20
8.9520911795
 30
0.0
  0
LINE
  5
269
100
AcDbEntity
  8
0
100
AcDbLine
 62
7
  6
CONTINUOUS
 10
12.1032630165
 20
9.0752690411
 11
12.1029202722
 21
9.0754356928
  0
SPLINE
  5
26A
100
AcDbEntity
  8
0
100
AcDbSpline
 62
7
  6
CONTINUOUS
 70
0
 71
3
 72
17
 73
13
 74
0
 42
0.0000001
 43
0.0000001
 44
0.0000000001
 40
0.0
 40
0.0
 40
0.0
 40
0.0
 40
0.123613689
 40
0.1859359901
 40
0.2484845817
 40
0.3740351912
 40
0.4999999992
 40
0.6259648073
 40
0.7515154171
 40
0.8140640091
 40
0.8763863106
 40
1.0
 40
1.0
 40
1.0
 40
1.0
 10
12.1029202722
 20
9.0754356928
 30
0.0
 10
12.0963546485
 20
9.0786198925
 30
0.0
 10
12.0861899029
 20
9.0828430487
 30
0.0
 10
12.0722124553
 20
9.0873095224
 30
0.0
 10
12.0578918591
 20
9.0910051632
 30
0.0
 10
12.0395716814
 20
9.094112287
 30
0.0
 10
12.0172776787
 20
9.0953565721
 30
0.0
 10
11.9949836759
 20
9.094112287
 30
0.0
 10
11.9766634982
 20
9.0910051633
 30
0.0
 10
11.9623429019
 20
9.0873095224
 30
0.0
 10
11.9483654542
 20
9.0828430487
 30
0.0
 10
11.9382007086
 20
9.0786198924
 30
0.0
 10
11.9316350849
 20
9.0754356928
 30
0.0
  0
LINE
  5
26B
100
AcDbEntity
  8
0
100
AcDbLine
 62
7
  6
CONTINUOUS
 10
11.9316350849
 20
9.0754356928
 11
11.9312923407
 21
9.0752690411
  0
SPLINE
  5
26C
100
AcDbEntity
  8
0
100
AcDbSpline
 62
7
  6
CONTINUOUS
 70
0
 71
3
 72
17
 73
13
 74
0
 42
0.0000001
 43
0.0000001
 44
0.0000000001
 40
0.0
 40
0.0
 40
0.0
 40
0.0
 40
0.1232053863
 40
0.1854547844
 40
0.24800479
 40
0.3737326057
 40
0.4999999993
 40
0.6262673928
 40
0.7519952088
 40
0.8145452148
 40
0.8767946134
 40
1.0
 40
1.0
 40
1.0
 40
1.0
 10
12.102269304
 20
9.0724573819
 30
0.0
 10
12.0957319426
 20
9.0754612154
 30
0.0
 10
12.0856286276
 20
9.0794379681
 30
0.0
 10
12.0717640846
 20
9.0836384236
 30
0.0
 10
12.0575477725
 20
9.0871172017
 30
0.0
 10
12.0393757698
 20
9.090039389
 30
0.0
 10
12.0172776785
 20
9.091208919
 30
0.0
 10
11.9951795872
 20
9.090039389
 30
0.0
 10
11.9770075845
 20
9.0871172017
 30
0.0
 10
11.9627912723
 20
9.0836384235
 30
0.0
 10
11.9489267292
 20
9.079437968
 30
0.0
 10
11.9388234142
 20
9.0754612153
 30
0.0
 10
11.9322860528
 20
9.0724573817
 30
0.0
  0
SPLINE
  5
26D
100
AcDbEntity
  8
0
100
AcDbSpline
 62
7
  6
CONTINUOUS
 70
0
 71
3
 72
11
 73
7
 74
0
 42
0.0000001
 43
0.0000001
 44
0.0000000001
 40
0.0
 40
0.0
 40
0.0
 40
0.0
 40
0.2474598799
 40
0.4999999993
 40
0.7525401189
 40
1.0
 40
1.0
 40
1.0
 40
1.0
 10
12.1016779427
 20
9.0672599789
 30
0.0
 10
12.0885668203
 20
9.0729241699
 30
0.0
 10
12.0607746015
 20
9.0815519543
 30
0.0
 10
12.0172776783
 20
9.0858700129
 30
0.0
 10
11.9737807551
 20
9.0815519542
 30
0.0
 10
11.9459885363
 20
9.0729241697
 30
0.0
 10
11.9328774138
 20
9.0672599786
 30
0.0
  0
SPLINE
  5
26E
100
AcDbEntity
  8
0
100
AcDbSpline
 62
7
  6
CONTINUOUS
 70
0
 71
3
 72
15
 73
11
 74
0
 42
0.0000001
 43
0.0000001
 44
0.0000000001
 40
0.0
 40
0.0
 40
0.0
 40
0.0
 40
0.1221522272
 40
0.2467546574
 40
0.372949609
 40
0.4999999992
 40
0.6270503894
 40
0.7532453414
 40
0.8778477723
 40
1.0
 40
1.0
 40
1.0
 40
1.0
 10
12.1032630165
 20
9.0590113814
 30
0.0
 10
12.0966356058
 20
9.0617665475
 30
0.0
 10
12.0829465406
 20
9.0666326017
 30
0.0
 10
12.0616377849
 20
9.0718870352
 30
0.0
 10
12.0396312505
 20
9.0750772995
 30
0.0
 10
12.0172776787
 20
9.076144655
 30
0.0
 10
11.9949241069
 20
9.0750772995
 30
0.0
 10
11.9729175725
 20
9.0718870352
 30
0.0
 10
11.9516088167
 20
9.0666326017
 30
0.0
 10
11.9379197514
 20
9.0617665475
 30
0.0
 10
11.9312923407
 20
9.0590113814
 30
0.0
  0
SPLINE
  5
26F
100
AcDbEntity
  8
0
100
AcDbSpline
 62
7
  6
CONTINUOUS
 70
0
 71
3
 72
15
 73
11
 74
0
 42
0.0000001
 43
0.0000001
 44
0.0000000001
 40
0.0
 40
0.0
 40
0.0
 40
0.0
 40
0.1216080514
 40
0.2461268674
 40
0.3725551999
 40
0.4999999992
 40
0.6274447985
 40
0.7538731313
 40
0.8783919481
 40
1.0
 40
1.0
 40
1.0
 40
1.0
 10
12.1032630165
 20
9.0493771406
 30
0.0
 10
12.0966197663
 20
9.0519445258
 30
0.0
 10
12.0829070882
 20
9.0564726672
 30
0.0
 10
12.0616103639
 20
9.0613513249
 30
0.0
 10
12.0396173379
 20
9.0643133309
 30
0.0
 10
12.0172776787
 20
9.0653043398
 30
0.0
 10
11.9949380195
 20
9.0643133309
 30
0.0
 10
11.9729449935
 20
9.0613513249
 30
0.0
 10
11.9516482691
 20
9.0564726672
 30
0.0
 10
11.9379355909
 20
9.0519445258
 30
0.0
 10
11.9312923407
 20
9.0493771406
 30
0.0
  0
SPLINE
  5
270
100
AcDbEntity
  8
0
100
AcDbSpline
 62
7
  6
CONTINUOUS
 70
0
 71
3
 72
15
 73
11
 74
0
 42
0.0000001
 43
0.0000001
 44
0.0000000001
 40
0.0
 40
0.0
 40
0.0
 40
0.0
 40
0.1210556171
 40
0.2454907704
 40
0.3721560285
 40
0.4999999992
 40
0.6278439699
 40
0.7545092284
 40
0.8789443825
 40
1.0
 40
1.0
 40
1.0
 40
1.0
 10
12.1032630165
 20
9.0377236592
 30
0.0
 10
12.0966033175
 20
9.0400866861
 30
0.0
 10
12.082866813
 20
9.0442482445
 30
0.0
 10
12.0615827125
 20
9.0487218392
 30
0.0
 10
12.0396034175
 20
9.0514378823
 30
0.0
 10
12.0172776787
 20
9.0523466314
 30
0.0
 10
11.99495194
 20
9.0514378824
 30
0.0
 10
11.9729726449
 20
9.0487218392
 30
0.0
 10
11.9516885443
 20
9.0442482445
 30
0.0
 10
11.9379520397
 20
9.0400866861
 30
0.0
 10
11.9312923407
 20
9.0377236592
 30
0.0
  0
SPLINE
  5
271
100
AcDbEntity
  8
0
100
AcDbSpline
 62
7
  6
CONTINUOUS
 70
0
 71
3
 72
15
 73
11
 74
0
 42
0.0000001
 43
0.0000001
 44
0.0000000001
 40
0.0
 40
0.0
 40
0.0
 40
0.0
 40
0.1205086257
 40
0.2448621517
 40
0.371761999
 40
0.4999999992
 40
0.6282379994
 40
0.7551378471
 40
0.8794913739
 40
1.0
 40
1.0
 40
1.0
 40
1.0
 10
12.1032630165
 20
9.0241227846
 30
0.0
 10
12.0965866528
 20
9.0262658769
 30
0.0
 10
12.0828267179
 20
9.0300342991
 30
0.0
 10
12.0615555181
 20
9.0340762822
 30
0.0
 10
12.0395898328
 20
9.036530305
 30
0.0
 10
12.0172776787
 20
9.037351427
 30
0.0
 10
11.9949655247
 20
9.036530305
 30
0.0
 10
11.9729998393
 20
9.0340762823
 30
0.0
 10
11.9517286394
 20
9.0300342991
 30
0.0
 10
11.9379687044
 20
9.0262658769
 30
0.0
 10
11.9312923407
 20
9.0241227846
 30
0.0
  0
SPLINE
  5
272
100
AcDbEntity
  8
0
100
AcDbSpline
 62
7
  6
CONTINUOUS
 70
0
 71
3
 72
15
 73
11
 74
0
 42
0.0000001
 43
0.0000001
 44
0.0000000001
 40
0.0
 40
0.0
 40
0.0
 40
0.0
 40
0.119981287
 40
0.2442572589
 40
0.3713832604
 40
0.4999999992
 40
0.6286167379
 40
0.7557427399
 40
0.8800187126
 40
1.0
 40
1.0
 40
1.0
 40
1.0
 10
12.1032630165
 20
9.0086583708
 30
0.0
 10
12.0965702195
 20
9.0105670892
 30
0.0
 10
12.0827878645
 20
9.0139181578
 30
0.0
 10
12.0615294748
 20
9.0175048345
 30
0.0
 10
12.0395769205
 20
9.019682489
 30
0.0
 10
12.0172776787
 20
9.0204111824
 30
0.0
 10
11.994978437
 20
9.019682489
 30
0.0
 10
11.9730258826
 20
9.0175048345
 30
0.0
 10
11.9517674928
 20
9.0139181578
 30
0.0
 10
11.9379851378
 20
9.0105670892
 30
0.0
 10
11.9312923407
 20
9.0086583708
 30
0.0
  0
SPLINE
  5
273
100
AcDbEntity
  8
0
100
AcDbSpline
 62
7
  6
CONTINUOUS
 70
0
 71
3
 72
15
 73
11
 74
0
 42
0.0000001
 43
0.0000001
 44
0.0000000001
 40
0.0
 40
0.0
 40
0.0
 40
0.0
 40
0.119487922
 40
0.2436923494
 40
0.3710299259
 40
0.4999999992
 40
0.6289700725
 40
0.7563076493
 40
0.8805120776
 40
1.0
 40
1.0
 40
1.0
 40
1.0
 10
12.1032630165
 20
8.9914257611
 30
0.0
 10
12.096554508
 20
8.9930869532
 30
0.0
 10
12.0827513425
 20
8.9959989955
 30
0.0
 10
12.061505264
 20
8.9991096042
 30
0.0
 10
12.0395650014
 20
9.000998298
 30
0.0
 10
12.0172776787
 20
9.0016303424
 30
0.0
 10
11.9949903561
 20
9.000998298
 30
0.0
 10
11.9730500934
 20
8.9991096043
 30
0.0
 10
11.9518040148
 20
8.9959989955
 30
0.0
 10
11.9380008493
 20
8.9930869532
 30
0.0
 10
11.9312923407
 20
8.9914257611
 30
0.0
  0
SPLINE
  5
274
100
AcDbEntity
  8
0
100
AcDbSpline
 62
7
  6
CONTINUOUS
 70
0
 71
3
 72
15
 73
11
 74
0
 42
0.0000001
 43
0.0000001
 44
0.0000000001
 40
0.0
 40
0.0
 40
0.0
 40
0.0
 40
0.1190424957
 40
0.2431831715
 40
0.370711754
 40
0.4999999992
 40
0.6292882444
 40
0.7568168272
 40
0.8809575038
 40
1.0
 40
1.0
 40
1.0
 40
1.0
 10
12.1032630165
 20
8.9725312003
 30
0.0
 10
12.0965400351
 20
8.9739331615
 30
0.0
 10
12.0827182307
 20
8.9763872424
 30
0.0
 10
12.061483534
 20
8.979004003
 30
0.0
 10
12.0395543726
 20
8.9805929291
 30
0.0
 10
12.0172776787
 20
8.9811246959
 30
0.0
 10
11.9950009849
 20
8.9805929291
 30
0.0
 10
11.9730718234
 20
8.979004003
 30
0.0
 10
11.9518371266
 20
8.9763872424
 30
0.0
 10
11.9380153221
 20
8.9739331615
 30
0.0
 10
11.9312923407
 20
8.9725312003
 30
0.0
  0
SPLINE
  5
275
100
AcDbEntity
  8
0
100
AcDbSpline
 62
7
  6
CONTINUOUS
 70
0
 71
3
 72
17
 73
13
 74
0
 42
0.0000001
 43
0.0000001
 44
0.0000000001
 40
0.0
 40
0.0
 40
0.0
 40
0.0
 40
0.1249033281
 40
0.1874531972
 40
0.2499950837
 40
0.3749885802
 40
0.4999999992
 40
0.6250114182
 40
0.7500049151
 40
0.812546802
 40
0.8750966715
 40
1.0
 40
1.0
 40
1.0
 40
1.0
 10
12.1032630165
 20
8.3847123113
 30
0.0
 10
12.0967109383
 20
8.3811354461
 30
0.0
 10
12.0865312799
 20
8.3763684106
 30
0.0
 10
12.0724655313
 20
8.3713093803
 30
0.0
 10
12.0581040394
 20
8.3671378644
 30
0.0
 10
12.0397044763
 20
8.3636217952
 30
0.0
 10
12.0172776787
 20
8.3622116736
 30
0.0
 10
11.9948508811
 20
8.3636217951
 30
0.0
 10
11.976451318
 20
8.3671378644
 30
0.0
 10
11.962089826
 20
8.3713093803
 30
0.0
 10
11.9480240774
 20
8.3763684105
 30
0.0
 10
11.9378444189
 20
8.3811354461
 30
0.0
 10
11.9312923407
 20
8.3847123113
 30
0.0
  0
SPLINE
  5
276
100
AcDbEntity
  8
0
100
AcDbSpline
 62
7
  6
CONTINUOUS
 70
0
 71
3
 72
17
 73
13
 74
0
 42
0.0000001
 43
0.0000001
 44
0.0000000001
 40
0.0
 40
0.0
 40
0.0
 40
0.0
 40
0.1249445032
 40
0.1875016601
 40
0.2500433511
 40
0.3750190808
 40
0.4999999992
 40
0.6249809176
 40
0.7499566477
 40
0.8124983391
 40
0.8750554964
 40
1.0
 40
1.0
 40
1.0
 40
1.0
 10
12.1032630165
 20
8.3943465521
 30
0.0
 10
12.0967120003
 20
8.3907586166
 30
0.0
 10
12.0865330133
 20
8.3859761329
 30
0.0
 10
12.0724661703
 20
8.3809001681
 30
0.0
 10
12.0581052208
 20
8.3767151621
 30
0.0
 10
12.0397056172
 20
8.3731874436
 30
0.0
 10
12.0172776787
 20
8.3717725853
 30
0.0
 10
11.9948497403
 20
8.3731874436
 30
0.0
 10
11.9764501366
 20
8.3767151621
 30
0.0
 10
11.962089187
 20
8.380900168
 30
0.0
 10
11.948022344
 20
8.3859761329
 30
0.0
 10
11.9378433569
 20
8.3907586165
 30
0.0
 10
11.9312923407
 20
8.3943465521
 30
0.0
  0
SPLINE
  5
277
100
AcDbEntity
  8
0
100
AcDbSpline
 62
7
  6
CONTINUOUS
 70
0
 71
3
 72
17
 73
13
 74
0
 42
0.0000001
 43
0.0000001
 44
0.0000000001
 40
0.0
 40
0.0
 40
0.0
 40
0.0
 40
0.1249074919
 40
0.1874580977
 40
0.2499999643
 40
0.3749916642
 40
0.4999999992
 40
0.6250083342
 40
0.7500000344
 40
0.8125419014
 40
0.8750925077
 40
1.0
 40
1.0
 40
1.0
 40
1.0
 10
12.1032630165
 20
8.4060000335
 30
0.0
 10
12.0967110458
 20
8.4024220476
 30
0.0
 10
12.0865314552
 20
8.3976534484
 30
0.0
 10
12.0724655959
 20
8.3925927043
 30
0.0
 10
12.0581041589
 20
8.3884198229
 30
0.0
 10
12.0397045916
 20
8.3849025746
 30
0.0
 10
12.0172776787
 20
8.3834919737
 30
0.0
 10
11.9948507658
 20
8.3849025746
 30
0.0
 10
11.9764511985
 20
8.3884198229
 30
0.0
 10
11.9620897614
 20
8.3925927043
 30
0.0
 10
11.9480239021
 20
8.3976534484
 30
0.0
 10
11.9378443114
 20
8.4024220476
 30
0.0
 10
11.9312923407
 20
8.4060000335
 30
0.0
  0
SPLINE
  5
278
100
AcDbEntity
  8
0
100
AcDbSpline
 62
7
  6
CONTINUOUS
 70
0
 71
3
 72
17
 73
13
 74
0
 42
0.0000001
 43
0.0000001
 44
0.0000000001
 40
0.0
 40
0.0
 40
0.0
 40
0.0
 40
0.124011781
 40
0.1864047156
 40
0.2489515741
 40
0.3743298476
 40
0.4999999992
 40
0.6256701509
 40
0.7510484246
 40
0.8135952836
 40
0.8759882186
 40
1.0
 40
1.0
 40
1.0
 40
1.0
 10
12.1032630165
 20
8.4711924924
 30
0.0
 10
12.096687515
 20
8.4678623962
 30
0.0
 10
12.0864935158
 20
8.4634385809
 30
0.0
 10
12.0724516874
 20
8.4587545189
 30
0.0
 10
12.0580785951
 20
8.4548826901
 30
0.0
 10
12.0396800817
 20
8.4516247662
 30
0.0
 10
12.0172776787
 20
8.4503194271
 30
0.0
 10
11.9948752757
 20
8.4516247662
 30
0.0
 10
11.9764767623
 20
8.45488269
 30
0.0
 10
11.96210367
 20
8.4587545189
 30
0.0
 10
11.9480618414
 20
8.4634385809
 30
0.0
 10
11.9378678422
 20
8.4678623962
 30
0.0
 10
11.9312923407
 20
8.4711924924
 30
0.0
  0
SPLINE
  5
279
100
AcDbEntity
  8
0
100
AcDbSpline
 62
7
  6
CONTINUOUS
 70
0
 71
3
 72
17
 73
13
 74
0
 42
0.0000001
 43
0.0000001
 44
0.0000000001
 40
0.0
 40
0.0
 40
0.0
 40
0.0
 40
0.123621819
 40
0.1859466321
 40
0.2484961076
 40
0.3740427267
 40
0.4999999992
 40
0.6259572717
 40
0.7515038912
 40
0.8140533671
 40
0.8763781806
 40
1.0
 40
1.0
 40
1.0
 40
1.0
 10
12.1032630165
 20
8.4916325132
 30
0.0
 10
12.0966770051
 20
8.488415132
 30
0.0
 10
12.0864768597
 20
8.4841473423
 30
0.0
 10
12.0724456282
 20
8.4796329503
 30
0.0
 10
12.058067547
 20
8.475897346
 30
0.0
 10
12.0396695946
 20
8.4727563649
 30
0.0
 10
12.0172776787
 20
8.4714983847
 30
0.0
 10
11.9948857629
 20
8.4727563649
 30
0.0
 10
11.9764878104
 20
8.475897346
 30
0.0
 10
11.9621097291
 20
8.4796329503
 30
0.0
 10
11.9480784976
 20
8.4841473423
 30
0.0
 10
11.9378783521
 20
8.488415132
 30
0.0
 10
11.9312923407
 20
8.4916325132
 30
0.0
  0
SPLINE
  5
27A
100
AcDbEntity
  8
0
100
AcDbSpline
 62
7
  6
CONTINUOUS
 70
0
 71
3
 72
11
 73
7
 74
0
 42
0.0000001
 43
0.0000001
 44
0.0000000001
 40
0.0
 40
0.0
 40
0.0
 40
0.0
 40
0.2479487655
 40
0.4999999992
 40
0.7520512332
 40
1.0
 40
1.0
 40
1.0
 40
1.0
 10
12.1032630165
 20
8.5134919744
 30
0.0
 10
12.0900025245
 20
8.5072915929
 30
0.0
 10
12.0617531388
 20
8.497795718
 30
0.0
 10
12.0172776787
 20
8.4930227885
 30
0.0
 10
11.9728022186
 20
8.497795718
 30
0.0
 10
11.9445528328
 20
8.5072915928
 30
0.0
 10
11.9312923407
 20
8.5134919744
 30
0.0
  0
SPLINE
  5
27B
100
AcDbEntity
  8
0
100
AcDbSpline
 62
7
  6
CONTINUOUS
 70
0
 71
3
 72
11
 73
7
 74
0
 42
0.0000001
 43
0.0000001
 44
0.0000000001
 40
0.0
 40
0.0
 40
0.0
 40
0.0
 40
0.2473811681
 40
0.4999999992
 40
0.7526188307
 40
1.0
 40
1.0
 40
1.0
 40
1.0
 10
12.1032630165
 20
8.5366361051
 30
0.0
 10
12.0899511175
 20
8.530728738
 30
0.0
 10
12.0616535732
 20
8.5217235834
 30
0.0
 10
12.0172776787
 20
8.5172141069
 30
0.0
 10
11.9729017842
 20
8.5217235833
 30
0.0
 10
11.9446042397
 20
8.530728738
 30
0.0
 10
11.9312923407
 20
8.5366361051
 30
0.0
  0
SPLINE
  5
27C
100
AcDbEntity
  8
0
100
AcDbSpline
 62
7
  6
CONTINUOUS
 70
0
 71
3
 72
15
 73
11
 74
0
 42
0.0000001
 43
0.0000001
 44
0.0000000001
 40
0.0
 40
0.0
 40
0.0
 40
0.0
 40
0.122180766
 40
0.2467876141
 40
0.3729703265
 40
0.4999999992
 40
0.6270296719
 40
0.7532123847
 40
0.8778192336
 40
1.0
 40
1.0
 40
1.0
 40
1.0
 10
12.1032630165
 20
8.5609222142
 30
0.0
 10
12.0966364268
 20
8.5581575161
 30
0.0
 10
12.0829486035
 20
8.5532742826
 30
0.0
 10
12.061639228
 20
8.5480006809
 30
0.0
 10
12.0396319857
 20
8.5447987707
 30
0.0
 10
12.0172776787
 20
8.5437275196
 30
0.0
 10
11.9949233718
 20
8.5447987707
 30
0.0
 10
11.9729161294
 20
8.5480006809
 30
0.0
 10
11.9516067538
 20
8.5532742826
 30
0.0
 10
11.9379189304
 20
8.5581575161
 30
0.0
 10
11.9312923407
 20
8.5609222142
 30
0.0
  0
SPLINE
  5
27D
100
AcDbEntity
  8
0
100
AcDbSpline
 62
7
  6
CONTINUOUS
 70
0
 71
3
 72
15
 73
11
 74
0
 42
0.0000001
 43
0.0000001
 44
0.0000000001
 40
0.0
 40
0.0
 40
0.0
 40
0.0
 40
0.1216374008
 40
0.246160696
 40
0.3725764413
 40
0.4999999992
 40
0.6274235571
 40
0.7538393028
 40
0.8783625988
 40
1.0
 40
1.0
 40
1.0
 40
1.0
 10
12.1032630165
 20
8.5862005696
 30
0.0
 10
12.0966206297
 20
8.5836227426
 30
0.0
 10
12.0829092216
 20
8.5790758377
 30
0.0
 10
12.0616118382
 20
8.5741763756
 30
0.0
 10
12.0396180832
 20
8.5712017347
 30
0.0
 10
12.0172776787
 20
8.5702064999
 30
0.0
 10
11.9949372743
 20
8.5712017346
 30
0.0
 10
11.9729435192
 20
8.5741763756
 30
0.0
 10
11.9516461357
 20
8.5790758377
 30
0.0
 10
11.9379347275
 20
8.5836227426
 30
0.0
 10
11.9312923407
 20
8.5862005696
 30
0.0
  0
SPLINE
  5
27E
100
AcDbEntity
  8
0
100
AcDbSpline
 62
7
  6
CONTINUOUS
 70
0
 71
3
 72
15
 73
11
 74
0
 42
0.0000001
 43
0.0000001
 44
0.0000000001
 40
0.0
 40
0.0
 40
0.0
 40
0.0
 40
0.1210850671
 40
0.2455246494
 40
0.3721772771
 40
0.4999999992
 40
0.6278227213
 40
0.7544753494
 40
0.8789149325
 40
1.0
 40
1.0
 40
1.0
 40
1.0
 10
12.1032630165
 20
8.6123153218
 30
0.0
 10
12.096604204
 20
8.6099409931
 30
0.0
 10
12.0828689657
 20
8.6057591936
 30
0.0
 10
12.0615841818
 20
8.6012633005
 30
0.0
 10
12.0396041545
 20
8.5985337191
 30
0.0
 10
12.0172776787
 20
8.5976204424
 30
0.0
 10
11.994951203
 20
8.5985337191
 30
0.0
 10
11.9729711756
 20
8.6012633005
 30
0.0
 10
11.9516863916
 20
8.6057591936
 30
0.0
 10
11.9379511533
 20
8.6099409931
 30
0.0
 10
11.9312923407
 20
8.6123153218
 30
0.0
  0
SPLINE
  5
27F
100
AcDbEntity
  8
0
100
AcDbSpline
 62
7
  6
CONTINUOUS
 70
0
 71
3
 72
13
 73
9
 74
0
 42
0.0000001
 43
0.0000001
 44
0.0000000001
 40
0.0
 40
0.0
 40
0.0
 40
0.0
 40
0.1179834857
 40
0.2419765374
 40
0.5000000018
 40
0.7580234648
 40
0.8820165149
 40
1.0
 40
1.0
 40
1.0
 40
1.0
 10
11.9312923407
 20
8.6123153218
 30
0.0
 10
11.9380509016
 20
8.6126134752
 30
0.0
 10
11.9519164243
 20
8.6131335445
 30
0.0
 10
11.9805770389
 20
8.6138793292
 30
0.0
 10
12.0172776788
 20
8.6142416745
 30
0.0
 10
12.0539783187
 20
8.6138793292
 30
0.0
 10
12.0826389331
 20
8.6131335445
 30
0.0
 10
12.0965044556
 20
8.6126134752
 30
0.0
 10
12.1032630165
 20
8.6123153218
 30
0.0
  0
SPLINE
  5
280
100
AcDbEntity
  8
0
100
AcDbSpline
 62
7
  6
CONTINUOUS
 70
0
 71
3
 72
15
 73
11
 74
0
 42
0.0000001
 43
0.0000001
 44
0.0000000001
 40
0.0
 40
0.0
 40
0.0
 40
0.0
 40
0.1205374296
 40
0.244895224
 40
0.3717827182
 40
0.4999999992
 40
0.6282172802
 40
0.7551047748
 40
0.87946257
 40
1.0
 40
1.0
 40
1.0
 40
1.0
 10
12.1032630165
 20
8.6391054648
 30
0.0
 10
12.09658754
 20
8.6369502675
 30
0.0
 10
12.0828288345
 20
8.633160245
 30
0.0
 10
12.0615569455
 20
8.6290946188
 30
0.0
 10
12.0395905433
 20
8.626626244
 30
0.0
 10
12.0172776787
 20
8.6258003223
 30
0.0
 10
11.9949648142
 20
8.626626244
 30
0.0
 10
11.9729984119
 20
8.6290946187
 30
0.0
 10
11.9517265228
 20
8.633160245
 30
0.0
 10
11.9379678173
 20
8.6369502675
 30
0.0
 10
11.9312923407
 20
8.6391054648
 30
0.0
  0
SPLINE
  5
281
100
AcDbEntity
  8
0
100
AcDbSpline
 62
7
  6
CONTINUOUS
 70
0
 71
3
 72
15
 73
11
 74
0
 42
0.0000001
 43
0.0000001
 44
0.0000000001
 40
0.0
 40
0.0
 40
0.0
 40
0.0
 40
0.1181271433
 40
0.2421393145
 40
0.370060373
 40
0.5000000018
 40
0.6299396304
 40
0.7578606877
 40
0.8818728573
 40
1.0
 40
1.0
 40
1.0
 40
1.0
 10
11.9312923407
 20
8.6391054648
 30
0.0
 10
11.9380459541
 20
8.6396917513
 30
0.0
 10
11.9519055677
 20
8.6407148041
 30
0.0
 10
11.9731160972
 20
8.6418017368
 30
0.0
 10
11.9950224401
 20
8.6424618342
 30
0.0
 10
12.0172776789
 20
8.6426827888
 30
0.0
 10
12.0395329177
 20
8.6424618342
 30
0.0
 10
12.0614392604
 20
8.6418017368
 30
0.0
 10
12.0826497897
 20
8.6407148041
 30
0.0
 10
12.0965094031
 20
8.6396917513
 30
0.0
 10
12.1032630165
 20
8.6391054648
 30
0.0
  0
SPLINE
  5
282
100
AcDbEntity
  8
0
100
AcDbSpline
 62
7
  6
CONTINUOUS
 70
0
 71
3
 72
15
 73
11
 74
0
 42
0.0000001
 43
0.0000001
 44
0.0000000001
 40
0.0
 40
0.0
 40
0.0
 40
0.0
 40
0.1200086804
 40
0.2442886533
 40
0.3714029072
 40
0.4999999992
 40
0.6285970912
 40
0.7557113454
 40
0.8799913192
 40
1.0
 40
1.0
 40
1.0
 40
1.0
 10
12.1032630165
 20
8.6664058285
 30
0.0
 10
12.0965710822
 20
8.664484266
 30
0.0
 10
12.0827898875
 20
8.6611103681
 30
0.0
 10
12.0615308234
 20
8.657498858
 30
0.0
 10
12.0395775868
 20
8.6553061302
 30
0.0
 10
12.0172776787
 20
8.6545723956
 30
0.0
 10
11.9949777707
 20
8.6553061302
 30
0.0
 10
11.9730245339
 20
8.657498858
 30
0.0
 10
11.9517654698
 20
8.6611103681
 30
0.0
 10
11.937984275
 20
8.664484266
 30
0.0
 10
11.9312923407
 20
8.6664058285
 30
0.0
  0
SPLINE
  5
283
100
AcDbEntity
  8
0
100
AcDbSpline
 62
7
  6
CONTINUOUS
 70
0
 71
3
 72
15
 73
11
 74
0
 42
0.0000001
 43
0.0000001
 44
0.0000000001
 40
0.0
 40
0.0
 40
0.0
 40
0.0
 40
0.1183610205
 40
0.2424057052
 40
0.3702264907
 40
0.5000000018
 40
0.6297735127
 40
0.757594297
 40
0.8816389802
 40
1.0
 40
1.0
 40
1.0
 40
1.0
 10
11.9312923407
 20
8.6664058285
 30
0.0
 10
11.938038011
 20
8.6672758271
 30
0.0
 10
11.9518880313
 20
8.6687952058
 30
0.0
 10
11.9731048337
 20
8.6704109384
 30
0.0
 10
11.9950170072
 20
8.6713921348
 30
0.0
 10
12.0172776789
 20
8.6717205547
 30
0.0
 10
12.0395383505
 20
8.6713921348
 30
0.0
 10
12.0614505238
 20
8.6704109383
 30
0.0
 10
12.0826673261
 20
8.6687952058
 30
0.0
 10
12.0965173463
 20
8.6672758271
 30
0.0
 10
12.1032630165
 20
8.6664058285
 30
0.0
  0
SPLINE
  5
284
100
AcDbEntity
  8
0
100
AcDbSpline
 62
7
  6
CONTINUOUS
 70
0
 71
3
 72
15
 73
11
 74
0
 42
0.0000001
 43
0.0000001
 44
0.0000000001
 40
0.0
 40
0.0
 40
0.0
 40
0.0
 40
0.1195131456
 40
0.243721207
 40
0.3710479668
 40
0.4999999992
 40
0.6289520316
 40
0.7562787918
 40
0.880486854
 40
1.0
 40
1.0
 40
1.0
 40
1.0
 10
12.1032630165
 20
8.6940480969
 30
0.0
 10
12.0965553193
 20
8.6923733944
 30
0.0
 10
12.0827532136
 20
8.6894374344
 30
0.0
 10
12.0615064982
 20
8.6863009599
 30
0.0
 10
12.039565607
 20
8.6843965661
 30
0.0
 10
12.0172776787
 20
8.6837592703
 30
0.0
 10
11.9949897505
 20
8.6843965661
 30
0.0
 10
11.9730488592
 20
8.6863009599
 30
0.0
 10
11.9518021437
 20
8.6894374344
 30
0.0
 10
11.938000038
 20
8.6923733944
 30
0.0
 10
11.9312923407
 20
8.6940480969
 30
0.0
  0
SPLINE
  5
285
100
AcDbEntity
  8
0
100
AcDbSpline
 62
7
  6
CONTINUOUS
 70
0
 71
3
 72
15
 73
11
 74
0
 42
0.0000001
 43
0.0000001
 44
0.0000000001
 40
0.0
 40
0.0
 40
0.0
 40
0.0
 40
0.1186768604
 40
0.242765802
 40
0.3704511664
 40
0.5000000018
 40
0.629548837
 40
0.7572342002
 40
0.8813231402
 40
1.0
 40
1.0
 40
1.0
 40
1.0
 10
11.9312923407
 20
8.6940480969
 30
0.0
 10
11.938027412
 20
8.6951953281
 30
0.0
 10
11.9518644026
 20
8.6972010554
 30
0.0
 10
11.97308957
 20
8.6993366398
 30
0.0
 10
11.9950096172
 20
8.7006334606
 30
0.0
 10
12.0172776789
 20
8.7010674972
 30
0.0
 10
12.0395457405
 20
8.7006334606
 30
0.0
 10
12.0614657876
 20
8.6993366398
 30
0.0
 10
12.0826909548
 20
8.6972010554
 30
0.0
 10
12.0965279453
 20
8.6951953281
 30
0.0
 10
12.1032630165
 20
8.6940480969
 30
0.0
  0
SPLINE
  5
286
100
AcDbEntity
  8
0
100
AcDbSpline
 62
7
  6
CONTINUOUS
 70
0
 71
3
 72
15
 73
11
 74
0
 42
0.0000001
 43
0.0000001
 44
0.0000000001
 40
0.0
 40
0.0
 40
0.0
 40
0.0
 40
0.119064822
 40
0.2432086743
 40
0.3707276831
 40
0.4999999992
 40
0.6292723152
 40
0.7567913245
 40
0.8809351775
 40
1.0
 40
1.0
 40
1.0
 40
1.0
 10
12.1032630165
 20
8.7218618463
 30
0.0
 10
12.0965407672
 20
8.7204457897
 30
0.0
 10
12.0827198934
 20
8.7179668532
 30
0.0
 10
12.0614846203
 20
8.7153233543
 30
0.0
 10
12.0395549024
 20
8.7137181972
 30
0.0
 10
12.0172776787
 20
8.7131810005
 30
0.0
 10
11.9950004551
 20
8.7137181972
 30
0.0
 10
11.9730707371
 20
8.7153233543
 30
0.0
 10
11.9518354639
 20
8.7179668532
 30
0.0
 10
11.93801459
 20
8.7204457897
 30
0.0
 10
11.9312923407
 20
8.7218618463
 30
0.0
  0
SPLINE
  5
287
100
AcDbEntity
  8
0
100
AcDbSpline
 62
7
  6
CONTINUOUS
 70
0
 71
3
 72
15
 73
11
 74
0
 42
0.0000001
 43
0.0000001
 44
0.0000000001
 40
0.0
 40
0.0
 40
0.0
 40
0.0
 40
0.1190648226
 40
0.243208676
 40
0.3707276856
 40
0.5000000018
 40
0.6292723178
 40
0.7567913262
 40
0.8809351781
 40
1.0
 40
1.0
 40
1.0
 40
1.0
 10
11.9312923407
 20
8.7218618463
 30
0.0
 10
11.93801459
 20
8.723277903
 30
0.0
 10
11.9518354639
 20
8.7257568395
 30
0.0
 10
11.9730707372
 20
8.7284003384
 30
0.0
 10
11.9950004552
 20
8.7300054955
 30
0.0
 10
12.0172776789
 20
8.7305426922
 30
0.0
 10
12.0395549025
 20
8.7300054954
 30
0.0
 10
12.0614846204
 20
8.7284003383
 30
0.0
 10
12.0827198935
 20
8.7257568395
 30
0.0
 10
12.0965407672
 20
8.723277903
 30
0.0
 10
12.1032630165
 20
8.7218618463
 30
0.0
  0
SPLINE
  5
288
100
AcDbEntity
  8
0
100
AcDbSpline
 62
7
  6
CONTINUOUS
 70
0
 71
3
 72
15
 73
11
 74
0
 42
0.0000001
 43
0.0000001
 44
0.0000000001
 40
0.0
 40
0.0
 40
0.0
 40
0.0
 40
0.1186768599
 40
0.2427658003
 40
0.3704511639
 40
0.4999999992
 40
0.6295488345
 40
0.7572341985
 40
0.8813231397
 40
1.0
 40
1.0
 40
1.0
 40
1.0
 10
12.1032630165
 20
8.7496755958
 30
0.0
 10
12.0965279453
 20
8.7485283646
 30
0.0
 10
12.0826909548
 20
8.7465226372
 30
0.0
 10
12.0614657875
 20
8.7443870529
 30
0.0
 10
12.0395457404
 20
8.7430902321
 30
0.0
 10
12.0172776787
 20
8.7426561955
 30
0.0
 10
11.9950096171
 20
8.7430902321
 30
0.0
 10
11.9730895699
 20
8.7443870529
 30
0.0
 10
11.9518644025
 20
8.7465226372
 30
0.0
 10
11.938027412
 20
8.7485283646
 30
0.0
 10
11.9312923407
 20
8.7496755958
 30
0.0
  0
SPLINE
  5
289
100
AcDbEntity
  8
0
100
AcDbSpline
 62
7
  6
CONTINUOUS
 70
0
 71
3
 72
15
 73
11
 74
0
 42
0.0000001
 43
0.0000001
 44
0.0000000001
 40
0.0
 40
0.0
 40
0.0
 40
0.0
 40
0.1195131461
 40
0.2437212087
 40
0.3710479693
 40
0.5000000018
 40
0.6289520341
 40
0.7562787935
 40
0.8804868545
 40
1.0
 40
1.0
 40
1.0
 40
1.0
 10
11.9312923407
 20
8.7496755958
 30
0.0
 10
11.938000038
 20
8.7513502983
 30
0.0
 10
11.9518021437
 20
8.7542862583
 30
0.0
 10
11.9730488593
 20
8.7574227328
 30
0.0
 10
11.9949897506
 20
8.7593271265
 30
0.0
 10
12.0172776789
 20
8.7599644224
 30
0.0
 10
12.0395656071
 20
8.7593271265
 30
0.0
 10
12.0615064983
 20
8.7574227328
 30
0.0
 10
12.0827532137
 20
8.7542862583
 30
0.0
 10
12.0965553193
 20
8.7513502983
 30
0.0
 10
12.1032630165
 20
8.7496755958
 30
0.0
  0
SPLINE
  5
28A
100
AcDbEntity
  8
0
100
AcDbSpline
 62
7
  6
CONTINUOUS
 70
0
 71
3
 72
15
 73
11
 74
0
 42
0.0000001
 43
0.0000001
 44
0.0000000001
 40
0.0
 40
0.0
 40
0.0
 40
0.0
 40
0.1183610199
 40
0.2424057035
 40
0.3702264881
 40
0.4999999992
 40
0.6297735102
 40
0.7575942953
 40
0.8816389796
 40
1.0
 40
1.0
 40
1.0
 40
1.0
 10
12.1032630165
 20
8.7773178642
 30
0.0
 10
12.0965173463
 20
8.7764478655
 30
0.0
 10
12.082667326
 20
8.7749284869
 30
0.0
 10
12.0614505237
 20
8.7733127543
 30
0.0
 10
12.0395383504
 20
8.7723315579
 30
0.0
 10
12.0172776787
 20
8.772003138
 30
0.0
 10
11.9950170071
 20
8.7723315579
 30
0.0
 10
11.9731048337
 20
8.7733127543
 30
0.0
 10
11.9518880313
 20
8.7749284869
 30
0.0
 10
11.9380380109
 20
8.7764478655
 30
0.0
 10
11.9312923407
 20
8.7773178642
 30
0.0
  0
SPLINE
  5
28B
100
AcDbEntity
  8
0
100
AcDbSpline
 62
7
  6
CONTINUOUS
 70
0
 71
3
 72
15
 73
11
 74
0
 42
0.0000001
 43
0.0000001
 44
0.0000000001
 40
0.0
 40
0.0
 40
0.0
 40
0.0
 40
0.1200086809
 40
0.2442886551
 40
0.3714029097
 40
0.5000000018
 40
0.6285970937
 40
0.7557113471
 40
0.8799913197
 40
1.0
 40
1.0
 40
1.0
 40
1.0
 10
11.9312923407
 20
8.7773178642
 30
0.0
 10
11.937984275
 20
8.7792394266
 30
0.0
 10
11.9517654698
 20
8.7826133246
 30
0.0
 10
11.973024534
 20
8.7862248347
 30
0.0
 10
11.9949777708
 20
8.7884175625
 30
0.0
 10
12.0172776789
 20
8.7891512971
 30
0.0
 10
12.0395775869
 20
8.7884175624
 30
0.0
 10
12.0615308235
 20
8.7862248346
 30
0.0
 10
12.0827898875
 20
8.7826133246
 30
0.0
 10
12.0965710822
 20
8.7792394266
 30
0.0
 10
12.1032630165
 20
8.7773178642
 30
0.0
  0
SPLINE
  5
28C
100
AcDbEntity
  8
0
100
AcDbSpline
 62
7
  6
CONTINUOUS
 70
0
 71
3
 72
15
 73
11
 74
0
 42
0.0000001
 43
0.0000001
 44
0.0000000001
 40
0.0
 40
0.0
 40
0.0
 40
0.0
 40
0.1181271299
 40
0.2421393171
 40
0.3700604147
 40
0.4999999998
 40
0.629939585
 40
0.7578606828
 40
0.8818728701
 40
1.0
 40
1.0
 40
1.0
 40
1.0
 10
12.1032630165
 20
8.8046182278
 30
0.0
 10
12.0965094038
 20
8.8040319414
 30
0.0
 10
12.0826497902
 20
8.8030088883
 30
0.0
 10
12.0614392582
 20
8.801921956
 30
0.0
 10
12.0395329147
 20
8.8012618587
 30
0.0
 10
12.0172776786
 20
8.8010409033
 30
0.0
 10
11.9950224425
 20
8.8012618587
 30
0.0
 10
11.973116099
 20
8.801921956
 30
0.0
 10
11.9519055671
 20
8.8030088883
 30
0.0
 10
11.9380459534
 20
8.8040319414
 30
0.0
 10
11.9312923407
 20
8.8046182278
 30
0.0
  0
SPLINE
  5
28D
100
AcDbEntity
  8
0
100
AcDbSpline
 62
7
  6
CONTINUOUS
 70
0
 71
3
 72
15
 73
11
 74
0
 42
0.0000001
 43
0.0000001
 44
0.0000000001
 40
0.0
 40
0.0
 40
0.0
 40
0.0
 40
0.1205374302
 40
0.2448952257
 40
0.3717827207
 40
0.5000000018
 40
0.6282172827
 40
0.7551047765
 40
0.8794625705
 40
1.0
 40
1.0
 40
1.0
 40
1.0
 10
11.9312923407
 20
8.8046182278
 30
0.0
 10
11.9379678173
 20
8.8067734252
 30
0.0
 10
11.9517265228
 20
8.8105634477
 30
0.0
 10
11.9729984119
 20
8.8146290739
 30
0.0
 10
11.9949648143
 20
8.8170974487
 30
0.0
 10
12.0172776789
 20
8.8179233704
 30
0.0
 10
12.0395905434
 20
8.8170974487
 30
0.0
 10
12.0615569456
 20
8.8146290739
 30
0.0
 10
12.0828288346
 20
8.8105634476
 30
0.0
 10
12.09658754
 20
8.8067734252
 30
0.0
 10
12.1032630165
 20
8.8046182278
 30
0.0
  0
SPLINE
  5
28E
100
AcDbEntity
  8
0
100
AcDbSpline
 62
7
  6
CONTINUOUS
 70
0
 71
3
 72
13
 73
9
 74
0
 42
0.0000001
 43
0.0000001
 44
0.0000000001
 40
0.0
 40
0.0
 40
0.0
 40
0.0
 40
0.1179834852
 40
0.2419765357
 40
0.4999999992
 40
0.7580234631
 40
0.8820165144
 40
1.0
 40
1.0
 40
1.0
 40
1.0
 10
12.1032630165
 20
8.8314083708
 30
0.0
 10
12.0965044556
 20
8.8311102174
 30
0.0
 10
12.082638933
 20
8.8305901482
 30
0.0
 10
12.0539783186
 20
8.8298443635
 30
0.0
 10
12.0172776787
 20
8.8294820181
 30
0.0
 10
11.9805770388
 20
8.8298443635
 30
0.0
 10
11.9519164243
 20
8.8305901482
 30
0.0
 10
11.9380509016
 20
8.8311102174
 30
0.0
 10
11.9312923407
 20
8.8314083708
 30
0.0
  0
SPLINE
  5
28F
100
AcDbEntity
  8
0
100
AcDbSpline
 62
7
  6
CONTINUOUS
 70
0
 71
3
 72
15
 73
11
 74
0
 42
0.0000001
 43
0.0000001
 44
0.0000000001
 40
0.0
 40
0.0
 40
0.0
 40
0.0
 40
0.1210850676
 40
0.2455246511
 40
0.3721772796
 40
0.5000000018
 40
0.6278227238
 40
0.7544753511
 40
0.878914933
 40
1.0
 40
1.0
 40
1.0
 40
1.0
 10
11.9312923407
 20
8.8314083708
 30
0.0
 10
11.9379511533
 20
8.8337826996
 30
0.0
 10
11.9516863916
 20
8.8379644991
 30
0.0
 10
11.9729711756
 20
8.8424603922
 30
0.0
 10
11.9949512031
 20
8.8451899736
 30
0.0
 10
12.0172776789
 20
8.8461032503
 30
0.0
 10
12.0396041546
 20
8.8451899736
 30
0.0
 10
12.0615841819
 20
8.8424603921
 30
0.0
 10
12.0828689657
 20
8.8379644991
 30
0.0
 10
12.096604204
 20
8.8337826995
 30
0.0
 10
12.1032630165
 20
8.8314083708
 30
0.0
  0
SPLINE
  5
290
100
AcDbEntity
  8
0
100
AcDbSpline
 62
9
  6
CONTINUOUS
 70
0
 71
3
 72
40
 73
36
 74
0
 42
0.0000001
 43
0.0000001
 44
0.0000000001
 40
0.0
 40
0.0
 40
0.0
 40
0.0
 40
0.0000224208
 40
0.0000890355
 40
0.0001997698
 40
0.0003545495
 40
0.0007959473
 40
0.0014126346
 40
0.0022040172
 40
0.0031695019
 40
0.0043084953
 40
0.0056204051
 40
0.0087606053
 40
0.0125852847
 40
0.0170869544
 40
0.0222550165
 40
0.0280787132
 40
0.0345473038
 40
0.0493760924
 40
0.0666439159
 40
0.0862353643
 40
0.1080342562
 40
0.1319257124
 40
0.1577965855
 40
0.1855350942
 40
0.246191901
 40
0.3131195133
 40
0.3856164092
 40
0.4630635515
 40
0.5448894068
 40
0.6305564942
 40
0.71950448
 40
0.8111633036
 40
0.9049260552
 40
1.0
 40
1.0
 40
1.0
 40
1.0
 10
9.3030587369
 20
10.6269039439
 30
0.0
 10
9.3030595259
 20
10.6269030392
 30
0.0
 10
9.3030643319
 20
10.6269015181
 30
0.0
 10
9.3030731149
 20
10.6268956447
 30
0.0
 10
9.3030890651
 20
10.626887546
 30
0.0
 10
9.3031220978
 20
10.626869187
 30
0.0
 10
9.3031793097
 20
10.6268383683
 30
0.0
 10
9.3032662919
 20
10.626791084
 30
0.0
 10
9.3033781061
 20
10.6267306641
 30
0.0
 10
9.303514552
 20
10.6266570262
 30
0.0
 10
9.3036756238
 20
10.6265703277
 30
0.0
 10
9.3039393564
 20
10.626428687
 30
0.0
 10
9.304330097
 20
10.6262196112
 30
0.0
 10
9.3048719695
 20
10.6259309845
 30
0.0
 10
9.3055103664
 20
10.6255926194
 30
0.0
 10
9.3062442206
 20
10.6252058088
 30
0.0
 10
9.307072295
 20
10.6247719007
 30
0.0
 10
9.3083602655
 20
10.6241012193
 30
0.0
 10
9.3101955865
 20
10.6231549886
 30
0.0
 10
9.3126630095
 20
10.6219015843
 30
0.0
 10
9.3154737667
 20
10.6205002052
 30
0.0
 10
9.3186150154
 20
10.618967126
 30
0.0
 10
9.3220740636
 20
10.6173189979
 30
0.0
 10
9.3258384436
 20
10.6155728033
 30
0.0
 10
9.331416962
 20
10.6130603335
 30
0.0
 10
9.3390623862
 20
10.6097853457
 30
0.0
 10
9.3490207028
 20
10.6058322466
 30
0.0
 10
9.3599372734
 20
10.6018690763
 30
0.0
 10
9.371734712
 20
10.5980123261
 30
0.0
 10
9.3843370823
 20
10.5943722558
 30
0.0
 10
9.3976645438
 20
10.591055988
 30
0.0
 10
9.4116285927
 20
10.5881615076
 30
0.0
 10
9.4261295475
 20
10.5857818699
 30
0.0
 10
9.4410451376
 20
10.58398912
 30
0.0
 10
9.4511319674
 20
10.5832336607
 30
0.0
 10
9.4562158387
 20
10.5829741335
 30
0.0
  0
SPLINE
  5
291
100
AcDbEntity
  8
0
100
AcDbSpline
 62
9
  6
CONTINUOUS
 70
0
 71
3
 72
26
 73
22
 74
0
 42
0.0000001
 43
0.0000001
 44
0.0000000001
 40
0.0
 40
0.0
 40
0.0
 40
0.0
 40
0.1893217352
 40
0.3732142617
 40
0.5440673208
 40
0.6225329023
 40
0.6954033453
 40
0.7620287137
 40
0.8217855411
 40
0.8740306926
 40
0.9181006277
 40
0.9368594066
 40
0.9533197165
 40
0.9674020458
 40
0.9790392822
 40
0.9881649032
 40
0.9947208233
 40
0.9970248396
 40
0.9986749979
 40
0.9996678655
 40
1.0
 40
1.0
 40
1.0
 40
1.0
 10
9.4562158387
 20
10.5829741335
 30
0.0
 10
9.4669740853
 20
10.5824256929
 30
0.0
 10
9.488251344
 20
10.5823700283
 30
0.0
 10
9.5191080573
 20
10.5854103685
 30
0.0
 10
9.5433239554
 20
10.5902311729
 30
0.0
 10
9.5610083119
 20
10.5950806312
 30
0.0
 10
9.5728189964
 20
10.5988763168
 30
0.0
 10
9.5834667683
 20
10.6027777117
 30
0.0
 10
9.592878634
 20
10.6066194741
 30
0.0
 10
9.600988669
 20
10.6102404274
 30
0.0
 10
9.6068915788
 20
10.6130753064
 30
0.0
 10
9.6109221228
 20
10.6151022917
 30
0.0
 10
9.6134156635
 20
10.6163874507
 30
0.0
 10
9.6155399043
 20
10.6175044475
 30
0.0
 10
9.6172876607
 20
10.618440579
 30
0.0
 10
9.6186531579
 20
10.6191833001
 30
0.0
 10
9.6195498706
 20
10.6196764317
 30
0.0
 10
9.6200730293
 20
10.6199661308
 30
0.0
 10
9.6203187013
 20
10.6201035301
 30
0.0
 10
9.6204667976
 20
10.620185527
 30
0.0
 10
9.62053211
 20
10.6202232076
 30
0.0
 10
9.6205487363
 20
10.6202321912
 30
0.0
  0
SPLINE
  5
292
100
AcDbEntity
  8
0
100
AcDbSpline
 62
7
  6
CONTINUOUS
 70
0
 71
3
 72
15
 73
11
 74
0
 42
0.0000001
 43
0.0000001
 44
0.0000000001
 40
0.0
 40
0.0
 40
0.0
 40
0.0
 40
0.0699052975
 40
0.192049164
 40
0.3239488178
 40
0.4584525155
 40
0.5936932126
 40
0.7291098329
 40
0.8645538841
 40
1.0
 40
1.0
 40
1.0
 40
1.0
 10
11.3000003184
 20
8.5810837635
 30
0.0
 10
11.2861552274
 20
8.5897865707
 30
0.0
 10
11.2480305985
 20
8.613555639
 30
0.0
 10
11.1833033529
 20
8.6529731091
 30
0.0
 10
11.1049793295
 20
8.6991011049
 30
0.0
 10
11.0232439656
 20
8.7454507412
 30
0.0
 10
10.9399888629
 20
8.7907600317
 30
0.0
 10
10.8557253801
 20
8.8346445877
 30
0.0
 10
10.7706082006
 20
8.8769573683
 30
0.0
 10
10.71332832
 20
8.9040755536
 30
0.0
 10
10.6845608655
 20
8.9173570164
 30
0.0
  0
SPLINE
  5
293
100
AcDbEntity
  8
0
100
AcDbSpline
 62
7
  6
CONTINUOUS
 70
0
 71
3
 72
15
 73
11
 74
0
 42
0.0000001
 43
0.0000001
 44
0.0000000001
 40
0.0
 40
0.0
 40
0.0
 40
0.0
 40
0.1216374013
 40
0.2461606977
 40
0.3725764437
 40
0.5000000017
 40
0.6274235596
 40
0.7538393045
 40
0.8783625993
 40
1.0
 40
1.0
 40
1.0
 40
1.0
 10
11.9312923407
 20
8.8575231231
 30
0.0
 10
11.9379347276
 20
8.86010095
 30
0.0
 10
11.9516461357
 20
8.864647855
 30
0.0
 10
11.9729435193
 20
8.8695473171
 30
0.0
 10
11.9949372744
 20
8.8725219581
 30
0.0
 10
12.0172776789
 20
8.8735171928
 30
0.0
 10
12.0396180833
 20
8.872521958
 30
0.0
 10
12.0616118383
 20
8.869547317
 30
0.0
 10
12.0829092217
 20
8.864647855
 30
0.0
 10
12.0966206297
 20
8.86010095
 30
0.0
 10
12.1032630165
 20
8.8575231231
 30
0.0
  0
SPLINE
  5
294
100
AcDbEntity
  8
0
100
AcDbSpline
 62
7
  6
CONTINUOUS
 70
0
 71
3
 72
15
 73
11
 74
0
 42
0.0000001
 43
0.0000001
 44
0.0000000001
 40
0.0
 40
0.0
 40
0.0
 40
0.0
 40
0.1221807665
 40
0.2467876158
 40
0.372970329
 40
0.5000000017
 40
0.6270296744
 40
0.7532123864
 40
0.8778192341
 40
1.0
 40
1.0
 40
1.0
 40
1.0
 10
11.9312923407
 20
8.8828014785
 30
0.0
 10
11.9379189305
 20
8.8855661766
 30
0.0
 10
11.9516067539
 20
8.8904494101
 30
0.0
 10
11.9729161295
 20
8.8957230118
 30
0.0
 10
11.9949233719
 20
8.898924922
 30
0.0
 10
12.0172776789
 20
8.899996173
 30
0.0
 10
12.0396319858
 20
8.898924922
 30
0.0
 10
12.0616392281
 20
8.8957230117
 30
0.0
 10
12.0829486035
 20
8.89044941
 30
0.0
 10
12.0966364268
 20
8.8855661766
 30
0.0
 10
12.1032630165
 20
8.8828014785
 30
0.0
  0
SPLINE
  5
295
100
AcDbEntity
  8
0
100
AcDbSpline
 62
9
  6
CONTINUOUS
 70
0
 71
3
 72
66
 73
62
 74
0
 42
0.0000001
 43
0.0000001
 44
0.0000000001
 40
0.0
 40
0.0
 40
0.0
 40
0.0
 40
0.0000381643
 40
0.0001525672
 40
0.0003431253
 40
0.0006097552
 40
0.0009523734
 40
0.0013708966
 40
0.0024353241
 40
0.0038023704
 40
0.0054713682
 40
0.0074416414
 40
0.0097120194
 40
0.0122805813
 40
0.015145344
 40
0.0217555381
 40
0.0295266723
 40
0.0384391563
 40
0.048467796
 40
0.0595869234
 40
0.0717694201
 40
0.084982339
 40
0.1143614606
 40
0.1474271236
 40
0.1838458924
 40
0.2232549167
 40
0.2652682558
 40
0.3094767571
 40
0.3554576149
 40
0.4027742376
 40
0.4996346951
 40
0.596470169
 40
0.6437616556
 40
0.6897176461
 40
0.733910177
 40
0.7759246872
 40
0.8153590828
 40
0.8518315217
 40
0.8849793856
 40
0.9144654252
 40
0.9277384635
 40
0.9399839008
 40
0.9511672439
 40
0.9612595233
 40
0.9702334782
 40
0.9780622158
 40
0.9847242799
 40
0.9876123957
 40
0.9902023677
 40
0.9924920462
 40
0.9944793312
 40
0.9961628935
 40
0.9975420133
 40
0.9986159872
 40
0.9990383247
 40
0.9993841119
 40
0.9996532609
 40
0.9998456839
 40
0.9999130957
 40
0.9999612929
 40
1.0
 40
1.0
 40
1.0
 40
1.0
 10
9.0825387784
 20
7.2275932356
 30
0.0
 10
9.0825427663
 20
7.2275940345
 30
0.0
 10
9.0825573742
 20
7.2276017371
 30
0.0
 10
9.0825918495
 20
7.2276135786
 30
0.0
 10
9.0826481902
 20
7.2276369865
 30
0.0
 10
9.0827275366
 20
7.2276680133
 30
0.0
 10
9.0828292935
 20
7.2277085769
 30
0.0
 10
9.083010145
 20
7.2277802666
 30
0.0
 10
9.083292432
 20
7.2278923557
 30
0.0
 10
9.0836986033
 20
7.2280535329
 30
0.0
 10
9.0841944923
 20
7.2282503519
 30
0.0
 10
9.0847798617
 20
7.2284826741
 30
0.0
 10
9.0854543339
 20
7.2287503659
 30
0.0
 10
9.0862174074
 20
7.2290532237
 30
0.0
 10
9.0874103504
 20
7.2295266981
 30
0.0
 10
9.0891186189
 20
7.2302047126
 30
0.0
 10
9.0914259235
 20
7.2311205028
 30
0.0
 10
9.094071825
 20
7.2321707077
 30
0.0
 10
9.0970493411
 20
7.2333525677
 30
0.0
 10
9.1003507438
 20
7.2346630263
 30
0.0
 10
9.1039675374
 20
7.2360987225
 30
0.0
 10
9.1093929741
 20
7.2382524326
 30
0.0
 10
9.1168868441
 20
7.2412273888
 30
0.0
 10
9.1266791677
 20
7.245115025
 30
0.0
 10
9.1374648766
 20
7.2493972338
 30
0.0
 10
9.1491367883
 20
7.2540314314
 30
0.0
 10
9.1615802246
 20
7.2589720464
 30
0.0
 10
9.1746746819
 20
7.2641708649
 30
0.0
 10
9.1882946315
 20
7.2695777017
 30
0.0
 10
9.2071302244
 20
7.2770536588
 30
0.0
 10
9.2310039623
 20
7.2865267322
 30
0.0
 10
9.254877124
 20
7.2959939946
 30
0.0
 10
9.2737096865
 20
7.3034559153
 30
0.0
 10
9.2873277738
 20
7.3088483737
 30
0.0
 10
9.3004240119
 20
7.3140312283
 30
0.0
 10
9.3128750742
 20
7.3189556574
 30
0.0
 10
9.3245622358
 20
7.3235745688
 30
0.0
 10
9.3353718062
 20
7.3278431907
 30
0.0
 10
9.3451964332
 20
7.3317195158
 30
0.0
 10
9.35272202
 20
7.3346865036
 30
0.0
 10
9.3581757006
 20
7.3368354395
 30
0.0
 10
9.3618148489
 20
7.3382688766
 30
0.0
 10
9.365138771
 20
7.3395776781
 30
0.0
 10
9.3681384133
 20
7.3407584484
 30
0.0
 10
9.3708054769
 20
7.3418080847
 30
0.0
 10
9.3731323964
 20
7.3427238082
 30
0.0
 10
9.3748558093
 20
7.3434020155
 30
0.0
 10
9.3760597325
 20
7.3438757247
 30
0.0
 10
9.3768300664
 20
7.3441787866
 30
0.0
 10
9.377511083
 20
7.3444466547
 30
0.0
 10
9.3781022329
 20
7.3446791022
 30
0.0
 10
9.3786031027
 20
7.3448759703
 30
0.0
 10
9.379013406
 20
7.3450371913
 30
0.0
 10
9.3792986338
 20
7.3451491932
 30
0.0
 10
9.3794813586
 20
7.3452209647
 30
0.0
 10
9.3795842733
 20
7.3452612909
 30
0.0
 10
9.3796643267
 20
7.3452928798
 30
0.0
 10
9.3797168923
 20
7.345313131
 30
0.0
 10
9.3797473399
 20
7.3453255618
 30
0.0
 10
9.3797628528
 20
7.3453307719
 30
0.0
 10
9.3797710872
 20
7.3453356788
 30
0.0
 10
9.3797751788
 20
7.3453362028
 30
0.0
  0
SPLINE
  5
296
100
AcDbEntity
  8
0
100
AcDbSpline
 62
7
  6
CONTINUOUS
 70
0
 71
3
 72
11
 73
7
 74
0
 42
0.0000001
 43
0.0000001
 44
0.0000000001
 40
0.0
 40
0.0
 40
0.0
 40
0.0
 40
0.2473811698
 40
0.5000000017
 40
0.7526188324
 40
1.0
 40
1.0
 40
1.0
 40
1.0
 10
11.9312923407
 20
8.9070875875
 30
0.0
 10
11.9446042398
 20
8.9129949547
 30
0.0
 10
11.9729017843
 20
8.9220001093
 30
0.0
 10
12.0172776788
 20
8.9265095858
 30
0.0
 10
12.0616535733
 20
8.9220001093
 30
0.0
 10
12.0899511176
 20
8.9129949546
 30
0.0
 10
12.1032630165
 20
8.9070875875
 30
0.0
  0
SPLINE
  5
297
100
AcDbEntity
  8
0
100
AcDbSpline
 62
7
  6
CONTINUOUS
 70
0
 71
3
 72
11
 73
7
 74
0
 42
0.0000001
 43
0.0000001
 44
0.0000000001
 40
0.0
 40
0.0
 40
0.0
 40
0.0
 40
0.2479487672
 40
0.5000000017
 40
0.752051235
 40
1.0
 40
1.0
 40
1.0
 40
1.0
 10
11.9312923407
 20
8.9302317183
 30
0.0
 10
11.9445528328
 20
8.9364320999
 30
0.0
 10
11.9728022187
 20
8.9459279747
 30
0.0
 10
12.0172776788
 20
8.9507009041
 30
0.0
 10
12.0617531389
 20
8.9459279746
 30
0.0
 10
12.0900025245
 20
8.9364320998
 30
0.0
 10
12.1032630165
 20
8.9302317183
 30
0.0
  0
SPLINE
  5
298
100
AcDbEntity
  8
0
100
AcDbSpline
 62
9
  6
CONTINUOUS
 70
0
 71
3
 72
34
 73
30
 74
0
 42
0.0000001
 43
0.0000001
 44
0.0000000001
 40
0.0
 40
0.0
 40
0.0
 40
0.0
 40
0.0000717009
 40
0.0002858531
 40
0.0006422205
 40
0.0011405671
 40
0.0017806568
 40
0.0025622539
 40
0.0045490278
 40
0.0070990056
 40
0.0102103062
 40
0.0138810507
 40
0.0181092194
 40
0.0282281214
 40
0.0405473681
 40
0.0550474224
 40
0.0717050943
 40
0.0904861805
 40
0.1113548563
 40
0.1342754884
 40
0.1592090599
 40
0.2149509712
 40
0.278251235
 40
0.3487614166
 40
0.426088326
 40
0.509774444
 40
0.5992824095
 40
0.7929896209
 40
1.0
 40
1.0
 40
1.0
 40
1.0
 10
9.2534399154
 20
10.7038809898
 30
0.0
 10
9.2534445822
 20
10.7038801159
 30
0.0
 10
9.2534625137
 20
10.7038737935
 30
0.0
 10
9.2535036202
 20
10.7038630436
 30
0.0
 10
9.2535714978
 20
10.70384288
 30
0.0
 10
9.2536666953
 20
10.7038158135
 30
0.0
 10
9.2537888905
 20
10.7037806818
 30
0.0
 10
9.2540059013
 20
10.7037186644
 30
0.0
 10
9.254344575
 20
10.703622101
 30
0.0
 10
9.2548317764
 20
10.7034838513
 30
0.0
 10
9.2554264411
 20
10.7033158284
 30
0.0
 10
9.2561282749
 20
10.7031184059
 30
0.0
 10
9.2572771912
 20
10.7027967226
 30
0.0
 10
9.2589787912
 20
10.7023249507
 30
0.0
 10
9.261338427
 20
10.7016808175
 30
0.0
 10
9.264119062
 20
10.7009348435
 30
0.0
 10
9.2673170426
 20
10.7000932962
 30
0.0
 10
9.2709283137
 20
10.6991653839
 30
0.0
 10
9.2749478611
 20
10.6981602896
 30
0.0
 10
9.2793702625
 20
10.6970872437
 30
0.0
 10
9.2860489673
 20
10.6955207044
 30
0.0
 10
9.295358708
 20
10.693463644
 30
0.0
 10
9.3076640174
 20
10.690984614
 30
0.0
 10
9.3214249206
 20
10.6885071328
 30
0.0
 10
9.3365716505
 20
10.6861287324
 30
0.0
 10
9.3530187681
 20
10.6839505588
 30
0.0
 10
9.3771793928
 20
10.6813728999
 30
0.0
 10
9.4095878912
 20
10.6792422914
 30
0.0
 10
9.436137805
 20
10.6789795351
 30
0.0
 10
9.4498433407
 20
10.6792271902
 30
0.0
  0
SPLINE
  5
299
100
AcDbEntity
  8
0
100
AcDbSpline
 62
9
  6
CONTINUOUS
 70
0
 71
3
 72
33
 73
29
 74
0
 42
0.0000001
 43
0.0000001
 44
0.0000000001
 40
0.0
 40
0.0
 40
0.0
 40
0.0
 40
0.2034629807
 40
0.3982633294
 40
0.4890180195
 40
0.5739414324
 40
0.652281373
 40
0.7234693758
 40
0.7870780026
 40
0.8427916737
 40
0.8903622413
 40
0.9110294073
 40
0.9295858664
 40
0.9460088233
 40
0.9602757824
 40
0.9723726869
 40
0.9822911046
 40
0.9864307367
 40
0.990022545
 40
0.9930653385
 40
0.9955578601
 40
0.99749885
 40
0.9982621263
 40
0.9988870463
 40
0.9993734519
 40
0.9997211849
 40
0.9999300871
 40
1.0
 40
1.0
 40
1.0
 40
1.0
 10
9.4498433407
 20
10.6792271902
 30
0.0
 10
9.4647043311
 20
10.6794957689
 30
0.0
 10
9.493784754
 20
10.6809047627
 30
0.0
 10
9.5293241878
 20
10.6847226807
 30
0.0
 10
9.5560911758
 20
10.6887415697
 30
0.0
 10
9.5743660553
 20
10.6919745333
 30
0.0
 10
9.5911550681
 20
10.695369105
 30
0.0
 10
9.6063438419
 20
10.6987994247
 30
0.0
 10
9.6198538986
 20
10.7021447836
 30
0.0
 10
9.6316328888
 20
10.7052931771
 30
0.0
 10
9.6403418119
 20
10.7077736892
 30
0.0
 10
9.6464207073
 20
10.7095763284
 30
0.0
 10
9.6503107397
 20
10.7107565575
 30
0.0
 10
9.6537473331
 20
10.7118206757
 30
0.0
 10
9.6567287872
 20
10.7127591915
 30
0.0
 10
9.6592537184
 20
10.7135653615
 30
0.0
 10
9.6610716613
 20
10.7141533967
 30
0.0
 10
9.66229746
 20
10.714553234
 30
0.0
 10
9.6630454476
 20
10.7147982072
 30
0.0
 10
9.6636788637
 20
10.7150064105
 30
0.0
 10
9.6641975337
 20
10.7151775018
 30
0.0
 10
9.664557923
 20
10.715296853
 30
0.0
 10
9.6647887508
 20
10.7153734417
 30
0.0
 10
9.6649186658
 20
10.7154167659
 30
0.0
 10
9.6650198626
 20
10.7154501958
 30
0.0
 10
9.6650919697
 20
10.7154749167
 30
0.0
 10
9.6651356777
 20
10.7154883778
 30
0.0
 10
9.6651546832
 20
10.7154959312
 30
0.0
 10
9.6651596545
 20
10.7154971017
 30
0.0
  0
SPLINE
  5
29A
100
AcDbEntity
  8
0
100
AcDbSpline
 62
9
  6
CONTINUOUS
 70
0
 71
3
 72
70
 73
66
 74
0
 42
0.0000001
 43
0.0000001
 44
0.0000000001
 40
0.0
 40
0.0
 40
0.0
 40
0.0
 40
0.0000095023
 40
0.0000379804
 40
0.0000854247
 40
0.0001518258
 40
0.0003414599
 40
0.0006068064
 40
0.0009477888
 40
0.0013643309
 40
0.0018563562
 40
0.0024237885
 40
0.0037845683
 40
0.0054460596
 40
0.0074075997
 40
0.0096678518
 40
0.0122250062
 40
0.0150772436
 40
0.0216596897
 40
0.0294002455
 40
0.0382788475
 40
0.0482718276
 40
0.0593553186
 40
0.0715017287
 40
0.0846791845
 40
0.1139963682
 40
0.1470149211
 40
0.1834104998
 40
0.2228246526
 40
0.2648747236
 40
0.3091551529
 40
0.355239954
 40
0.4026898588
 40
0.4998761159
 40
0.5970537467
 40
0.6444945671
 40
0.6905707975
 40
0.7348462629
 40
0.7768973797
 40
0.816319994
 40
0.852733387
 40
0.8857809327
 40
0.9151350866
 40
0.9283328086
 40
0.940500571
 40
0.9516064614
 40
0.96162185
 40
0.9705213255
 40
0.9782796838
 40
0.984876252
 40
0.9877345842
 40
0.9902974561
 40
0.9925632486
 40
0.9945303463
 40
0.9961973956
 40
0.997563463
 40
0.9981333486
 40
0.9986276529
 40
0.9990462639
 40
0.9993890697
 40
0.9996559581
 40
0.9998468174
 40
0.999913701
 40
0.9999615353
 40
1.0
 40
1.0
 40
1.0
 40
1.0
 10
9.0449511391
 20
7.2557176095
 30
0.0
 10
9.0449522867
 20
7.2557177309
 30
0.0
 10
9.0449562907
 20
7.2557204143
 30
0.0
 10
9.0449660039
 20
7.2557237797
 30
0.0
 10
9.0449817122
 20
7.2557311772
 30
0.0
 10
9.0450155364
 20
7.2557457081
 30
0.0
 10
9.0450734662
 20
7.2557713536
 30
0.0
 10
9.0451620126
 20
7.2558100944
 30
0.0
 10
9.0452757564
 20
7.2558600471
 30
0.0
 10
9.0454147222
 20
7.2559210111
 30
0.0
 10
9.0455788653
 20
7.2559930471
 30
0.0
 10
9.0458480162
 20
7.2561111606
 30
0.0
 10
9.0462472165
 20
7.2562863604
 30
0.0
 10
9.0468014451
 20
7.2565296144
 30
0.0
 10
9.0474556926
 20
7.2568167886
 30
0.0
 10
9.0482095301
 20
7.2571477082
 30
0.0
 10
9.0490623987
 20
7.2575221466
 30
0.0
 10
9.0503958677
 20
7.2581076662
 30
0.0
 10
9.0523056467
 20
7.2589464422
 30
0.0
 10
9.0548853811
 20
7.2600798391
 30
0.0
 10
9.0578441305
 20
7.2613802833
 30
0.0
 10
9.0611742885
 20
7.2628446777
 30
0.0
 10
9.0648674171
 20
7.264469545
 30
0.0
 10
9.0689141534
 20
7.266251035
 30
0.0
 10
9.0749869489
 20
7.2689262036
 30
0.0
 10
9.0833779804
 20
7.2726266319
 30
0.0
 10
9.0943461055
 20
7.2774714189
 30
0.0
 10
9.1064322872
 20
7.2828198622
 30
0.0
 10
9.1195170382
 20
7.2886222056
 30
0.0
 10
9.1334720114
 20
7.2948243306
 30
0.0
 10
9.1481615781
 20
7.3013682973
 30
0.0
 10
9.1634437274
 20
7.308193588
 30
0.0
 10
9.1845828797
 20
7.3176606346
 30
0.0
 10
9.2113648159
 20
7.3297090014
 30
0.0
 10
9.2381188613
 20
7.3418165048
 30
0.0
 10
9.2592006237
 20
7.3514029659
 30
0.0
 10
9.2744252999
 20
7.3583489016
 30
0.0
 10
9.2890464212
 20
7.365040759
 30
0.0
 10
9.3029254705
 20
7.3714122987
 30
0.0
 10
9.3159301893
 20
7.3773998039
 30
0.0
 10
9.3279357332
 20
7.3829429129
 30
0.0
 10
9.3388255995
 20
7.3879853994
 30
0.0
 10
9.3471533941
 20
7.391850967
 30
0.0
 10
9.3531794271
 20
7.3946525843
 30
0.0
 10
9.3571951032
 20
7.3965215253
 30
0.0
 10
9.3608596788
 20
7.3982289154
 30
0.0
 10
9.3641638904
 20
7.3997699183
 30
0.0
 10
9.3670993052
 20
7.4011398453
 30
0.0
 10
9.3696583827
 20
7.4023343816
 30
0.0
 10
9.3715527147
 20
7.4032184576
 30
0.0
 10
9.3728752218
 20
7.4038358162
 30
0.0
 10
9.3737210969
 20
7.4042308028
 30
0.0
 10
9.3744688311
 20
7.4045801439
 30
0.0
 10
9.3751178976
 20
7.4048836502
 30
0.0
 10
9.3756678639
 20
7.4051411278
 30
0.0
 10
9.3760640672
 20
7.4053268402
 30
0.0
 10
9.3763312664
 20
7.4054521994
 30
0.0
 10
9.3764942709
 20
7.4055287354
 30
0.0
 10
9.3766323162
 20
7.4055935541
 30
0.0
 10
9.3767452925
 20
7.4056467475
 30
0.0
 10
9.3768333766
 20
7.4056879652
 30
0.0
 10
9.3768907961
 20
7.4057154531
 30
0.0
 10
9.3769246698
 20
7.4057308038
 30
0.0
 10
9.376940962
 20
7.4057395645
 30
0.0
 10
9.3769514747
 20
7.4057424393
 30
0.0
 10
9.3769550348
 20
7.4057454637
 30
0.0
  0
SPLINE
  5
29B
100
AcDbEntity
  8
0
100
AcDbSpline
 62
7
  6
CONTINUOUS
 70
0
 71
3
 72
17
 73
13
 74
0
 42
0.0000001
 43
0.0000001
 44
0.0000000001
 40
0.0
 40
0.0
 40
0.0
 40
0.0
 40
0.1249033286
 40
0.1874531982
 40
0.2499950854
 40
0.3749885826
 40
0.5000000017
 40
0.6250114207
 40
0.7500049168
 40
0.8125468031
 40
0.875096672
 40
1.0
 40
1.0
 40
1.0
 40
1.0
 10
11.9312923407
 20
9.0590113814
 30
0.0
 10
11.9378444189
 20
9.0625882466
 30
0.0
 10
11.9480240774
 20
9.0673552821
 30
0.0
 10
11.9620898261
 20
9.0724143124
 30
0.0
 10
11.9764513181
 20
9.0765858283
 30
0.0
 10
11.9948508813
 20
9.0801018975
 30
0.0
 10
12.0172776789
 20
9.0815120191
 30
0.0
 10
12.0397044765
 20
9.0801018975
 30
0.0
 10
12.0581040395
 20
9.0765858282
 30
0.0
 10
12.0724655314
 20
9.0724143123
 30
0.0
 10
12.0865312799
 20
9.0673552821
 30
0.0
 10
12.0967109384
 20
9.0625882466
 30
0.0
 10
12.1032630165
 20
9.0590113814
 30
0.0
  0
SPLINE
  5
29C
100
AcDbEntity
  8
0
100
AcDbSpline
 62
7
  6
CONTINUOUS
 70
0
 71
3
 72
17
 73
13
 74
0
 42
0.0000001
 43
0.0000001
 44
0.0000000001
 40
0.0
 40
0.0
 40
0.0
 40
0.0
 40
0.1249445037
 40
0.1875016612
 40
0.2500433528
 40
0.3750190832
 40
0.5000000017
 40
0.62498092
 40
0.7499566494
 40
0.8124983401
 40
0.8750554969
 40
1.0
 40
1.0
 40
1.0
 40
1.0
 10
11.9312923407
 20
9.0493771406
 30
0.0
 10
11.9378433569
 20
9.0529650761
 30
0.0
 10
11.948022344
 20
9.0577475598
 30
0.0
 10
11.962089187
 20
9.0628235247
 30
0.0
 10
11.9764501367
 20
9.0670085306
 30
0.0
 10
11.9948497404
 20
9.0705362491
 30
0.0
 10
12.0172776789
 20
9.0719511074
 30
0.0
 10
12.0397056173
 20
9.070536249
 30
0.0
 10
12.0581052209
 20
9.0670085305
 30
0.0
 10
12.0724661704
 20
9.0628235246
 30
0.0
 10
12.0865330133
 20
9.0577475597
 30
0.0
 10
12.0967120003
 20
9.0529650761
 30
0.0
 10
12.1032630165
 20
9.0493771406
 30
0.0
  0
SPLINE
  5
29D
100
AcDbEntity
  8
0
100
AcDbSpline
 62
7
  6
CONTINUOUS
 70
0
 71
3
 72
17
 73
13
 74
0
 42
0.0000001
 43
0.0000001
 44
0.0000000001
 40
0.0
 40
0.0
 40
0.0
 40
0.0
 40
0.1249074924
 40
0.1874580988
 40
0.249999966
 40
0.3749916666
 40
0.5000000017
 40
0.6250083366
 40
0.7500000361
 40
0.8125419025
 40
0.8750925082
 40
1.0
 40
1.0
 40
1.0
 40
1.0
 10
11.9312923407
 20
9.0377236592
 30
0.0
 10
11.9378443114
 20
9.0413016451
 30
0.0
 10
11.9480239021
 20
9.0460702443
 30
0.0
 10
11.9620897615
 20
9.0511309884
 30
0.0
 10
11.9764511986
 20
9.0553038698
 30
0.0
 10
11.994850766
 20
9.0588211181
 30
0.0
 10
12.0172776789
 20
9.060231719
 30
0.0
 10
12.0397045918
 20
9.058821118
 30
0.0
 10
12.058104159
 20
9.0553038697
 30
0.0
 10
12.072465596
 20
9.0511309884
 30
0.0
 10
12.0865314552
 20
9.0460702442
 30
0.0
 10
12.0967110458
 20
9.0413016451
 30
0.0
 10
12.1032630165
 20
9.0377236592
 30
0.0
  0
SPLINE
  5
29E
100
AcDbEntity
  8
0
100
AcDbSpline
 62
7
  6
CONTINUOUS
 70
0
 71
3
 72
17
 73
13
 74
0
 42
0.0000001
 43
0.0000001
 44
0.0000000001
 40
0.0
 40
0.0
 40
0.0
 40
0.0
 40
0.1240117815
 40
0.1864047167
 40
0.2489515758
 40
0.37432985
 40
0.5000000017
 40
0.6256701533
 40
0.7510484263
 40
0.8135952847
 40
0.8759882191
 40
1.0
 40
1.0
 40
1.0
 40
1.0
 10
11.9312923407
 20
8.9725312003
 30
0.0
 10
11.9378678422
 20
8.9758612965
 30
0.0
 10
11.9480618415
 20
8.9802851118
 30
0.0
 10
11.96210367
 20
8.9849691738
 30
0.0
 10
11.9764767624
 20
8.9888410027
 30
0.0
 10
11.9948752759
 20
8.9920989265
 30
0.0
 10
12.0172776789
 20
8.9934042656
 30
0.0
 10
12.0396800818
 20
8.9920989264
 30
0.0
 10
12.0580785952
 20
8.9888410026
 30
0.0
 10
12.0724516874
 20
8.9849691737
 30
0.0
 10
12.0864935159
 20
8.9802851118
 30
0.0
 10
12.096687515
 20
8.9758612965
 30
0.0
 10
12.1032630165
 20
8.9725312003
 30
0.0
  0
SPLINE
  5
29F
100
AcDbEntity
  8
0
100
AcDbSpline
 62
7
  6
CONTINUOUS
 70
0
 71
3
 72
17
 73
13
 74
0
 42
0.0000001
 43
0.0000001
 44
0.0000000001
 40
0.0
 40
0.0
 40
0.0
 40
0.0
 40
0.1236218195
 40
0.1859466332
 40
0.2484961093
 40
0.3740427292
 40
0.5000000017
 40
0.6259572741
 40
0.7515038929
 40
0.8140533681
 40
0.8763781811
 40
1.0
 40
1.0
 40
1.0
 40
1.0
 10
11.9312923407
 20
8.9520911795
 30
0.0
 10
11.9378783521
 20
8.9553085607
 30
0.0
 10
11.9480784976
 20
8.9595763504
 30
0.0
 10
11.9621097292
 20
8.9640907424
 30
0.0
 10
11.9764878105
 20
8.9678263467
 30
0.0
 10
11.994885763
 20
8.9709673278
 30
0.0
 10
12.0172776789
 20
8.972225308
 30
0.0
 10
12.0396695947
 20
8.9709673277
 30
0.0
 10
12.0580675471
 20
8.9678263466
 30
0.0
 10
12.0724456283
 20
8.9640907423
 30
0.0
 10
12.0864768597
 20
8.9595763503
 30
0.0
 10
12.0966770051
 20
8.9553085607
 30
0.0
 10
12.1032630165
 20
8.9520911795
 30
0.0
  0
ENDSEC
  0
SECTION
  2
OBJECTS
  0
DICTIONARY
  5
C
100
AcDbDictionary
280
0
281
1
  3
ACAD_GROUP
350
D
  3
ACAD_MLINESTYLE
350
17
  3
ACAD_LAYOUT
350
1A
  3
ACAD_PLOTSETTINGS
350
19
  3
ACAD_PLOTSTYLENAME
350
E
  0
DICTIONARY
  5
D
102
{ACAD_REACTORS
330
C
102
}
100
AcDbDictionary
280
0
281
1
  0
ACDBDICTIONARYWDFLT
  5
E
102
{ACAD_REACTORS
330
C
102
}
100
AcDbDictionary
281
1
  3
Normal
350
F
100
AcDbDictionaryWithDefault
340
F
  0
DICTIONARY
  5
17
102
{ACAD_REACTORS
330
C
102
}
100
AcDbDictionary
280
0
281
1
  3
Standard
350
18
  0
DICTIONARY
  5
19
102
{ACAD_REACTORS
330
C
102
}
100
AcDbDictionary
281
1
  0
DICTIONARY
  5
1A
102
{ACAD_REACTORS
330
C
102
}
100
AcDbDictionary
281
1
  3
Model
350
2A0
  3
Layout1
350
2A1
  0
ACDBPLACEHOLDER
  5
F
102
{ACAD_REACTORS
330
E
102
}
  0
MLINESTYLE
  5
18
102
{ACAD_REACTORS
330
17
102
}
100
AcDbMlineStyle
  2
STANDARD
 70
0
  3

 62
256
 51
90.0
 52
90.0
 71
2
 49
0.5
 62
256
  6
BYLAYER
 49
-0.5
 62
256
  6
BYLAYER
  0
LAYOUT
  5
2A0
102
{ACAD_REACTORS
330
1A
102
}
100
AcDbPlotSettings
  1

  2
none_device
  4
ANSI_C_(22.00_x_17.00_Inches)
  6

 40
0.0
 41
0.0
 42
0.0
 43
0.0
 44
558.8
 45
431.8
 46
0.0
 47
0.0
 48
0.0
 49
0.0
140
0.0
141
0.0
142
1.0
143
1.0
 70
1024
 72
0
 73
0
 74
0
  7

 75
0
147
1.0
148
0.0
149
0.0
100
AcDbLayout
  1
Model
 70
0
 71
0
 10
0.0
 20
0.0
 11
22.0
 21
17.0
 12
0.0
 22
0.0
 32
0.0
 14
0.0
 24
0.0
 34
0.0
 15
0.0
 25
0.0
 35
0.0
146
0.0
 13
0.0
 23
0.0
 33
0.0
 16
1.0
 26
0.0
 36
0.0
 17
0.0
 27
1.0
 37
0.0
 76
0
330
205
345
0
346
0
  0
LAYOUT
  5
2A1
102
{ACAD_REACTORS
330
1A
102
}
100
AcDbPlotSettings
  1

  2
none_device
  4
ANSI_C_(22.00_x_17.00_Inches)
  6

 40
0.0
 41
0.0
 42
0.0
 43
0.0
 44
558.8
 45
431.8
 46
0.0
 47
0.0
 48
0.0
 49
0.0
140
0.0
141
0.0
142
1.0
143
1.0
 70
0
 72
0
 73
0
 74
0
  7

 75
0
147
1.0
148
0.0
149
0.0
100
AcDbLayout
  1
Layout1
 70
0
 71
1
 10
0.0
 20
0.0
 11
22.0
 21
17.0
 12
0.0
 22
0.0
 32
0.0
 14
0.0
 24
0.0
 34
0.0
 15
0.0
 25
0.0
 35
0.0
146
0.0
 13
0.0
 23
0.0
 33
0.0
 16
1.0
 26
0.0
 36
0.0
 17
0.0
 27
1.0
 37
0.0
 76
0
330
206
345
0
346
0
  0
ENDSEC
  0
EOF
