999
DXF file: E:\BT Custom\CADOUTPUT\_TOP.dxf
999
Pro/ENGINEER 2018400 by Parametric Technology Corporation
  0
SECTION
  2
HEADER
  9
$ACADVER
  1
AC1018
  9
$DWGCODEPAGE
  3
ANSI_1252
  9
$EXTMAX
 10
22.0
 20
17.0
 30
0.0
  9
$EXTMIN
 10
0.0
 20
0.0
 30
0.0
  9
$LIMMIN
 10
0.0
 20
0.0
  9
$LIMMAX
 10
22.0
 20
17.0
  9
$VIEWCTR
 10
11.0
 20
8.5
  9
$VIEWSIZE
 40
17.0
  9
$CLAYER
  8
0
  9
$LTSCALE
 40
1.21
  9
$CELTYPE
  6
BYLAYER
  9
$DIMSCALE
 40
1.0
  9
$DIMASZ
 40
0.1
  9
$DIMEXO
 40
0.0625
  9
$DIMDLI
 40
0.836
  9
$DIMEXE
 40
0.125
  9
$DIMCEN
 40
0.198
  9
$DIMLFAC
 40
1.0
  9
$DIMBLK
  1
_FILLED
  9
$DIMALT
 70
1
  9
$DIMALTD
 70
2
  9
$DIMALTTD
 70
2
  9
$DIMALTF
 40
25.4
  9
$DIMTXT
 40
0.08
  9
$DIMTOL
 70
1
  9
$DIMLIM
 70
0
  9
$DIMTFAC
 40
1.0
  9
$DIMTP
 40
0.001
  9
$DIMTM
 40
0.001
  9
$DIMGAP
 40
0.09
  9
$DIMDSEP
 70
46
  9
$AUNITS
 70
0
  9
$PDMODE
 70
3
  9
$PDSIZE
 40
0.06
  9
$HANDSEED
  5
293
  9
$TILEMODE
 70
1
  9
$MEASUREMENT
 70
0
  9
$INSUNITS
 70
1
  0
ENDSEC
  0
SECTION
  2
CLASSES
  0
CLASS
  1
ACDBDICTIONARYWDFLT
  2
AcDbDictionaryWithDefault
  3
AutoCAD 2000
 90
0
 91
1
280
0
281
0
  0
CLASS
  1
ACDBPLACEHOLDER
  2
AcDbPlaceHolder
  3
AutoCAD 2000
 90
0
 91
1
280
0
281
0
  0
CLASS
  1
LAYOUT
  2
AcDbLayout
  3
AutoCAD 2000
 90
0
 91
0
280
0
281
0
  0
ENDSEC
  0
SECTION
  2
TABLES
  0
TABLE
  2
VPORT
  5
8
100
AcDbSymbolTable
 70
2
  0
VPORT
  5
1F4
100
AcDbSymbolTableRecord
100
AcDbViewportTableRecord
  2
*ACTIVE
 70
0
 10
0.0
 20
0.0
 11
1.0
 21
1.0
 12
11.0
 22
8.5
 13
0.0
 23
0.0
 14
1.0
 24
1.0
 15
0.0
 25
0.0
 16
0.0
 26
0.0
 36
1.0
 17
0.0
 27
0.0
 37
0.0
 40
17.0
 41
1.2941176471
 42
50.0
 43
0.0
 44
0.0
 50
0.0
 51
0.0
 71
0
 72
100
 73
1
 74
1
 75
0
 76
0
 77
0
 78
0
  0
ENDTAB
  0
TABLE
  2
LTYPE
  5
5
100
AcDbSymbolTable
 70
6
  0
LTYPE
  5
14
100
AcDbSymbolTableRecord
100
AcDbLinetypeTableRecord
  2
BYBLOCK
 70
0
  3

 72
65
 73
0
 40
0.0
  0
LTYPE
  5
15
100
AcDbSymbolTableRecord
100
AcDbLinetypeTableRecord
  2
BYLAYER
 70
0
  3

 72
65
 73
0
 40
0.0
  0
LTYPE
  5
16
100
AcDbSymbolTableRecord
100
AcDbLinetypeTableRecord
  2
CONTINUOUS
 70
64
  3
Solid line
 72
65
 73
0
 40
0.0
  0
LTYPE
  5
1F5
100
AcDbSymbolTableRecord
100
AcDbLinetypeTableRecord
  2
CENTER
 70
64
  3
____ _ ____ _ ____ _ ____ _ ____ _ ____ _ ____
 72
65
 73
4
 40
0.6
 49
0.375
 74
0
 49
-0.075
 74
0
 49
0.075
 74
0
 49
-0.075
 74
0
  0
LTYPE
  5
1F6
100
AcDbSymbolTableRecord
100
AcDbLinetypeTableRecord
  2
HIDDEN
 70
64
  3
- - - - - - - - - - - - - - - - - - - -
 72
65
 73
2
 40
0.2
 49
0.1
 74
0
 49
-0.1
 74
0
  0
LTYPE
  5
1F7
100
AcDbSymbolTableRecord
100
AcDbLinetypeTableRecord
  2
PHANTOM
 70
64
  3
_____ _ _ _____ _ _ _____ _ _ _____
 72
65
 73
6
 40
0.8
 49
0.45
 74
0
 49
-0.05
 74
0
 49
0.1
 74
0
 49
-0.05
 74
0
 49
0.1
 74
0
 49
-0.05
 74
0
  0
LTYPE
  5
1F8
100
AcDbSymbolTableRecord
100
AcDbLinetypeTableRecord
  2
DOT
 70
64
  3
. . . . . . . . . . . . . . . . . . . .
 72
65
 73
2
 40
0.2
 49
0.1
 74
0
 49
-0.1
 74
0
  0
LTYPE
  5
1F9
100
AcDbSymbolTableRecord
100
AcDbLinetypeTableRecord
  2
DASHED
 70
64
  3
- - - - - - - - - - - - - - - - - - - -
 72
65
 73
2
 40
0.2
 49
0.1
 74
0
 49
-0.1
 74
0
  0
ENDTAB
  0
TABLE
  2
LAYER
  5
2
100
AcDbSymbolTable
 70
36
  0
LAYER
  5
10
100
AcDbSymbolTableRecord
100
AcDbLayerTableRecord
  2
0
 70
0
 62
7
  6
CONTINUOUS
370
-3
390
F
  0
LAYER
  5
1FA
100
AcDbSymbolTableRecord
100
AcDbLayerTableRecord
  2
DEFAULT_1
 70
0
 62
7
  6
CENTER
370
-3
390
F
  0
LAYER
  5
1FB
100
AcDbSymbolTableRecord
100
AcDbLayerTableRecord
  2
DEFAULT_2
 70
0
 62
8
  6
HIDDEN
370
-3
390
F
  0
LAYER
  5
1FC
100
AcDbSymbolTableRecord
100
AcDbLayerTableRecord
  2
DEFAULT_3
 70
0
 62
7
  6
PHANTOM
370
-3
390
F
  0
LAYER
  5
1FD
100
AcDbSymbolTableRecord
100
AcDbLayerTableRecord
  2
ALL_FEATURES
 70
0
 62
7
  6
CONTINUOUS
370
-3
390
F
  0
LAYER
  5
1FE
100
AcDbSymbolTableRecord
100
AcDbLayerTableRecord
  2
AXES_FEATURES
 70
0
 62
7
  6
CONTINUOUS
370
-3
390
F
  0
LAYER
  5
1FF
100
AcDbSymbolTableRecord
100
AcDbLayerTableRecord
  2
DEFAULT_COORDINATE_SYSTEM
 70
0
 62
7
  6
CONTINUOUS
370
-3
390
F
  0
LAYER
  5
200
100
AcDbSymbolTableRecord
100
AcDbLayerTableRecord
  2
DEFAULT_DATUM_AXES
 70
0
 62
7
  6
CONTINUOUS
370
-3
390
F
  0
LAYER
  5
201
100
AcDbSymbolTableRecord
100
AcDbLayerTableRecord
  2
DEFAULT_DATUM_PLANES
 70
0
 62
7
  6
CONTINUOUS
370
-3
390
F
  0
LAYER
  5
202
100
AcDbSymbolTableRecord
100
AcDbLayerTableRecord
  2
DIMENSIONS
 70
0
 62
7
  6
CONTINUOUS
370
-3
390
F
  0
ENDTAB
  0
TABLE
  2
STYLE
  5
3
100
AcDbSymbolTable
 70
1
  0
STYLE
  5
11
100
AcDbSymbolTableRecord
100
AcDbTextStyleTableRecord
  2
STANDARD
 70
0
 40
0.0
 41
0.8
 50
0.0
 71
0
 42
0.2
  3
txt
  4

  0
STYLE
  5
203
100
AcDbSymbolTableRecord
100
AcDbTextStyleTableRecord
  2
TEXTSTYLE_1
 70
0
 40
0.0
 41
0.8
 50
0.0
 71
0
 42
0.2
  3
gdt
  4

  0
ENDTAB
  0
TABLE
  2
VIEW
  5
6
100
AcDbSymbolTable
 70
0
  0
ENDTAB
  0
TABLE
  2
UCS
  5
7
100
AcDbSymbolTable
 70
0
  0
ENDTAB
  0
TABLE
  2
APPID
  5
9
100
AcDbSymbolTable
 70
1
  0
APPID
  5
204
100
AcDbSymbolTableRecord
100
AcDbRegAppTableRecord
  2
ACAD
 70
0
  0
ENDTAB
  0
TABLE
  2
BLOCK_RECORD
  5
1
100
AcDbSymbolTable
 70
0
  0
BLOCK_RECORD
  5
205
100
AcDbSymbolTableRecord
100
AcDbBlockTableRecord
  2
*Model_Space
  0
BLOCK_RECORD
  5
206
100
AcDbSymbolTableRecord
100
AcDbBlockTableRecord
  2
*Paper_Space
  0
BLOCK_RECORD
  5
207
100
AcDbSymbolTableRecord
100
AcDbBlockTableRecord
  2
_FILLED
  0
ENDTAB
  0
TABLE
  2
DIMSTYLE
  5
A
100
AcDbSymbolTable
 70
1
100
AcDbDimStyleTable
 71
0
  0
DIMSTYLE
105
208
100
AcDbSymbolTableRecord
100
AcDbDimStyleTableRecord
  2
STANDARD
 70
0
  3

  4

 40
1.0
 41
0.1
 42
0.0625
 43
0.38
 44
0.125
 45
0.0
 46
0.0
 47
0.001
 48
0.001
140
0.08
141
0.09
142
0.0
143
25.4
144
1.0
145
0.0
146
1.0
147
0.09
 71
1.0
 72
0.0
 73
1
 74
1
 75
0
 76
0
 77
0
 78
4
 79
1
170
1
171
2
172
0
173
0
174
0
175
0
176
0
177
0
178
0
270
2
179
3
271
3
272
3
273
2
274
2
275
0
280
0
281
0
282
0
283
1
284
4
285
0
286
0
287
3
288
0
340
11
278
46
341
207
342
207
343
207
344
207
  0
ENDTAB
  0
ENDSEC
  0
SECTION
  2
BLOCKS
  0
BLOCK
  5
20
100
AcDbEntity
  8
0
100
AcDbBlockBegin
  2
*Model_Space
 70
0
 10
0.0
 20
0.0
 30
0.0
  3
*Model_Space
  1

  0
ENDBLK
  5
21
100
AcDbEntity
  8
0
100
AcDbBlockEnd
  0
BLOCK
  5
1C
100
AcDbEntity
  8
0
100
AcDbBlockBegin
  2
*Paper_Space
 70
0
 10
0.0
 20
0.0
 30
0.0
  3
*Paper_Space
  1

  0
ENDBLK
  5
1D
100
AcDbEntity
  8
0
100
AcDbBlockEnd
  0
BLOCK
  5
209
100
AcDbEntity
  8
0
100
AcDbBlockBegin
  2
_FILLED
 70
64
 10
0.0
 20
0.0
  3
_FILLED
  1

  0
SOLID
  5
20A
100
AcDbEntity
  8
0
  6
BYBLOCK
 62
0
100
AcDbTrace
 10
0.0
 20
0.0
 11
-1.0
 21
0.2
 12
-1.0
 22
-0.2
 13
-1.0
 23
-0.2
  0
ENDBLK
  5
20B
100
AcDbEntity
  8
0
  6
BYBLOCK
 62
0
100
AcDbBlockEnd
  0
ENDSEC
  0
SECTION
  2
ENTITIES
  0
LINE
  5
20C
100
AcDbEntity
  8
0
100
AcDbLine
 62
7
  6
CONTINUOUS
 10
10.2718183383
 20
9.0991110878
 11
10.2718183383
 21
9.0376583878
  0
LINE
  5
20D
100
AcDbEntity
  8
0
100
AcDbLine
 62
7
  6
CONTINUOUS
 10
10.6928183383
 20
8.9156113878
 11
10.6928183383
 21
8.8756113878
  0
LINE
  5
20E
100
AcDbEntity
  8
0
100
AcDbLine
 62
7
  6
CONTINUOUS
 10
10.6928183383
 20
8.703640712
 11
10.6928183383
 21
8.663640712
  0
LINE
  5
20F
100
AcDbEntity
  8
0
100
AcDbLine
 62
7
  6
CONTINUOUS
 10
10.8123183383
 20
8.643766512
 11
10.8123183383
 21
8.663640712
  0
LINE
  5
210
100
AcDbEntity
  8
0
100
AcDbLine
 62
7
  6
CONTINUOUS
 10
10.8898183383
 20
6.6030980146
 11
10.8898183383
 21
8.348191712
  0
LINE
  5
211
100
AcDbEntity
  8
0
100
AcDbLine
 62
7
  6
CONTINUOUS
 10
10.9116570615
 20
8.703640712
 11
10.9116570615
 21
8.8756113878
  0
LINE
  5
212
100
AcDbEntity
  8
0
100
AcDbLine
 62
7
  6
CONTINUOUS
 10
10.9377718138
 20
8.703640712
 11
10.9377718138
 21
8.8756113878
  0
LINE
  5
213
100
AcDbEntity
  8
0
100
AcDbLine
 62
7
  6
CONTINUOUS
 10
10.9645619568
 20
8.703640712
 11
10.9645619568
 21
8.8756113878
  0
LINE
  5
214
100
AcDbEntity
  8
0
100
AcDbLine
 62
7
  6
CONTINUOUS
 10
10.9918623204
 20
8.703640712
 11
10.9918623204
 21
8.8756113878
  0
LINE
  5
215
100
AcDbEntity
  8
0
100
AcDbLine
 62
7
  6
CONTINUOUS
 10
11.0195045888
 20
8.703640712
 11
11.0195045888
 21
8.8756113878
  0
LINE
  5
216
100
AcDbEntity
  8
0
100
AcDbLine
 62
7
  6
CONTINUOUS
 10
11.0473183383
 20
8.703640712
 11
11.0473183383
 21
8.8756113878
  0
LINE
  5
217
100
AcDbEntity
  8
0
100
AcDbLine
 62
7
  6
CONTINUOUS
 10
11.0751320877
 20
8.703640712
 11
11.0751320877
 21
8.8756113878
  0
LINE
  5
218
100
AcDbEntity
  8
0
100
AcDbLine
 62
7
  6
CONTINUOUS
 10
11.1027743561
 20
8.703640712
 11
11.1027743561
 21
8.8756113878
  0
LINE
  5
219
100
AcDbEntity
  8
0
100
AcDbLine
 62
7
  6
CONTINUOUS
 10
11.1300747198
 20
8.703640712
 11
11.1300747198
 21
8.8756113878
  0
LINE
  5
21A
100
AcDbEntity
  8
0
100
AcDbLine
 62
7
  6
CONTINUOUS
 10
11.1568648628
 20
8.703640712
 11
11.1568648628
 21
8.8756113878
  0
LINE
  5
21B
100
AcDbEntity
  8
0
100
AcDbLine
 62
7
  6
CONTINUOUS
 10
11.1829796151
 20
8.703640712
 11
11.1829796151
 21
8.8756113878
  0
LINE
  5
21C
100
AcDbEntity
  8
0
100
AcDbLine
 62
7
  6
CONTINUOUS
 10
11.2048183383
 20
6.6030980146
 11
11.2048183383
 21
8.348191712
  0
LINE
  5
21D
100
AcDbEntity
  8
0
100
AcDbLine
 62
7
  6
CONTINUOUS
 10
11.2823183383
 20
8.643766512
 11
11.2823183383
 21
8.663640712
  0
LINE
  5
21E
100
AcDbEntity
  8
0
100
AcDbLine
 62
7
  6
CONTINUOUS
 10
11.4018183383
 20
8.9156113878
 11
11.4018183383
 21
8.8756113878
  0
LINE
  5
21F
100
AcDbEntity
  8
0
100
AcDbLine
 62
7
  6
CONTINUOUS
 10
11.4018183383
 20
8.703640712
 11
11.4018183383
 21
8.663640712
  0
LINE
  5
220
100
AcDbEntity
  8
0
100
AcDbLine
 62
7
  6
CONTINUOUS
 10
11.8228183383
 20
9.0991110878
 11
11.8228183383
 21
9.0376583878
  0
LINE
  5
221
100
AcDbEntity
  8
0
100
AcDbLine
 62
7
  6
CONTINUOUS
 10
10.8898183383
 20
8.348191712
 11
11.2048183383
 21
8.348191712
  0
LINE
  5
222
100
AcDbEntity
  8
0
100
AcDbLine
 62
7
  6
CONTINUOUS
 10
10.8123183383
 20
8.643766512
 11
11.2823183383
 21
8.643766512
  0
LINE
  5
223
100
AcDbEntity
  8
0
100
AcDbLine
 62
7
  6
CONTINUOUS
 10
11.4018183383
 20
8.663640712
 11
10.6928183383
 21
8.663640712
  0
LINE
  5
224
100
AcDbEntity
  8
0
100
AcDbLine
 62
7
  6
CONTINUOUS
 10
11.4018183383
 20
8.703640712
 11
10.6928183383
 21
8.703640712
  0
LINE
  5
225
100
AcDbEntity
  8
0
100
AcDbLine
 62
7
  6
CONTINUOUS
 10
11.4018183383
 20
8.8756113878
 11
10.6928183383
 21
8.8756113878
  0
LINE
  5
226
100
AcDbEntity
  8
0
100
AcDbLine
 62
7
  6
CONTINUOUS
 10
11.4018183383
 20
8.9156113878
 11
10.6928183383
 21
8.9156113878
  0
LINE
  5
227
100
AcDbEntity
  8
0
100
AcDbLine
 62
7
  6
CONTINUOUS
 10
11.8228183383
 20
9.0376583878
 11
10.2718183383
 21
9.0376583878
  0
LINE
  5
228
100
AcDbEntity
  8
0
100
AcDbLine
 62
7
  6
CONTINUOUS
 10
11.8228183383
 20
9.0991110878
 11
10.2718183383
 21
9.0991110878
  0
LINE
  5
229
100
AcDbEntity
  8
0
100
AcDbLine
 62
7
  6
CONTINUOUS
 10
12.0838479227
 20
9.254191712
 11
10.0107887539
 21
9.254191712
  0
LINE
  5
22A
100
AcDbEntity
  8
0
100
AcDbLine
 62
7
  6
CONTINUOUS
 10
12.0838479227
 20
9.372191712
 11
10.0107887539
 21
9.372191712
  0
ARC
  5
22B
100
AcDbEntity
  8
0
100
AcDbCircle
 62
7
  6
CONTINUOUS
 10
-68.9468456123
 20
8.7896260499
 40
79.8585489649
100
AcDbArc
 50
359.9383084469
 51
0.0616915531
  0
ARC
  5
22C
100
AcDbEntity
  8
0
100
AcDbCircle
 62
7
  6
CONTINUOUS
 10
91.0414822867
 20
8.7896260499
 40
79.8585489628
100
AcDbArc
 50
179.9383084469
 51
180.0616915531
  0
ARC
  5
22D
100
AcDbEntity
  8
0
100
AcDbCircle
 62
7
  6
CONTINUOUS
 10
11.8229223206
 20
8.2501583946
 40
0.7875
100
AcDbArc
 50
90.0075653946
 51
122.3259561738
  0
ARC
  5
22E
100
AcDbEntity
  8
0
100
AcDbCircle
 62
7
  6
CONTINUOUS
 10
10.271714356
 20
8.2501583946
 40
0.7875
100
AcDbArc
 50
57.6740438262
 51
89.9924346054
  0
ARC
  5
22F
100
AcDbEntity
  8
0
100
AcDbCircle
 62
7
  6
CONTINUOUS
 10
10.2993265818
 20
8.3513118869
 40
0.5905
100
AcDbArc
 50
359.6972503231
 51
29.6872980271
  0
ARC
  5
230
100
AcDbEntity
  8
0
100
AcDbCircle
 62
7
  6
CONTINUOUS
 10
11.7953100948
 20
8.3513118869
 40
0.5905
100
AcDbArc
 50
150.3127019729
 51
180.3027496769
  0
ARC
  5
231
100
AcDbEntity
  8
0
100
AcDbCircle
 62
7
  6
CONTINUOUS
 10
11.0473180503
 20
5.8876084643
 40
0.2952694227
100
AcDbArc
 50
182.584487288
 51
357.4350147105
  0
ARC
  5
232
100
AcDbEntity
  8
0
100
AcDbCircle
 62
7
  6
CONTINUOUS
 10
11.2108809237
 20
8.7954716635
 40
0.1980782657
100
AcDbArc
 50
23.364794261
 51
23.8651962197
  0
ARC
  5
233
100
AcDbEntity
  8
0
100
AcDbCircle
 62
7
  6
CONTINUOUS
 10
10.8837557518
 20
8.7954716639
 40
0.1980782645
100
AcDbArc
 50
156.13480378
 51
156.6352056713
  0
ARC
  5
234
100
AcDbEntity
  8
0
100
AcDbCircle
 62
7
  6
CONTINUOUS
 10
10.883755747
 20
8.7837804337
 40
0.1980782593
100
AcDbArc
 50
203.3647945275
 51
203.8651962199
  0
ARC
  5
235
100
AcDbEntity
  8
0
100
AcDbCircle
 62
7
  6
CONTINUOUS
 10
11.2108809303
 20
8.7837804334
 40
0.1980782585
100
AcDbArc
 50
336.1348037802
 51
336.6352054045
  0
ARC
  5
236
100
AcDbEntity
  8
0
100
AcDbCircle
 62
7
  6
CONTINUOUS
 10
11.2227331682
 20
8.794124687
 40
0.1927884872
100
AcDbArc
 50
24.6780934761
 51
25.0035302286
  0
ARC
  5
237
100
AcDbEntity
  8
0
100
AcDbCircle
 62
7
  6
CONTINUOUS
 10
10.8719035075
 20
8.7941246874
 40
0.1927884863
100
AcDbArc
 50
154.9964697715
 51
155.3219064808
  0
ARC
  5
238
100
AcDbEntity
  8
0
100
AcDbCircle
 62
7
  6
CONTINUOUS
 10
10.8719035028
 20
8.7851274101
 40
0.1927884811
100
AcDbArc
 50
204.6780936457
 51
205.0035302286
  0
ARC
  5
239
100
AcDbEntity
  8
0
100
AcDbCircle
 62
7
  6
CONTINUOUS
 10
11.2227331747
 20
8.7851274097
 40
0.19278848
100
AcDbArc
 50
334.9964697713
 51
335.3219063113
  0
ARC
  5
23A
100
AcDbEntity
  8
0
100
AcDbCircle
 62
7
  6
CONTINUOUS
 10
10.8593853501
 20
8.7896260499
 40
0.186485786
100
AcDbArc
 50
152.542264682
 51
207.457735318
  0
ARC
  5
23B
100
AcDbEntity
  8
0
100
AcDbCircle
 62
7
  6
CONTINUOUS
 10
11.2352513312
 20
8.7896260499
 40
0.186485786
100
AcDbArc
 50
332.5422640086
 51
27.4577359914
  0
ARC
  5
23C
100
AcDbEntity
  8
0
100
AcDbCircle
 62
7
  6
CONTINUOUS
 10
10.9429754177
 20
8.7896260499
 40
0.1862607372
100
AcDbArc
 50
152.5063488389
 51
207.4936511611
  0
ARC
  5
23D
100
AcDbEntity
  8
0
100
AcDbCircle
 62
7
  6
CONTINUOUS
 10
11.1516612632
 20
8.7896260499
 40
0.1862607372
100
AcDbArc
 50
332.5063482257
 51
27.4936517743
  0
ARC
  5
23E
100
AcDbEntity
  8
0
100
AcDbCircle
 62
7
  6
CONTINUOUS
 10
10.8585394031
 20
8.7896260499
 40
0.182835104
100
AcDbArc
 50
151.9472846094
 51
208.0527153906
  0
ARC
  5
23F
100
AcDbEntity
  8
0
100
AcDbCircle
 62
7
  6
CONTINUOUS
 10
11.2360972702
 20
8.7896260499
 40
0.182835104
100
AcDbArc
 50
331.947285083
 51
28.052714917
  0
ARC
  5
240
100
AcDbEntity
  8
0
100
AcDbCircle
 62
7
  6
CONTINUOUS
 10
10.9216949701
 20
8.7896260499
 40
0.1826729319
100
AcDbArc
 50
151.9202287082
 51
208.0797712918
  0
ARC
  5
241
100
AcDbEntity
  8
0
100
AcDbCircle
 62
7
  6
CONTINUOUS
 10
11.1729417029
 20
8.7896260499
 40
0.1826729319
100
AcDbArc
 50
331.9202292422
 51
28.0797707578
  0
ARC
  5
242
100
AcDbEntity
  8
0
100
AcDbCircle
 62
7
  6
CONTINUOUS
 10
10.8611064546
 20
8.7896260499
 40
0.180308095
100
AcDbArc
 50
151.5194013192
 51
208.4805986808
  0
ARC
  5
243
100
AcDbEntity
  8
0
100
AcDbCircle
 62
7
  6
CONTINUOUS
 10
11.233530228
 20
8.7896260499
 40
0.1803080798
100
AcDbArc
 50
331.5194003954
 51
28.4805996046
  0
ARC
  5
244
100
AcDbEntity
  8
0
100
AcDbCircle
 62
7
  6
CONTINUOUS
 10
10.9034313166
 20
8.7896260499
 40
0.1802029893
100
AcDbArc
 50
151.5013084148
 51
208.4986915852
  0
ARC
  5
245
100
AcDbEntity
  8
0
100
AcDbCircle
 62
7
  6
CONTINUOUS
 10
11.1912053496
 20
8.7896260499
 40
0.1802029893
100
AcDbArc
 50
331.5013099846
 51
28.4986900154
  0
ARC
  5
246
100
AcDbEntity
  8
0
100
AcDbCircle
 62
7
  6
CONTINUOUS
 10
11.7953183383
 20
9.254191712
 40
0.1575
100
AcDbArc
 50
280.0555661561
 51
360.0
  0
ARC
  5
247
100
AcDbEntity
  8
0
100
AcDbCircle
 62
7
  6
CONTINUOUS
 10
10.2993183383
 20
9.254191712
 40
0.1575
100
AcDbArc
 50
180.0
 51
259.9444338439
  0
ARC
  5
248
100
AcDbEntity
  8
0
100
AcDbCircle
 62
7
  6
CONTINUOUS
 10
12.0313183383
 20
9.313191712
 40
0.079
100
AcDbArc
 50
311.6830072544
 51
48.3169927456
  0
ARC
  5
249
100
AcDbEntity
  8
0
100
AcDbCircle
 62
7
  6
CONTINUOUS
 10
10.0633183383
 20
9.313191712
 40
0.079
100
AcDbArc
 50
131.6830072544
 51
228.3169927456
  0
SPLINE
  5
24A
100
AcDbEntity
  8
0
100
AcDbSpline
 62
7
  6
CONTINUOUS
 70
0
 71
3
 72
17
 73
13
 74
0
 42
0.0000001
 43
0.0000001
 44
0.0000000001
 40
0.0
 40
0.0
 40
0.0
 40
0.0
 40
0.1239924559
 40
0.1863820071
 40
0.248928989
 40
0.3743156045
 40
0.4999999992
 40
0.625684394
 40
0.7510710097
 40
0.8136179921
 40
0.8760075437
 40
1.0
 40
1.0
 40
1.0
 40
1.0
 10
10.6928183383
 20
8.8756113878
 30
0.0
 10
10.6894937536
 20
8.8690353693
 30
0.0
 10
10.6850775787
 20
8.8588410637
 30
0.0
 10
10.6804018365
 20
8.8447997584
 30
0.0
 10
10.6765366785
 20
8.8304264177
 30
0.0
 10
10.673284487
 20
8.8120279307
 30
0.0
 10
10.6719814708
 20
8.78962605
 30
0.0
 10
10.6732844869
 20
8.7672241693
 30
0.0
 10
10.6765366784
 20
8.7488256822
 30
0.0
 10
10.6804018365
 20
8.7344523415
 30
0.0
 10
10.6850775787
 20
8.7204110362
 30
0.0
 10
10.6894937536
 20
8.7102167305
 30
0.0
 10
10.6928183383
 20
8.703640712
 30
0.0
  0
SPLINE
  5
24B
100
AcDbEntity
  8
0
100
AcDbSpline
 62
7
  6
CONTINUOUS
 70
0
 71
3
 72
13
 73
9
 74
0
 42
0.0000001
 43
0.0000001
 44
0.0000000001
 40
0.0
 40
0.0
 40
0.0
 40
0.0
 40
0.1179783123
 40
0.2419705742
 40
0.4999999992
 40
0.7580294245
 40
0.8820216872
 40
1.0
 40
1.0
 40
1.0
 40
1.0
 10
10.8863787061
 20
8.8756113878
 30
0.0
 10
10.8860960029
 20
8.868852652
 30
0.0
 10
10.8856028924
 20
8.8549869226
 30
0.0
 10
10.884895774
 20
8.8263261903
 30
0.0
 10
10.8845522282
 20
8.78962605
 30
0.0
 10
10.884895774
 20
8.7529259096
 30
0.0
 10
10.8856028924
 20
8.7242651773
 30
0.0
 10
10.8860960029
 20
8.7103994478
 30
0.0
 10
10.8863787061
 20
8.703640712
 30
0.0
  0
SPLINE
  5
24C
100
AcDbEntity
  8
0
100
AcDbSpline
 62
7
  6
CONTINUOUS
 70
0
 71
3
 72
15
 73
11
 74
0
 42
0.0000001
 43
0.0000001
 44
0.0000000001
 40
0.0
 40
0.0
 40
0.0
 40
0.0
 40
0.1181171268
 40
0.2421279093
 40
0.3700532611
 40
0.4999999992
 40
0.6299467372
 40
0.7578720895
 40
0.8818828728
 40
1.0
 40
1.0
 40
1.0
 40
1.0
 10
10.8620925971
 20
8.8756113878
 30
0.0
 10
10.8615215849
 20
8.8688574324
 30
0.0
 10
10.8605252209
 20
8.8549974092
 30
0.0
 10
10.859466685
 20
8.8337871499
 30
0.0
 10
10.8588238318
 20
8.8118810569
 30
0.0
 10
10.8586086489
 20
8.78962605
 30
0.0
 10
10.8588238318
 20
8.7673710431
 30
0.0
 10
10.859466685
 20
8.74546495
 30
0.0
 10
10.8605252209
 20
8.7242546907
 30
0.0
 10
10.8615215849
 20
8.7103946674
 30
0.0
 10
10.8620925971
 20
8.703640712
 30
0.0
  0
SPLINE
  5
24D
100
AcDbEntity
  8
0
100
AcDbSpline
 62
7
  6
CONTINUOUS
 70
0
 71
3
 72
15
 73
11
 74
0
 42
0.0000001
 43
0.0000001
 44
0.0000000001
 40
0.0
 40
0.0
 40
0.0
 40
0.0
 40
0.1183464003
 40
0.242389045
 40
0.3702160978
 40
0.4999999992
 40
0.6297839005
 40
0.7576109538
 40
0.8816535993
 40
1.0
 40
1.0
 40
1.0
 40
1.0
 10
10.8389484663
 20
8.8756113878
 30
0.0
 10
10.8380934532
 20
8.8688652234
 30
0.0
 10
10.8366003219
 20
8.8550146021
 30
0.0
 10
10.8350125925
 20
8.8337981899
 30
0.0
 10
10.8340483992
 20
8.8118863811
 30
0.0
 10
10.8337256695
 20
8.78962605
 30
0.0
 10
10.8340483992
 20
8.7673657189
 30
0.0
 10
10.8350125925
 20
8.74545391
 30
0.0
 10
10.8366003219
 20
8.7242374978
 30
0.0
 10
10.8380934532
 20
8.7103868764
 30
0.0
 10
10.8389484663
 20
8.703640712
 30
0.0
  0
SPLINE
  5
24E
100
AcDbEntity
  8
0
100
AcDbSpline
 62
7
  6
CONTINUOUS
 70
0
 71
3
 72
15
 73
11
 74
0
 42
0.0000001
 43
0.0000001
 44
0.0000000001
 40
0.0
 40
0.0
 40
0.0
 40
0.0
 40
0.118658098
 40
0.2427443982
 40
0.3704378064
 40
0.4999999992
 40
0.6295621919
 40
0.7572556006
 40
0.8813419016
 40
1.0
 40
1.0
 40
1.0
 40
1.0
 10
10.8170890051
 20
8.8756113878
 30
0.0
 10
10.8159563639
 20
8.868875691
 30
0.0
 10
10.813976271
 20
8.8550379242
 30
0.0
 10
10.8118681373
 20
8.8338132504
 30
0.0
 10
10.8105879819
 20
8.811893671
 30
0.0
 10
10.8101595216
 20
8.78962605
 30
0.0
 10
10.8105879819
 20
8.767358429
 30
0.0
 10
10.8118681373
 20
8.7454388496
 30
0.0
 10
10.813976271
 20
8.7242141757
 30
0.0
 10
10.8159563639
 20
8.7103764088
 30
0.0
 10
10.8170890051
 20
8.703640712
 30
0.0
  0
SPLINE
  5
24F
100
AcDbEntity
  8
0
100
AcDbSpline
 62
7
  6
CONTINUOUS
 70
0
 71
3
 72
15
 73
11
 74
0
 42
0.0000001
 43
0.0000001
 44
0.0000000001
 40
0.0
 40
0.0
 40
0.0
 40
0.0
 40
0.1190424957
 40
0.2431831715
 40
0.370711754
 40
0.4999999992
 40
0.6292882444
 40
0.7568168272
 40
0.8809575038
 40
1.0
 40
1.0
 40
1.0
 40
1.0
 10
10.7966489844
 20
8.8756113878
 30
0.0
 10
10.7952470231
 20
8.8688884064
 30
0.0
 10
10.7927929423
 20
8.855066602
 30
0.0
 10
10.7901761817
 20
8.8338319053
 30
0.0
 10
10.7885872555
 20
8.8119027439
 30
0.0
 10
10.7880554887
 20
8.78962605
 30
0.0
 10
10.7885872555
 20
8.7673493561
 30
0.0
 10
10.7901761816
 20
8.7454201946
 30
0.0
 10
10.7927929423
 20
8.7241854979
 30
0.0
 10
10.7952470231
 20
8.7103636934
 30
0.0
 10
10.7966489844
 20
8.703640712
 30
0.0
  0
SPLINE
  5
250
100
AcDbEntity
  8
0
100
AcDbSpline
 62
7
  6
CONTINUOUS
 70
0
 71
3
 72
15
 73
11
 74
0
 42
0.0000001
 43
0.0000001
 44
0.0000000001
 40
0.0
 40
0.0
 40
0.0
 40
0.0
 40
0.119487922
 40
0.2436923494
 40
0.3710299259
 40
0.4999999992
 40
0.6289700725
 40
0.7563076493
 40
0.8805120776
 40
1.0
 40
1.0
 40
1.0
 40
1.0
 10
10.7777544235
 20
8.8756113878
 30
0.0
 10
10.7760932314
 20
8.8689028792
 30
0.0
 10
10.7731811892
 20
8.8550997137
 30
0.0
 10
10.7700705804
 20
8.8338536353
 30
0.0
 10
10.7681818866
 20
8.8119133726
 30
0.0
 10
10.7675498423
 20
8.78962605
 30
0.0
 10
10.7681818866
 20
8.7673387274
 30
0.0
 10
10.7700705803
 20
8.7453984647
 30
0.0
 10
10.7731811891
 20
8.7241523861
 30
0.0
 10
10.7760932314
 20
8.7103492205
 30
0.0
 10
10.7777544235
 20
8.703640712
 30
0.0
  0
SPLINE
  5
251
100
AcDbEntity
  8
0
100
AcDbSpline
 62
7
  6
CONTINUOUS
 70
0
 71
3
 72
15
 73
11
 74
0
 42
0.0000001
 43
0.0000001
 44
0.0000000001
 40
0.0
 40
0.0
 40
0.0
 40
0.0
 40
0.119981287
 40
0.2442572589
 40
0.3713832604
 40
0.4999999992
 40
0.6286167379
 40
0.7557427399
 40
0.8800187126
 40
1.0
 40
1.0
 40
1.0
 40
1.0
 10
10.7605218138
 20
8.8756113878
 30
0.0
 10
10.7586130954
 20
8.8689185907
 30
0.0
 10
10.7552620268
 20
8.8551362358
 30
0.0
 10
10.7516753502
 20
8.8338778461
 30
0.0
 10
10.7494976956
 20
8.8119252917
 30
0.0
 10
10.7487690022
 20
8.78962605
 30
0.0
 10
10.7494976956
 20
8.7673268083
 30
0.0
 10
10.7516753501
 20
8.7453742539
 30
0.0
 10
10.7552620268
 20
8.7241158641
 30
0.0
 10
10.7586130954
 20
8.710333509
 30
0.0
 10
10.7605218138
 20
8.703640712
 30
0.0
  0
SPLINE
  5
252
100
AcDbEntity
  8
0
100
AcDbSpline
 62
7
  6
CONTINUOUS
 70
0
 71
3
 72
15
 73
11
 74
0
 42
0.0000001
 43
0.0000001
 44
0.0000000001
 40
0.0
 40
0.0
 40
0.0
 40
0.0
 40
0.1205086257
 40
0.2448621517
 40
0.371761999
 40
0.4999999992
 40
0.6282379994
 40
0.7551378471
 40
0.8794913739
 40
1.0
 40
1.0
 40
1.0
 40
1.0
 10
10.7450574
 20
8.8756113878
 30
0.0
 10
10.7429143077
 20
8.8689350241
 30
0.0
 10
10.7391458855
 20
8.8551750891
 30
0.0
 10
10.7351039024
 20
8.8339038894
 30
0.0
 10
10.7326498796
 20
8.8119382041
 30
0.0
 10
10.7318287577
 20
8.78962605
 30
0.0
 10
10.7326498796
 20
8.7673138959
 30
0.0
 10
10.7351039024
 20
8.7453482106
 30
0.0
 10
10.7391458855
 20
8.7240770107
 30
0.0
 10
10.7429143077
 20
8.7103170757
 30
0.0
 10
10.7450574
 20
8.703640712
 30
0.0
  0
SPLINE
  5
253
100
AcDbEntity
  8
0
100
AcDbSpline
 62
7
  6
CONTINUOUS
 70
0
 71
3
 72
15
 73
11
 74
0
 42
0.0000001
 43
0.0000001
 44
0.0000000001
 40
0.0
 40
0.0
 40
0.0
 40
0.0
 40
0.1210556171
 40
0.2454907704
 40
0.3721560285
 40
0.4999999992
 40
0.6278439699
 40
0.7545092284
 40
0.8789443825
 40
1.0
 40
1.0
 40
1.0
 40
1.0
 10
10.7314565255
 20
8.8756113878
 30
0.0
 10
10.7290934985
 20
8.8689516888
 30
0.0
 10
10.7249319401
 20
8.8552151843
 30
0.0
 10
10.7204583455
 20
8.8339310837
 30
0.0
 10
10.7177423023
 20
8.8119517887
 30
0.0
 10
10.7168335532
 20
8.78962605
 30
0.0
 10
10.7177423023
 20
8.7673003113
 30
0.0
 10
10.7204583454
 20
8.7453210162
 30
0.0
 10
10.7249319401
 20
8.7240369155
 30
0.0
 10
10.7290934985
 20
8.710300411
 30
0.0
 10
10.7314565255
 20
8.703640712
 30
0.0
  0
SPLINE
  5
254
100
AcDbEntity
  8
0
100
AcDbSpline
 62
7
  6
CONTINUOUS
 70
0
 71
3
 72
15
 73
11
 74
0
 42
0.0000001
 43
0.0000001
 44
0.0000000001
 40
0.0
 40
0.0
 40
0.0
 40
0.0
 40
0.1216080514
 40
0.2461268674
 40
0.3725551999
 40
0.4999999992
 40
0.6274447985
 40
0.7538731313
 40
0.8783919481
 40
1.0
 40
1.0
 40
1.0
 40
1.0
 10
10.719803044
 20
8.8756113878
 30
0.0
 10
10.7172356589
 20
8.8689681376
 30
0.0
 10
10.7127075174
 20
8.8552554594
 30
0.0
 10
10.7078288597
 20
8.8339587352
 30
0.0
 10
10.7048668537
 20
8.8119657092
 30
0.0
 10
10.7038758448
 20
8.78962605
 30
0.0
 10
10.7048668537
 20
8.7672863908
 30
0.0
 10
10.7078288597
 20
8.7452933647
 30
0.0
 10
10.7127075174
 20
8.7239966404
 30
0.0
 10
10.7172356588
 20
8.7102839622
 30
0.0
 10
10.719803044
 20
8.703640712
 30
0.0
  0
SPLINE
  5
255
100
AcDbEntity
  8
0
100
AcDbSpline
 62
7
  6
CONTINUOUS
 70
0
 71
3
 72
15
 73
11
 74
0
 42
0.0000001
 43
0.0000001
 44
0.0000000001
 40
0.0
 40
0.0
 40
0.0
 40
0.0
 40
0.1221522272
 40
0.2467546574
 40
0.372949609
 40
0.4999999992
 40
0.6270503894
 40
0.7532453414
 40
0.8778477723
 40
1.0
 40
1.0
 40
1.0
 40
1.0
 10
10.7101688033
 20
8.8756113878
 30
0.0
 10
10.7074136371
 20
8.8689839771
 30
0.0
 10
10.7025475829
 20
8.8552949118
 30
0.0
 10
10.6972931494
 20
8.8339861562
 30
0.0
 10
10.6941028851
 20
8.8119796218
 30
0.0
 10
10.6930355297
 20
8.78962605
 30
0.0
 10
10.6941028851
 20
8.7672724782
 30
0.0
 10
10.6972931494
 20
8.7452659437
 30
0.0
 10
10.7025475829
 20
8.723957188
 30
0.0
 10
10.7074136371
 20
8.7102681227
 30
0.0
 10
10.7101688033
 20
8.703640712
 30
0.0
  0
SPLINE
  5
256
100
AcDbEntity
  8
0
100
AcDbSpline
 62
7
  6
CONTINUOUS
 70
0
 71
3
 72
11
 73
7
 74
0
 42
0.0000001
 43
0.0000001
 44
0.0000000001
 40
0.0
 40
0.0
 40
0.0
 40
0.0
 40
0.2474598799
 40
0.4999999993
 40
0.7525401189
 40
1.0
 40
1.0
 40
1.0
 40
1.0
 10
10.7019202057
 20
8.874026314
 30
0.0
 10
10.6962560147
 20
8.8609151916
 30
0.0
 10
10.6876282303
 20
8.8331229728
 30
0.0
 10
10.6833101718
 20
8.7896260496
 30
0.0
 10
10.6876282304
 20
8.7461291264
 30
0.0
 10
10.6962560149
 20
8.7183369075
 30
0.0
 10
10.701920206
 20
8.7052257851
 30
0.0
  0
SPLINE
  5
257
100
AcDbEntity
  8
0
100
AcDbSpline
 62
7
  6
CONTINUOUS
 70
0
 71
3
 72
17
 73
13
 74
0
 42
0.0000001
 43
0.0000001
 44
0.0000000001
 40
0.0
 40
0.0
 40
0.0
 40
0.0
 40
0.1232053863
 40
0.1854547844
 40
0.24800479
 40
0.3737326057
 40
0.4999999993
 40
0.6262673928
 40
0.7519952088
 40
0.8145452148
 40
0.8767946134
 40
1.0
 40
1.0
 40
1.0
 40
1.0
 10
10.6967228027
 20
8.8746176753
 30
0.0
 10
10.6937189692
 20
8.8680803139
 30
0.0
 10
10.6897422165
 20
8.8579769989
 30
0.0
 10
10.685541761
 20
8.8441124559
 30
0.0
 10
10.6820629829
 20
8.8298961438
 30
0.0
 10
10.6791407956
 20
8.8117241411
 30
0.0
 10
10.6779712657
 20
8.7896260498
 30
0.0
 10
10.6791407956
 20
8.7675279585
 30
0.0
 10
10.6820629829
 20
8.7493559557
 30
0.0
 10
10.6855417611
 20
8.7351396436
 30
0.0
 10
10.6897422166
 20
8.7212751005
 30
0.0
 10
10.6937189693
 20
8.7111717855
 30
0.0
 10
10.6967228029
 20
8.704634424
 30
0.0
  0
LINE
  5
258
100
AcDbEntity
  8
0
100
AcDbLine
 62
7
  6
CONTINUOUS
 10
10.6939111435
 20
8.8756113878
 11
10.6937444918
 21
8.8752686434
  0
SPLINE
  5
259
100
AcDbEntity
  8
0
100
AcDbSpline
 62
7
  6
CONTINUOUS
 70
0
 71
3
 72
17
 73
13
 74
0
 42
0.0000001
 43
0.0000001
 44
0.0000000001
 40
0.0
 40
0.0
 40
0.0
 40
0.0
 40
0.123613689
 40
0.1859359901
 40
0.2484845817
 40
0.3740351912
 40
0.4999999992
 40
0.6259648073
 40
0.7515154171
 40
0.8140640091
 40
0.8763863106
 40
1.0
 40
1.0
 40
1.0
 40
1.0
 10
10.6937444918
 20
8.8752686434
 30
0.0
 10
10.6905602922
 20
8.8687030197
 30
0.0
 10
10.6863371359
 20
8.8585382742
 30
0.0
 10
10.6818706623
 20
8.8445608266
 30
0.0
 10
10.6781750214
 20
8.8302402304
 30
0.0
 10
10.6750678976
 20
8.8119200527
 30
0.0
 10
10.6738236125
 20
8.7896260499
 30
0.0
 10
10.6750678976
 20
8.7673320471
 30
0.0
 10
10.6781750214
 20
8.7490118694
 30
0.0
 10
10.6818706623
 20
8.7346912732
 30
0.0
 10
10.686337136
 20
8.7207138255
 30
0.0
 10
10.6905602922
 20
8.7105490799
 30
0.0
 10
10.6937444918
 20
8.7039834562
 30
0.0
  0
LINE
  5
25A
100
AcDbEntity
  8
0
100
AcDbLine
 62
7
  6
CONTINUOUS
 10
10.6937444918
 20
8.7039834562
 11
10.6939111435
 21
8.703640712
  0
SPLINE
  5
25B
100
AcDbEntity
  8
0
100
AcDbSpline
 62
7
  6
CONTINUOUS
 70
0
 71
3
 72
17
 73
13
 74
0
 42
0.0000001
 43
0.0000001
 44
0.0000000001
 40
0.0
 40
0.0
 40
0.0
 40
0.0
 40
0.1239924564
 40
0.1863820082
 40
0.2489289907
 40
0.3743156069
 40
0.5000000017
 40
0.6256843964
 40
0.7510710114
 40
0.8136179931
 40
0.8760075442
 40
1.0
 40
1.0
 40
1.0
 40
1.0
 10
11.4018183383
 20
8.703640712
 30
0.0
 10
11.405142923
 20
8.7102167305
 30
0.0
 10
11.4095590979
 20
8.7204110362
 30
0.0
 10
11.4142348401
 20
8.7344523415
 30
0.0
 10
11.4180999982
 20
8.7488256823
 30
0.0
 10
11.4213521896
 20
8.7672241695
 30
0.0
 10
11.4226552057
 20
8.7896260502
 30
0.0
 10
11.4213521896
 20
8.8120279308
 30
0.0
 10
11.4180999981
 20
8.8304264178
 30
0.0
 10
11.41423484
 20
8.8447997585
 30
0.0
 10
11.4095590978
 20
8.8588410637
 30
0.0
 10
11.4051429229
 20
8.8690353693
 30
0.0
 10
11.4018183383
 20
8.8756113878
 30
0.0
  0
LINE
  5
25C
100
AcDbEntity
  8
0
100
AcDbLine
 62
7
  6
CONTINUOUS
 10
11.4007255331
 20
8.703640712
 11
11.4008921847
 21
8.7039834561
  0
SPLINE
  5
25D
100
AcDbEntity
  8
0
100
AcDbSpline
 62
7
  6
CONTINUOUS
 70
0
 71
3
 72
17
 73
13
 74
0
 42
0.0000001
 43
0.0000001
 44
0.0000000001
 40
0.0
 40
0.0
 40
0.0
 40
0.0
 40
0.1236136895
 40
0.1859359912
 40
0.2484845834
 40
0.3740351936
 40
0.5000000017
 40
0.6259648097
 40
0.7515154188
 40
0.8140640102
 40
0.8763863111
 40
1.0
 40
1.0
 40
1.0
 40
1.0
 10
11.4008921847
 20
8.7039834561
 30
0.0
 10
11.4040763843
 20
8.7105490798
 30
0.0
 10
11.4082995406
 20
8.7207138255
 30
0.0
 10
11.4127660143
 20
8.7346912732
 30
0.0
 10
11.4164616552
 20
8.7490118695
 30
0.0
 10
11.4195687789
 20
8.7673320472
 30
0.0
 10
11.420813064
 20
8.78962605
 30
0.0
 10
11.4195687789
 20
8.8119200528
 30
0.0
 10
11.4164616552
 20
8.8302402304
 30
0.0
 10
11.4127660143
 20
8.8445608266
 30
0.0
 10
11.4082995407
 20
8.8585382742
 30
0.0
 10
11.4040763844
 20
8.8687030197
 30
0.0
 10
11.4008921848
 20
8.8752686434
 30
0.0
  0
LINE
  5
25E
100
AcDbEntity
  8
0
100
AcDbLine
 62
7
  6
CONTINUOUS
 10
11.4008921848
 20
8.8752686434
 11
11.4007255331
 21
8.8756113878
  0
SPLINE
  5
25F
100
AcDbEntity
  8
0
100
AcDbSpline
 62
7
  6
CONTINUOUS
 70
0
 71
3
 72
17
 73
13
 74
0
 42
0.0000001
 43
0.0000001
 44
0.0000000001
 40
0.0
 40
0.0
 40
0.0
 40
0.0
 40
0.1232053867
 40
0.1854547855
 40
0.2480047917
 40
0.3737326081
 40
0.5000000017
 40
0.6262673951
 40
0.7519952105
 40
0.8145452159
 40
0.8767946138
 40
1.0
 40
1.0
 40
1.0
 40
1.0
 10
11.3979138736
 20
8.7046344239
 30
0.0
 10
11.4009177072
 20
8.7111717853
 30
0.0
 10
11.4048944599
 20
8.7212751004
 30
0.0
 10
11.4090949154
 20
8.7351396435
 30
0.0
 10
11.4125736936
 20
8.7493559557
 30
0.0
 10
11.4154958809
 20
8.7675279585
 30
0.0
 10
11.4166654109
 20
8.7896260498
 30
0.0
 10
11.415495881
 20
8.811724141
 30
0.0
 10
11.4125736937
 20
8.8298961437
 30
0.0
 10
11.4090949156
 20
8.8441124558
 30
0.0
 10
11.4048944601
 20
8.8579769988
 30
0.0
 10
11.4009177074
 20
8.8680803138
 30
0.0
 10
11.3979138739
 20
8.8746176751
 30
0.0
  0
SPLINE
  5
260
100
AcDbEntity
  8
0
100
AcDbSpline
 62
7
  6
CONTINUOUS
 70
0
 71
3
 72
11
 73
7
 74
0
 42
0.0000001
 43
0.0000001
 44
0.0000000001
 40
0.0
 40
0.0
 40
0.0
 40
0.0
 40
0.2474598816
 40
0.5000000016
 40
0.7525401205
 40
1.0
 40
1.0
 40
1.0
 40
1.0
 10
11.3927164705
 20
8.7052257849
 30
0.0
 10
11.3983806616
 20
8.7183369073
 30
0.0
 10
11.4070084461
 20
8.7461291262
 30
0.0
 10
11.4113265048
 20
8.7896260495
 30
0.0
 10
11.4070084463
 20
8.8331229726
 30
0.0
 10
11.398380662
 20
8.8609151914
 30
0.0
 10
11.392716471
 20
8.8740263137
 30
0.0
  0
SPLINE
  5
261
100
AcDbEntity
  8
0
100
AcDbSpline
 62
7
  6
CONTINUOUS
 70
0
 71
3
 72
13
 73
9
 74
0
 42
0.0000001
 43
0.0000001
 44
0.0000000001
 40
0.0
 40
0.0
 40
0.0
 40
0.0
 40
0.1179783129
 40
0.241970576
 40
0.5000000018
 40
0.7580294263
 40
0.8820216878
 40
1.0
 40
1.0
 40
1.0
 40
1.0
 10
11.2082579704
 20
8.703640712
 30
0.0
 10
11.2085406737
 20
8.7103994478
 30
0.0
 10
11.2090337842
 20
8.7242651773
 30
0.0
 10
11.2097409026
 20
8.7529259097
 30
0.0
 10
11.2100844483
 20
8.7896260501
 30
0.0
 10
11.2097409026
 20
8.8263261904
 30
0.0
 10
11.2090337841
 20
8.8549869226
 30
0.0
 10
11.2085406737
 20
8.868852652
 30
0.0
 10
11.2082579704
 20
8.8756113878
 30
0.0
  0
SPLINE
  5
262
100
AcDbEntity
  8
0
100
AcDbSpline
 62
7
  6
CONTINUOUS
 70
0
 71
3
 72
15
 73
11
 74
0
 42
0.0000001
 43
0.0000001
 44
0.0000000001
 40
0.0
 40
0.0
 40
0.0
 40
0.0
 40
0.1181171273
 40
0.242127911
 40
0.3700532637
 40
0.5000000018
 40
0.6299467397
 40
0.7578720912
 40
0.8818828733
 40
1.0
 40
1.0
 40
1.0
 40
1.0
 10
11.2325440795
 20
8.703640712
 30
0.0
 10
11.2331150917
 20
8.7103946674
 30
0.0
 10
11.2341114557
 20
8.7242546907
 30
0.0
 10
11.2351699916
 20
8.7454649501
 30
0.0
 10
11.2358128448
 20
8.7673710433
 30
0.0
 10
11.2360280276
 20
8.7896260502
 30
0.0
 10
11.2358128448
 20
8.811881057
 30
0.0
 10
11.2351699915
 20
8.83378715
 30
0.0
 10
11.2341114557
 20
8.8549974092
 30
0.0
 10
11.2331150917
 20
8.8688574324
 30
0.0
 10
11.2325440795
 20
8.8756113878
 30
0.0
  0
SPLINE
  5
263
100
AcDbEntity
  8
0
100
AcDbSpline
 62
7
  6
CONTINUOUS
 70
0
 71
3
 72
15
 73
11
 74
0
 42
0.0000001
 43
0.0000001
 44
0.0000000001
 40
0.0
 40
0.0
 40
0.0
 40
0.0
 40
0.1183464008
 40
0.2423890467
 40
0.3702161004
 40
0.5000000018
 40
0.629783903
 40
0.7576109555
 40
0.8816535998
 40
1.0
 40
1.0
 40
1.0
 40
1.0
 10
11.2556882102
 20
8.703640712
 30
0.0
 10
11.2565432234
 20
8.7103868764
 30
0.0
 10
11.2580363547
 20
8.7242374978
 30
0.0
 10
11.2596240841
 20
8.7454539101
 30
0.0
 10
11.2605882774
 20
8.7673657191
 30
0.0
 10
11.2609110071
 20
8.7896260502
 30
0.0
 10
11.2605882774
 20
8.8118863812
 30
0.0
 10
11.2596240841
 20
8.83379819
 30
0.0
 10
11.2580363547
 20
8.8550146021
 30
0.0
 10
11.2565432234
 20
8.8688652234
 30
0.0
 10
11.2556882102
 20
8.8756113878
 30
0.0
  0
SPLINE
  5
264
100
AcDbEntity
  8
0
100
AcDbSpline
 62
7
  6
CONTINUOUS
 70
0
 71
3
 72
15
 73
11
 74
0
 42
0.0000001
 43
0.0000001
 44
0.0000000001
 40
0.0
 40
0.0
 40
0.0
 40
0.0
 40
0.1186580985
 40
0.2427443999
 40
0.3704378089
 40
0.5000000018
 40
0.6295621945
 40
0.7572556023
 40
0.8813419021
 40
1.0
 40
1.0
 40
1.0
 40
1.0
 10
11.2775476714
 20
8.703640712
 30
0.0
 10
11.2786803127
 20
8.7103764088
 30
0.0
 10
11.2806604055
 20
8.7242141757
 30
0.0
 10
11.2827685392
 20
8.7454388497
 30
0.0
 10
11.2840486947
 20
8.7673584292
 30
0.0
 10
11.284477155
 20
8.7896260502
 30
0.0
 10
11.2840486946
 20
8.8118936711
 30
0.0
 10
11.2827685392
 20
8.8338132504
 30
0.0
 10
11.2806604055
 20
8.8550379242
 30
0.0
 10
11.2786803126
 20
8.868875691
 30
0.0
 10
11.2775476714
 20
8.8756113878
 30
0.0
  0
SPLINE
  5
265
100
AcDbEntity
  8
0
100
AcDbSpline
 62
7
  6
CONTINUOUS
 70
0
 71
3
 72
15
 73
11
 74
0
 42
0.0000001
 43
0.0000001
 44
0.0000000001
 40
0.0
 40
0.0
 40
0.0
 40
0.0
 40
0.1190424963
 40
0.2431831733
 40
0.3707117565
 40
0.5000000018
 40
0.6292882469
 40
0.7568168289
 40
0.8809575044
 40
1.0
 40
1.0
 40
1.0
 40
1.0
 10
11.2979876922
 20
8.703640712
 30
0.0
 10
11.2993896535
 20
8.7103636934
 30
0.0
 10
11.3018437343
 20
8.7241854979
 30
0.0
 10
11.3044604949
 20
8.7454201947
 30
0.0
 10
11.3060494211
 20
8.7673493563
 30
0.0
 10
11.3065811879
 20
8.7896260502
 30
0.0
 10
11.3060494211
 20
8.811902744
 30
0.0
 10
11.3044604949
 20
8.8338319054
 30
0.0
 10
11.3018437343
 20
8.855066602
 30
0.0
 10
11.2993896535
 20
8.8688884064
 30
0.0
 10
11.2979876922
 20
8.8756113878
 30
0.0
  0
SPLINE
  5
266
100
AcDbEntity
  8
0
100
AcDbSpline
 62
7
  6
CONTINUOUS
 70
0
 71
3
 72
15
 73
11
 74
0
 42
0.0000001
 43
0.0000001
 44
0.0000000001
 40
0.0
 40
0.0
 40
0.0
 40
0.0
 40
0.1194879225
 40
0.2436923512
 40
0.3710299284
 40
0.5000000018
 40
0.628970075
 40
0.7563076511
 40
0.8805120781
 40
1.0
 40
1.0
 40
1.0
 40
1.0
 10
11.3168822531
 20
8.703640712
 30
0.0
 10
11.3185434452
 20
8.7103492205
 30
0.0
 10
11.3214554874
 20
8.7241523861
 30
0.0
 10
11.3245660962
 20
8.7453984647
 30
0.0
 10
11.32645479
 20
8.7673387275
 30
0.0
 10
11.3270868343
 20
8.7896260502
 30
0.0
 10
11.3264547899
 20
8.8119133728
 30
0.0
 10
11.3245660962
 20
8.8338536354
 30
0.0
 10
11.3214554874
 20
8.8550997138
 30
0.0
 10
11.3185434452
 20
8.8689028792
 30
0.0
 10
11.3168822531
 20
8.8756113878
 30
0.0
  0
SPLINE
  5
267
100
AcDbEntity
  8
0
100
AcDbSpline
 62
7
  6
CONTINUOUS
 70
0
 71
3
 72
15
 73
11
 74
0
 42
0.0000001
 43
0.0000001
 44
0.0000000001
 40
0.0
 40
0.0
 40
0.0
 40
0.0
 40
0.1199812875
 40
0.2442572606
 40
0.3713832629
 40
0.5000000018
 40
0.6286167404
 40
0.7557427416
 40
0.8800187131
 40
1.0
 40
1.0
 40
1.0
 40
1.0
 10
11.3341148628
 20
8.703640712
 30
0.0
 10
11.3360235812
 20
8.710333509
 30
0.0
 10
11.3393746498
 20
8.7241158641
 30
0.0
 10
11.3429613265
 20
8.745374254
 30
0.0
 10
11.345138981
 20
8.7673268084
 30
0.0
 10
11.3458676744
 20
8.7896260502
 30
0.0
 10
11.345138981
 20
8.8119252919
 30
0.0
 10
11.3429613264
 20
8.8338778461
 30
0.0
 10
11.3393746497
 20
8.8551362358
 30
0.0
 10
11.3360235812
 20
8.8689185907
 30
0.0
 10
11.3341148628
 20
8.8756113878
 30
0.0
  0
SPLINE
  5
268
100
AcDbEntity
  8
0
100
AcDbSpline
 62
7
  6
CONTINUOUS
 70
0
 71
3
 72
15
 73
11
 74
0
 42
0.0000001
 43
0.0000001
 44
0.0000000001
 40
0.0
 40
0.0
 40
0.0
 40
0.0
 40
0.1205086262
 40
0.2448621534
 40
0.3717620014
 40
0.5000000018
 40
0.6282380019
 40
0.7551378488
 40
0.8794913744
 40
1.0
 40
1.0
 40
1.0
 40
1.0
 10
11.3495792765
 20
8.703640712
 30
0.0
 10
11.3517223689
 20
8.7103170757
 30
0.0
 10
11.3554907911
 20
8.7240770107
 30
0.0
 10
11.3595327742
 20
8.7453482107
 30
0.0
 10
11.361986797
 20
8.7673138961
 30
0.0
 10
11.3628079189
 20
8.7896260502
 30
0.0
 10
11.3619867969
 20
8.8119382042
 30
0.0
 10
11.3595327741
 20
8.8339038894
 30
0.0
 10
11.3554907911
 20
8.8551750892
 30
0.0
 10
11.3517223689
 20
8.8689350241
 30
0.0
 10
11.3495792765
 20
8.8756113878
 30
0.0
  0
SPLINE
  5
269
100
AcDbEntity
  8
0
100
AcDbSpline
 62
7
  6
CONTINUOUS
 70
0
 71
3
 72
15
 73
11
 74
0
 42
0.0000001
 43
0.0000001
 44
0.0000000001
 40
0.0
 40
0.0
 40
0.0
 40
0.0
 40
0.1210556176
 40
0.2454907721
 40
0.3721560309
 40
0.5000000018
 40
0.6278439724
 40
0.7545092301
 40
0.878944383
 40
1.0
 40
1.0
 40
1.0
 40
1.0
 10
11.3631801511
 20
8.703640712
 30
0.0
 10
11.3655431781
 20
8.710300411
 30
0.0
 10
11.3697047365
 20
8.7240369156
 30
0.0
 10
11.3741783312
 20
8.7453210163
 30
0.0
 10
11.3768943743
 20
8.7673003114
 30
0.0
 10
11.3778031234
 20
8.7896260502
 30
0.0
 10
11.3768943743
 20
8.8119517889
 30
0.0
 10
11.3741783311
 20
8.8339310838
 30
0.0
 10
11.3697047365
 20
8.8552151843
 30
0.0
 10
11.3655431781
 20
8.8689516888
 30
0.0
 10
11.3631801511
 20
8.8756113878
 30
0.0
  0
SPLINE
  5
26A
100
AcDbEntity
  8
0
100
AcDbSpline
 62
7
  6
CONTINUOUS
 70
0
 71
3
 72
15
 73
11
 74
0
 42
0.0000001
 43
0.0000001
 44
0.0000000001
 40
0.0
 40
0.0
 40
0.0
 40
0.0
 40
0.121608052
 40
0.2461268692
 40
0.3725552024
 40
0.5000000017
 40
0.627444801
 40
0.753873133
 40
0.8783919487
 40
1.0
 40
1.0
 40
1.0
 40
1.0
 10
11.3748336326
 20
8.703640712
 30
0.0
 10
11.3774010177
 20
8.7102839622
 30
0.0
 10
11.3819291591
 20
8.7239966404
 30
0.0
 10
11.3868078169
 20
8.7452933648
 30
0.0
 10
11.3897698229
 20
8.7672863909
 30
0.0
 10
11.3907608317
 20
8.7896260502
 30
0.0
 10
11.3897698228
 20
8.8119657093
 30
0.0
 10
11.3868078168
 20
8.8339587353
 30
0.0
 10
11.3819291591
 20
8.8552554595
 30
0.0
 10
11.3774010177
 20
8.8689681376
 30
0.0
 10
11.3748336326
 20
8.8756113878
 30
0.0
  0
SPLINE
  5
26B
100
AcDbEntity
  8
0
100
AcDbSpline
 62
7
  6
CONTINUOUS
 70
0
 71
3
 72
15
 73
11
 74
0
 42
0.0000001
 43
0.0000001
 44
0.0000000001
 40
0.0
 40
0.0
 40
0.0
 40
0.0
 40
0.1221522278
 40
0.2467546591
 40
0.3729496115
 40
0.5000000017
 40
0.6270503918
 40
0.7532453431
 40
0.8778477729
 40
1.0
 40
1.0
 40
1.0
 40
1.0
 10
11.3844678733
 20
8.703640712
 30
0.0
 10
11.3872230395
 20
8.7102681227
 30
0.0
 10
11.3920890937
 20
8.723957188
 30
0.0
 10
11.3973435272
 20
8.7452659438
 30
0.0
 10
11.4005337915
 20
8.7672724783
 30
0.0
 10
11.4016011469
 20
8.7896260502
 30
0.0
 10
11.4005337914
 20
8.8119796219
 30
0.0
 10
11.3973435271
 20
8.8339861563
 30
0.0
 10
11.3920890936
 20
8.8552949119
 30
0.0
 10
11.3872230395
 20
8.8689839771
 30
0.0
 10
11.3844678733
 20
8.8756113878
 30
0.0
  0
SPLINE
  5
26C
100
AcDbEntity
  8
0
100
AcDbSpline
 62
7
  6
CONTINUOUS
 70
0
 71
3
 72
15
 73
11
 74
0
 42
0.0000001
 43
0.0000001
 44
0.0000000001
 40
0.0
 40
0.0
 40
0.0
 40
0.0
 40
0.1181271428
 40
0.2421393128
 40
0.3700603705
 40
0.4999999992
 40
0.6299396279
 40
0.7578606859
 40
0.8818728568
 40
1.0
 40
1.0
 40
1.0
 40
1.0
 10
10.9645619568
 20
8.8756113878
 30
0.0
 10
10.9651482432
 20
8.8688577744
 30
0.0
 10
10.9661712961
 20
8.8549981609
 30
0.0
 10
10.9672582287
 20
8.8337876316
 30
0.0
 10
10.9679183262
 20
8.8118812888
 30
0.0
 10
10.9681392807
 20
8.78962605
 30
0.0
 10
10.9679183262
 20
8.7673708112
 30
0.0
 10
10.9672582287
 20
8.7454644684
 30
0.0
 10
10.9661712961
 20
8.7242539389
 30
0.0
 10
10.9651482432
 20
8.7103943254
 30
0.0
 10
10.9645619568
 20
8.703640712
 30
0.0
  0
SPLINE
  5
26D
100
AcDbEntity
  8
0
100
AcDbSpline
 62
7
  6
CONTINUOUS
 70
0
 71
3
 72
15
 73
11
 74
0
 42
0.0000001
 43
0.0000001
 44
0.0000000001
 40
0.0
 40
0.0
 40
0.0
 40
0.0
 40
0.1205374302
 40
0.2448952257
 40
0.3717827207
 40
0.5000000018
 40
0.6282172827
 40
0.7551047765
 40
0.8794625705
 40
1.0
 40
1.0
 40
1.0
 40
1.0
 10
10.9645619568
 20
8.703640712
 30
0.0
 10
10.9624067594
 20
8.7103161885
 30
0.0
 10
10.958616737
 20
8.7240748941
 30
0.0
 10
10.9545511107
 20
8.7453467832
 30
0.0
 10
10.9520827359
 20
8.7673131856
 30
0.0
 10
10.9512568142
 20
8.7896260502
 30
0.0
 10
10.9520827359
 20
8.8119389147
 30
0.0
 10
10.9545511107
 20
8.8339053169
 30
0.0
 10
10.958616737
 20
8.8551772058
 30
0.0
 10
10.9624067594
 20
8.8689359112
 30
0.0
 10
10.9645619568
 20
8.8756113878
 30
0.0
  0
SPLINE
  5
26E
100
AcDbEntity
  8
0
100
AcDbSpline
 62
7
  6
CONTINUOUS
 70
0
 71
3
 72
13
 73
9
 74
0
 42
0.0000001
 43
0.0000001
 44
0.0000000001
 40
0.0
 40
0.0
 40
0.0
 40
0.0
 40
0.1179834852
 40
0.2419765357
 40
0.4999999992
 40
0.7580234631
 40
0.8820165144
 40
1.0
 40
1.0
 40
1.0
 40
1.0
 10
10.9377718138
 20
8.8756113878
 30
0.0
 10
10.9380699672
 20
8.8688528269
 30
0.0
 10
10.9385900364
 20
8.8549873043
 30
0.0
 10
10.9393358211
 20
8.8263266899
 30
0.0
 10
10.9396981665
 20
8.78962605
 30
0.0
 10
10.9393358211
 20
8.7529254101
 30
0.0
 10
10.9385900364
 20
8.7242647955
 30
0.0
 10
10.9380699672
 20
8.7103992729
 30
0.0
 10
10.9377718138
 20
8.703640712
 30
0.0
  0
SPLINE
  5
26F
100
AcDbEntity
  8
0
100
AcDbSpline
 62
7
  6
CONTINUOUS
 70
0
 71
3
 72
15
 73
11
 74
0
 42
0.0000001
 43
0.0000001
 44
0.0000000001
 40
0.0
 40
0.0
 40
0.0
 40
0.0
 40
0.1210850676
 40
0.2455246511
 40
0.3721772796
 40
0.5000000018
 40
0.6278227238
 40
0.7544753511
 40
0.878914933
 40
1.0
 40
1.0
 40
1.0
 40
1.0
 10
10.9377718138
 20
8.703640712
 30
0.0
 10
10.9353974851
 20
8.7102995245
 30
0.0
 10
10.9312156855
 20
8.7240347629
 30
0.0
 10
10.9267197924
 20
8.7453195469
 30
0.0
 10
10.923990211
 20
8.7672995744
 30
0.0
 10
10.9230769343
 20
8.7896260502
 30
0.0
 10
10.923990211
 20
8.8119525259
 30
0.0
 10
10.9267197925
 20
8.8339325532
 30
0.0
 10
10.9312156855
 20
8.855217337
 30
0.0
 10
10.9353974851
 20
8.8689525752
 30
0.0
 10
10.9377718138
 20
8.8756113878
 30
0.0
  0
SPLINE
  5
270
100
AcDbEntity
  8
0
100
AcDbSpline
 62
7
  6
CONTINUOUS
 70
0
 71
3
 72
15
 73
11
 74
0
 42
0.0000001
 43
0.0000001
 44
0.0000000001
 40
0.0
 40
0.0
 40
0.0
 40
0.0
 40
0.1216374013
 40
0.2461606977
 40
0.3725764437
 40
0.5000000017
 40
0.6274235596
 40
0.7538393045
 40
0.8783625993
 40
1.0
 40
1.0
 40
1.0
 40
1.0
 10
10.9116570615
 20
8.703640712
 30
0.0
 10
10.9090792346
 20
8.7102830988
 30
0.0
 10
10.9045323296
 20
8.723994507
 30
0.0
 10
10.8996328675
 20
8.7452918905
 30
0.0
 10
10.8966582266
 20
8.7672856457
 30
0.0
 10
10.8956629919
 20
8.7896260502
 30
0.0
 10
10.8966582266
 20
8.8119664546
 30
0.0
 10
10.8996328676
 20
8.8339602096
 30
0.0
 10
10.9045323297
 20
8.8552575929
 30
0.0
 10
10.9090792346
 20
8.868969001
 30
0.0
 10
10.9116570615
 20
8.8756113878
 30
0.0
  0
SPLINE
  5
271
100
AcDbEntity
  8
0
100
AcDbSpline
 62
7
  6
CONTINUOUS
 70
0
 71
3
 72
15
 73
11
 74
0
 42
0.0000001
 43
0.0000001
 44
0.0000000001
 40
0.0
 40
0.0
 40
0.0
 40
0.0
 40
0.1221807665
 40
0.2467876158
 40
0.372970329
 40
0.5000000017
 40
0.6270296744
 40
0.7532123864
 40
0.8778192341
 40
1.0
 40
1.0
 40
1.0
 40
1.0
 10
10.8863787061
 20
8.703640712
 30
0.0
 10
10.883614008
 20
8.7102673017
 30
0.0
 10
10.8787307745
 20
8.7239551251
 30
0.0
 10
10.8734571728
 20
8.7452645007
 30
0.0
 10
10.8702552626
 20
8.7672717432
 30
0.0
 10
10.8691840116
 20
8.7896260502
 30
0.0
 10
10.8702552627
 20
8.8119803571
 30
0.0
 10
10.8734571729
 20
8.8339875994
 30
0.0
 10
10.8787307746
 20
8.8552969748
 30
0.0
 10
10.883614008
 20
8.8689847981
 30
0.0
 10
10.8863787061
 20
8.8756113878
 30
0.0
  0
SPLINE
  5
272
100
AcDbEntity
  8
0
100
AcDbSpline
 62
7
  6
CONTINUOUS
 70
0
 71
3
 72
11
 73
7
 74
0
 42
0.0000001
 43
0.0000001
 44
0.0000000001
 40
0.0
 40
0.0
 40
0.0
 40
0.0
 40
0.2473811698
 40
0.5000000017
 40
0.7526188324
 40
1.0
 40
1.0
 40
1.0
 40
1.0
 10
10.8620925971
 20
8.703640712
 30
0.0
 10
10.8561852299
 20
8.716952611
 30
0.0
 10
10.8471800753
 20
8.7452501555
 30
0.0
 10
10.8426705988
 20
8.7896260501
 30
0.0
 10
10.8471800754
 20
8.8340019445
 30
0.0
 10
10.85618523
 20
8.8622994888
 30
0.0
 10
10.8620925971
 20
8.8756113878
 30
0.0
  0
SPLINE
  5
273
100
AcDbEntity
  8
0
100
AcDbSpline
 62
7
  6
CONTINUOUS
 70
0
 71
3
 72
11
 73
7
 74
0
 42
0.0000001
 43
0.0000001
 44
0.0000000001
 40
0.0
 40
0.0
 40
0.0
 40
0.0
 40
0.2479487672
 40
0.5000000017
 40
0.752051235
 40
1.0
 40
1.0
 40
1.0
 40
1.0
 10
10.8389484663
 20
8.703640712
 30
0.0
 10
10.8327480848
 20
8.7169012041
 30
0.0
 10
10.8232522099
 20
8.7451505899
 30
0.0
 10
10.8184792805
 20
8.7896260501
 30
0.0
 10
10.82325221
 20
8.8341015101
 30
0.0
 10
10.8327480848
 20
8.8623508958
 30
0.0
 10
10.8389484663
 20
8.8756113878
 30
0.0
  0
SPLINE
  5
274
100
AcDbEntity
  8
0
100
AcDbSpline
 62
7
  6
CONTINUOUS
 70
0
 71
3
 72
17
 73
13
 74
0
 42
0.0000001
 43
0.0000001
 44
0.0000000001
 40
0.0
 40
0.0
 40
0.0
 40
0.0
 40
0.1236218195
 40
0.1859466332
 40
0.2484961093
 40
0.3740427292
 40
0.5000000017
 40
0.6259572741
 40
0.7515038929
 40
0.8140533681
 40
0.8763781811
 40
1.0
 40
1.0
 40
1.0
 40
1.0
 10
10.8170890051
 20
8.703640712
 30
0.0
 10
10.8138716239
 20
8.7102267234
 30
0.0
 10
10.8096038343
 20
8.7204268689
 30
0.0
 10
10.8050894422
 20
8.7344581005
 30
0.0
 10
10.8013538379
 20
8.7488361818
 30
0.0
 10
10.7982128568
 20
8.7672341343
 30
0.0
 10
10.7969548766
 20
8.7896260502
 30
0.0
 10
10.7982128569
 20
8.812017966
 30
0.0
 10
10.801353838
 20
8.8304159184
 30
0.0
 10
10.8050894423
 20
8.8447939995
 30
0.0
 10
10.8096038343
 20
8.858825231
 30
0.0
 10
10.8138716239
 20
8.8690253764
 30
0.0
 10
10.8170890051
 20
8.8756113878
 30
0.0
  0
SPLINE
  5
275
100
AcDbEntity
  8
0
100
AcDbSpline
 62
7
  6
CONTINUOUS
 70
0
 71
3
 72
17
 73
13
 74
0
 42
0.0000001
 43
0.0000001
 44
0.0000000001
 40
0.0
 40
0.0
 40
0.0
 40
0.0
 40
0.1240117815
 40
0.1864047167
 40
0.2489515758
 40
0.37432985
 40
0.5000000017
 40
0.6256701533
 40
0.7510484263
 40
0.8135952847
 40
0.8759882191
 40
1.0
 40
1.0
 40
1.0
 40
1.0
 10
10.7966489844
 20
8.703640712
 30
0.0
 10
10.7933188881
 20
8.7102162135
 30
0.0
 10
10.7888950728
 20
8.7204102127
 30
0.0
 10
10.7842110108
 20
8.7344520413
 30
0.0
 10
10.7803391819
 20
8.7488251337
 30
0.0
 10
10.7770812581
 20
8.7672236472
 30
0.0
 10
10.7757759191
 20
8.7896260502
 30
0.0
 10
10.7770812582
 20
8.8120284531
 30
0.0
 10
10.780339182
 20
8.8304269665
 30
0.0
 10
10.7842110109
 20
8.8448000587
 30
0.0
 10
10.7888950729
 20
8.8588418871
 30
0.0
 10
10.7933188882
 20
8.8690358863
 30
0.0
 10
10.7966489844
 20
8.8756113878
 30
0.0
  0
SPLINE
  5
276
100
AcDbEntity
  8
0
100
AcDbSpline
 62
7
  6
CONTINUOUS
 70
0
 71
3
 72
17
 73
13
 74
0
 42
0.0000001
 43
0.0000001
 44
0.0000000001
 40
0.0
 40
0.0
 40
0.0
 40
0.0
 40
0.1249074924
 40
0.1874580988
 40
0.249999966
 40
0.3749916666
 40
0.5000000017
 40
0.6250083366
 40
0.7500000361
 40
0.8125419025
 40
0.8750925082
 40
1.0
 40
1.0
 40
1.0
 40
1.0
 10
10.7314565255
 20
8.703640712
 30
0.0
 10
10.7278785395
 20
8.7101926827
 30
0.0
 10
10.7231099404
 20
8.7203722734
 30
0.0
 10
10.7180491962
 20
8.7344381327
 30
0.0
 10
10.7138763148
 20
8.7487995699
 30
0.0
 10
10.7103590665
 20
8.7671991372
 30
0.0
 10
10.7089484657
 20
8.7896260502
 30
0.0
 10
10.7103590666
 20
8.812052963
 30
0.0
 10
10.7138763149
 20
8.8304525302
 30
0.0
 10
10.7180491963
 20
8.8448139672
 30
0.0
 10
10.7231099404
 20
8.8588798265
 30
0.0
 10
10.7278785395
 20
8.8690594171
 30
0.0
 10
10.7314565255
 20
8.8756113878
 30
0.0
  0
SPLINE
  5
277
100
AcDbEntity
  8
0
100
AcDbSpline
 62
7
  6
CONTINUOUS
 70
0
 71
3
 72
15
 73
11
 74
0
 42
0.0000001
 43
0.0000001
 44
0.0000000001
 40
0.0
 40
0.0
 40
0.0
 40
0.0
 40
0.1186768604
 40
0.242765802
 40
0.3704511664
 40
0.5000000018
 40
0.629548837
 40
0.7572342002
 40
0.8813231402
 40
1.0
 40
1.0
 40
1.0
 40
1.0
 10
11.0751320877
 20
8.703640712
 30
0.0
 10
11.0739848565
 20
8.7103757832
 30
0.0
 10
11.0719791292
 20
8.7242127738
 30
0.0
 10
11.0698435448
 20
8.7454379412
 30
0.0
 10
11.068546724
 20
8.7673579885
 30
0.0
 10
11.0681126874
 20
8.7896260502
 30
0.0
 10
11.068546724
 20
8.8118941118
 30
0.0
 10
11.0698435448
 20
8.8338141589
 30
0.0
 10
11.0719791292
 20
8.8550393261
 30
0.0
 10
11.0739848565
 20
8.8688763165
 30
0.0
 10
11.0751320877
 20
8.8756113878
 30
0.0
  0
SPLINE
  5
278
100
AcDbEntity
  8
0
100
AcDbSpline
 62
7
  6
CONTINUOUS
 70
0
 71
3
 72
17
 73
13
 74
0
 42
0.0000001
 43
0.0000001
 44
0.0000000001
 40
0.0
 40
0.0
 40
0.0
 40
0.0
 40
0.1249445037
 40
0.1875016612
 40
0.2500433528
 40
0.3750190832
 40
0.5000000017
 40
0.62498092
 40
0.7499566494
 40
0.8124983401
 40
0.8750554969
 40
1.0
 40
1.0
 40
1.0
 40
1.0
 10
10.719803044
 20
8.703640712
 30
0.0
 10
10.7162151085
 20
8.7101917282
 30
0.0
 10
10.7114326249
 20
8.7203707153
 30
0.0
 10
10.70635666
 20
8.7344375583
 30
0.0
 10
10.702171654
 20
8.748798508
 30
0.0
 10
10.6986439355
 20
8.7671981117
 30
0.0
 10
10.6972290772
 20
8.7896260502
 30
0.0
 10
10.6986439356
 20
8.8120539886
 30
0.0
 10
10.7021716541
 20
8.8304535921
 30
0.0
 10
10.70635666
 20
8.8448145417
 30
0.0
 10
10.7114326249
 20
8.8588813846
 30
0.0
 10
10.7162151085
 20
8.8690603716
 30
0.0
 10
10.719803044
 20
8.8756113878
 30
0.0
  0
SPLINE
  5
279
100
AcDbEntity
  8
0
100
AcDbSpline
 62
7
  6
CONTINUOUS
 70
0
 71
3
 72
15
 73
11
 74
0
 42
0.0000001
 43
0.0000001
 44
0.0000000001
 40
0.0
 40
0.0
 40
0.0
 40
0.0
 40
0.119064821
 40
0.243208695
 40
0.3707277279
 40
0.5
 40
0.6292722721
 40
0.756791305
 40
0.880935179
 40
1.0
 40
1.0
 40
1.0
 40
1.0
 10
11.0473183383
 20
8.703640712
 30
0.0
 10
11.0487343949
 20
8.7103629612
 30
0.0
 10
11.0512133318
 20
8.7241838361
 30
0.0
 10
11.0538568305
 20
8.7454191119
 30
0.0
 10
11.055461987
 20
8.7673488299
 30
0.0
 10
11.0559991852
 20
8.7896260499
 30
0.0
 10
11.055461987
 20
8.8119032698
 30
0.0
 10
11.0538568305
 20
8.8338329879
 30
0.0
 10
11.0512133318
 20
8.8550682636
 30
0.0
 10
11.0487343949
 20
8.8688891385
 30
0.0
 10
11.0473183383
 20
8.8756113878
 30
0.0
  0
SPLINE
  5
27A
100
AcDbEntity
  8
0
100
AcDbSpline
 62
7
  6
CONTINUOUS
 70
0
 71
3
 72
17
 73
13
 74
0
 42
0.0000001
 43
0.0000001
 44
0.0000000001
 40
0.0
 40
0.0
 40
0.0
 40
0.0
 40
0.1249033286
 40
0.1874531982
 40
0.2499950854
 40
0.3749885826
 40
0.5000000017
 40
0.6250114207
 40
0.7500049168
 40
0.8125468031
 40
0.875096672
 40
1.0
 40
1.0
 40
1.0
 40
1.0
 10
10.7101688033
 20
8.703640712
 30
0.0
 10
10.706591938
 20
8.7101927902
 30
0.0
 10
10.7018249025
 20
8.7203724487
 30
0.0
 10
10.6967658722
 20
8.7344381974
 30
0.0
 10
10.6925943563
 20
8.7487996893
 30
0.0
 10
10.6890782871
 20
8.7671992526
 30
0.0
 10
10.6876681656
 20
8.7896260502
 30
0.0
 10
10.6890782871
 20
8.8120528477
 30
0.0
 10
10.6925943564
 20
8.8304524108
 30
0.0
 10
10.6967658723
 20
8.8448139026
 30
0.0
 10
10.7018249025
 20
8.8588796512
 30
0.0
 10
10.706591938
 20
8.8690593096
 30
0.0
 10
10.7101688033
 20
8.8756113878
 30
0.0
  0
SPLINE
  5
27B
100
AcDbEntity
  8
0
100
AcDbSpline
 62
7
  6
CONTINUOUS
 70
0
 71
3
 72
15
 73
11
 74
0
 42
0.0000001
 43
0.0000001
 44
0.0000000001
 40
0.0
 40
0.0
 40
0.0
 40
0.0
 40
0.119064821
 40
0.243208695
 40
0.3707277279
 40
0.5
 40
0.6292722721
 40
0.756791305
 40
0.880935179
 40
1.0
 40
1.0
 40
1.0
 40
1.0
 10
11.0473183383
 20
8.8756113878
 30
0.0
 10
11.0459022816
 20
8.8688891385
 30
0.0
 10
11.0434233447
 20
8.8550682636
 30
0.0
 10
11.0407798461
 20
8.8338329879
 30
0.0
 10
11.0391746895
 20
8.8119032698
 30
0.0
 10
11.0386374913
 20
8.7896260499
 30
0.0
 10
11.0391746895
 20
8.7673488299
 30
0.0
 10
11.0407798461
 20
8.7454191119
 30
0.0
 10
11.0434233447
 20
8.7241838361
 30
0.0
 10
11.0459022816
 20
8.7103629612
 30
0.0
 10
11.0473183383
 20
8.703640712
 30
0.0
  0
SPLINE
  5
27C
100
AcDbEntity
  8
0
100
AcDbSpline
 62
7
  6
CONTINUOUS
 70
0
 71
3
 72
15
 73
11
 74
0
 42
0.0000001
 43
0.0000001
 44
0.0000000001
 40
0.0
 40
0.0
 40
0.0
 40
0.0
 40
0.1186768599
 40
0.2427658003
 40
0.3704511639
 40
0.4999999992
 40
0.6295488345
 40
0.7572341985
 40
0.8813231397
 40
1.0
 40
1.0
 40
1.0
 40
1.0
 10
11.0195045888
 20
8.8756113878
 30
0.0
 10
11.02065182
 20
8.8688763165
 30
0.0
 10
11.0226575474
 20
8.855039326
 30
0.0
 10
11.0247931317
 20
8.8338141588
 30
0.0
 10
11.0260899525
 20
8.8118941117
 30
0.0
 10
11.0265239891
 20
8.78962605
 30
0.0
 10
11.0260899525
 20
8.7673579883
 30
0.0
 10
11.0247931317
 20
8.7454379412
 30
0.0
 10
11.0226575474
 20
8.7242127738
 30
0.0
 10
11.02065182
 20
8.7103757832
 30
0.0
 10
11.0195045888
 20
8.703640712
 30
0.0
  0
SPLINE
  5
27D
100
AcDbEntity
  8
0
100
AcDbSpline
 62
7
  6
CONTINUOUS
 70
0
 71
3
 72
15
 73
11
 74
0
 42
0.0000001
 43
0.0000001
 44
0.0000000001
 40
0.0
 40
0.0
 40
0.0
 40
0.0
 40
0.1195131461
 40
0.2437212087
 40
0.3710479693
 40
0.5000000018
 40
0.6289520341
 40
0.7562787935
 40
0.8804868545
 40
1.0
 40
1.0
 40
1.0
 40
1.0
 10
11.0195045888
 20
8.703640712
 30
0.0
 10
11.0178298863
 20
8.7103484092
 30
0.0
 10
11.0148939263
 20
8.724150515
 30
0.0
 10
11.0117574518
 20
8.7453972306
 30
0.0
 10
11.0098530581
 20
8.7673381219
 30
0.0
 10
11.0092157622
 20
8.7896260502
 30
0.0
 10
11.0098530581
 20
8.8119139784
 30
0.0
 10
11.0117574518
 20
8.8338548695
 30
0.0
 10
11.0148939263
 20
8.8551015849
 30
0.0
 10
11.0178298863
 20
8.8689036905
 30
0.0
 10
11.0195045888
 20
8.8756113878
 30
0.0
  0
SPLINE
  5
27E
100
AcDbEntity
  8
0
100
AcDbSpline
 62
7
  6
CONTINUOUS
 70
0
 71
3
 72
15
 73
11
 74
0
 42
0.0000001
 43
0.0000001
 44
0.0000000001
 40
0.0
 40
0.0
 40
0.0
 40
0.0
 40
0.1183610199
 40
0.2424057035
 40
0.3702264881
 40
0.4999999992
 40
0.6297735102
 40
0.7575942953
 40
0.8816389796
 40
1.0
 40
1.0
 40
1.0
 40
1.0
 10
10.9918623204
 20
8.8756113878
 30
0.0
 10
10.9927323191
 20
8.8688657176
 30
0.0
 10
10.9942516977
 20
8.8550156973
 30
0.0
 10
10.9958674303
 20
8.833798895
 30
0.0
 10
10.9968486267
 20
8.8118867216
 30
0.0
 10
10.9971770467
 20
8.78962605
 30
0.0
 10
10.9968486267
 20
8.7673653784
 30
0.0
 10
10.9958674303
 20
8.7454532049
 30
0.0
 10
10.9942516977
 20
8.7242364026
 30
0.0
 10
10.9927323191
 20
8.7103863822
 30
0.0
 10
10.9918623204
 20
8.703640712
 30
0.0
  0
SPLINE
  5
27F
100
AcDbEntity
  8
0
100
AcDbSpline
 62
7
  6
CONTINUOUS
 70
0
 71
3
 72
15
 73
11
 74
0
 42
0.0000001
 43
0.0000001
 44
0.0000000001
 40
0.0
 40
0.0
 40
0.0
 40
0.0
 40
0.1200086809
 40
0.2442886551
 40
0.3714029097
 40
0.5000000018
 40
0.6285970937
 40
0.7557113471
 40
0.8799913197
 40
1.0
 40
1.0
 40
1.0
 40
1.0
 10
10.9918623204
 20
8.703640712
 30
0.0
 10
10.989940758
 20
8.7103326463
 30
0.0
 10
10.98656686
 20
8.7241138411
 30
0.0
 10
10.9829553499
 20
8.7453729053
 30
0.0
 10
10.9807626221
 20
8.7673261421
 30
0.0
 10
10.9800288875
 20
8.7896260502
 30
0.0
 10
10.9807626222
 20
8.8119259582
 30
0.0
 10
10.98295535
 20
8.8338791948
 30
0.0
 10
10.98656686
 20
8.8551382588
 30
0.0
 10
10.989940758
 20
8.8689194535
 30
0.0
 10
10.9918623204
 20
8.8756113878
 30
0.0
  0
SPLINE
  5
280
100
AcDbEntity
  8
0
100
AcDbSpline
 62
7
  6
CONTINUOUS
 70
0
 71
3
 72
15
 73
11
 74
0
 42
0.0000001
 43
0.0000001
 44
0.0000000001
 40
0.0
 40
0.0
 40
0.0
 40
0.0
 40
0.1195131456
 40
0.243721207
 40
0.3710479668
 40
0.4999999992
 40
0.6289520316
 40
0.7562787918
 40
0.880486854
 40
1.0
 40
1.0
 40
1.0
 40
1.0
 10
11.0751320877
 20
8.8756113878
 30
0.0
 10
11.0768067902
 20
8.8689036905
 30
0.0
 10
11.0797427503
 20
8.8551015849
 30
0.0
 10
11.0828792247
 20
8.8338548694
 30
0.0
 10
11.0847836185
 20
8.8119139783
 30
0.0
 10
11.0854209143
 20
8.78962605
 30
0.0
 10
11.0847836185
 20
8.7673381217
 30
0.0
 10
11.0828792248
 20
8.7453972305
 30
0.0
 10
11.0797427503
 20
8.7241505149
 30
0.0
 10
11.0768067902
 20
8.7103484092
 30
0.0
 10
11.0751320877
 20
8.703640712
 30
0.0
  0
SPLINE
  5
281
100
AcDbEntity
  8
0
100
AcDbSpline
 62
7
  6
CONTINUOUS
 70
0
 71
3
 72
15
 73
11
 74
0
 42
0.0000001
 43
0.0000001
 44
0.0000000001
 40
0.0
 40
0.0
 40
0.0
 40
0.0
 40
0.1183610205
 40
0.2424057052
 40
0.3702264907
 40
0.5000000018
 40
0.6297735127
 40
0.757594297
 40
0.8816389802
 40
1.0
 40
1.0
 40
1.0
 40
1.0
 10
11.1027743561
 20
8.703640712
 30
0.0
 10
11.1019043575
 20
8.7103863822
 30
0.0
 10
11.1003849789
 20
8.7242364026
 30
0.0
 10
11.0987692463
 20
8.745453205
 30
0.0
 10
11.0977880498
 20
8.7673653785
 30
0.0
 10
11.0974596299
 20
8.7896260502
 30
0.0
 10
11.0977880498
 20
8.8118867218
 30
0.0
 10
11.0987692463
 20
8.8337988951
 30
0.0
 10
11.1003849789
 20
8.8550156973
 30
0.0
 10
11.1019043575
 20
8.8688657176
 30
0.0
 10
11.1027743561
 20
8.8756113878
 30
0.0
  0
SPLINE
  5
282
100
AcDbEntity
  8
0
100
AcDbSpline
 62
7
  6
CONTINUOUS
 70
0
 71
3
 72
15
 73
11
 74
0
 42
0.0000001
 43
0.0000001
 44
0.0000000001
 40
0.0
 40
0.0
 40
0.0
 40
0.0
 40
0.1200086804
 40
0.2442886533
 40
0.3714029072
 40
0.4999999992
 40
0.6285970912
 40
0.7557113454
 40
0.8799913192
 40
1.0
 40
1.0
 40
1.0
 40
1.0
 10
11.1027743561
 20
8.8756113878
 30
0.0
 10
11.1046959186
 20
8.8689194535
 30
0.0
 10
11.1080698166
 20
8.8551382588
 30
0.0
 10
11.1116813266
 20
8.8338791947
 30
0.0
 10
11.1138740544
 20
8.8119259581
 30
0.0
 10
11.1146077891
 20
8.78962605
 30
0.0
 10
11.1138740544
 20
8.7673261419
 30
0.0
 10
11.1116813266
 20
8.7453729052
 30
0.0
 10
11.1080698166
 20
8.7241138411
 30
0.0
 10
11.1046959186
 20
8.7103326463
 30
0.0
 10
11.1027743561
 20
8.703640712
 30
0.0
  0
SPLINE
  5
283
100
AcDbEntity
  8
0
100
AcDbSpline
 62
7
  6
CONTINUOUS
 70
0
 71
3
 72
15
 73
11
 74
0
 42
0.0000001
 43
0.0000001
 44
0.0000000001
 40
0.0
 40
0.0
 40
0.0
 40
0.0
 40
0.1181271433
 40
0.2421393145
 40
0.370060373
 40
0.5000000018
 40
0.6299396304
 40
0.7578606877
 40
0.8818728573
 40
1.0
 40
1.0
 40
1.0
 40
1.0
 10
11.1300747198
 20
8.703640712
 30
0.0
 10
11.1294884333
 20
8.7103943254
 30
0.0
 10
11.1284653805
 20
8.724253939
 30
0.0
 10
11.1273784478
 20
8.7454644685
 30
0.0
 10
11.1267183504
 20
8.7673708113
 30
0.0
 10
11.1264973958
 20
8.7896260502
 30
0.0
 10
11.1267183504
 20
8.8118812889
 30
0.0
 10
11.1273784478
 20
8.8337876316
 30
0.0
 10
11.1284653805
 20
8.8549981609
 30
0.0
 10
11.1294884333
 20
8.8688577744
 30
0.0
 10
11.1300747198
 20
8.8756113878
 30
0.0
  0
SPLINE
  5
284
100
AcDbEntity
  8
0
100
AcDbSpline
 62
7
  6
CONTINUOUS
 70
0
 71
3
 72
15
 73
11
 74
0
 42
0.0000001
 43
0.0000001
 44
0.0000000001
 40
0.0
 40
0.0
 40
0.0
 40
0.0
 40
0.1205374296
 40
0.244895224
 40
0.3717827182
 40
0.4999999992
 40
0.6282172802
 40
0.7551047748
 40
0.87946257
 40
1.0
 40
1.0
 40
1.0
 40
1.0
 10
11.1300747198
 20
8.8756113878
 30
0.0
 10
11.1322299171
 20
8.8689359112
 30
0.0
 10
11.1360199396
 20
8.8551772058
 30
0.0
 10
11.1400855658
 20
8.8339053168
 30
0.0
 10
11.1425539406
 20
8.8119389146
 30
0.0
 10
11.1433798623
 20
8.78962605
 30
0.0
 10
11.1425539407
 20
8.7673131854
 30
0.0
 10
11.1400855659
 20
8.7453467831
 30
0.0
 10
11.1360199396
 20
8.724074894
 30
0.0
 10
11.1322299171
 20
8.7103161885
 30
0.0
 10
11.1300747198
 20
8.703640712
 30
0.0
  0
SPLINE
  5
285
100
AcDbEntity
  8
0
100
AcDbSpline
 62
7
  6
CONTINUOUS
 70
0
 71
3
 72
13
 73
9
 74
0
 42
0.0000001
 43
0.0000001
 44
0.0000000001
 40
0.0
 40
0.0
 40
0.0
 40
0.0
 40
0.1179834857
 40
0.2419765374
 40
0.5000000018
 40
0.7580234648
 40
0.8820165149
 40
1.0
 40
1.0
 40
1.0
 40
1.0
 10
11.1568648628
 20
8.703640712
 30
0.0
 10
11.1565667094
 20
8.7103992729
 30
0.0
 10
11.1560466402
 20
8.7242647956
 30
0.0
 10
11.1553008554
 20
8.7529254102
 30
0.0
 10
11.1549385101
 20
8.7896260501
 30
0.0
 10
11.1553008555
 20
8.8263266899
 30
0.0
 10
11.1560466402
 20
8.8549873043
 30
0.0
 10
11.1565667094
 20
8.8688528269
 30
0.0
 10
11.1568648628
 20
8.8756113878
 30
0.0
  0
SPLINE
  5
286
100
AcDbEntity
  8
0
100
AcDbSpline
 62
7
  6
CONTINUOUS
 70
0
 71
3
 72
15
 73
11
 74
0
 42
0.0000001
 43
0.0000001
 44
0.0000000001
 40
0.0
 40
0.0
 40
0.0
 40
0.0
 40
0.1210850671
 40
0.2455246494
 40
0.3721772771
 40
0.4999999992
 40
0.6278227213
 40
0.7544753494
 40
0.8789149325
 40
1.0
 40
1.0
 40
1.0
 40
1.0
 10
11.1568648628
 20
8.8756113878
 30
0.0
 10
11.1592391915
 20
8.8689525752
 30
0.0
 10
11.1634209911
 20
8.855217337
 30
0.0
 10
11.1679168841
 20
8.8339325531
 30
0.0
 10
11.1706464655
 20
8.8119525257
 30
0.0
 10
11.1715597422
 20
8.78962605
 30
0.0
 10
11.1706464656
 20
8.7672995743
 30
0.0
 10
11.1679168841
 20
8.7453195468
 30
0.0
 10
11.1634209911
 20
8.7240347629
 30
0.0
 10
11.1592391915
 20
8.7102995245
 30
0.0
 10
11.1568648628
 20
8.703640712
 30
0.0
  0
SPLINE
  5
287
100
AcDbEntity
  8
0
100
AcDbSpline
 62
7
  6
CONTINUOUS
 70
0
 71
3
 72
15
 73
11
 74
0
 42
0.0000001
 43
0.0000001
 44
0.0000000001
 40
0.0
 40
0.0
 40
0.0
 40
0.0
 40
0.1216374008
 40
0.246160696
 40
0.3725764413
 40
0.4999999992
 40
0.6274235571
 40
0.7538393028
 40
0.8783625988
 40
1.0
 40
1.0
 40
1.0
 40
1.0
 10
11.1829796151
 20
8.8756113878
 30
0.0
 10
11.185557442
 20
8.8689690009
 30
0.0
 10
11.1901043469
 20
8.8552575929
 30
0.0
 10
11.195003809
 20
8.8339602095
 30
0.0
 10
11.19797845
 20
8.8119664545
 30
0.0
 10
11.1989736847
 20
8.78962605
 30
0.0
 10
11.19797845
 20
8.7672856455
 30
0.0
 10
11.195003809
 20
8.7452918905
 30
0.0
 10
11.1901043469
 20
8.723994507
 30
0.0
 10
11.185557442
 20
8.7102830988
 30
0.0
 10
11.1829796151
 20
8.703640712
 30
0.0
  0
SPLINE
  5
288
100
AcDbEntity
  8
0
100
AcDbSpline
 62
7
  6
CONTINUOUS
 70
0
 71
3
 72
15
 73
11
 74
0
 42
0.0000001
 43
0.0000001
 44
0.0000000001
 40
0.0
 40
0.0
 40
0.0
 40
0.0
 40
0.122180766
 40
0.2467876141
 40
0.3729703265
 40
0.4999999992
 40
0.6270296719
 40
0.7532123847
 40
0.8778192336
 40
1.0
 40
1.0
 40
1.0
 40
1.0
 10
11.2082579704
 20
8.8756113878
 30
0.0
 10
11.2110226686
 20
8.868984798
 30
0.0
 10
11.215905902
 20
8.8552969747
 30
0.0
 10
11.2211795037
 20
8.8339875993
 30
0.0
 10
11.2243814139
 20
8.811980357
 30
0.0
 10
11.225452665
 20
8.78962605
 30
0.0
 10
11.2243814139
 20
8.767271743
 30
0.0
 10
11.2211795037
 20
8.7452645007
 30
0.0
 10
11.215905902
 20
8.7239551251
 30
0.0
 10
11.2110226686
 20
8.7102673017
 30
0.0
 10
11.2082579704
 20
8.703640712
 30
0.0
  0
SPLINE
  5
289
100
AcDbEntity
  8
0
100
AcDbSpline
 62
7
  6
CONTINUOUS
 70
0
 71
3
 72
11
 73
7
 74
0
 42
0.0000001
 43
0.0000001
 44
0.0000000001
 40
0.0
 40
0.0
 40
0.0
 40
0.0
 40
0.2473811681
 40
0.4999999992
 40
0.7526188307
 40
1.0
 40
1.0
 40
1.0
 40
1.0
 10
11.2325440795
 20
8.8756113878
 30
0.0
 10
11.2384514466
 20
8.8622994888
 30
0.0
 10
11.2474566012
 20
8.8340019445
 30
0.0
 10
11.2519660777
 20
8.78962605
 30
0.0
 10
11.2474566013
 20
8.7452501554
 30
0.0
 10
11.2384514466
 20
8.716952611
 30
0.0
 10
11.2325440795
 20
8.703640712
 30
0.0
  0
SPLINE
  5
28A
100
AcDbEntity
  8
0
100
AcDbSpline
 62
7
  6
CONTINUOUS
 70
0
 71
3
 72
11
 73
7
 74
0
 42
0.0000001
 43
0.0000001
 44
0.0000000001
 40
0.0
 40
0.0
 40
0.0
 40
0.0
 40
0.2479487655
 40
0.4999999992
 40
0.7520512332
 40
1.0
 40
1.0
 40
1.0
 40
1.0
 10
11.2556882102
 20
8.8756113878
 30
0.0
 10
11.2618885918
 20
8.8623508958
 30
0.0
 10
11.2713844666
 20
8.83410151
 30
0.0
 10
11.2761573961
 20
8.78962605
 30
0.0
 10
11.2713844666
 20
8.7451505899
 30
0.0
 10
11.2618885918
 20
8.716901204
 30
0.0
 10
11.2556882102
 20
8.703640712
 30
0.0
  0
SPLINE
  5
28B
100
AcDbEntity
  8
0
100
AcDbSpline
 62
7
  6
CONTINUOUS
 70
0
 71
3
 72
17
 73
13
 74
0
 42
0.0000001
 43
0.0000001
 44
0.0000000001
 40
0.0
 40
0.0
 40
0.0
 40
0.0
 40
0.123621819
 40
0.1859466321
 40
0.2484961076
 40
0.3740427267
 40
0.4999999992
 40
0.6259572717
 40
0.7515038912
 40
0.8140533671
 40
0.8763781806
 40
1.0
 40
1.0
 40
1.0
 40
1.0
 10
11.2775476714
 20
8.8756113878
 30
0.0
 10
11.2807650527
 20
8.8690253764
 30
0.0
 10
11.2850328423
 20
8.8588252309
 30
0.0
 10
11.2895472343
 20
8.8447939995
 30
0.0
 10
11.2932828386
 20
8.8304159183
 30
0.0
 10
11.2964238197
 20
8.8120179659
 30
0.0
 10
11.2976817999
 20
8.78962605
 30
0.0
 10
11.2964238197
 20
8.7672341342
 30
0.0
 10
11.2932828387
 20
8.7488361817
 30
0.0
 10
11.2895472343
 20
8.7344581004
 30
0.0
 10
11.2850328423
 20
8.7204268689
 30
0.0
 10
11.2807650527
 20
8.7102267234
 30
0.0
 10
11.2775476714
 20
8.703640712
 30
0.0
  0
SPLINE
  5
28C
100
AcDbEntity
  8
0
100
AcDbSpline
 62
7
  6
CONTINUOUS
 70
0
 71
3
 72
17
 73
13
 74
0
 42
0.0000001
 43
0.0000001
 44
0.0000000001
 40
0.0
 40
0.0
 40
0.0
 40
0.0
 40
0.124011781
 40
0.1864047156
 40
0.2489515741
 40
0.3743298476
 40
0.4999999992
 40
0.6256701509
 40
0.7510484246
 40
0.8135952836
 40
0.8759882186
 40
1.0
 40
1.0
 40
1.0
 40
1.0
 10
11.2979876922
 20
8.8756113878
 30
0.0
 10
11.3013177884
 20
8.8690358863
 30
0.0
 10
11.3057416037
 20
8.8588418871
 30
0.0
 10
11.3104256657
 20
8.8448000587
 30
0.0
 10
11.3142974946
 20
8.8304269664
 30
0.0
 10
11.3175554184
 20
8.812028453
 30
0.0
 10
11.3188607575
 20
8.78962605
 30
0.0
 10
11.3175554184
 20
8.767223647
 30
0.0
 10
11.3142974946
 20
8.7488251336
 30
0.0
 10
11.3104256657
 20
8.7344520412
 30
0.0
 10
11.3057416037
 20
8.7204102127
 30
0.0
 10
11.3013177884
 20
8.7102162135
 30
0.0
 10
11.2979876922
 20
8.703640712
 30
0.0
  0
SPLINE
  5
28D
100
AcDbEntity
  8
0
100
AcDbSpline
 62
7
  6
CONTINUOUS
 70
0
 71
3
 72
17
 73
13
 74
0
 42
0.0000001
 43
0.0000001
 44
0.0000000001
 40
0.0
 40
0.0
 40
0.0
 40
0.0
 40
0.1249074919
 40
0.1874580977
 40
0.2499999643
 40
0.3749916642
 40
0.4999999992
 40
0.6250083342
 40
0.7500000344
 40
0.8125419014
 40
0.8750925077
 40
1.0
 40
1.0
 40
1.0
 40
1.0
 10
11.3631801511
 20
8.8756113878
 30
0.0
 10
11.366758137
 20
8.8690594171
 30
0.0
 10
11.3715267362
 20
8.8588798265
 30
0.0
 10
11.3765874803
 20
8.8448139672
 30
0.0
 10
11.3807603617
 20
8.8304525302
 30
0.0
 10
11.38427761
 20
8.8120529629
 30
0.0
 10
11.3856882109
 20
8.78962605
 30
0.0
 10
11.38427761
 20
8.7671991371
 30
0.0
 10
11.3807603617
 20
8.7487995698
 30
0.0
 10
11.3765874804
 20
8.7344381327
 30
0.0
 10
11.3715267362
 20
8.7203722733
 30
0.0
 10
11.366758137
 20
8.7101926827
 30
0.0
 10
11.3631801511
 20
8.703640712
 30
0.0
  0
SPLINE
  5
28E
100
AcDbEntity
  8
0
100
AcDbSpline
 62
7
  6
CONTINUOUS
 70
0
 71
3
 72
17
 73
13
 74
0
 42
0.0000001
 43
0.0000001
 44
0.0000000001
 40
0.0
 40
0.0
 40
0.0
 40
0.0
 40
0.1249445032
 40
0.1875016601
 40
0.2500433511
 40
0.3750190808
 40
0.4999999992
 40
0.6249809176
 40
0.7499566477
 40
0.8124983391
 40
0.8750554964
 40
1.0
 40
1.0
 40
1.0
 40
1.0
 10
11.3748336326
 20
8.8756113878
 30
0.0
 10
11.3784215681
 20
8.8690603715
 30
0.0
 10
11.3832040517
 20
8.8588813846
 30
0.0
 10
11.3882800166
 20
8.8448145416
 30
0.0
 10
11.3924650225
 20
8.8304535921
 30
0.0
 10
11.395992741
 20
8.8120539885
 30
0.0
 10
11.3974075993
 20
8.78962605
 30
0.0
 10
11.395992741
 20
8.7671981115
 30
0.0
 10
11.3924650226
 20
8.7487985079
 30
0.0
 10
11.3882800166
 20
8.7344375583
 30
0.0
 10
11.3832040517
 20
8.7203707152
 30
0.0
 10
11.3784215681
 20
8.7101917282
 30
0.0
 10
11.3748336326
 20
8.703640712
 30
0.0
  0
SPLINE
  5
28F
100
AcDbEntity
  8
0
100
AcDbSpline
 62
7
  6
CONTINUOUS
 70
0
 71
3
 72
17
 73
13
 74
0
 42
0.0000001
 43
0.0000001
 44
0.0000000001
 40
0.0
 40
0.0
 40
0.0
 40
0.0
 40
0.1249033281
 40
0.1874531972
 40
0.2499950837
 40
0.3749885802
 40
0.4999999992
 40
0.6250114182
 40
0.7500049151
 40
0.812546802
 40
0.8750966715
 40
1.0
 40
1.0
 40
1.0
 40
1.0
 10
11.3844678733
 20
8.8756113878
 30
0.0
 10
11.3880447385
 20
8.8690593096
 30
0.0
 10
11.3928117741
 20
8.8588796512
 30
0.0
 10
11.3978708043
 20
8.8448139026
 30
0.0
 10
11.4020423202
 20
8.8304524107
 30
0.0
 10
11.4055583895
 20
8.8120528476
 30
0.0
 10
11.406968511
 20
8.78962605
 30
0.0
 10
11.4055583895
 20
8.7671992524
 30
0.0
 10
11.4020423202
 20
8.7487996892
 30
0.0
 10
11.3978708043
 20
8.7344381973
 30
0.0
 10
11.3928117741
 20
8.7203724487
 30
0.0
 10
11.3880447386
 20
8.7101927901
 30
0.0
 10
11.3844678733
 20
8.703640712
 30
0.0
  0
ELLIPSE
  5
290
100
AcDbEntity
  8
0
100
AcDbEllipse
 62
7
  6
CONTINUOUS
 10
11.0473183383
 20
6.222191712
 30
0.0
 11
0.63
 21
0.0
 31
0.0
 40
0.6246031746
 41
0.0
 42
6.2831853072
  0
ENDSEC
  0
SECTION
  2
OBJECTS
  0
DICTIONARY
  5
C
100
AcDbDictionary
280
0
281
1
  3
ACAD_GROUP
350
D
  3
ACAD_MLINESTYLE
350
17
  3
ACAD_LAYOUT
350
1A
  3
ACAD_PLOTSETTINGS
350
19
  3
ACAD_PLOTSTYLENAME
350
E
  0
DICTIONARY
  5
D
102
{ACAD_REACTORS
330
C
102
}
100
AcDbDictionary
280
0
281
1
  0
ACDBDICTIONARYWDFLT
  5
E
102
{ACAD_REACTORS
330
C
102
}
100
AcDbDictionary
281
1
  3
Normal
350
F
100
AcDbDictionaryWithDefault
340
F
  0
DICTIONARY
  5
17
102
{ACAD_REACTORS
330
C
102
}
100
AcDbDictionary
280
0
281
1
  3
Standard
350
18
  0
DICTIONARY
  5
19
102
{ACAD_REACTORS
330
C
102
}
100
AcDbDictionary
281
1
  0
DICTIONARY
  5
1A
102
{ACAD_REACTORS
330
C
102
}
100
AcDbDictionary
281
1
  3
Model
350
291
  3
Layout1
350
292
  0
ACDBPLACEHOLDER
  5
F
102
{ACAD_REACTORS
330
E
102
}
  0
MLINESTYLE
  5
18
102
{ACAD_REACTORS
330
17
102
}
100
AcDbMlineStyle
  2
STANDARD
 70
0
  3

 62
256
 51
90.0
 52
90.0
 71
2
 49
0.5
 62
256
  6
BYLAYER
 49
-0.5
 62
256
  6
BYLAYER
  0
LAYOUT
  5
291
102
{ACAD_REACTORS
330
1A
102
}
100
AcDbPlotSettings
  1

  2
none_device
  4
ANSI_C_(22.00_x_17.00_Inches)
  6

 40
0.0
 41
0.0
 42
0.0
 43
0.0
 44
558.8
 45
431.8
 46
0.0
 47
0.0
 48
0.0
 49
0.0
140
0.0
141
0.0
142
1.0
143
1.0
 70
1024
 72
0
 73
0
 74
0
  7

 75
0
147
1.0
148
0.0
149
0.0
100
AcDbLayout
  1
Model
 70
0
 71
0
 10
0.0
 20
0.0
 11
22.0
 21
17.0
 12
0.0
 22
0.0
 32
0.0
 14
0.0
 24
0.0
 34
0.0
 15
0.0
 25
0.0
 35
0.0
146
0.0
 13
0.0
 23
0.0
 33
0.0
 16
1.0
 26
0.0
 36
0.0
 17
0.0
 27
1.0
 37
0.0
 76
0
330
205
345
0
346
0
  0
LAYOUT
  5
292
102
{ACAD_REACTORS
330
1A
102
}
100
AcDbPlotSettings
  1

  2
none_device
  4
ANSI_C_(22.00_x_17.00_Inches)
  6

 40
0.0
 41
0.0
 42
0.0
 43
0.0
 44
558.8
 45
431.8
 46
0.0
 47
0.0
 48
0.0
 49
0.0
140
0.0
141
0.0
142
1.0
143
1.0
 70
0
 72
0
 73
0
 74
0
  7

 75
0
147
1.0
148
0.0
149
0.0
100
AcDbLayout
  1
Layout1
 70
0
 71
1
 10
0.0
 20
0.0
 11
22.0
 21
17.0
 12
0.0
 22
0.0
 32
0.0
 14
0.0
 24
0.0
 34
0.0
 15
0.0
 25
0.0
 35
0.0
146
0.0
 13
0.0
 23
0.0
 33
0.0
 16
1.0
 26
0.0
 36
0.0
 17
0.0
 27
1.0
 37
0.0
 76
0
330
206
345
0
346
0
  0
ENDSEC
  0
EOF
