999
DXF file: E:\BT Custom\CADOUTPUT\_TOP.dxf
999
Pro/ENGINEER 2018400 by Parametric Technology Corporation
  0
SECTION
  2
HEADER
  9
$ACADVER
  1
AC1018
  9
$DWGCODEPAGE
  3
ANSI_1252
  9
$EXTMAX
 10
22.0
 20
17.0
 30
0.0
  9
$EXTMIN
 10
0.0
 20
0.0
 30
0.0
  9
$LIMMIN
 10
0.0
 20
0.0
  9
$LIMMAX
 10
22.0
 20
17.0
  9
$VIEWCTR
 10
11.0
 20
8.5
  9
$VIEWSIZE
 40
17.0
  9
$CLAYER
  8
0
  9
$LTSCALE
 40
1.21
  9
$CELTYPE
  6
BYLAYER
  9
$DIMSCALE
 40
1.0
  9
$DIMASZ
 40
0.1
  9
$DIMEXO
 40
0.0625
  9
$DIMDLI
 40
0.836
  9
$DIMEXE
 40
0.125
  9
$DIMCEN
 40
0.198
  9
$DIMLFAC
 40
1.0
  9
$DIMBLK
  1
_FILLED
  9
$DIMALT
 70
1
  9
$DIMALTD
 70
2
  9
$DIMALTTD
 70
2
  9
$DIMALTF
 40
25.4
  9
$DIMTXT
 40
0.08
  9
$DIMTOL
 70
1
  9
$DIMLIM
 70
0
  9
$DIMTFAC
 40
1.0
  9
$DIMTP
 40
0.001
  9
$DIMTM
 40
0.001
  9
$DIMGAP
 40
0.09
  9
$DIMDSEP
 70
46
  9
$AUNITS
 70
0
  9
$PDMODE
 70
3
  9
$PDSIZE
 40
0.06
  9
$HANDSEED
  5
410
  9
$TILEMODE
 70
1
  9
$MEASUREMENT
 70
0
  9
$INSUNITS
 70
1
  0
ENDSEC
  0
SECTION
  2
CLASSES
  0
CLASS
  1
ACDBDICTIONARYWDFLT
  2
AcDbDictionaryWithDefault
  3
AutoCAD 2000
 90
0
 91
1
280
0
281
0
  0
CLASS
  1
ACDBPLACEHOLDER
  2
AcDbPlaceHolder
  3
AutoCAD 2000
 90
0
 91
1
280
0
281
0
  0
CLASS
  1
LAYOUT
  2
AcDbLayout
  3
AutoCAD 2000
 90
0
 91
0
280
0
281
0
  0
ENDSEC
  0
SECTION
  2
TABLES
  0
TABLE
  2
VPORT
  5
8
100
AcDbSymbolTable
 70
2
  0
VPORT
  5
1F4
100
AcDbSymbolTableRecord
100
AcDbViewportTableRecord
  2
*ACTIVE
 70
0
 10
0.0
 20
0.0
 11
1.0
 21
1.0
 12
11.0
 22
8.5
 13
0.0
 23
0.0
 14
1.0
 24
1.0
 15
0.0
 25
0.0
 16
0.0
 26
0.0
 36
1.0
 17
0.0
 27
0.0
 37
0.0
 40
17.0
 41
1.2941176471
 42
50.0
 43
0.0
 44
0.0
 50
0.0
 51
0.0
 71
0
 72
100
 73
1
 74
1
 75
0
 76
0
 77
0
 78
0
  0
ENDTAB
  0
TABLE
  2
LTYPE
  5
5
100
AcDbSymbolTable
 70
6
  0
LTYPE
  5
14
100
AcDbSymbolTableRecord
100
AcDbLinetypeTableRecord
  2
BYBLOCK
 70
0
  3

 72
65
 73
0
 40
0.0
  0
LTYPE
  5
15
100
AcDbSymbolTableRecord
100
AcDbLinetypeTableRecord
  2
BYLAYER
 70
0
  3

 72
65
 73
0
 40
0.0
  0
LTYPE
  5
16
100
AcDbSymbolTableRecord
100
AcDbLinetypeTableRecord
  2
CONTINUOUS
 70
64
  3
Solid line
 72
65
 73
0
 40
0.0
  0
LTYPE
  5
1F5
100
AcDbSymbolTableRecord
100
AcDbLinetypeTableRecord
  2
CENTER
 70
64
  3
____ _ ____ _ ____ _ ____ _ ____ _ ____ _ ____
 72
65
 73
4
 40
0.6
 49
0.375
 74
0
 49
-0.075
 74
0
 49
0.075
 74
0
 49
-0.075
 74
0
  0
LTYPE
  5
1F6
100
AcDbSymbolTableRecord
100
AcDbLinetypeTableRecord
  2
HIDDEN
 70
64
  3
- - - - - - - - - - - - - - - - - - - -
 72
65
 73
2
 40
0.2
 49
0.1
 74
0
 49
-0.1
 74
0
  0
LTYPE
  5
1F7
100
AcDbSymbolTableRecord
100
AcDbLinetypeTableRecord
  2
PHANTOM
 70
64
  3
_____ _ _ _____ _ _ _____ _ _ _____
 72
65
 73
6
 40
0.8
 49
0.45
 74
0
 49
-0.05
 74
0
 49
0.1
 74
0
 49
-0.05
 74
0
 49
0.1
 74
0
 49
-0.05
 74
0
  0
LTYPE
  5
1F8
100
AcDbSymbolTableRecord
100
AcDbLinetypeTableRecord
  2
DOT
 70
64
  3
. . . . . . . . . . . . . . . . . . . .
 72
65
 73
2
 40
0.2
 49
0.1
 74
0
 49
-0.1
 74
0
  0
LTYPE
  5
1F9
100
AcDbSymbolTableRecord
100
AcDbLinetypeTableRecord
  2
DASHED
 70
64
  3
- - - - - - - - - - - - - - - - - - - -
 72
65
 73
2
 40
0.2
 49
0.1
 74
0
 49
-0.1
 74
0
  0
ENDTAB
  0
TABLE
  2
LAYER
  5
2
100
AcDbSymbolTable
 70
36
  0
LAYER
  5
10
100
AcDbSymbolTableRecord
100
AcDbLayerTableRecord
  2
0
 70
0
 62
7
  6
CONTINUOUS
370
-3
390
F
  0
LAYER
  5
1FA
100
AcDbSymbolTableRecord
100
AcDbLayerTableRecord
  2
DEFAULT_1
 70
0
 62
7
  6
CENTER
370
-3
390
F
  0
LAYER
  5
1FB
100
AcDbSymbolTableRecord
100
AcDbLayerTableRecord
  2
DEFAULT_2
 70
0
 62
8
  6
HIDDEN
370
-3
390
F
  0
LAYER
  5
1FC
100
AcDbSymbolTableRecord
100
AcDbLayerTableRecord
  2
DEFAULT_3
 70
0
 62
7
  6
PHANTOM
370
-3
390
F
  0
LAYER
  5
1FD
100
AcDbSymbolTableRecord
100
AcDbLayerTableRecord
  2
ALL_FEATURES
 70
0
 62
7
  6
CONTINUOUS
370
-3
390
F
  0
LAYER
  5
1FE
100
AcDbSymbolTableRecord
100
AcDbLayerTableRecord
  2
AXES_FEATURES
 70
0
 62
7
  6
CONTINUOUS
370
-3
390
F
  0
LAYER
  5
1FF
100
AcDbSymbolTableRecord
100
AcDbLayerTableRecord
  2
DEFAULT_COORDINATE_SYSTEM
 70
0
 62
7
  6
CONTINUOUS
370
-3
390
F
  0
LAYER
  5
200
100
AcDbSymbolTableRecord
100
AcDbLayerTableRecord
  2
DEFAULT_DATUM_AXES
 70
0
 62
7
  6
CONTINUOUS
370
-3
390
F
  0
LAYER
  5
201
100
AcDbSymbolTableRecord
100
AcDbLayerTableRecord
  2
DEFAULT_DATUM_PLANES
 70
0
 62
7
  6
CONTINUOUS
370
-3
390
F
  0
LAYER
  5
202
100
AcDbSymbolTableRecord
100
AcDbLayerTableRecord
  2
DIMENSIONS
 70
0
 62
7
  6
CONTINUOUS
370
-3
390
F
  0
ENDTAB
  0
TABLE
  2
STYLE
  5
3
100
AcDbSymbolTable
 70
1
  0
STYLE
  5
11
100
AcDbSymbolTableRecord
100
AcDbTextStyleTableRecord
  2
STANDARD
 70
0
 40
0.0
 41
0.8
 50
0.0
 71
0
 42
0.2
  3
txt
  4

  0
STYLE
  5
203
100
AcDbSymbolTableRecord
100
AcDbTextStyleTableRecord
  2
TEXTSTYLE_1
 70
0
 40
0.0
 41
0.8
 50
0.0
 71
0
 42
0.2
  3
gdt
  4

  0
ENDTAB
  0
TABLE
  2
VIEW
  5
6
100
AcDbSymbolTable
 70
0
  0
ENDTAB
  0
TABLE
  2
UCS
  5
7
100
AcDbSymbolTable
 70
0
  0
ENDTAB
  0
TABLE
  2
APPID
  5
9
100
AcDbSymbolTable
 70
1
  0
APPID
  5
204
100
AcDbSymbolTableRecord
100
AcDbRegAppTableRecord
  2
ACAD
 70
0
  0
ENDTAB
  0
TABLE
  2
BLOCK_RECORD
  5
1
100
AcDbSymbolTable
 70
0
  0
BLOCK_RECORD
  5
205
100
AcDbSymbolTableRecord
100
AcDbBlockTableRecord
  2
*Model_Space
  0
BLOCK_RECORD
  5
206
100
AcDbSymbolTableRecord
100
AcDbBlockTableRecord
  2
*Paper_Space
  0
BLOCK_RECORD
  5
207
100
AcDbSymbolTableRecord
100
AcDbBlockTableRecord
  2
_FILLED
  0
ENDTAB
  0
TABLE
  2
DIMSTYLE
  5
A
100
AcDbSymbolTable
 70
1
100
AcDbDimStyleTable
 71
0
  0
DIMSTYLE
105
208
100
AcDbSymbolTableRecord
100
AcDbDimStyleTableRecord
  2
STANDARD
 70
0
  3

  4

 40
1.0
 41
0.1
 42
0.0625
 43
0.38
 44
0.125
 45
0.0
 46
0.0
 47
0.001
 48
0.001
140
0.08
141
0.09
142
0.0
143
25.4
144
1.0
145
0.0
146
1.0
147
0.09
 71
1.0
 72
0.0
 73
1
 74
1
 75
0
 76
0
 77
0
 78
4
 79
1
170
1
171
2
172
0
173
0
174
0
175
0
176
0
177
0
178
0
270
2
179
3
271
3
272
3
273
2
274
2
275
0
280
0
281
0
282
0
283
1
284
4
285
0
286
0
287
3
288
0
340
11
278
46
341
207
342
207
343
207
344
207
  0
ENDTAB
  0
ENDSEC
  0
SECTION
  2
BLOCKS
  0
BLOCK
  5
20
100
AcDbEntity
  8
0
100
AcDbBlockBegin
  2
*Model_Space
 70
0
 10
0.0
 20
0.0
 30
0.0
  3
*Model_Space
  1

  0
ENDBLK
  5
21
100
AcDbEntity
  8
0
100
AcDbBlockEnd
  0
BLOCK
  5
1C
100
AcDbEntity
  8
0
100
AcDbBlockBegin
  2
*Paper_Space
 70
0
 10
0.0
 20
0.0
 30
0.0
  3
*Paper_Space
  1

  0
ENDBLK
  5
1D
100
AcDbEntity
  8
0
100
AcDbBlockEnd
  0
BLOCK
  5
209
100
AcDbEntity
  8
0
100
AcDbBlockBegin
  2
_FILLED
 70
64
 10
0.0
 20
0.0
  3
_FILLED
  1

  0
SOLID
  5
20A
100
AcDbEntity
  8
0
  6
BYBLOCK
 62
0
100
AcDbTrace
 10
0.0
 20
0.0
 11
-1.0
 21
0.2
 12
-1.0
 22
-0.2
 13
-1.0
 23
-0.2
  0
ENDBLK
  5
20B
100
AcDbEntity
  8
0
  6
BYBLOCK
 62
0
100
AcDbBlockEnd
  0
ENDSEC
  0
SECTION
  2
ENTITIES
  0
LINE
  5
20C
100
AcDbEntity
  8
0
100
AcDbLine
 62
7
  6
CONTINUOUS
 10
1.5473183383
 20
8.7573318604
 11
1.5473183383
 21
8.8573318604
  0
LINE
  5
20D
100
AcDbEntity
  8
0
100
AcDbLine
 62
7
  6
CONTINUOUS
 10
1.5473599999
 20
8.6073318604
 11
1.5473599999
 21
8.5323318604
  0
LINE
  5
20E
100
AcDbEntity
  8
0
100
AcDbLine
 62
7
  6
CONTINUOUS
 10
1.5478835721
 20
8.6073318604
 11
1.5478835721
 21
8.5323318604
  0
LINE
  5
20F
100
AcDbEntity
  8
0
100
AcDbLine
 62
7
  6
CONTINUOUS
 10
1.5486638959
 20
8.6073318604
 11
1.5486638959
 21
8.5323318604
  0
LINE
  5
210
100
AcDbEntity
  8
0
100
AcDbLine
 62
7
  6
CONTINUOUS
 10
1.5502339746
 20
8.6073318604
 11
1.5502339746
 21
8.5323318604
  0
LINE
  5
211
100
AcDbEntity
  8
0
100
AcDbLine
 62
7
  6
CONTINUOUS
 10
1.5517936715
 20
8.6073318604
 11
1.5517936715
 21
8.5323318604
  0
LINE
  5
212
100
AcDbEntity
  8
0
100
AcDbLine
 62
7
  6
CONTINUOUS
 10
1.5544083438
 20
8.6073318604
 11
1.5544083438
 21
8.5323318604
  0
LINE
  5
213
100
AcDbEntity
  8
0
100
AcDbLine
 62
7
  6
CONTINUOUS
 10
1.5567455135
 20
8.6073318604
 11
1.5567455135
 21
8.5323318604
  0
LINE
  5
214
100
AcDbEntity
  8
0
100
AcDbLine
 62
7
  6
CONTINUOUS
 10
1.5604015938
 20
8.6073318604
 11
1.5604015938
 21
8.5323318604
  0
LINE
  5
215
100
AcDbEntity
  8
0
100
AcDbLine
 62
7
  6
CONTINUOUS
 10
1.5635133889
 20
8.6073318604
 11
1.5635133889
 21
8.5323318604
  0
LINE
  5
216
100
AcDbEntity
  8
0
100
AcDbLine
 62
7
  6
CONTINUOUS
 10
1.5682064228
 20
8.6073318604
 11
1.5682064228
 21
8.5323318604
  0
LINE
  5
217
100
AcDbEntity
  8
0
100
AcDbLine
 62
7
  6
CONTINUOUS
 10
1.5720890521
 20
8.6073318604
 11
1.5720890521
 21
8.5323318604
  0
LINE
  5
218
100
AcDbEntity
  8
0
100
AcDbLine
 62
7
  6
CONTINUOUS
 10
1.5778133219
 20
8.6073318604
 11
1.5778133219
 21
8.5323318604
  0
LINE
  5
219
100
AcDbEntity
  8
0
100
AcDbLine
 62
7
  6
CONTINUOUS
 10
1.5824620549
 20
8.6073318604
 11
1.5824620549
 21
8.5323318604
  0
LINE
  5
21A
100
AcDbEntity
  8
0
100
AcDbLine
 62
7
  6
CONTINUOUS
 10
1.5892105865
 20
8.6073318604
 11
1.5892105865
 21
8.5323318604
  0
LINE
  5
21B
100
AcDbEntity
  8
0
100
AcDbLine
 62
7
  6
CONTINUOUS
 10
1.5946197594
 20
8.6073318604
 11
1.5946197594
 21
8.5323318604
  0
LINE
  5
21C
100
AcDbEntity
  8
0
100
AcDbLine
 62
7
  6
CONTINUOUS
 10
1.5973183383
 20
8.6073318604
 11
1.5973183383
 21
8.7073318604
  0
LINE
  5
21D
100
AcDbEntity
  8
0
100
AcDbLine
 62
7
  6
CONTINUOUS
 10
1.6023843308
 20
8.6073318604
 11
1.6023843308
 21
8.5323318604
  0
LINE
  5
21E
100
AcDbEntity
  8
0
100
AcDbLine
 62
7
  6
CONTINUOUS
 10
1.6085473534
 20
8.6073318604
 11
1.6085473534
 21
8.5323318604
  0
LINE
  5
21F
100
AcDbEntity
  8
0
100
AcDbLine
 62
7
  6
CONTINUOUS
 10
1.6173185046
 20
8.6073318604
 11
1.6173185046
 21
8.5323318604
  0
LINE
  5
220
100
AcDbEntity
  8
0
100
AcDbLine
 62
7
  6
CONTINUOUS
 10
1.6242278682
 20
8.6073318604
 11
1.6242278682
 21
8.5323318604
  0
LINE
  5
221
100
AcDbEntity
  8
0
100
AcDbLine
 62
7
  6
CONTINUOUS
 10
1.6339949129
 20
8.6073318604
 11
1.6339949129
 21
8.5323318604
  0
LINE
  5
222
100
AcDbEntity
  8
0
100
AcDbLine
 62
7
  6
CONTINUOUS
 10
1.6416421996
 20
8.6073318604
 11
1.6416421996
 21
8.5323318604
  0
LINE
  5
223
100
AcDbEntity
  8
0
100
AcDbLine
 62
7
  6
CONTINUOUS
 10
1.6523932381
 20
8.6073318604
 11
1.6523932381
 21
8.5323318604
  0
LINE
  5
224
100
AcDbEntity
  8
0
100
AcDbLine
 62
7
  6
CONTINUOUS
 10
1.6607691308
 20
8.6073318604
 11
1.6607691308
 21
8.5323318604
  0
LINE
  5
225
100
AcDbEntity
  8
0
100
AcDbLine
 62
7
  6
CONTINUOUS
 10
1.6724910646
 20
8.6073318604
 11
1.6724910646
 21
8.5323318604
  0
LINE
  5
226
100
AcDbEntity
  8
0
100
AcDbLine
 62
7
  6
CONTINUOUS
 10
1.6815853586
 20
8.6073318604
 11
1.6815853586
 21
8.5323318604
  0
LINE
  5
227
100
AcDbEntity
  8
0
100
AcDbLine
 62
7
  6
CONTINUOUS
 10
1.6942639064
 20
8.6073318604
 11
1.6942639064
 21
8.5323318604
  0
LINE
  5
228
100
AcDbEntity
  8
0
100
AcDbLine
 62
7
  6
CONTINUOUS
 10
1.7040655217
 20
8.6073318604
 11
1.7040655217
 21
8.5323318604
  0
LINE
  5
229
100
AcDbEntity
  8
0
100
AcDbLine
 62
7
  6
CONTINUOUS
 10
1.7176852367
 20
8.6073318604
 11
1.7176852367
 21
8.5323318604
  0
LINE
  5
22A
100
AcDbEntity
  8
0
100
AcDbLine
 62
7
  6
CONTINUOUS
 10
1.7281822314
 20
8.6073318604
 11
1.7281822314
 21
8.5323318604
  0
LINE
  5
22B
100
AcDbEntity
  8
0
100
AcDbLine
 62
7
  6
CONTINUOUS
 10
1.74272652
 20
8.6073318604
 11
1.74272652
 21
8.5323318604
  0
LINE
  5
22C
100
AcDbEntity
  8
0
100
AcDbLine
 62
7
  6
CONTINUOUS
 10
1.7539061053
 20
8.6073318604
 11
1.7539061053
 21
8.5323318604
  0
LINE
  5
22D
100
AcDbEntity
  8
0
100
AcDbLine
 62
7
  6
CONTINUOUS
 10
1.7693572475
 20
8.6073318604
 11
1.7693572475
 21
8.5323318604
  0
LINE
  5
22E
100
AcDbEntity
  8
0
100
AcDbLine
 62
7
  6
CONTINUOUS
 10
1.7812058027
 20
8.6073318604
 11
1.7812058027
 21
8.5323318604
  0
LINE
  5
22F
100
AcDbEntity
  8
0
100
AcDbLine
 62
7
  6
CONTINUOUS
 10
1.7975449738
 20
8.6073318604
 11
1.7975449738
 21
8.5323318604
  0
LINE
  5
230
100
AcDbEntity
  8
0
100
AcDbLine
 62
7
  6
CONTINUOUS
 10
1.8100480632
 20
8.6073318604
 11
1.8100480632
 21
8.5323318604
  0
LINE
  5
231
100
AcDbEntity
  8
0
100
AcDbLine
 62
7
  6
CONTINUOUS
 10
1.8272553563
 20
8.6073318604
 11
1.8272553563
 21
8.5323318604
  0
LINE
  5
232
100
AcDbEntity
  8
0
100
AcDbLine
 62
7
  6
CONTINUOUS
 10
1.840397747
 20
8.6073318604
 11
1.840397747
 21
8.5323318604
  0
LINE
  5
233
100
AcDbEntity
  8
0
100
AcDbLine
 62
7
  6
CONTINUOUS
 10
1.8584521977
 20
8.6073318604
 11
1.8584521977
 21
8.5323318604
  0
LINE
  5
234
100
AcDbEntity
  8
0
100
AcDbLine
 62
7
  6
CONTINUOUS
 10
1.8722178776
 20
8.6073318604
 11
1.8722178776
 21
8.5323318604
  0
LINE
  5
235
100
AcDbEntity
  8
0
100
AcDbLine
 62
7
  6
CONTINUOUS
 10
1.8910974894
 20
8.6073318604
 11
1.8910974894
 21
8.5323318604
  0
LINE
  5
236
100
AcDbEntity
  8
0
100
AcDbLine
 62
7
  6
CONTINUOUS
 10
1.9054696871
 20
8.6073318604
 11
1.9054696871
 21
8.5323318604
  0
LINE
  5
237
100
AcDbEntity
  8
0
100
AcDbLine
 62
7
  6
CONTINUOUS
 10
1.925151458
 20
8.6073318604
 11
1.925151458
 21
8.5323318604
  0
LINE
  5
238
100
AcDbEntity
  8
0
100
AcDbLine
 62
7
  6
CONTINUOUS
 10
1.9401126634
 20
8.6073318604
 11
1.9401126634
 21
8.5323318604
  0
LINE
  5
239
100
AcDbEntity
  8
0
100
AcDbLine
 62
7
  6
CONTINUOUS
 10
1.9605726142
 20
8.6073318604
 11
1.9605726142
 21
8.5323318604
  0
LINE
  5
23A
100
AcDbEntity
  8
0
100
AcDbLine
 62
7
  6
CONTINUOUS
 10
1.9761045991
 20
8.6073318604
 11
1.9761045991
 21
8.5323318604
  0
LINE
  5
23B
100
AcDbEntity
  8
0
100
AcDbLine
 62
7
  6
CONTINUOUS
 10
1.9973178026
 20
8.6073318604
 11
1.9973178026
 21
8.5323318604
  0
LINE
  5
23C
100
AcDbEntity
  8
0
100
AcDbLine
 62
7
  6
CONTINUOUS
 10
2.0134016438
 20
8.6073318604
 11
2.0134016438
 21
8.5323318604
  0
LINE
  5
23D
100
AcDbEntity
  8
0
100
AcDbLine
 62
7
  6
CONTINUOUS
 10
2.0346019247
 20
8.5323318604
 11
2.0346019247
 21
8.6073318604
  0
LINE
  5
23E
100
AcDbEntity
  8
0
100
AcDbLine
 62
7
  6
CONTINUOUS
 10
2.0353422549
 20
8.6073318604
 11
2.0353422549
 21
8.5323318604
  0
LINE
  5
23F
100
AcDbEntity
  8
0
100
AcDbLine
 62
7
  6
CONTINUOUS
 10
2.0519583568
 20
8.6073318604
 11
2.0519583568
 21
8.5323318604
  0
LINE
  5
240
100
AcDbEntity
  8
0
100
AcDbLine
 62
7
  6
CONTINUOUS
 10
2.0731198859
 20
8.5323318604
 11
2.0731198859
 21
8.6073318604
  0
LINE
  5
241
100
AcDbEntity
  8
0
100
AcDbLine
 62
7
  6
CONTINUOUS
 10
2.0745996442
 20
8.6073318604
 11
2.0745996442
 21
8.5323318604
  0
LINE
  5
242
100
AcDbEntity
  8
0
100
AcDbLine
 62
7
  6
CONTINUOUS
 10
2.0917277625
 20
8.6073318604
 11
2.0917277625
 21
8.5323318604
  0
LINE
  5
243
100
AcDbEntity
  8
0
100
AcDbLine
 62
7
  6
CONTINUOUS
 10
2.1128247578
 20
8.5323318604
 11
2.1128247578
 21
8.6073318604
  0
LINE
  5
244
100
AcDbEntity
  8
0
100
AcDbLine
 62
7
  6
CONTINUOUS
 10
2.1150421413
 20
8.6073318604
 11
2.1150421413
 21
8.5323318604
  0
LINE
  5
245
100
AcDbEntity
  8
0
100
AcDbLine
 62
7
  6
CONTINUOUS
 10
2.1326614082
 20
8.6073318604
 11
2.1326614082
 21
8.5323318604
  0
LINE
  5
246
100
AcDbEntity
  8
0
100
AcDbLine
 62
7
  6
CONTINUOUS
 10
2.1536681662
 20
8.5323318604
 11
2.1536681662
 21
8.6073318604
  0
LINE
  5
247
100
AcDbEntity
  8
0
100
AcDbLine
 62
7
  6
CONTINUOUS
 10
2.1566204735
 20
8.6073318604
 11
2.1566204735
 21
8.5323318604
  0
LINE
  5
248
100
AcDbEntity
  8
0
100
AcDbLine
 62
7
  6
CONTINUOUS
 10
2.1723183383
 20
8.3323318604
 11
2.1723183383
 21
8.3173318604
  0
LINE
  5
249
100
AcDbEntity
  8
0
100
AcDbLine
 62
7
  6
CONTINUOUS
 10
2.1747094224
 20
8.6073318604
 11
2.1747094224
 21
8.5323318604
  0
LINE
  5
24A
100
AcDbEntity
  8
0
100
AcDbLine
 62
7
  6
CONTINUOUS
 10
2.1956003496
 20
8.5323318604
 11
2.1956003496
 21
8.6073318604
  0
LINE
  5
24B
100
AcDbEntity
  8
0
100
AcDbLine
 62
7
  6
CONTINUOUS
 10
2.1992839837
 20
8.6073318604
 11
2.1992839837
 21
8.5323318604
  0
LINE
  5
24C
100
AcDbEntity
  8
0
100
AcDbLine
 62
7
  6
CONTINUOUS
 10
2.2178205762
 20
8.6073318604
 11
2.2178205762
 21
8.5323318604
  0
LINE
  5
24D
100
AcDbEntity
  8
0
100
AcDbLine
 62
7
  6
CONTINUOUS
 10
2.2385702202
 20
8.5323318604
 11
2.2385702202
 21
8.6073318604
  0
LINE
  5
24E
100
AcDbEntity
  8
0
100
AcDbLine
 62
7
  6
CONTINUOUS
 10
2.2429806932
 20
8.6073318604
 11
2.2429806932
 21
8.5323318604
  0
LINE
  5
24F
100
AcDbEntity
  8
0
100
AcDbLine
 62
7
  6
CONTINUOUS
 10
2.2619423452
 20
8.6073318604
 11
2.2619423452
 21
8.5323318604
  0
LINE
  5
250
100
AcDbEntity
  8
0
100
AcDbLine
 62
7
  6
CONTINUOUS
 10
2.2825254259
 20
8.5323318604
 11
2.2825254259
 21
8.6073318604
  0
LINE
  5
251
100
AcDbEntity
  8
0
100
AcDbLine
 62
7
  6
CONTINUOUS
 10
2.2876573642
 20
8.6073318604
 11
2.2876573642
 21
8.5323318604
  0
LINE
  5
252
100
AcDbEntity
  8
0
100
AcDbLine
 62
7
  6
CONTINUOUS
 10
2.3070209739
 20
8.6073318604
 11
2.3070209739
 21
8.5323318604
  0
LINE
  5
253
100
AcDbEntity
  8
0
100
AcDbLine
 62
7
  6
CONTINUOUS
 10
2.3274124138
 20
8.5323318604
 11
2.3274124138
 21
8.6073318604
  0
LINE
  5
254
100
AcDbEntity
  8
0
100
AcDbLine
 62
7
  6
CONTINUOUS
 10
2.3332595652
 20
8.6073318604
 11
2.3332595652
 21
8.5323318604
  0
LINE
  5
255
100
AcDbEntity
  8
0
100
AcDbLine
 62
7
  6
CONTINUOUS
 10
2.3530015409
 20
8.6073318604
 11
2.3530015409
 21
8.5323318604
  0
LINE
  5
256
100
AcDbEntity
  8
0
100
AcDbLine
 62
7
  6
CONTINUOUS
 10
2.3731764963
 20
8.5323318604
 11
2.3731764963
 21
8.6073318604
  0
LINE
  5
257
100
AcDbEntity
  8
0
100
AcDbLine
 62
7
  6
CONTINUOUS
 10
2.3797317367
 20
8.6073318604
 11
2.3797317367
 21
8.5323318604
  0
LINE
  5
258
100
AcDbEntity
  8
0
100
AcDbLine
 62
7
  6
CONTINUOUS
 10
2.399828026
 20
8.6073318604
 11
2.399828026
 21
8.5323318604
  0
LINE
  5
259
100
AcDbEntity
  8
0
100
AcDbLine
 62
7
  6
CONTINUOUS
 10
2.4197619168
 20
8.5323318604
 11
2.4197619168
 21
8.6073318604
  0
LINE
  5
25A
100
AcDbEntity
  8
0
100
AcDbLine
 62
7
  6
CONTINUOUS
 10
2.4270172596
 20
8.6073318604
 11
2.4270172596
 21
8.5323318604
  0
LINE
  5
25B
100
AcDbEntity
  8
0
100
AcDbLine
 62
7
  6
CONTINUOUS
 10
2.4474433783
 20
8.6073318604
 11
2.4474433783
 21
8.5323318604
  0
LINE
  5
25C
100
AcDbEntity
  8
0
100
AcDbLine
 62
7
  6
CONTINUOUS
 10
2.467111918
 20
8.5323318604
 11
2.467111918
 21
8.6073318604
  0
LINE
  5
25D
100
AcDbEntity
  8
0
100
AcDbLine
 62
7
  6
CONTINUOUS
 10
2.4750585239
 20
8.6073318604
 11
2.4750585239
 21
8.5323318604
  0
LINE
  5
25E
100
AcDbEntity
  8
0
100
AcDbLine
 62
7
  6
CONTINUOUS
 10
2.4957895858
 20
8.6073318604
 11
2.4957895858
 21
8.5323318604
  0
LINE
  5
25F
100
AcDbEntity
  8
0
100
AcDbLine
 62
7
  6
CONTINUOUS
 10
2.5151688115
 20
8.5323318604
 11
2.5151688115
 21
8.6073318604
  0
LINE
  5
260
100
AcDbEntity
  8
0
100
AcDbLine
 62
7
  6
CONTINUOUS
 10
2.5237969986
 20
8.6073318604
 11
2.5237969986
 21
8.5323318604
  0
LINE
  5
261
100
AcDbEntity
  8
0
100
AcDbLine
 62
7
  6
CONTINUOUS
 10
2.5448077462
 20
8.6073318604
 11
2.5448077462
 21
8.5323318604
  0
LINE
  5
262
100
AcDbEntity
  8
0
100
AcDbLine
 62
7
  6
CONTINUOUS
 10
2.5638740471
 20
8.5323318604
 11
2.5638740471
 21
8.6073318604
  0
LINE
  5
263
100
AcDbEntity
  8
0
100
AcDbLine
 62
7
  6
CONTINUOUS
 10
2.5731733035
 20
8.6073318604
 11
2.5731733035
 21
8.5323318604
  0
LINE
  5
264
100
AcDbEntity
  8
0
100
AcDbLine
 62
7
  6
CONTINUOUS
 10
2.5944381383
 20
8.6073318604
 11
2.5944381383
 21
8.5323318604
  0
LINE
  5
265
100
AcDbEntity
  8
0
100
AcDbLine
 62
7
  6
CONTINUOUS
 10
2.6131682852
 20
8.5323318604
 11
2.6131682852
 21
8.6073318604
  0
LINE
  5
266
100
AcDbEntity
  8
0
100
AcDbLine
 62
7
  6
CONTINUOUS
 10
2.623127281
 20
8.6073318604
 11
2.623127281
 21
8.5323318604
  0
LINE
  5
267
100
AcDbEntity
  8
0
100
AcDbLine
 62
7
  6
CONTINUOUS
 10
2.6446202951
 20
8.6073318604
 11
2.6446202951
 21
8.5323318604
  0
LINE
  5
268
100
AcDbEntity
  8
0
100
AcDbLine
 62
7
  6
CONTINUOUS
 10
2.6629914682
 20
8.5323318604
 11
2.6629914682
 21
8.6073318604
  0
LINE
  5
269
100
AcDbEntity
  8
0
100
AcDbLine
 62
7
  6
CONTINUOUS
 10
2.6735980699
 20
8.6073318604
 11
2.6735980699
 21
8.5323318604
  0
LINE
  5
26A
100
AcDbEntity
  8
0
100
AcDbLine
 62
7
  6
CONTINUOUS
 10
2.6952930775
 20
8.6073318604
 11
2.6952930775
 21
8.5323318604
  0
LINE
  5
26B
100
AcDbEntity
  8
0
100
AcDbLine
 62
7
  6
CONTINUOUS
 10
2.7132828943
 20
8.5323318604
 11
2.7132828943
 21
8.6073318604
  0
LINE
  5
26C
100
AcDbEntity
  8
0
100
AcDbLine
 62
7
  6
CONTINUOUS
 10
2.7245241795
 20
8.6073318604
 11
2.7245241795
 21
8.5323318604
  0
LINE
  5
26D
100
AcDbEntity
  8
0
100
AcDbLine
 62
7
  6
CONTINUOUS
 10
2.7463947485
 20
8.6073318604
 11
2.7463947485
 21
8.5323318604
  0
LINE
  5
26E
100
AcDbEntity
  8
0
100
AcDbLine
 62
7
  6
CONTINUOUS
 10
2.7639812912
 20
8.5323318604
 11
2.7639812912
 21
8.6073318604
  0
LINE
  5
26F
100
AcDbEntity
  8
0
100
AcDbLine
 62
7
  6
CONTINUOUS
 10
2.775843564
 20
8.6073318604
 11
2.775843564
 21
8.5323318604
  0
LINE
  5
270
100
AcDbEntity
  8
0
100
AcDbLine
 62
7
  6
CONTINUOUS
 10
2.7978630485
 20
8.6073318604
 11
2.7978630485
 21
8.5323318604
  0
LINE
  5
271
100
AcDbEntity
  8
0
100
AcDbLine
 62
7
  6
CONTINUOUS
 10
2.8150248906
 20
8.5323318604
 11
2.8150248906
 21
8.6073318604
  0
LINE
  5
272
100
AcDbEntity
  8
0
100
AcDbLine
 62
7
  6
CONTINUOUS
 10
2.8274936987
 20
8.6073318604
 11
2.8274936987
 21
8.5323318604
  0
LINE
  5
273
100
AcDbEntity
  8
0
100
AcDbLine
 62
7
  6
CONTINUOUS
 10
2.8496352713
 20
8.6073318604
 11
2.8496352713
 21
8.5323318604
  0
LINE
  5
274
100
AcDbEntity
  8
0
100
AcDbLine
 62
7
  6
CONTINUOUS
 10
2.8663515038
 20
8.5323318604
 11
2.8663515038
 21
8.6073318604
  0
LINE
  5
275
100
AcDbEntity
  8
0
100
AcDbLine
 62
7
  6
CONTINUOUS
 10
2.8794116559
 20
8.6073318604
 11
2.8794116559
 21
8.5323318604
  0
LINE
  5
276
100
AcDbEntity
  8
0
100
AcDbLine
 62
7
  6
CONTINUOUS
 10
2.9016483405
 20
8.6073318604
 11
2.9016483405
 21
8.5323318604
  0
LINE
  5
277
100
AcDbEntity
  8
0
100
AcDbLine
 62
7
  6
CONTINUOUS
 10
2.9178985971
 20
8.5323318604
 11
2.9178985971
 21
8.6073318604
  0
LINE
  5
278
100
AcDbEntity
  8
0
100
AcDbLine
 62
7
  6
CONTINUOUS
 10
2.9315341815
 20
8.6073318604
 11
2.9315341815
 21
8.5323318604
  0
LINE
  5
279
100
AcDbEntity
  8
0
100
AcDbLine
 62
7
  6
CONTINUOUS
 10
2.9538388862
 20
8.6073318604
 11
2.9538388862
 21
8.5323318604
  0
LINE
  5
27A
100
AcDbEntity
  8
0
100
AcDbLine
 62
7
  6
CONTINUOUS
 10
2.9696033686
 20
8.5323318604
 11
2.9696033686
 21
8.6073318604
  0
LINE
  5
27B
100
AcDbEntity
  8
0
100
AcDbLine
 62
7
  6
CONTINUOUS
 10
2.9837977722
 20
8.6073318604
 11
2.9837977722
 21
8.5323318604
  0
LINE
  5
27C
100
AcDbEntity
  8
0
100
AcDbLine
 62
7
  6
CONTINUOUS
 10
3.0061433222
 20
8.6073318604
 11
3.0061433222
 21
8.5323318604
  0
LINE
  5
27D
100
AcDbEntity
  8
0
100
AcDbLine
 62
7
  6
CONTINUOUS
 10
3.0214028237
 20
8.5323318604
 11
3.0214028237
 21
8.6073318604
  0
LINE
  5
27E
100
AcDbEntity
  8
0
100
AcDbLine
 62
7
  6
CONTINUOUS
 10
3.036138753
 20
8.6073318604
 11
3.036138753
 21
8.5323318604
  0
LINE
  5
27F
100
AcDbEntity
  8
0
100
AcDbLine
 62
7
  6
CONTINUOUS
 10
3.0584979235
 20
8.6073318604
 11
3.0584979235
 21
8.5323318604
  0
LINE
  5
280
100
AcDbEntity
  8
0
100
AcDbLine
 62
7
  6
CONTINUOUS
 10
3.0732338529
 20
8.5323318604
 11
3.0732338529
 21
8.6073318604
  0
LINE
  5
281
100
AcDbEntity
  8
0
100
AcDbLine
 62
7
  6
CONTINUOUS
 10
3.0884933544
 20
8.6073318604
 11
3.0884933544
 21
8.5323318604
  0
LINE
  5
282
100
AcDbEntity
  8
0
100
AcDbLine
 62
7
  6
CONTINUOUS
 10
3.1108389043
 20
8.6073318604
 11
3.1108389043
 21
8.5323318604
  0
LINE
  5
283
100
AcDbEntity
  8
0
100
AcDbLine
 62
7
  6
CONTINUOUS
 10
3.125033308
 20
8.5323318604
 11
3.125033308
 21
8.6073318604
  0
LINE
  5
284
100
AcDbEntity
  8
0
100
AcDbLine
 62
7
  6
CONTINUOUS
 10
3.1407977904
 20
8.6073318604
 11
3.1407977904
 21
8.5323318604
  0
LINE
  5
285
100
AcDbEntity
  8
0
100
AcDbLine
 62
7
  6
CONTINUOUS
 10
3.1631024951
 20
8.6073318604
 11
3.1631024951
 21
8.5323318604
  0
LINE
  5
286
100
AcDbEntity
  8
0
100
AcDbLine
 62
7
  6
CONTINUOUS
 10
3.1767380794
 20
8.5323318604
 11
3.1767380794
 21
8.6073318604
  0
LINE
  5
287
100
AcDbEntity
  8
0
100
AcDbLine
 62
7
  6
CONTINUOUS
 10
3.192988336
 20
8.6073318604
 11
3.192988336
 21
8.5323318604
  0
LINE
  5
288
100
AcDbEntity
  8
0
100
AcDbLine
 62
7
  6
CONTINUOUS
 10
3.2152250207
 20
8.6073318604
 11
3.2152250207
 21
8.5323318604
  0
LINE
  5
289
100
AcDbEntity
  8
0
100
AcDbLine
 62
7
  6
CONTINUOUS
 10
3.2282851728
 20
8.5323318604
 11
3.2282851728
 21
8.6073318604
  0
LINE
  5
28A
100
AcDbEntity
  8
0
100
AcDbLine
 62
7
  6
CONTINUOUS
 10
3.2450014052
 20
8.6073318604
 11
3.2450014052
 21
8.5323318604
  0
LINE
  5
28B
100
AcDbEntity
  8
0
100
AcDbLine
 62
7
  6
CONTINUOUS
 10
3.2671429779
 20
8.6073318604
 11
3.2671429779
 21
8.5323318604
  0
LINE
  5
28C
100
AcDbEntity
  8
0
100
AcDbLine
 62
7
  6
CONTINUOUS
 10
3.279611786
 20
8.5323318604
 11
3.279611786
 21
8.6073318604
  0
LINE
  5
28D
100
AcDbEntity
  8
0
100
AcDbLine
 62
7
  6
CONTINUOUS
 10
3.2967736281
 20
8.6073318604
 11
3.2967736281
 21
8.5323318604
  0
LINE
  5
28E
100
AcDbEntity
  8
0
100
AcDbLine
 62
7
  6
CONTINUOUS
 10
3.3187931126
 20
8.6073318604
 11
3.3187931126
 21
8.5323318604
  0
LINE
  5
28F
100
AcDbEntity
  8
0
100
AcDbLine
 62
7
  6
CONTINUOUS
 10
3.3306553854
 20
8.5323318604
 11
3.3306553854
 21
8.6073318604
  0
LINE
  5
290
100
AcDbEntity
  8
0
100
AcDbLine
 62
7
  6
CONTINUOUS
 10
3.3482419281
 20
8.6073318604
 11
3.3482419281
 21
8.5323318604
  0
LINE
  5
291
100
AcDbEntity
  8
0
100
AcDbLine
 62
7
  6
CONTINUOUS
 10
3.3701124971
 20
8.6073318604
 11
3.3701124971
 21
8.5323318604
  0
LINE
  5
292
100
AcDbEntity
  8
0
100
AcDbLine
 62
7
  6
CONTINUOUS
 10
3.3813537822
 20
8.5323318604
 11
3.3813537822
 21
8.6073318604
  0
LINE
  5
293
100
AcDbEntity
  8
0
100
AcDbLine
 62
7
  6
CONTINUOUS
 10
3.399343599
 20
8.6073318604
 11
3.399343599
 21
8.5323318604
  0
LINE
  5
294
100
AcDbEntity
  8
0
100
AcDbLine
 62
7
  6
CONTINUOUS
 10
3.4210386066
 20
8.6073318604
 11
3.4210386066
 21
8.5323318604
  0
LINE
  5
295
100
AcDbEntity
  8
0
100
AcDbLine
 62
7
  6
CONTINUOUS
 10
3.4316452083
 20
8.5323318604
 11
3.4316452083
 21
8.6073318604
  0
LINE
  5
296
100
AcDbEntity
  8
0
100
AcDbLine
 62
7
  6
CONTINUOUS
 10
3.4500163814
 20
8.6073318604
 11
3.4500163814
 21
8.5323318604
  0
LINE
  5
297
100
AcDbEntity
  8
0
100
AcDbLine
 62
7
  6
CONTINUOUS
 10
3.4715093956
 20
8.6073318604
 11
3.4715093956
 21
8.5323318604
  0
LINE
  5
298
100
AcDbEntity
  8
0
100
AcDbLine
 62
7
  6
CONTINUOUS
 10
3.4814683914
 20
8.5323318604
 11
3.4814683914
 21
8.6073318604
  0
LINE
  5
299
100
AcDbEntity
  8
0
100
AcDbLine
 62
7
  6
CONTINUOUS
 10
3.5001985383
 20
8.6073318604
 11
3.5001985383
 21
8.5323318604
  0
LINE
  5
29A
100
AcDbEntity
  8
0
100
AcDbLine
 62
7
  6
CONTINUOUS
 10
3.5214633731
 20
8.6073318604
 11
3.5214633731
 21
8.5323318604
  0
LINE
  5
29B
100
AcDbEntity
  8
0
100
AcDbLine
 62
7
  6
CONTINUOUS
 10
3.5307626294
 20
8.5323318604
 11
3.5307626294
 21
8.6073318604
  0
LINE
  5
29C
100
AcDbEntity
  8
0
100
AcDbLine
 62
7
  6
CONTINUOUS
 10
3.5498289304
 20
8.6073318604
 11
3.5498289304
 21
8.5323318604
  0
LINE
  5
29D
100
AcDbEntity
  8
0
100
AcDbLine
 62
7
  6
CONTINUOUS
 10
3.5708396779
 20
8.6073318604
 11
3.5708396779
 21
8.5323318604
  0
LINE
  5
29E
100
AcDbEntity
  8
0
100
AcDbLine
 62
7
  6
CONTINUOUS
 10
3.5794678651
 20
8.5323318604
 11
3.5794678651
 21
8.6073318604
  0
LINE
  5
29F
100
AcDbEntity
  8
0
100
AcDbLine
 62
7
  6
CONTINUOUS
 10
3.5988470907
 20
8.6073318604
 11
3.5988470907
 21
8.5323318604
  0
LINE
  5
2A0
100
AcDbEntity
  8
0
100
AcDbLine
 62
7
  6
CONTINUOUS
 10
3.6195781526
 20
8.6073318604
 11
3.6195781526
 21
8.5323318604
  0
LINE
  5
2A1
100
AcDbEntity
  8
0
100
AcDbLine
 62
7
  6
CONTINUOUS
 10
3.6275247585
 20
8.5323318604
 11
3.6275247585
 21
8.6073318604
  0
LINE
  5
2A2
100
AcDbEntity
  8
0
100
AcDbLine
 62
7
  6
CONTINUOUS
 10
3.6471932983
 20
8.6073318604
 11
3.6471932983
 21
8.5323318604
  0
LINE
  5
2A3
100
AcDbEntity
  8
0
100
AcDbLine
 62
7
  6
CONTINUOUS
 10
3.6676194169
 20
8.6073318604
 11
3.6676194169
 21
8.5323318604
  0
LINE
  5
2A4
100
AcDbEntity
  8
0
100
AcDbLine
 62
7
  6
CONTINUOUS
 10
3.6748747598
 20
8.5323318604
 11
3.6748747598
 21
8.6073318604
  0
LINE
  5
2A5
100
AcDbEntity
  8
0
100
AcDbLine
 62
7
  6
CONTINUOUS
 10
3.6948086505
 20
8.6073318604
 11
3.6948086505
 21
8.5323318604
  0
LINE
  5
2A6
100
AcDbEntity
  8
0
100
AcDbLine
 62
7
  6
CONTINUOUS
 10
3.7149049399
 20
8.6073318604
 11
3.7149049399
 21
8.5323318604
  0
LINE
  5
2A7
100
AcDbEntity
  8
0
100
AcDbLine
 62
7
  6
CONTINUOUS
 10
3.7214601803
 20
8.5323318604
 11
3.7214601803
 21
8.6073318604
  0
LINE
  5
2A8
100
AcDbEntity
  8
0
100
AcDbLine
 62
7
  6
CONTINUOUS
 10
3.7416351356
 20
8.6073318604
 11
3.7416351356
 21
8.5323318604
  0
LINE
  5
2A9
100
AcDbEntity
  8
0
100
AcDbLine
 62
7
  6
CONTINUOUS
 10
3.7613771114
 20
8.6073318604
 11
3.7613771114
 21
8.5323318604
  0
LINE
  5
2AA
100
AcDbEntity
  8
0
100
AcDbLine
 62
7
  6
CONTINUOUS
 10
3.7672242627
 20
8.5323318604
 11
3.7672242627
 21
8.6073318604
  0
LINE
  5
2AB
100
AcDbEntity
  8
0
100
AcDbLine
 62
7
  6
CONTINUOUS
 10
3.7876157026
 20
8.6073318604
 11
3.7876157026
 21
8.5323318604
  0
LINE
  5
2AC
100
AcDbEntity
  8
0
100
AcDbLine
 62
7
  6
CONTINUOUS
 10
3.8069793123
 20
8.6073318604
 11
3.8069793123
 21
8.5323318604
  0
LINE
  5
2AD
100
AcDbEntity
  8
0
100
AcDbLine
 62
7
  6
CONTINUOUS
 10
3.8121112507
 20
8.5323318604
 11
3.8121112507
 21
8.6073318604
  0
LINE
  5
2AE
100
AcDbEntity
  8
0
100
AcDbLine
 62
7
  6
CONTINUOUS
 10
3.8326943313
 20
8.6073318604
 11
3.8326943313
 21
8.5323318604
  0
LINE
  5
2AF
100
AcDbEntity
  8
0
100
AcDbLine
 62
7
  6
CONTINUOUS
 10
3.8516559833
 20
8.6073318604
 11
3.8516559833
 21
8.5323318604
  0
LINE
  5
2B0
100
AcDbEntity
  8
0
100
AcDbLine
 62
7
  6
CONTINUOUS
 10
3.8560664563
 20
8.5323318604
 11
3.8560664563
 21
8.6073318604
  0
LINE
  5
2B1
100
AcDbEntity
  8
0
100
AcDbLine
 62
7
  6
CONTINUOUS
 10
3.8768161004
 20
8.6073318604
 11
3.8768161004
 21
8.5323318604
  0
LINE
  5
2B2
100
AcDbEntity
  8
0
100
AcDbLine
 62
7
  6
CONTINUOUS
 10
3.8953526928
 20
8.6073318604
 11
3.8953526928
 21
8.5323318604
  0
LINE
  5
2B3
100
AcDbEntity
  8
0
100
AcDbLine
 62
7
  6
CONTINUOUS
 10
3.899036327
 20
8.5323318604
 11
3.899036327
 21
8.6073318604
  0
LINE
  5
2B4
100
AcDbEntity
  8
0
100
AcDbLine
 62
7
  6
CONTINUOUS
 10
3.9199272542
 20
8.6073318604
 11
3.9199272542
 21
8.5323318604
  0
LINE
  5
2B5
100
AcDbEntity
  8
0
100
AcDbLine
 62
7
  6
CONTINUOUS
 10
3.9223183383
 20
8.3173318604
 11
3.9223183383
 21
8.3323318604
  0
LINE
  5
2B6
100
AcDbEntity
  8
0
100
AcDbLine
 62
7
  6
CONTINUOUS
 10
3.9380162031
 20
8.6073318604
 11
3.9380162031
 21
8.5323318604
  0
LINE
  5
2B7
100
AcDbEntity
  8
0
100
AcDbLine
 62
7
  6
CONTINUOUS
 10
3.9409685104
 20
8.5323318604
 11
3.9409685104
 21
8.6073318604
  0
LINE
  5
2B8
100
AcDbEntity
  8
0
100
AcDbLine
 62
7
  6
CONTINUOUS
 10
3.9619752684
 20
8.6073318604
 11
3.9619752684
 21
8.5323318604
  0
LINE
  5
2B9
100
AcDbEntity
  8
0
100
AcDbLine
 62
7
  6
CONTINUOUS
 10
3.9795945352
 20
8.6073318604
 11
3.9795945352
 21
8.5323318604
  0
LINE
  5
2BA
100
AcDbEntity
  8
0
100
AcDbLine
 62
7
  6
CONTINUOUS
 10
3.9818119188
 20
8.5323318604
 11
3.9818119188
 21
8.6073318604
  0
LINE
  5
2BB
100
AcDbEntity
  8
0
100
AcDbLine
 62
7
  6
CONTINUOUS
 10
4.0029089141
 20
8.6073318604
 11
4.0029089141
 21
8.5323318604
  0
LINE
  5
2BC
100
AcDbEntity
  8
0
100
AcDbLine
 62
7
  6
CONTINUOUS
 10
4.0200370324
 20
8.6073318604
 11
4.0200370324
 21
8.5323318604
  0
LINE
  5
2BD
100
AcDbEntity
  8
0
100
AcDbLine
 62
7
  6
CONTINUOUS
 10
4.0215167907
 20
8.5323318604
 11
4.0215167907
 21
8.6073318604
  0
LINE
  5
2BE
100
AcDbEntity
  8
0
100
AcDbLine
 62
7
  6
CONTINUOUS
 10
4.0426783198
 20
8.6073318604
 11
4.0426783198
 21
8.5323318604
  0
LINE
  5
2BF
100
AcDbEntity
  8
0
100
AcDbLine
 62
7
  6
CONTINUOUS
 10
4.0592944217
 20
8.6073318604
 11
4.0592944217
 21
8.5323318604
  0
LINE
  5
2C0
100
AcDbEntity
  8
0
100
AcDbLine
 62
7
  6
CONTINUOUS
 10
4.0600347518
 20
8.5323318604
 11
4.0600347518
 21
8.6073318604
  0
LINE
  5
2C1
100
AcDbEntity
  8
0
100
AcDbLine
 62
7
  6
CONTINUOUS
 10
4.0812350327
 20
8.6073318604
 11
4.0812350327
 21
8.5323318604
  0
LINE
  5
2C2
100
AcDbEntity
  8
0
100
AcDbLine
 62
7
  6
CONTINUOUS
 10
4.097318874
 20
8.6073318604
 11
4.097318874
 21
8.5323318604
  0
LINE
  5
2C3
100
AcDbEntity
  8
0
100
AcDbLine
 62
7
  6
CONTINUOUS
 10
4.1185320774
 20
8.6073318604
 11
4.1185320774
 21
8.5323318604
  0
LINE
  5
2C4
100
AcDbEntity
  8
0
100
AcDbLine
 62
7
  6
CONTINUOUS
 10
4.1340640624
 20
8.6073318604
 11
4.1340640624
 21
8.5323318604
  0
LINE
  5
2C5
100
AcDbEntity
  8
0
100
AcDbLine
 62
7
  6
CONTINUOUS
 10
4.1545240132
 20
8.6073318604
 11
4.1545240132
 21
8.5323318604
  0
LINE
  5
2C6
100
AcDbEntity
  8
0
100
AcDbLine
 62
7
  6
CONTINUOUS
 10
4.1694852185
 20
8.6073318604
 11
4.1694852185
 21
8.5323318604
  0
LINE
  5
2C7
100
AcDbEntity
  8
0
100
AcDbLine
 62
7
  6
CONTINUOUS
 10
4.1891669894
 20
8.6073318604
 11
4.1891669894
 21
8.5323318604
  0
LINE
  5
2C8
100
AcDbEntity
  8
0
100
AcDbLine
 62
7
  6
CONTINUOUS
 10
4.2035391872
 20
8.6073318604
 11
4.2035391872
 21
8.5323318604
  0
LINE
  5
2C9
100
AcDbEntity
  8
0
100
AcDbLine
 62
7
  6
CONTINUOUS
 10
4.2224187989
 20
8.6073318604
 11
4.2224187989
 21
8.5323318604
  0
LINE
  5
2CA
100
AcDbEntity
  8
0
100
AcDbLine
 62
7
  6
CONTINUOUS
 10
4.2361844788
 20
8.6073318604
 11
4.2361844788
 21
8.5323318604
  0
LINE
  5
2CB
100
AcDbEntity
  8
0
100
AcDbLine
 62
7
  6
CONTINUOUS
 10
4.2542389295
 20
8.6073318604
 11
4.2542389295
 21
8.5323318604
  0
LINE
  5
2CC
100
AcDbEntity
  8
0
100
AcDbLine
 62
7
  6
CONTINUOUS
 10
4.2673813202
 20
8.6073318604
 11
4.2673813202
 21
8.5323318604
  0
LINE
  5
2CD
100
AcDbEntity
  8
0
100
AcDbLine
 62
7
  6
CONTINUOUS
 10
4.2845886133
 20
8.6073318604
 11
4.2845886133
 21
8.5323318604
  0
LINE
  5
2CE
100
AcDbEntity
  8
0
100
AcDbLine
 62
7
  6
CONTINUOUS
 10
4.2970917028
 20
8.6073318604
 11
4.2970917028
 21
8.5323318604
  0
LINE
  5
2CF
100
AcDbEntity
  8
0
100
AcDbLine
 62
7
  6
CONTINUOUS
 10
4.3134308739
 20
8.6073318604
 11
4.3134308739
 21
8.5323318604
  0
LINE
  5
2D0
100
AcDbEntity
  8
0
100
AcDbLine
 62
7
  6
CONTINUOUS
 10
4.3252794291
 20
8.6073318604
 11
4.3252794291
 21
8.5323318604
  0
LINE
  5
2D1
100
AcDbEntity
  8
0
100
AcDbLine
 62
7
  6
CONTINUOUS
 10
4.3407305713
 20
8.6073318604
 11
4.3407305713
 21
8.5323318604
  0
LINE
  5
2D2
100
AcDbEntity
  8
0
100
AcDbLine
 62
7
  6
CONTINUOUS
 10
4.3519101566
 20
8.6073318604
 11
4.3519101566
 21
8.5323318604
  0
LINE
  5
2D3
100
AcDbEntity
  8
0
100
AcDbLine
 62
7
  6
CONTINUOUS
 10
4.3664544452
 20
8.6073318604
 11
4.3664544452
 21
8.5323318604
  0
LINE
  5
2D4
100
AcDbEntity
  8
0
100
AcDbLine
 62
7
  6
CONTINUOUS
 10
4.3769514399
 20
8.6073318604
 11
4.3769514399
 21
8.5323318604
  0
LINE
  5
2D5
100
AcDbEntity
  8
0
100
AcDbLine
 62
7
  6
CONTINUOUS
 10
4.3905711549
 20
8.6073318604
 11
4.3905711549
 21
8.5323318604
  0
LINE
  5
2D6
100
AcDbEntity
  8
0
100
AcDbLine
 62
7
  6
CONTINUOUS
 10
4.4003727701
 20
8.6073318604
 11
4.4003727701
 21
8.5323318604
  0
LINE
  5
2D7
100
AcDbEntity
  8
0
100
AcDbLine
 62
7
  6
CONTINUOUS
 10
4.413051318
 20
8.6073318604
 11
4.413051318
 21
8.5323318604
  0
LINE
  5
2D8
100
AcDbEntity
  8
0
100
AcDbLine
 62
7
  6
CONTINUOUS
 10
4.4221456119
 20
8.6073318604
 11
4.4221456119
 21
8.5323318604
  0
LINE
  5
2D9
100
AcDbEntity
  8
0
100
AcDbLine
 62
7
  6
CONTINUOUS
 10
4.4338675458
 20
8.6073318604
 11
4.4338675458
 21
8.5323318604
  0
LINE
  5
2DA
100
AcDbEntity
  8
0
100
AcDbLine
 62
7
  6
CONTINUOUS
 10
4.4422434385
 20
8.6073318604
 11
4.4422434385
 21
8.5323318604
  0
LINE
  5
2DB
100
AcDbEntity
  8
0
100
AcDbLine
 62
7
  6
CONTINUOUS
 10
4.452994477
 20
8.6073318604
 11
4.452994477
 21
8.5323318604
  0
LINE
  5
2DC
100
AcDbEntity
  8
0
100
AcDbLine
 62
7
  6
CONTINUOUS
 10
4.4606417637
 20
8.6073318604
 11
4.4606417637
 21
8.5323318604
  0
LINE
  5
2DD
100
AcDbEntity
  8
0
100
AcDbLine
 62
7
  6
CONTINUOUS
 10
4.4704088083
 20
8.6073318604
 11
4.4704088083
 21
8.5323318604
  0
LINE
  5
2DE
100
AcDbEntity
  8
0
100
AcDbLine
 62
7
  6
CONTINUOUS
 10
4.477318172
 20
8.6073318604
 11
4.477318172
 21
8.5323318604
  0
LINE
  5
2DF
100
AcDbEntity
  8
0
100
AcDbLine
 62
7
  6
CONTINUOUS
 10
4.4860893231
 20
8.6073318604
 11
4.4860893231
 21
8.5323318604
  0
LINE
  5
2E0
100
AcDbEntity
  8
0
100
AcDbLine
 62
7
  6
CONTINUOUS
 10
4.4922523458
 20
8.6073318604
 11
4.4922523458
 21
8.5323318604
  0
LINE
  5
2E1
100
AcDbEntity
  8
0
100
AcDbLine
 62
7
  6
CONTINUOUS
 10
4.4973183383
 20
8.6073318604
 11
4.4973183383
 21
8.7073318604
  0
LINE
  5
2E2
100
AcDbEntity
  8
0
100
AcDbLine
 62
7
  6
CONTINUOUS
 10
4.5000169171
 20
8.6073318604
 11
4.5000169171
 21
8.5323318604
  0
LINE
  5
2E3
100
AcDbEntity
  8
0
100
AcDbLine
 62
7
  6
CONTINUOUS
 10
4.5054260901
 20
8.6073318604
 11
4.5054260901
 21
8.5323318604
  0
LINE
  5
2E4
100
AcDbEntity
  8
0
100
AcDbLine
 62
7
  6
CONTINUOUS
 10
4.5121746217
 20
8.6073318604
 11
4.5121746217
 21
8.5323318604
  0
LINE
  5
2E5
100
AcDbEntity
  8
0
100
AcDbLine
 62
7
  6
CONTINUOUS
 10
4.5168233546
 20
8.6073318604
 11
4.5168233546
 21
8.5323318604
  0
LINE
  5
2E6
100
AcDbEntity
  8
0
100
AcDbLine
 62
7
  6
CONTINUOUS
 10
4.5225476245
 20
8.6073318604
 11
4.5225476245
 21
8.5323318604
  0
LINE
  5
2E7
100
AcDbEntity
  8
0
100
AcDbLine
 62
7
  6
CONTINUOUS
 10
4.5264302537
 20
8.6073318604
 11
4.5264302537
 21
8.5323318604
  0
LINE
  5
2E8
100
AcDbEntity
  8
0
100
AcDbLine
 62
7
  6
CONTINUOUS
 10
4.5311232877
 20
8.6073318604
 11
4.5311232877
 21
8.5323318604
  0
LINE
  5
2E9
100
AcDbEntity
  8
0
100
AcDbLine
 62
7
  6
CONTINUOUS
 10
4.5342350828
 20
8.6073318604
 11
4.5342350828
 21
8.5323318604
  0
LINE
  5
2EA
100
AcDbEntity
  8
0
100
AcDbLine
 62
7
  6
CONTINUOUS
 10
4.5378911631
 20
8.6073318604
 11
4.5378911631
 21
8.5323318604
  0
LINE
  5
2EB
100
AcDbEntity
  8
0
100
AcDbLine
 62
7
  6
CONTINUOUS
 10
4.5402283328
 20
8.6073318604
 11
4.5402283328
 21
8.5323318604
  0
LINE
  5
2EC
100
AcDbEntity
  8
0
100
AcDbLine
 62
7
  6
CONTINUOUS
 10
4.5428430051
 20
8.6073318604
 11
4.5428430051
 21
8.5323318604
  0
LINE
  5
2ED
100
AcDbEntity
  8
0
100
AcDbLine
 62
7
  6
CONTINUOUS
 10
4.544402702
 20
8.6073318604
 11
4.544402702
 21
8.5323318604
  0
LINE
  5
2EE
100
AcDbEntity
  8
0
100
AcDbLine
 62
7
  6
CONTINUOUS
 10
4.5459727807
 20
8.6073318604
 11
4.5459727807
 21
8.5323318604
  0
LINE
  5
2EF
100
AcDbEntity
  8
0
100
AcDbLine
 62
7
  6
CONTINUOUS
 10
4.5467531045
 20
8.6073318604
 11
4.5467531045
 21
8.5323318604
  0
LINE
  5
2F0
100
AcDbEntity
  8
0
100
AcDbLine
 62
7
  6
CONTINUOUS
 10
4.5472766767
 20
8.6073318604
 11
4.5472766767
 21
8.5323318604
  0
LINE
  5
2F1
100
AcDbEntity
  8
0
100
AcDbLine
 62
7
  6
CONTINUOUS
 10
4.5473183383
 20
8.7573318604
 11
4.5473183383
 21
8.8573318604
  0
LINE
  5
2F2
100
AcDbEntity
  8
0
100
AcDbLine
 62
9
  6
CONTINUOUS
 10
4.6723183383
 20
7.3573318604
 11
4.6723183383
 21
6.1073318604
  0
LINE
  5
2F3
100
AcDbEntity
  8
0
100
AcDbLine
 62
7
  6
CONTINUOUS
 10
1.5973183383
 20
8.7073318604
 11
1.5473183383
 21
8.7573318604
  0
LINE
  5
2F4
100
AcDbEntity
  8
0
100
AcDbLine
 62
7
  6
CONTINUOUS
 10
4.4973183383
 20
8.7073318604
 11
4.5473183383
 21
8.7573318604
  0
LINE
  5
2F5
100
AcDbEntity
  8
0
100
AcDbLine
 62
7
  6
CONTINUOUS
 10
4.6723183383
 20
6.1073318604
 11
17.4223183383
 21
6.1073318604
  0
LINE
  5
2F6
100
AcDbEntity
  8
0
100
AcDbLine
 62
7
  6
CONTINUOUS
 10
4.6723183383
 20
7.3573318604
 11
17.4223183383
 21
7.3573318604
  0
LINE
  5
2F7
100
AcDbEntity
  8
0
100
AcDbLine
 62
7
  6
CONTINUOUS
 10
19.8623183383
 20
8.2573318604
 11
18.2323183383
 21
8.2573318604
  0
LINE
  5
2F8
100
AcDbEntity
  8
0
100
AcDbLine
 62
7
  6
CONTINUOUS
 10
3.8623183383
 20
8.2573318604
 11
2.2323183383
 21
8.2573318604
  0
LINE
  5
2F9
100
AcDbEntity
  8
0
100
AcDbLine
 62
9
  6
CONTINUOUS
 10
19.9223183383
 20
8.3173318604
 11
18.1723183383
 21
8.3173318604
  0
LINE
  5
2FA
100
AcDbEntity
  8
0
100
AcDbLine
 62
9
  6
CONTINUOUS
 10
3.9223183383
 20
8.3173318604
 11
2.1723183383
 21
8.3173318604
  0
LINE
  5
2FB
100
AcDbEntity
  8
0
100
AcDbLine
 62
7
  6
CONTINUOUS
 10
1.8906399339
 20
8.3323318604
 11
4.2039967426
 21
8.3323318604
  0
LINE
  5
2FC
100
AcDbEntity
  8
0
100
AcDbLine
 62
7
  6
CONTINUOUS
 10
17.8906399339
 20
8.3323318604
 11
20.2039967426
 21
8.3323318604
  0
LINE
  5
2FD
100
AcDbEntity
  8
0
100
AcDbLine
 62
9
  6
CONTINUOUS
 10
1.870919668
 20
8.3489985271
 11
4.2237170086
 21
8.3489985271
  0
LINE
  5
2FE
100
AcDbEntity
  8
0
100
AcDbLine
 62
9
  6
CONTINUOUS
 10
17.870919668
 20
8.3489985271
 11
20.2237170086
 21
8.3489985271
  0
LINE
  5
2FF
100
AcDbEntity
  8
0
100
AcDbLine
 62
7
  6
CONTINUOUS
 10
1.7406399339
 20
8.4323318604
 11
4.3539967426
 21
8.4323318604
  0
LINE
  5
300
100
AcDbEntity
  8
0
100
AcDbLine
 62
7
  6
CONTINUOUS
 10
17.7406399339
 20
8.4323318604
 11
20.3539967426
 21
8.4323318604
  0
LINE
  5
301
100
AcDbEntity
  8
0
100
AcDbLine
 62
9
  6
CONTINUOUS
 10
1.720919668
 20
8.4489985271
 11
4.3737170086
 21
8.4489985271
  0
LINE
  5
302
100
AcDbEntity
  8
0
100
AcDbLine
 62
9
  6
CONTINUOUS
 10
17.720919668
 20
8.4489985271
 11
20.3737170086
 21
8.4489985271
  0
LINE
  5
303
100
AcDbEntity
  8
0
100
AcDbLine
 62
7
  6
CONTINUOUS
 10
1.5473599999
 20
8.5323318604
 11
4.5472766767
 21
8.5323318604
  0
LINE
  5
304
100
AcDbEntity
  8
0
100
AcDbLine
 62
7
  6
CONTINUOUS
 10
17.5473599999
 20
8.5323318604
 11
20.5472766767
 21
8.5323318604
  0
LINE
  5
305
100
AcDbEntity
  8
0
100
AcDbLine
 62
7
  6
CONTINUOUS
 10
1.5473599999
 20
8.6073318604
 11
4.5472766767
 21
8.6073318604
  0
LINE
  5
306
100
AcDbEntity
  8
0
100
AcDbLine
 62
7
  6
CONTINUOUS
 10
17.5473599999
 20
8.6073318604
 11
20.5472766767
 21
8.6073318604
  0
LINE
  5
307
100
AcDbEntity
  8
0
100
AcDbLine
 62
7
  6
CONTINUOUS
 10
1.5973183383
 20
8.7073318604
 11
4.4973183383
 21
8.7073318604
  0
LINE
  5
308
100
AcDbEntity
  8
0
100
AcDbLine
 62
7
  6
CONTINUOUS
 10
17.5973183383
 20
8.7073318604
 11
20.4973183383
 21
8.7073318604
  0
LINE
  5
309
100
AcDbEntity
  8
0
100
AcDbLine
 62
7
  6
CONTINUOUS
 10
1.5473183383
 20
8.7573318604
 11
4.5473183383
 21
8.7573318604
  0
LINE
  5
30A
100
AcDbEntity
  8
0
100
AcDbLine
 62
7
  6
CONTINUOUS
 10
17.5473183383
 20
8.7573318604
 11
20.5473183383
 21
8.7573318604
  0
LINE
  5
30B
100
AcDbEntity
  8
0
100
AcDbLine
 62
7
  6
CONTINUOUS
 10
1.5473183383
 20
8.8573318604
 11
4.5473183383
 21
8.8573318604
  0
LINE
  5
30C
100
AcDbEntity
  8
0
100
AcDbLine
 62
7
  6
CONTINUOUS
 10
17.5473183383
 20
8.8573318604
 11
20.5473183383
 21
8.8573318604
  0
LINE
  5
30D
100
AcDbEntity
  8
0
100
AcDbLine
 62
7
  6
CONTINUOUS
 10
20.4973183383
 20
8.7073318604
 11
20.5473183383
 21
8.7573318604
  0
LINE
  5
30E
100
AcDbEntity
  8
0
100
AcDbLine
 62
7
  6
CONTINUOUS
 10
17.5973183383
 20
8.7073318604
 11
17.5473183383
 21
8.7573318604
  0
LINE
  5
30F
100
AcDbEntity
  8
0
100
AcDbLine
 62
9
  6
CONTINUOUS
 10
17.4223183383
 20
7.3573318604
 11
17.4223183383
 21
6.1073318604
  0
LINE
  5
310
100
AcDbEntity
  8
0
100
AcDbLine
 62
7
  6
CONTINUOUS
 10
17.5473183383
 20
8.7573318604
 11
17.5473183383
 21
8.8573318604
  0
LINE
  5
311
100
AcDbEntity
  8
0
100
AcDbLine
 62
7
  6
CONTINUOUS
 10
17.5473599999
 20
8.6073318604
 11
17.5473599999
 21
8.5323318604
  0
LINE
  5
312
100
AcDbEntity
  8
0
100
AcDbLine
 62
7
  6
CONTINUOUS
 10
17.5478835721
 20
8.6073318604
 11
17.5478835721
 21
8.5323318604
  0
LINE
  5
313
100
AcDbEntity
  8
0
100
AcDbLine
 62
7
  6
CONTINUOUS
 10
17.5486638959
 20
8.6073318604
 11
17.5486638959
 21
8.5323318604
  0
LINE
  5
314
100
AcDbEntity
  8
0
100
AcDbLine
 62
7
  6
CONTINUOUS
 10
17.5502339746
 20
8.6073318604
 11
17.5502339746
 21
8.5323318604
  0
LINE
  5
315
100
AcDbEntity
  8
0
100
AcDbLine
 62
7
  6
CONTINUOUS
 10
17.5517936715
 20
8.6073318604
 11
17.5517936715
 21
8.5323318604
  0
LINE
  5
316
100
AcDbEntity
  8
0
100
AcDbLine
 62
7
  6
CONTINUOUS
 10
17.5544083438
 20
8.6073318604
 11
17.5544083438
 21
8.5323318604
  0
LINE
  5
317
100
AcDbEntity
  8
0
100
AcDbLine
 62
7
  6
CONTINUOUS
 10
17.5567455135
 20
8.6073318604
 11
17.5567455135
 21
8.5323318604
  0
LINE
  5
318
100
AcDbEntity
  8
0
100
AcDbLine
 62
7
  6
CONTINUOUS
 10
17.5604015938
 20
8.6073318604
 11
17.5604015938
 21
8.5323318604
  0
LINE
  5
319
100
AcDbEntity
  8
0
100
AcDbLine
 62
7
  6
CONTINUOUS
 10
17.5635133889
 20
8.6073318604
 11
17.5635133889
 21
8.5323318604
  0
LINE
  5
31A
100
AcDbEntity
  8
0
100
AcDbLine
 62
7
  6
CONTINUOUS
 10
17.5682064228
 20
8.6073318604
 11
17.5682064228
 21
8.5323318604
  0
LINE
  5
31B
100
AcDbEntity
  8
0
100
AcDbLine
 62
7
  6
CONTINUOUS
 10
17.5720890521
 20
8.6073318604
 11
17.5720890521
 21
8.5323318604
  0
LINE
  5
31C
100
AcDbEntity
  8
0
100
AcDbLine
 62
7
  6
CONTINUOUS
 10
17.5778133219
 20
8.6073318604
 11
17.5778133219
 21
8.5323318604
  0
LINE
  5
31D
100
AcDbEntity
  8
0
100
AcDbLine
 62
7
  6
CONTINUOUS
 10
17.5824620549
 20
8.6073318604
 11
17.5824620549
 21
8.5323318604
  0
LINE
  5
31E
100
AcDbEntity
  8
0
100
AcDbLine
 62
7
  6
CONTINUOUS
 10
17.5892105865
 20
8.6073318604
 11
17.5892105865
 21
8.5323318604
  0
LINE
  5
31F
100
AcDbEntity
  8
0
100
AcDbLine
 62
7
  6
CONTINUOUS
 10
17.5946197594
 20
8.6073318604
 11
17.5946197594
 21
8.5323318604
  0
LINE
  5
320
100
AcDbEntity
  8
0
100
AcDbLine
 62
7
  6
CONTINUOUS
 10
17.5973183383
 20
8.6073318604
 11
17.5973183383
 21
8.7073318604
  0
LINE
  5
321
100
AcDbEntity
  8
0
100
AcDbLine
 62
7
  6
CONTINUOUS
 10
17.6023843308
 20
8.6073318604
 11
17.6023843308
 21
8.5323318604
  0
LINE
  5
322
100
AcDbEntity
  8
0
100
AcDbLine
 62
7
  6
CONTINUOUS
 10
17.6085473534
 20
8.6073318604
 11
17.6085473534
 21
8.5323318604
  0
LINE
  5
323
100
AcDbEntity
  8
0
100
AcDbLine
 62
7
  6
CONTINUOUS
 10
17.6173185046
 20
8.6073318604
 11
17.6173185046
 21
8.5323318604
  0
LINE
  5
324
100
AcDbEntity
  8
0
100
AcDbLine
 62
7
  6
CONTINUOUS
 10
17.6242278682
 20
8.6073318604
 11
17.6242278682
 21
8.5323318604
  0
LINE
  5
325
100
AcDbEntity
  8
0
100
AcDbLine
 62
7
  6
CONTINUOUS
 10
17.6339949129
 20
8.6073318604
 11
17.6339949129
 21
8.5323318604
  0
LINE
  5
326
100
AcDbEntity
  8
0
100
AcDbLine
 62
7
  6
CONTINUOUS
 10
17.6416421996
 20
8.6073318604
 11
17.6416421996
 21
8.5323318604
  0
LINE
  5
327
100
AcDbEntity
  8
0
100
AcDbLine
 62
7
  6
CONTINUOUS
 10
17.6523932381
 20
8.6073318604
 11
17.6523932381
 21
8.5323318604
  0
LINE
  5
328
100
AcDbEntity
  8
0
100
AcDbLine
 62
7
  6
CONTINUOUS
 10
17.6607691308
 20
8.6073318604
 11
17.6607691308
 21
8.5323318604
  0
LINE
  5
329
100
AcDbEntity
  8
0
100
AcDbLine
 62
7
  6
CONTINUOUS
 10
17.6724910646
 20
8.6073318604
 11
17.6724910646
 21
8.5323318604
  0
LINE
  5
32A
100
AcDbEntity
  8
0
100
AcDbLine
 62
7
  6
CONTINUOUS
 10
17.6815853586
 20
8.6073318604
 11
17.6815853586
 21
8.5323318604
  0
LINE
  5
32B
100
AcDbEntity
  8
0
100
AcDbLine
 62
7
  6
CONTINUOUS
 10
17.6942639064
 20
8.6073318604
 11
17.6942639064
 21
8.5323318604
  0
LINE
  5
32C
100
AcDbEntity
  8
0
100
AcDbLine
 62
7
  6
CONTINUOUS
 10
17.7040655217
 20
8.6073318604
 11
17.7040655217
 21
8.5323318604
  0
LINE
  5
32D
100
AcDbEntity
  8
0
100
AcDbLine
 62
7
  6
CONTINUOUS
 10
17.7176852367
 20
8.6073318604
 11
17.7176852367
 21
8.5323318604
  0
LINE
  5
32E
100
AcDbEntity
  8
0
100
AcDbLine
 62
7
  6
CONTINUOUS
 10
17.7281822314
 20
8.6073318604
 11
17.7281822314
 21
8.5323318604
  0
LINE
  5
32F
100
AcDbEntity
  8
0
100
AcDbLine
 62
7
  6
CONTINUOUS
 10
17.74272652
 20
8.6073318604
 11
17.74272652
 21
8.5323318604
  0
LINE
  5
330
100
AcDbEntity
  8
0
100
AcDbLine
 62
7
  6
CONTINUOUS
 10
17.7539061053
 20
8.6073318604
 11
17.7539061053
 21
8.5323318604
  0
LINE
  5
331
100
AcDbEntity
  8
0
100
AcDbLine
 62
7
  6
CONTINUOUS
 10
17.7693572475
 20
8.6073318604
 11
17.7693572475
 21
8.5323318604
  0
LINE
  5
332
100
AcDbEntity
  8
0
100
AcDbLine
 62
7
  6
CONTINUOUS
 10
17.7812058027
 20
8.6073318604
 11
17.7812058027
 21
8.5323318604
  0
LINE
  5
333
100
AcDbEntity
  8
0
100
AcDbLine
 62
7
  6
CONTINUOUS
 10
17.7975449738
 20
8.6073318604
 11
17.7975449738
 21
8.5323318604
  0
LINE
  5
334
100
AcDbEntity
  8
0
100
AcDbLine
 62
7
  6
CONTINUOUS
 10
17.8100480632
 20
8.6073318604
 11
17.8100480632
 21
8.5323318604
  0
LINE
  5
335
100
AcDbEntity
  8
0
100
AcDbLine
 62
7
  6
CONTINUOUS
 10
17.8272553563
 20
8.6073318604
 11
17.8272553563
 21
8.5323318604
  0
LINE
  5
336
100
AcDbEntity
  8
0
100
AcDbLine
 62
7
  6
CONTINUOUS
 10
17.840397747
 20
8.6073318604
 11
17.840397747
 21
8.5323318604
  0
LINE
  5
337
100
AcDbEntity
  8
0
100
AcDbLine
 62
7
  6
CONTINUOUS
 10
17.8584521977
 20
8.6073318604
 11
17.8584521977
 21
8.5323318604
  0
LINE
  5
338
100
AcDbEntity
  8
0
100
AcDbLine
 62
7
  6
CONTINUOUS
 10
17.8722178776
 20
8.6073318604
 11
17.8722178776
 21
8.5323318604
  0
LINE
  5
339
100
AcDbEntity
  8
0
100
AcDbLine
 62
7
  6
CONTINUOUS
 10
17.8910974894
 20
8.6073318604
 11
17.8910974894
 21
8.5323318604
  0
LINE
  5
33A
100
AcDbEntity
  8
0
100
AcDbLine
 62
7
  6
CONTINUOUS
 10
17.9054696871
 20
8.6073318604
 11
17.9054696871
 21
8.5323318604
  0
LINE
  5
33B
100
AcDbEntity
  8
0
100
AcDbLine
 62
7
  6
CONTINUOUS
 10
17.925151458
 20
8.6073318604
 11
17.925151458
 21
8.5323318604
  0
LINE
  5
33C
100
AcDbEntity
  8
0
100
AcDbLine
 62
7
  6
CONTINUOUS
 10
17.9401126634
 20
8.6073318604
 11
17.9401126634
 21
8.5323318604
  0
LINE
  5
33D
100
AcDbEntity
  8
0
100
AcDbLine
 62
7
  6
CONTINUOUS
 10
17.9605726142
 20
8.6073318604
 11
17.9605726142
 21
8.5323318604
  0
LINE
  5
33E
100
AcDbEntity
  8
0
100
AcDbLine
 62
7
  6
CONTINUOUS
 10
17.9761045991
 20
8.6073318604
 11
17.9761045991
 21
8.5323318604
  0
LINE
  5
33F
100
AcDbEntity
  8
0
100
AcDbLine
 62
7
  6
CONTINUOUS
 10
17.9973178026
 20
8.6073318604
 11
17.9973178026
 21
8.5323318604
  0
LINE
  5
340
100
AcDbEntity
  8
0
100
AcDbLine
 62
7
  6
CONTINUOUS
 10
18.0134016438
 20
8.6073318604
 11
18.0134016438
 21
8.5323318604
  0
LINE
  5
341
100
AcDbEntity
  8
0
100
AcDbLine
 62
7
  6
CONTINUOUS
 10
18.0346019247
 20
8.5323318604
 11
18.0346019247
 21
8.6073318604
  0
LINE
  5
342
100
AcDbEntity
  8
0
100
AcDbLine
 62
7
  6
CONTINUOUS
 10
18.0353422549
 20
8.6073318604
 11
18.0353422549
 21
8.5323318604
  0
LINE
  5
343
100
AcDbEntity
  8
0
100
AcDbLine
 62
7
  6
CONTINUOUS
 10
18.0519583568
 20
8.6073318604
 11
18.0519583568
 21
8.5323318604
  0
LINE
  5
344
100
AcDbEntity
  8
0
100
AcDbLine
 62
7
  6
CONTINUOUS
 10
18.0731198859
 20
8.5323318604
 11
18.0731198859
 21
8.6073318604
  0
LINE
  5
345
100
AcDbEntity
  8
0
100
AcDbLine
 62
7
  6
CONTINUOUS
 10
18.0745996442
 20
8.6073318604
 11
18.0745996442
 21
8.5323318604
  0
LINE
  5
346
100
AcDbEntity
  8
0
100
AcDbLine
 62
7
  6
CONTINUOUS
 10
18.0917277625
 20
8.6073318604
 11
18.0917277625
 21
8.5323318604
  0
LINE
  5
347
100
AcDbEntity
  8
0
100
AcDbLine
 62
7
  6
CONTINUOUS
 10
18.1128247578
 20
8.5323318604
 11
18.1128247578
 21
8.6073318604
  0
LINE
  5
348
100
AcDbEntity
  8
0
100
AcDbLine
 62
7
  6
CONTINUOUS
 10
18.1150421413
 20
8.6073318604
 11
18.1150421413
 21
8.5323318604
  0
LINE
  5
349
100
AcDbEntity
  8
0
100
AcDbLine
 62
7
  6
CONTINUOUS
 10
18.1326614082
 20
8.6073318604
 11
18.1326614082
 21
8.5323318604
  0
LINE
  5
34A
100
AcDbEntity
  8
0
100
AcDbLine
 62
7
  6
CONTINUOUS
 10
18.1536681662
 20
8.5323318604
 11
18.1536681662
 21
8.6073318604
  0
LINE
  5
34B
100
AcDbEntity
  8
0
100
AcDbLine
 62
7
  6
CONTINUOUS
 10
18.1566204735
 20
8.6073318604
 11
18.1566204735
 21
8.5323318604
  0
LINE
  5
34C
100
AcDbEntity
  8
0
100
AcDbLine
 62
7
  6
CONTINUOUS
 10
18.1723183383
 20
8.3323318604
 11
18.1723183383
 21
8.3173318604
  0
LINE
  5
34D
100
AcDbEntity
  8
0
100
AcDbLine
 62
7
  6
CONTINUOUS
 10
18.1747094224
 20
8.6073318604
 11
18.1747094224
 21
8.5323318604
  0
LINE
  5
34E
100
AcDbEntity
  8
0
100
AcDbLine
 62
7
  6
CONTINUOUS
 10
18.1956003496
 20
8.5323318604
 11
18.1956003496
 21
8.6073318604
  0
LINE
  5
34F
100
AcDbEntity
  8
0
100
AcDbLine
 62
7
  6
CONTINUOUS
 10
18.1992839837
 20
8.6073318604
 11
18.1992839837
 21
8.5323318604
  0
LINE
  5
350
100
AcDbEntity
  8
0
100
AcDbLine
 62
7
  6
CONTINUOUS
 10
18.2178205762
 20
8.6073318604
 11
18.2178205762
 21
8.5323318604
  0
LINE
  5
351
100
AcDbEntity
  8
0
100
AcDbLine
 62
7
  6
CONTINUOUS
 10
18.2385702202
 20
8.5323318604
 11
18.2385702202
 21
8.6073318604
  0
LINE
  5
352
100
AcDbEntity
  8
0
100
AcDbLine
 62
7
  6
CONTINUOUS
 10
18.2429806932
 20
8.6073318604
 11
18.2429806932
 21
8.5323318604
  0
LINE
  5
353
100
AcDbEntity
  8
0
100
AcDbLine
 62
7
  6
CONTINUOUS
 10
18.2619423452
 20
8.6073318604
 11
18.2619423452
 21
8.5323318604
  0
LINE
  5
354
100
AcDbEntity
  8
0
100
AcDbLine
 62
7
  6
CONTINUOUS
 10
18.2825254259
 20
8.5323318604
 11
18.2825254259
 21
8.6073318604
  0
LINE
  5
355
100
AcDbEntity
  8
0
100
AcDbLine
 62
7
  6
CONTINUOUS
 10
18.2876573642
 20
8.6073318604
 11
18.2876573642
 21
8.5323318604
  0
LINE
  5
356
100
AcDbEntity
  8
0
100
AcDbLine
 62
7
  6
CONTINUOUS
 10
18.3070209739
 20
8.6073318604
 11
18.3070209739
 21
8.5323318604
  0
LINE
  5
357
100
AcDbEntity
  8
0
100
AcDbLine
 62
7
  6
CONTINUOUS
 10
18.3274124138
 20
8.5323318604
 11
18.3274124138
 21
8.6073318604
  0
LINE
  5
358
100
AcDbEntity
  8
0
100
AcDbLine
 62
7
  6
CONTINUOUS
 10
18.3332595652
 20
8.6073318604
 11
18.3332595652
 21
8.5323318604
  0
LINE
  5
359
100
AcDbEntity
  8
0
100
AcDbLine
 62
7
  6
CONTINUOUS
 10
18.3530015409
 20
8.6073318604
 11
18.3530015409
 21
8.5323318604
  0
LINE
  5
35A
100
AcDbEntity
  8
0
100
AcDbLine
 62
7
  6
CONTINUOUS
 10
18.3731764963
 20
8.5323318604
 11
18.3731764963
 21
8.6073318604
  0
LINE
  5
35B
100
AcDbEntity
  8
0
100
AcDbLine
 62
7
  6
CONTINUOUS
 10
18.3797317367
 20
8.6073318604
 11
18.3797317367
 21
8.5323318604
  0
LINE
  5
35C
100
AcDbEntity
  8
0
100
AcDbLine
 62
7
  6
CONTINUOUS
 10
18.399828026
 20
8.6073318604
 11
18.399828026
 21
8.5323318604
  0
LINE
  5
35D
100
AcDbEntity
  8
0
100
AcDbLine
 62
7
  6
CONTINUOUS
 10
18.4197619168
 20
8.5323318604
 11
18.4197619168
 21
8.6073318604
  0
LINE
  5
35E
100
AcDbEntity
  8
0
100
AcDbLine
 62
7
  6
CONTINUOUS
 10
18.4270172596
 20
8.6073318604
 11
18.4270172596
 21
8.5323318604
  0
LINE
  5
35F
100
AcDbEntity
  8
0
100
AcDbLine
 62
7
  6
CONTINUOUS
 10
18.4474433783
 20
8.6073318604
 11
18.4474433783
 21
8.5323318604
  0
LINE
  5
360
100
AcDbEntity
  8
0
100
AcDbLine
 62
7
  6
CONTINUOUS
 10
18.467111918
 20
8.5323318604
 11
18.467111918
 21
8.6073318604
  0
LINE
  5
361
100
AcDbEntity
  8
0
100
AcDbLine
 62
7
  6
CONTINUOUS
 10
18.4750585239
 20
8.6073318604
 11
18.4750585239
 21
8.5323318604
  0
LINE
  5
362
100
AcDbEntity
  8
0
100
AcDbLine
 62
7
  6
CONTINUOUS
 10
18.4957895858
 20
8.6073318604
 11
18.4957895858
 21
8.5323318604
  0
LINE
  5
363
100
AcDbEntity
  8
0
100
AcDbLine
 62
7
  6
CONTINUOUS
 10
18.5151688115
 20
8.5323318604
 11
18.5151688115
 21
8.6073318604
  0
LINE
  5
364
100
AcDbEntity
  8
0
100
AcDbLine
 62
7
  6
CONTINUOUS
 10
18.5237969986
 20
8.6073318604
 11
18.5237969986
 21
8.5323318604
  0
LINE
  5
365
100
AcDbEntity
  8
0
100
AcDbLine
 62
7
  6
CONTINUOUS
 10
18.5448077462
 20
8.6073318604
 11
18.5448077462
 21
8.5323318604
  0
LINE
  5
366
100
AcDbEntity
  8
0
100
AcDbLine
 62
7
  6
CONTINUOUS
 10
18.5638740471
 20
8.5323318604
 11
18.5638740471
 21
8.6073318604
  0
LINE
  5
367
100
AcDbEntity
  8
0
100
AcDbLine
 62
7
  6
CONTINUOUS
 10
18.5731733035
 20
8.6073318604
 11
18.5731733035
 21
8.5323318604
  0
LINE
  5
368
100
AcDbEntity
  8
0
100
AcDbLine
 62
7
  6
CONTINUOUS
 10
18.5944381383
 20
8.6073318604
 11
18.5944381383
 21
8.5323318604
  0
LINE
  5
369
100
AcDbEntity
  8
0
100
AcDbLine
 62
7
  6
CONTINUOUS
 10
18.6131682852
 20
8.5323318604
 11
18.6131682852
 21
8.6073318604
  0
LINE
  5
36A
100
AcDbEntity
  8
0
100
AcDbLine
 62
7
  6
CONTINUOUS
 10
18.623127281
 20
8.6073318604
 11
18.623127281
 21
8.5323318604
  0
LINE
  5
36B
100
AcDbEntity
  8
0
100
AcDbLine
 62
7
  6
CONTINUOUS
 10
18.6446202951
 20
8.6073318604
 11
18.6446202951
 21
8.5323318604
  0
LINE
  5
36C
100
AcDbEntity
  8
0
100
AcDbLine
 62
7
  6
CONTINUOUS
 10
18.6629914682
 20
8.5323318604
 11
18.6629914682
 21
8.6073318604
  0
LINE
  5
36D
100
AcDbEntity
  8
0
100
AcDbLine
 62
7
  6
CONTINUOUS
 10
18.6735980699
 20
8.6073318604
 11
18.6735980699
 21
8.5323318604
  0
LINE
  5
36E
100
AcDbEntity
  8
0
100
AcDbLine
 62
7
  6
CONTINUOUS
 10
18.6952930775
 20
8.6073318604
 11
18.6952930775
 21
8.5323318604
  0
LINE
  5
36F
100
AcDbEntity
  8
0
100
AcDbLine
 62
7
  6
CONTINUOUS
 10
18.7132828943
 20
8.5323318604
 11
18.7132828943
 21
8.6073318604
  0
LINE
  5
370
100
AcDbEntity
  8
0
100
AcDbLine
 62
7
  6
CONTINUOUS
 10
18.7245241795
 20
8.6073318604
 11
18.7245241795
 21
8.5323318604
  0
LINE
  5
371
100
AcDbEntity
  8
0
100
AcDbLine
 62
7
  6
CONTINUOUS
 10
18.7463947485
 20
8.6073318604
 11
18.7463947485
 21
8.5323318604
  0
LINE
  5
372
100
AcDbEntity
  8
0
100
AcDbLine
 62
7
  6
CONTINUOUS
 10
18.7639812912
 20
8.5323318604
 11
18.7639812912
 21
8.6073318604
  0
LINE
  5
373
100
AcDbEntity
  8
0
100
AcDbLine
 62
7
  6
CONTINUOUS
 10
18.775843564
 20
8.6073318604
 11
18.775843564
 21
8.5323318604
  0
LINE
  5
374
100
AcDbEntity
  8
0
100
AcDbLine
 62
7
  6
CONTINUOUS
 10
18.7978630485
 20
8.6073318604
 11
18.7978630485
 21
8.5323318604
  0
LINE
  5
375
100
AcDbEntity
  8
0
100
AcDbLine
 62
7
  6
CONTINUOUS
 10
18.8150248906
 20
8.5323318604
 11
18.8150248906
 21
8.6073318604
  0
LINE
  5
376
100
AcDbEntity
  8
0
100
AcDbLine
 62
7
  6
CONTINUOUS
 10
18.8274936987
 20
8.6073318604
 11
18.8274936987
 21
8.5323318604
  0
LINE
  5
377
100
AcDbEntity
  8
0
100
AcDbLine
 62
7
  6
CONTINUOUS
 10
18.8496352713
 20
8.6073318604
 11
18.8496352713
 21
8.5323318604
  0
LINE
  5
378
100
AcDbEntity
  8
0
100
AcDbLine
 62
7
  6
CONTINUOUS
 10
18.8663515038
 20
8.5323318604
 11
18.8663515038
 21
8.6073318604
  0
LINE
  5
379
100
AcDbEntity
  8
0
100
AcDbLine
 62
7
  6
CONTINUOUS
 10
18.8794116559
 20
8.6073318604
 11
18.8794116559
 21
8.5323318604
  0
LINE
  5
37A
100
AcDbEntity
  8
0
100
AcDbLine
 62
7
  6
CONTINUOUS
 10
18.9016483405
 20
8.6073318604
 11
18.9016483405
 21
8.5323318604
  0
LINE
  5
37B
100
AcDbEntity
  8
0
100
AcDbLine
 62
7
  6
CONTINUOUS
 10
18.9178985971
 20
8.5323318604
 11
18.9178985971
 21
8.6073318604
  0
LINE
  5
37C
100
AcDbEntity
  8
0
100
AcDbLine
 62
7
  6
CONTINUOUS
 10
18.9315341815
 20
8.6073318604
 11
18.9315341815
 21
8.5323318604
  0
LINE
  5
37D
100
AcDbEntity
  8
0
100
AcDbLine
 62
7
  6
CONTINUOUS
 10
18.9538388862
 20
8.6073318604
 11
18.9538388862
 21
8.5323318604
  0
LINE
  5
37E
100
AcDbEntity
  8
0
100
AcDbLine
 62
7
  6
CONTINUOUS
 10
18.9696033686
 20
8.5323318604
 11
18.9696033686
 21
8.6073318604
  0
LINE
  5
37F
100
AcDbEntity
  8
0
100
AcDbLine
 62
7
  6
CONTINUOUS
 10
18.9837977722
 20
8.6073318604
 11
18.9837977722
 21
8.5323318604
  0
LINE
  5
380
100
AcDbEntity
  8
0
100
AcDbLine
 62
7
  6
CONTINUOUS
 10
19.0061433222
 20
8.6073318604
 11
19.0061433222
 21
8.5323318604
  0
LINE
  5
381
100
AcDbEntity
  8
0
100
AcDbLine
 62
7
  6
CONTINUOUS
 10
19.0214028237
 20
8.5323318604
 11
19.0214028237
 21
8.6073318604
  0
LINE
  5
382
100
AcDbEntity
  8
0
100
AcDbLine
 62
7
  6
CONTINUOUS
 10
19.036138753
 20
8.6073318604
 11
19.036138753
 21
8.5323318604
  0
LINE
  5
383
100
AcDbEntity
  8
0
100
AcDbLine
 62
7
  6
CONTINUOUS
 10
19.0584979235
 20
8.6073318604
 11
19.0584979235
 21
8.5323318604
  0
LINE
  5
384
100
AcDbEntity
  8
0
100
AcDbLine
 62
7
  6
CONTINUOUS
 10
19.0732338529
 20
8.5323318604
 11
19.0732338529
 21
8.6073318604
  0
LINE
  5
385
100
AcDbEntity
  8
0
100
AcDbLine
 62
7
  6
CONTINUOUS
 10
19.0884933544
 20
8.6073318604
 11
19.0884933544
 21
8.5323318604
  0
LINE
  5
386
100
AcDbEntity
  8
0
100
AcDbLine
 62
7
  6
CONTINUOUS
 10
19.1108389043
 20
8.6073318604
 11
19.1108389043
 21
8.5323318604
  0
LINE
  5
387
100
AcDbEntity
  8
0
100
AcDbLine
 62
7
  6
CONTINUOUS
 10
19.125033308
 20
8.5323318604
 11
19.125033308
 21
8.6073318604
  0
LINE
  5
388
100
AcDbEntity
  8
0
100
AcDbLine
 62
7
  6
CONTINUOUS
 10
19.1407977904
 20
8.6073318604
 11
19.1407977904
 21
8.5323318604
  0
LINE
  5
389
100
AcDbEntity
  8
0
100
AcDbLine
 62
7
  6
CONTINUOUS
 10
19.1631024951
 20
8.6073318604
 11
19.1631024951
 21
8.5323318604
  0
LINE
  5
38A
100
AcDbEntity
  8
0
100
AcDbLine
 62
7
  6
CONTINUOUS
 10
19.1767380794
 20
8.5323318604
 11
19.1767380794
 21
8.6073318604
  0
LINE
  5
38B
100
AcDbEntity
  8
0
100
AcDbLine
 62
7
  6
CONTINUOUS
 10
19.192988336
 20
8.6073318604
 11
19.192988336
 21
8.5323318604
  0
LINE
  5
38C
100
AcDbEntity
  8
0
100
AcDbLine
 62
7
  6
CONTINUOUS
 10
19.2152250207
 20
8.6073318604
 11
19.2152250207
 21
8.5323318604
  0
LINE
  5
38D
100
AcDbEntity
  8
0
100
AcDbLine
 62
7
  6
CONTINUOUS
 10
19.2282851728
 20
8.5323318604
 11
19.2282851728
 21
8.6073318604
  0
LINE
  5
38E
100
AcDbEntity
  8
0
100
AcDbLine
 62
7
  6
CONTINUOUS
 10
19.2450014052
 20
8.6073318604
 11
19.2450014052
 21
8.5323318604
  0
LINE
  5
38F
100
AcDbEntity
  8
0
100
AcDbLine
 62
7
  6
CONTINUOUS
 10
19.2671429779
 20
8.6073318604
 11
19.2671429779
 21
8.5323318604
  0
LINE
  5
390
100
AcDbEntity
  8
0
100
AcDbLine
 62
7
  6
CONTINUOUS
 10
19.279611786
 20
8.5323318604
 11
19.279611786
 21
8.6073318604
  0
LINE
  5
391
100
AcDbEntity
  8
0
100
AcDbLine
 62
7
  6
CONTINUOUS
 10
19.2967736281
 20
8.6073318604
 11
19.2967736281
 21
8.5323318604
  0
LINE
  5
392
100
AcDbEntity
  8
0
100
AcDbLine
 62
7
  6
CONTINUOUS
 10
19.3187931126
 20
8.6073318604
 11
19.3187931126
 21
8.5323318604
  0
LINE
  5
393
100
AcDbEntity
  8
0
100
AcDbLine
 62
7
  6
CONTINUOUS
 10
19.3306553854
 20
8.5323318604
 11
19.3306553854
 21
8.6073318604
  0
LINE
  5
394
100
AcDbEntity
  8
0
100
AcDbLine
 62
7
  6
CONTINUOUS
 10
19.3482419281
 20
8.6073318604
 11
19.3482419281
 21
8.5323318604
  0
LINE
  5
395
100
AcDbEntity
  8
0
100
AcDbLine
 62
7
  6
CONTINUOUS
 10
19.3701124971
 20
8.6073318604
 11
19.3701124971
 21
8.5323318604
  0
LINE
  5
396
100
AcDbEntity
  8
0
100
AcDbLine
 62
7
  6
CONTINUOUS
 10
19.3813537822
 20
8.5323318604
 11
19.3813537822
 21
8.6073318604
  0
LINE
  5
397
100
AcDbEntity
  8
0
100
AcDbLine
 62
7
  6
CONTINUOUS
 10
19.399343599
 20
8.6073318604
 11
19.399343599
 21
8.5323318604
  0
LINE
  5
398
100
AcDbEntity
  8
0
100
AcDbLine
 62
7
  6
CONTINUOUS
 10
19.4210386066
 20
8.6073318604
 11
19.4210386066
 21
8.5323318604
  0
LINE
  5
399
100
AcDbEntity
  8
0
100
AcDbLine
 62
7
  6
CONTINUOUS
 10
19.4316452083
 20
8.5323318604
 11
19.4316452083
 21
8.6073318604
  0
LINE
  5
39A
100
AcDbEntity
  8
0
100
AcDbLine
 62
7
  6
CONTINUOUS
 10
19.4500163814
 20
8.6073318604
 11
19.4500163814
 21
8.5323318604
  0
LINE
  5
39B
100
AcDbEntity
  8
0
100
AcDbLine
 62
7
  6
CONTINUOUS
 10
19.4715093956
 20
8.6073318604
 11
19.4715093956
 21
8.5323318604
  0
LINE
  5
39C
100
AcDbEntity
  8
0
100
AcDbLine
 62
7
  6
CONTINUOUS
 10
19.4814683914
 20
8.5323318604
 11
19.4814683914
 21
8.6073318604
  0
LINE
  5
39D
100
AcDbEntity
  8
0
100
AcDbLine
 62
7
  6
CONTINUOUS
 10
19.5001985383
 20
8.6073318604
 11
19.5001985383
 21
8.5323318604
  0
LINE
  5
39E
100
AcDbEntity
  8
0
100
AcDbLine
 62
7
  6
CONTINUOUS
 10
19.5214633731
 20
8.6073318604
 11
19.5214633731
 21
8.5323318604
  0
LINE
  5
39F
100
AcDbEntity
  8
0
100
AcDbLine
 62
7
  6
CONTINUOUS
 10
19.5307626294
 20
8.5323318604
 11
19.5307626294
 21
8.6073318604
  0
LINE
  5
3A0
100
AcDbEntity
  8
0
100
AcDbLine
 62
7
  6
CONTINUOUS
 10
19.5498289304
 20
8.6073318604
 11
19.5498289304
 21
8.5323318604
  0
LINE
  5
3A1
100
AcDbEntity
  8
0
100
AcDbLine
 62
7
  6
CONTINUOUS
 10
19.5708396779
 20
8.6073318604
 11
19.5708396779
 21
8.5323318604
  0
LINE
  5
3A2
100
AcDbEntity
  8
0
100
AcDbLine
 62
7
  6
CONTINUOUS
 10
19.5794678651
 20
8.5323318604
 11
19.5794678651
 21
8.6073318604
  0
LINE
  5
3A3
100
AcDbEntity
  8
0
100
AcDbLine
 62
7
  6
CONTINUOUS
 10
19.5988470907
 20
8.6073318604
 11
19.5988470907
 21
8.5323318604
  0
LINE
  5
3A4
100
AcDbEntity
  8
0
100
AcDbLine
 62
7
  6
CONTINUOUS
 10
19.6195781526
 20
8.6073318604
 11
19.6195781526
 21
8.5323318604
  0
LINE
  5
3A5
100
AcDbEntity
  8
0
100
AcDbLine
 62
7
  6
CONTINUOUS
 10
19.6275247585
 20
8.5323318604
 11
19.6275247585
 21
8.6073318604
  0
LINE
  5
3A6
100
AcDbEntity
  8
0
100
AcDbLine
 62
7
  6
CONTINUOUS
 10
19.6471932983
 20
8.6073318604
 11
19.6471932983
 21
8.5323318604
  0
LINE
  5
3A7
100
AcDbEntity
  8
0
100
AcDbLine
 62
7
  6
CONTINUOUS
 10
19.6676194169
 20
8.6073318604
 11
19.6676194169
 21
8.5323318604
  0
LINE
  5
3A8
100
AcDbEntity
  8
0
100
AcDbLine
 62
7
  6
CONTINUOUS
 10
19.6748747598
 20
8.5323318604
 11
19.6748747598
 21
8.6073318604
  0
LINE
  5
3A9
100
AcDbEntity
  8
0
100
AcDbLine
 62
7
  6
CONTINUOUS
 10
19.6948086505
 20
8.6073318604
 11
19.6948086505
 21
8.5323318604
  0
LINE
  5
3AA
100
AcDbEntity
  8
0
100
AcDbLine
 62
7
  6
CONTINUOUS
 10
19.7149049399
 20
8.6073318604
 11
19.7149049399
 21
8.5323318604
  0
LINE
  5
3AB
100
AcDbEntity
  8
0
100
AcDbLine
 62
7
  6
CONTINUOUS
 10
19.7214601803
 20
8.5323318604
 11
19.7214601803
 21
8.6073318604
  0
LINE
  5
3AC
100
AcDbEntity
  8
0
100
AcDbLine
 62
7
  6
CONTINUOUS
 10
19.7416351356
 20
8.6073318604
 11
19.7416351356
 21
8.5323318604
  0
LINE
  5
3AD
100
AcDbEntity
  8
0
100
AcDbLine
 62
7
  6
CONTINUOUS
 10
19.7613771114
 20
8.6073318604
 11
19.7613771114
 21
8.5323318604
  0
LINE
  5
3AE
100
AcDbEntity
  8
0
100
AcDbLine
 62
7
  6
CONTINUOUS
 10
19.7672242627
 20
8.5323318604
 11
19.7672242627
 21
8.6073318604
  0
LINE
  5
3AF
100
AcDbEntity
  8
0
100
AcDbLine
 62
7
  6
CONTINUOUS
 10
19.7876157026
 20
8.6073318604
 11
19.7876157026
 21
8.5323318604
  0
LINE
  5
3B0
100
AcDbEntity
  8
0
100
AcDbLine
 62
7
  6
CONTINUOUS
 10
19.8069793123
 20
8.6073318604
 11
19.8069793123
 21
8.5323318604
  0
LINE
  5
3B1
100
AcDbEntity
  8
0
100
AcDbLine
 62
7
  6
CONTINUOUS
 10
19.8121112507
 20
8.5323318604
 11
19.8121112507
 21
8.6073318604
  0
LINE
  5
3B2
100
AcDbEntity
  8
0
100
AcDbLine
 62
7
  6
CONTINUOUS
 10
19.8326943313
 20
8.6073318604
 11
19.8326943313
 21
8.5323318604
  0
LINE
  5
3B3
100
AcDbEntity
  8
0
100
AcDbLine
 62
7
  6
CONTINUOUS
 10
19.8516559833
 20
8.6073318604
 11
19.8516559833
 21
8.5323318604
  0
LINE
  5
3B4
100
AcDbEntity
  8
0
100
AcDbLine
 62
7
  6
CONTINUOUS
 10
19.8560664563
 20
8.5323318604
 11
19.8560664563
 21
8.6073318604
  0
LINE
  5
3B5
100
AcDbEntity
  8
0
100
AcDbLine
 62
7
  6
CONTINUOUS
 10
19.8768161004
 20
8.6073318604
 11
19.8768161004
 21
8.5323318604
  0
LINE
  5
3B6
100
AcDbEntity
  8
0
100
AcDbLine
 62
7
  6
CONTINUOUS
 10
19.8953526928
 20
8.6073318604
 11
19.8953526928
 21
8.5323318604
  0
LINE
  5
3B7
100
AcDbEntity
  8
0
100
AcDbLine
 62
7
  6
CONTINUOUS
 10
19.899036327
 20
8.5323318604
 11
19.899036327
 21
8.6073318604
  0
LINE
  5
3B8
100
AcDbEntity
  8
0
100
AcDbLine
 62
7
  6
CONTINUOUS
 10
19.9199272542
 20
8.6073318604
 11
19.9199272542
 21
8.5323318604
  0
LINE
  5
3B9
100
AcDbEntity
  8
0
100
AcDbLine
 62
7
  6
CONTINUOUS
 10
19.9223183383
 20
8.3173318604
 11
19.9223183383
 21
8.3323318604
  0
LINE
  5
3BA
100
AcDbEntity
  8
0
100
AcDbLine
 62
7
  6
CONTINUOUS
 10
19.9380162031
 20
8.6073318604
 11
19.9380162031
 21
8.5323318604
  0
LINE
  5
3BB
100
AcDbEntity
  8
0
100
AcDbLine
 62
7
  6
CONTINUOUS
 10
19.9409685104
 20
8.5323318604
 11
19.9409685104
 21
8.6073318604
  0
LINE
  5
3BC
100
AcDbEntity
  8
0
100
AcDbLine
 62
7
  6
CONTINUOUS
 10
19.9619752684
 20
8.6073318604
 11
19.9619752684
 21
8.5323318604
  0
LINE
  5
3BD
100
AcDbEntity
  8
0
100
AcDbLine
 62
7
  6
CONTINUOUS
 10
19.9795945352
 20
8.6073318604
 11
19.9795945352
 21
8.5323318604
  0
LINE
  5
3BE
100
AcDbEntity
  8
0
100
AcDbLine
 62
7
  6
CONTINUOUS
 10
19.9818119188
 20
8.5323318604
 11
19.9818119188
 21
8.6073318604
  0
LINE
  5
3BF
100
AcDbEntity
  8
0
100
AcDbLine
 62
7
  6
CONTINUOUS
 10
20.0029089141
 20
8.6073318604
 11
20.0029089141
 21
8.5323318604
  0
LINE
  5
3C0
100
AcDbEntity
  8
0
100
AcDbLine
 62
7
  6
CONTINUOUS
 10
20.0200370324
 20
8.6073318604
 11
20.0200370324
 21
8.5323318604
  0
LINE
  5
3C1
100
AcDbEntity
  8
0
100
AcDbLine
 62
7
  6
CONTINUOUS
 10
20.0215167907
 20
8.5323318604
 11
20.0215167907
 21
8.6073318604
  0
LINE
  5
3C2
100
AcDbEntity
  8
0
100
AcDbLine
 62
7
  6
CONTINUOUS
 10
20.0426783198
 20
8.6073318604
 11
20.0426783198
 21
8.5323318604
  0
LINE
  5
3C3
100
AcDbEntity
  8
0
100
AcDbLine
 62
7
  6
CONTINUOUS
 10
20.0592944217
 20
8.6073318604
 11
20.0592944217
 21
8.5323318604
  0
LINE
  5
3C4
100
AcDbEntity
  8
0
100
AcDbLine
 62
7
  6
CONTINUOUS
 10
20.0600347518
 20
8.5323318604
 11
20.0600347518
 21
8.6073318604
  0
LINE
  5
3C5
100
AcDbEntity
  8
0
100
AcDbLine
 62
7
  6
CONTINUOUS
 10
20.0812350327
 20
8.6073318604
 11
20.0812350327
 21
8.5323318604
  0
LINE
  5
3C6
100
AcDbEntity
  8
0
100
AcDbLine
 62
7
  6
CONTINUOUS
 10
20.097318874
 20
8.6073318604
 11
20.097318874
 21
8.5323318604
  0
LINE
  5
3C7
100
AcDbEntity
  8
0
100
AcDbLine
 62
7
  6
CONTINUOUS
 10
20.1185320774
 20
8.6073318604
 11
20.1185320774
 21
8.5323318604
  0
LINE
  5
3C8
100
AcDbEntity
  8
0
100
AcDbLine
 62
7
  6
CONTINUOUS
 10
20.1340640624
 20
8.6073318604
 11
20.1340640624
 21
8.5323318604
  0
LINE
  5
3C9
100
AcDbEntity
  8
0
100
AcDbLine
 62
7
  6
CONTINUOUS
 10
20.1545240132
 20
8.6073318604
 11
20.1545240132
 21
8.5323318604
  0
LINE
  5
3CA
100
AcDbEntity
  8
0
100
AcDbLine
 62
7
  6
CONTINUOUS
 10
20.1694852185
 20
8.6073318604
 11
20.1694852185
 21
8.5323318604
  0
LINE
  5
3CB
100
AcDbEntity
  8
0
100
AcDbLine
 62
7
  6
CONTINUOUS
 10
20.1891669894
 20
8.6073318604
 11
20.1891669894
 21
8.5323318604
  0
LINE
  5
3CC
100
AcDbEntity
  8
0
100
AcDbLine
 62
7
  6
CONTINUOUS
 10
20.2035391872
 20
8.6073318604
 11
20.2035391872
 21
8.5323318604
  0
LINE
  5
3CD
100
AcDbEntity
  8
0
100
AcDbLine
 62
7
  6
CONTINUOUS
 10
20.2224187989
 20
8.6073318604
 11
20.2224187989
 21
8.5323318604
  0
LINE
  5
3CE
100
AcDbEntity
  8
0
100
AcDbLine
 62
7
  6
CONTINUOUS
 10
20.2361844788
 20
8.6073318604
 11
20.2361844788
 21
8.5323318604
  0
LINE
  5
3CF
100
AcDbEntity
  8
0
100
AcDbLine
 62
7
  6
CONTINUOUS
 10
20.2542389295
 20
8.6073318604
 11
20.2542389295
 21
8.5323318604
  0
LINE
  5
3D0
100
AcDbEntity
  8
0
100
AcDbLine
 62
7
  6
CONTINUOUS
 10
20.2673813202
 20
8.6073318604
 11
20.2673813202
 21
8.5323318604
  0
LINE
  5
3D1
100
AcDbEntity
  8
0
100
AcDbLine
 62
7
  6
CONTINUOUS
 10
20.2845886133
 20
8.6073318604
 11
20.2845886133
 21
8.5323318604
  0
LINE
  5
3D2
100
AcDbEntity
  8
0
100
AcDbLine
 62
7
  6
CONTINUOUS
 10
20.2970917028
 20
8.6073318604
 11
20.2970917028
 21
8.5323318604
  0
LINE
  5
3D3
100
AcDbEntity
  8
0
100
AcDbLine
 62
7
  6
CONTINUOUS
 10
20.3134308739
 20
8.6073318604
 11
20.3134308739
 21
8.5323318604
  0
LINE
  5
3D4
100
AcDbEntity
  8
0
100
AcDbLine
 62
7
  6
CONTINUOUS
 10
20.3252794291
 20
8.6073318604
 11
20.3252794291
 21
8.5323318604
  0
LINE
  5
3D5
100
AcDbEntity
  8
0
100
AcDbLine
 62
7
  6
CONTINUOUS
 10
20.3407305713
 20
8.6073318604
 11
20.3407305713
 21
8.5323318604
  0
LINE
  5
3D6
100
AcDbEntity
  8
0
100
AcDbLine
 62
7
  6
CONTINUOUS
 10
20.3519101566
 20
8.6073318604
 11
20.3519101566
 21
8.5323318604
  0
LINE
  5
3D7
100
AcDbEntity
  8
0
100
AcDbLine
 62
7
  6
CONTINUOUS
 10
20.3664544452
 20
8.6073318604
 11
20.3664544452
 21
8.5323318604
  0
LINE
  5
3D8
100
AcDbEntity
  8
0
100
AcDbLine
 62
7
  6
CONTINUOUS
 10
20.3769514399
 20
8.6073318604
 11
20.3769514399
 21
8.5323318604
  0
LINE
  5
3D9
100
AcDbEntity
  8
0
100
AcDbLine
 62
7
  6
CONTINUOUS
 10
20.3905711549
 20
8.6073318604
 11
20.3905711549
 21
8.5323318604
  0
LINE
  5
3DA
100
AcDbEntity
  8
0
100
AcDbLine
 62
7
  6
CONTINUOUS
 10
20.4003727701
 20
8.6073318604
 11
20.4003727701
 21
8.5323318604
  0
LINE
  5
3DB
100
AcDbEntity
  8
0
100
AcDbLine
 62
7
  6
CONTINUOUS
 10
20.413051318
 20
8.6073318604
 11
20.413051318
 21
8.5323318604
  0
LINE
  5
3DC
100
AcDbEntity
  8
0
100
AcDbLine
 62
7
  6
CONTINUOUS
 10
20.4221456119
 20
8.6073318604
 11
20.4221456119
 21
8.5323318604
  0
LINE
  5
3DD
100
AcDbEntity
  8
0
100
AcDbLine
 62
7
  6
CONTINUOUS
 10
20.4338675458
 20
8.6073318604
 11
20.4338675458
 21
8.5323318604
  0
LINE
  5
3DE
100
AcDbEntity
  8
0
100
AcDbLine
 62
7
  6
CONTINUOUS
 10
20.4422434385
 20
8.6073318604
 11
20.4422434385
 21
8.5323318604
  0
LINE
  5
3DF
100
AcDbEntity
  8
0
100
AcDbLine
 62
7
  6
CONTINUOUS
 10
20.452994477
 20
8.6073318604
 11
20.452994477
 21
8.5323318604
  0
LINE
  5
3E0
100
AcDbEntity
  8
0
100
AcDbLine
 62
7
  6
CONTINUOUS
 10
20.4606417637
 20
8.6073318604
 11
20.4606417637
 21
8.5323318604
  0
LINE
  5
3E1
100
AcDbEntity
  8
0
100
AcDbLine
 62
7
  6
CONTINUOUS
 10
20.4704088083
 20
8.6073318604
 11
20.4704088083
 21
8.5323318604
  0
LINE
  5
3E2
100
AcDbEntity
  8
0
100
AcDbLine
 62
7
  6
CONTINUOUS
 10
20.477318172
 20
8.6073318604
 11
20.477318172
 21
8.5323318604
  0
LINE
  5
3E3
100
AcDbEntity
  8
0
100
AcDbLine
 62
7
  6
CONTINUOUS
 10
20.4860893231
 20
8.6073318604
 11
20.4860893231
 21
8.5323318604
  0
LINE
  5
3E4
100
AcDbEntity
  8
0
100
AcDbLine
 62
7
  6
CONTINUOUS
 10
20.4922523458
 20
8.6073318604
 11
20.4922523458
 21
8.5323318604
  0
LINE
  5
3E5
100
AcDbEntity
  8
0
100
AcDbLine
 62
7
  6
CONTINUOUS
 10
20.4973183383
 20
8.6073318604
 11
20.4973183383
 21
8.7073318604
  0
LINE
  5
3E6
100
AcDbEntity
  8
0
100
AcDbLine
 62
7
  6
CONTINUOUS
 10
20.5000169171
 20
8.6073318604
 11
20.5000169171
 21
8.5323318604
  0
LINE
  5
3E7
100
AcDbEntity
  8
0
100
AcDbLine
 62
7
  6
CONTINUOUS
 10
20.5054260901
 20
8.6073318604
 11
20.5054260901
 21
8.5323318604
  0
LINE
  5
3E8
100
AcDbEntity
  8
0
100
AcDbLine
 62
7
  6
CONTINUOUS
 10
20.5121746217
 20
8.6073318604
 11
20.5121746217
 21
8.5323318604
  0
LINE
  5
3E9
100
AcDbEntity
  8
0
100
AcDbLine
 62
7
  6
CONTINUOUS
 10
20.5168233546
 20
8.6073318604
 11
20.5168233546
 21
8.5323318604
  0
LINE
  5
3EA
100
AcDbEntity
  8
0
100
AcDbLine
 62
7
  6
CONTINUOUS
 10
20.5225476245
 20
8.6073318604
 11
20.5225476245
 21
8.5323318604
  0
LINE
  5
3EB
100
AcDbEntity
  8
0
100
AcDbLine
 62
7
  6
CONTINUOUS
 10
20.5264302537
 20
8.6073318604
 11
20.5264302537
 21
8.5323318604
  0
LINE
  5
3EC
100
AcDbEntity
  8
0
100
AcDbLine
 62
7
  6
CONTINUOUS
 10
20.5311232877
 20
8.6073318604
 11
20.5311232877
 21
8.5323318604
  0
LINE
  5
3ED
100
AcDbEntity
  8
0
100
AcDbLine
 62
7
  6
CONTINUOUS
 10
20.5342350828
 20
8.6073318604
 11
20.5342350828
 21
8.5323318604
  0
LINE
  5
3EE
100
AcDbEntity
  8
0
100
AcDbLine
 62
7
  6
CONTINUOUS
 10
20.5378911631
 20
8.6073318604
 11
20.5378911631
 21
8.5323318604
  0
LINE
  5
3EF
100
AcDbEntity
  8
0
100
AcDbLine
 62
7
  6
CONTINUOUS
 10
20.5402283328
 20
8.6073318604
 11
20.5402283328
 21
8.5323318604
  0
LINE
  5
3F0
100
AcDbEntity
  8
0
100
AcDbLine
 62
7
  6
CONTINUOUS
 10
20.5428430051
 20
8.6073318604
 11
20.5428430051
 21
8.5323318604
  0
LINE
  5
3F1
100
AcDbEntity
  8
0
100
AcDbLine
 62
7
  6
CONTINUOUS
 10
20.544402702
 20
8.6073318604
 11
20.544402702
 21
8.5323318604
  0
LINE
  5
3F2
100
AcDbEntity
  8
0
100
AcDbLine
 62
7
  6
CONTINUOUS
 10
20.5459727807
 20
8.6073318604
 11
20.5459727807
 21
8.5323318604
  0
LINE
  5
3F3
100
AcDbEntity
  8
0
100
AcDbLine
 62
7
  6
CONTINUOUS
 10
20.5467531045
 20
8.6073318604
 11
20.5467531045
 21
8.5323318604
  0
LINE
  5
3F4
100
AcDbEntity
  8
0
100
AcDbLine
 62
7
  6
CONTINUOUS
 10
20.5472766767
 20
8.6073318604
 11
20.5472766767
 21
8.5323318604
  0
LINE
  5
3F5
100
AcDbEntity
  8
0
100
AcDbLine
 62
7
  6
CONTINUOUS
 10
20.5473183383
 20
8.7573318604
 11
20.5473183383
 21
8.8573318604
  0
ARC
  5
3F6
100
AcDbEntity
  8
0
100
AcDbCircle
 62
7
  6
CONTINUOUS
 10
4.6723183383
 20
8.3573318604
 40
2.25
100
AcDbArc
 50
182.5473181826
 51
270.0
  0
ARC
  5
3F7
100
AcDbEntity
  8
0
100
AcDbCircle
 62
7
  6
CONTINUOUS
 10
4.6723183383
 20
8.3573318604
 40
1.0
100
AcDbArc
 50
185.7391704773
 51
270.0
  0
ARC
  5
3F8
100
AcDbEntity
  8
0
100
AcDbCircle
 62
7
  6
CONTINUOUS
 10
4.3223183383
 20
8.3323318604
 40
0.1
100
AcDbArc
 50
90.0
 51
170.4059317731
  0
ARC
  5
3F9
100
AcDbEntity
  8
0
100
AcDbCircle
 62
7
  6
CONTINUOUS
 10
1.7723183383
 20
8.3323318604
 40
0.1
100
AcDbArc
 50
9.5940682269
 51
90.0
  0
ARC
  5
3FA
100
AcDbEntity
  8
0
100
AcDbCircle
 62
7
  6
CONTINUOUS
 10
2.2323183383
 20
8.3173318604
 40
0.06
100
AcDbArc
 50
180.0
 51
270.0
  0
ARC
  5
3FB
100
AcDbEntity
  8
0
100
AcDbCircle
 62
7
  6
CONTINUOUS
 10
3.8623183383
 20
8.3173318604
 40
0.06
100
AcDbArc
 50
270.0
 51
360.0
  0
ARC
  5
3FC
100
AcDbEntity
  8
0
100
AcDbCircle
 62
7
  6
CONTINUOUS
 10
1.8906399339
 20
8.3523318604
 40
0.02
100
AcDbArc
 50
189.5940682269
 51
270.0
  0
ARC
  5
3FD
100
AcDbEntity
  8
0
100
AcDbCircle
 62
7
  6
CONTINUOUS
 10
4.2039967426
 20
8.3523318604
 40
0.02
100
AcDbArc
 50
270.0
 51
350.4059317731
  0
ARC
  5
3FE
100
AcDbEntity
  8
0
100
AcDbCircle
 62
7
  6
CONTINUOUS
 10
4.4723183383
 20
8.4323318604
 40
0.1
100
AcDbArc
 50
92.8356312252
 51
170.4059317731
  0
ARC
  5
3FF
100
AcDbEntity
  8
0
100
AcDbCircle
 62
7
  6
CONTINUOUS
 10
1.6223183383
 20
8.4323318604
 40
0.1
100
AcDbArc
 50
9.5940682269
 51
87.1643687748
  0
ARC
  5
400
100
AcDbEntity
  8
0
100
AcDbCircle
 62
7
  6
CONTINUOUS
 10
1.7406399339
 20
8.4523318604
 40
0.02
100
AcDbArc
 50
189.5940682269
 51
270.0
  0
ARC
  5
401
100
AcDbEntity
  8
0
100
AcDbCircle
 62
7
  6
CONTINUOUS
 10
4.3539967426
 20
8.4523318604
 40
0.02
100
AcDbArc
 50
270.0
 51
350.4059317731
  0
ARC
  5
402
100
AcDbEntity
  8
0
100
AcDbCircle
 62
7
  6
CONTINUOUS
 10
17.4223183383
 20
8.3573318604
 40
2.25
100
AcDbArc
 50
270.0
 51
357.4526818174
  0
ARC
  5
403
100
AcDbEntity
  8
0
100
AcDbCircle
 62
7
  6
CONTINUOUS
 10
17.4223183383
 20
8.3573318604
 40
1.0
100
AcDbArc
 50
270.0
 51
354.2608295227
  0
ARC
  5
404
100
AcDbEntity
  8
0
100
AcDbCircle
 62
7
  6
CONTINUOUS
 10
17.7723183383
 20
8.3323318604
 40
0.1
100
AcDbArc
 50
9.5940682269
 51
90.0
  0
ARC
  5
405
100
AcDbEntity
  8
0
100
AcDbCircle
 62
7
  6
CONTINUOUS
 10
20.3223183383
 20
8.3323318604
 40
0.1
100
AcDbArc
 50
90.0
 51
170.4059317731
  0
ARC
  5
406
100
AcDbEntity
  8
0
100
AcDbCircle
 62
7
  6
CONTINUOUS
 10
18.2323183383
 20
8.3173318604
 40
0.06
100
AcDbArc
 50
180.0
 51
270.0
  0
ARC
  5
407
100
AcDbEntity
  8
0
100
AcDbCircle
 62
7
  6
CONTINUOUS
 10
19.8623183383
 20
8.3173318604
 40
0.06
100
AcDbArc
 50
270.0
 51
360.0
  0
ARC
  5
408
100
AcDbEntity
  8
0
100
AcDbCircle
 62
7
  6
CONTINUOUS
 10
20.2039967426
 20
8.3523318604
 40
0.02
100
AcDbArc
 50
270.0
 51
350.4059317731
  0
ARC
  5
409
100
AcDbEntity
  8
0
100
AcDbCircle
 62
7
  6
CONTINUOUS
 10
17.8906399339
 20
8.3523318604
 40
0.02
100
AcDbArc
 50
189.5940682269
 51
270.0
  0
ARC
  5
40A
100
AcDbEntity
  8
0
100
AcDbCircle
 62
7
  6
CONTINUOUS
 10
17.6223183383
 20
8.4323318604
 40
0.1
100
AcDbArc
 50
9.5940682269
 51
87.1643687748
  0
ARC
  5
40B
100
AcDbEntity
  8
0
100
AcDbCircle
 62
7
  6
CONTINUOUS
 10
20.4723183383
 20
8.4323318604
 40
0.1
100
AcDbArc
 50
92.8356312252
 51
170.4059317731
  0
ARC
  5
40C
100
AcDbEntity
  8
0
100
AcDbCircle
 62
7
  6
CONTINUOUS
 10
20.3539967426
 20
8.4523318604
 40
0.02
100
AcDbArc
 50
270.0
 51
350.4059317731
  0
ARC
  5
40D
100
AcDbEntity
  8
0
100
AcDbCircle
 62
7
  6
CONTINUOUS
 10
17.7406399339
 20
8.4523318604
 40
0.02
100
AcDbArc
 50
189.5940682269
 51
270.0
  0
ENDSEC
  0
SECTION
  2
OBJECTS
  0
DICTIONARY
  5
C
100
AcDbDictionary
280
0
281
1
  3
ACAD_GROUP
350
D
  3
ACAD_MLINESTYLE
350
17
  3
ACAD_LAYOUT
350
1A
  3
ACAD_PLOTSETTINGS
350
19
  3
ACAD_PLOTSTYLENAME
350
E
  0
DICTIONARY
  5
D
102
{ACAD_REACTORS
330
C
102
}
100
AcDbDictionary
280
0
281
1
  0
ACDBDICTIONARYWDFLT
  5
E
102
{ACAD_REACTORS
330
C
102
}
100
AcDbDictionary
281
1
  3
Normal
350
F
100
AcDbDictionaryWithDefault
340
F
  0
DICTIONARY
  5
17
102
{ACAD_REACTORS
330
C
102
}
100
AcDbDictionary
280
0
281
1
  3
Standard
350
18
  0
DICTIONARY
  5
19
102
{ACAD_REACTORS
330
C
102
}
100
AcDbDictionary
281
1
  0
DICTIONARY
  5
1A
102
{ACAD_REACTORS
330
C
102
}
100
AcDbDictionary
281
1
  3
Model
350
40E
  3
Layout1
350
40F
  0
ACDBPLACEHOLDER
  5
F
102
{ACAD_REACTORS
330
E
102
}
  0
MLINESTYLE
  5
18
102
{ACAD_REACTORS
330
17
102
}
100
AcDbMlineStyle
  2
STANDARD
 70
0
  3

 62
256
 51
90.0
 52
90.0
 71
2
 49
0.5
 62
256
  6
BYLAYER
 49
-0.5
 62
256
  6
BYLAYER
  0
LAYOUT
  5
40E
102
{ACAD_REACTORS
330
1A
102
}
100
AcDbPlotSettings
  1

  2
none_device
  4
ANSI_C_(22.00_x_17.00_Inches)
  6

 40
0.0
 41
0.0
 42
0.0
 43
0.0
 44
558.8
 45
431.8
 46
0.0
 47
0.0
 48
0.0
 49
0.0
140
0.0
141
0.0
142
1.0
143
1.0
 70
1024
 72
0
 73
0
 74
0
  7

 75
0
147
1.0
148
0.0
149
0.0
100
AcDbLayout
  1
Model
 70
0
 71
0
 10
0.0
 20
0.0
 11
22.0
 21
17.0
 12
0.0
 22
0.0
 32
0.0
 14
0.0
 24
0.0
 34
0.0
 15
0.0
 25
0.0
 35
0.0
146
0.0
 13
0.0
 23
0.0
 33
0.0
 16
1.0
 26
0.0
 36
0.0
 17
0.0
 27
1.0
 37
0.0
 76
0
330
205
345
0
346
0
  0
LAYOUT
  5
40F
102
{ACAD_REACTORS
330
1A
102
}
100
AcDbPlotSettings
  1

  2
none_device
  4
ANSI_C_(22.00_x_17.00_Inches)
  6

 40
0.0
 41
0.0
 42
0.0
 43
0.0
 44
558.8
 45
431.8
 46
0.0
 47
0.0
 48
0.0
 49
0.0
140
0.0
141
0.0
142
1.0
143
1.0
 70
0
 72
0
 73
0
 74
0
  7

 75
0
147
1.0
148
0.0
149
0.0
100
AcDbLayout
  1
Layout1
 70
0
 71
1
 10
0.0
 20
0.0
 11
22.0
 21
17.0
 12
0.0
 22
0.0
 32
0.0
 14
0.0
 24
0.0
 34
0.0
 15
0.0
 25
0.0
 35
0.0
146
0.0
 13
0.0
 23
0.0
 33
0.0
 16
1.0
 26
0.0
 36
0.0
 17
0.0
 27
1.0
 37
0.0
 76
0
330
206
345
0
346
0
  0
ENDSEC
  0
EOF
