999
DXF file: E:\BT Custom\CADOUTPUT\_FRONT.dxf
999
Pro/ENGINEER 2018400 by Parametric Technology Corporation
  0
SECTION
  2
HEADER
  9
$ACADVER
  1
AC1018
  9
$DWGCODEPAGE
  3
ANSI_1252
  9
$EXTMAX
 10
22.0
 20
17.0
 30
0.0
  9
$EXTMIN
 10
0.0
 20
0.0
 30
0.0
  9
$LIMMIN
 10
0.0
 20
0.0
  9
$LIMMAX
 10
22.0
 20
17.0
  9
$VIEWCTR
 10
11.0
 20
8.5
  9
$VIEWSIZE
 40
17.0
  9
$CLAYER
  8
0
  9
$LTSCALE
 40
1.21
  9
$CELTYPE
  6
BYLAYER
  9
$DIMSCALE
 40
1.0
  9
$DIMASZ
 40
0.1
  9
$DIMEXO
 40
0.0625
  9
$DIMDLI
 40
0.836
  9
$DIMEXE
 40
0.125
  9
$DIMCEN
 40
0.198
  9
$DIMLFAC
 40
1.0
  9
$DIMBLK
  1
_FILLED
  9
$DIMALT
 70
1
  9
$DIMALTD
 70
2
  9
$DIMALTTD
 70
2
  9
$DIMALTF
 40
25.4
  9
$DIMTXT
 40
0.08
  9
$DIMTOL
 70
1
  9
$DIMLIM
 70
0
  9
$DIMTFAC
 40
1.0
  9
$DIMTP
 40
0.001
  9
$DIMTM
 40
0.001
  9
$DIMGAP
 40
0.09
  9
$DIMDSEP
 70
46
  9
$AUNITS
 70
0
  9
$PDMODE
 70
3
  9
$PDSIZE
 40
0.06
  9
$HANDSEED
  5
59C
  9
$TILEMODE
 70
1
  9
$MEASUREMENT
 70
0
  9
$INSUNITS
 70
1
  0
ENDSEC
  0
SECTION
  2
CLASSES
  0
CLASS
  1
ACDBDICTIONARYWDFLT
  2
AcDbDictionaryWithDefault
  3
AutoCAD 2000
 90
0
 91
1
280
0
281
0
  0
CLASS
  1
ACDBPLACEHOLDER
  2
AcDbPlaceHolder
  3
AutoCAD 2000
 90
0
 91
1
280
0
281
0
  0
CLASS
  1
LAYOUT
  2
AcDbLayout
  3
AutoCAD 2000
 90
0
 91
0
280
0
281
0
  0
ENDSEC
  0
SECTION
  2
TABLES
  0
TABLE
  2
VPORT
  5
8
100
AcDbSymbolTable
 70
2
  0
VPORT
  5
1F4
100
AcDbSymbolTableRecord
100
AcDbViewportTableRecord
  2
*ACTIVE
 70
0
 10
0.0
 20
0.0
 11
1.0
 21
1.0
 12
11.0
 22
8.5
 13
0.0
 23
0.0
 14
1.0
 24
1.0
 15
0.0
 25
0.0
 16
0.0
 26
0.0
 36
1.0
 17
0.0
 27
0.0
 37
0.0
 40
17.0
 41
1.2941176471
 42
50.0
 43
0.0
 44
0.0
 50
0.0
 51
0.0
 71
0
 72
100
 73
1
 74
1
 75
0
 76
0
 77
0
 78
0
  0
ENDTAB
  0
TABLE
  2
LTYPE
  5
5
100
AcDbSymbolTable
 70
6
  0
LTYPE
  5
14
100
AcDbSymbolTableRecord
100
AcDbLinetypeTableRecord
  2
BYBLOCK
 70
0
  3

 72
65
 73
0
 40
0.0
  0
LTYPE
  5
15
100
AcDbSymbolTableRecord
100
AcDbLinetypeTableRecord
  2
BYLAYER
 70
0
  3

 72
65
 73
0
 40
0.0
  0
LTYPE
  5
16
100
AcDbSymbolTableRecord
100
AcDbLinetypeTableRecord
  2
CONTINUOUS
 70
64
  3
Solid line
 72
65
 73
0
 40
0.0
  0
LTYPE
  5
1F5
100
AcDbSymbolTableRecord
100
AcDbLinetypeTableRecord
  2
CENTER
 70
64
  3
____ _ ____ _ ____ _ ____ _ ____ _ ____ _ ____
 72
65
 73
4
 40
0.6
 49
0.375
 74
0
 49
-0.075
 74
0
 49
0.075
 74
0
 49
-0.075
 74
0
  0
LTYPE
  5
1F6
100
AcDbSymbolTableRecord
100
AcDbLinetypeTableRecord
  2
HIDDEN
 70
64
  3
- - - - - - - - - - - - - - - - - - - -
 72
65
 73
2
 40
0.2
 49
0.1
 74
0
 49
-0.1
 74
0
  0
LTYPE
  5
1F7
100
AcDbSymbolTableRecord
100
AcDbLinetypeTableRecord
  2
PHANTOM
 70
64
  3
_____ _ _ _____ _ _ _____ _ _ _____
 72
65
 73
6
 40
0.8
 49
0.45
 74
0
 49
-0.05
 74
0
 49
0.1
 74
0
 49
-0.05
 74
0
 49
0.1
 74
0
 49
-0.05
 74
0
  0
LTYPE
  5
1F8
100
AcDbSymbolTableRecord
100
AcDbLinetypeTableRecord
  2
DOT
 70
64
  3
. . . . . . . . . . . . . . . . . . . .
 72
65
 73
2
 40
0.2
 49
0.1
 74
0
 49
-0.1
 74
0
  0
LTYPE
  5
1F9
100
AcDbSymbolTableRecord
100
AcDbLinetypeTableRecord
  2
DASHED
 70
64
  3
- - - - - - - - - - - - - - - - - - - -
 72
65
 73
2
 40
0.2
 49
0.1
 74
0
 49
-0.1
 74
0
  0
ENDTAB
  0
TABLE
  2
LAYER
  5
2
100
AcDbSymbolTable
 70
36
  0
LAYER
  5
10
100
AcDbSymbolTableRecord
100
AcDbLayerTableRecord
  2
0
 70
0
 62
7
  6
CONTINUOUS
370
-3
390
F
  0
LAYER
  5
1FA
100
AcDbSymbolTableRecord
100
AcDbLayerTableRecord
  2
DEFAULT_1
 70
0
 62
7
  6
CENTER
370
-3
390
F
  0
LAYER
  5
1FB
100
AcDbSymbolTableRecord
100
AcDbLayerTableRecord
  2
DEFAULT_2
 70
0
 62
8
  6
HIDDEN
370
-3
390
F
  0
LAYER
  5
1FC
100
AcDbSymbolTableRecord
100
AcDbLayerTableRecord
  2
DEFAULT_3
 70
0
 62
7
  6
PHANTOM
370
-3
390
F
  0
LAYER
  5
1FD
100
AcDbSymbolTableRecord
100
AcDbLayerTableRecord
  2
ALL_FEATURES
 70
0
 62
7
  6
CONTINUOUS
370
-3
390
F
  0
LAYER
  5
1FE
100
AcDbSymbolTableRecord
100
AcDbLayerTableRecord
  2
AXES_FEATURES
 70
0
 62
7
  6
CONTINUOUS
370
-3
390
F
  0
LAYER
  5
1FF
100
AcDbSymbolTableRecord
100
AcDbLayerTableRecord
  2
DEFAULT_COORDINATE_SYSTEM
 70
0
 62
7
  6
CONTINUOUS
370
-3
390
F
  0
LAYER
  5
200
100
AcDbSymbolTableRecord
100
AcDbLayerTableRecord
  2
DEFAULT_DATUM_AXES
 70
0
 62
7
  6
CONTINUOUS
370
-3
390
F
  0
LAYER
  5
201
100
AcDbSymbolTableRecord
100
AcDbLayerTableRecord
  2
DEFAULT_DATUM_PLANES
 70
0
 62
7
  6
CONTINUOUS
370
-3
390
F
  0
LAYER
  5
202
100
AcDbSymbolTableRecord
100
AcDbLayerTableRecord
  2
DIMENSIONS
 70
0
 62
7
  6
CONTINUOUS
370
-3
390
F
  0
ENDTAB
  0
TABLE
  2
STYLE
  5
3
100
AcDbSymbolTable
 70
1
  0
STYLE
  5
11
100
AcDbSymbolTableRecord
100
AcDbTextStyleTableRecord
  2
STANDARD
 70
0
 40
0.0
 41
0.8
 50
0.0
 71
0
 42
0.2
  3
txt
  4

  0
STYLE
  5
203
100
AcDbSymbolTableRecord
100
AcDbTextStyleTableRecord
  2
TEXTSTYLE_1
 70
0
 40
0.0
 41
0.8
 50
0.0
 71
0
 42
0.2
  3
gdt
  4

  0
ENDTAB
  0
TABLE
  2
VIEW
  5
6
100
AcDbSymbolTable
 70
0
  0
ENDTAB
  0
TABLE
  2
UCS
  5
7
100
AcDbSymbolTable
 70
0
  0
ENDTAB
  0
TABLE
  2
APPID
  5
9
100
AcDbSymbolTable
 70
1
  0
APPID
  5
204
100
AcDbSymbolTableRecord
100
AcDbRegAppTableRecord
  2
ACAD
 70
0
  0
ENDTAB
  0
TABLE
  2
BLOCK_RECORD
  5
1
100
AcDbSymbolTable
 70
0
  0
BLOCK_RECORD
  5
205
100
AcDbSymbolTableRecord
100
AcDbBlockTableRecord
  2
*Model_Space
  0
BLOCK_RECORD
  5
206
100
AcDbSymbolTableRecord
100
AcDbBlockTableRecord
  2
*Paper_Space
  0
BLOCK_RECORD
  5
207
100
AcDbSymbolTableRecord
100
AcDbBlockTableRecord
  2
_FILLED
  0
ENDTAB
  0
TABLE
  2
DIMSTYLE
  5
A
100
AcDbSymbolTable
 70
1
100
AcDbDimStyleTable
 71
0
  0
DIMSTYLE
105
208
100
AcDbSymbolTableRecord
100
AcDbDimStyleTableRecord
  2
STANDARD
 70
0
  3

  4

 40
1.0
 41
0.1
 42
0.0625
 43
0.38
 44
0.125
 45
0.0
 46
0.0
 47
0.001
 48
0.001
140
0.08
141
0.09
142
0.0
143
25.4
144
1.0
145
0.0
146
1.0
147
0.09
 71
1.0
 72
0.0
 73
1
 74
1
 75
0
 76
0
 77
0
 78
4
 79
1
170
1
171
2
172
0
173
0
174
0
175
0
176
0
177
0
178
0
270
2
179
3
271
3
272
3
273
2
274
2
275
0
280
0
281
0
282
0
283
1
284
4
285
0
286
0
287
3
288
0
340
11
278
46
341
207
342
207
343
207
344
207
  0
ENDTAB
  0
ENDSEC
  0
SECTION
  2
BLOCKS
  0
BLOCK
  5
20
100
AcDbEntity
  8
0
100
AcDbBlockBegin
  2
*Model_Space
 70
0
 10
0.0
 20
0.0
 30
0.0
  3
*Model_Space
  1

  0
ENDBLK
  5
21
100
AcDbEntity
  8
0
100
AcDbBlockEnd
  0
BLOCK
  5
1C
100
AcDbEntity
  8
0
100
AcDbBlockBegin
  2
*Paper_Space
 70
0
 10
0.0
 20
0.0
 30
0.0
  3
*Paper_Space
  1

  0
ENDBLK
  5
1D
100
AcDbEntity
  8
0
100
AcDbBlockEnd
  0
BLOCK
  5
209
100
AcDbEntity
  8
0
100
AcDbBlockBegin
  2
_FILLED
 70
64
 10
0.0
 20
0.0
  3
_FILLED
  1

  0
SOLID
  5
20A
100
AcDbEntity
  8
0
  6
BYBLOCK
 62
0
100
AcDbTrace
 10
0.0
 20
0.0
 11
-1.0
 21
0.2
 12
-1.0
 22
-0.2
 13
-1.0
 23
-0.2
  0
ENDBLK
  5
20B
100
AcDbEntity
  8
0
  6
BYBLOCK
 62
0
100
AcDbBlockEnd
  0
ENDSEC
  0
SECTION
  2
ENTITIES
  0
LINE
  5
20C
100
AcDbEntity
  8
0
100
AcDbLine
 62
7
  6
CONTINUOUS
 10
-7.9945838542
 20
8.0925690415
 11
-7.9968012378
 21
8.1136660368
  0
LINE
  5
20D
100
AcDbEntity
  8
0
100
AcDbLine
 62
7
  6
CONTINUOUS
 10
-8.2163111226
 20
10.2021630826
 11
-8.2185285062
 21
10.2232600779
  0
LINE
  5
20E
100
AcDbEntity
  8
0
100
AcDbLine
 62
7
  6
CONTINUOUS
 10
-8.0350263514
 20
8.125820851
 11
-8.0365061097
 21
8.1469823801
  0
LINE
  5
20F
100
AcDbEntity
  8
0
100
AcDbLine
 62
7
  6
CONTINUOUS
 10
-8.1829947793
 20
10.2418679545
 11
-8.1844745375
 21
10.2630294837
  0
LINE
  5
210
100
AcDbEntity
  8
0
100
AcDbLine
 62
7
  6
CONTINUOUS
 10
-8.0742837407
 20
8.1604638272
 11
-8.0750240708
 21
8.1816641081
  0
LINE
  5
211
100
AcDbEntity
  8
0
100
AcDbLine
 62
7
  6
CONTINUOUS
 10
-8.1483130513
 20
10.2803859157
 11
-8.1490533814
 21
10.3015861966
  0
LINE
  5
212
100
AcDbEntity
  8
0
100
AcDbLine
 62
7
  6
CONTINUOUS
 10
-8.112308193
 20
8.196455763
 11
-8.112308193
 21
8.2176689664
  0
LINE
  5
213
100
AcDbEntity
  8
0
100
AcDbLine
 62
7
  6
CONTINUOUS
 10
-8.112308193
 20
10.3176700379
 11
-8.112308193
 21
10.3388832413
  0
LINE
  5
214
100
AcDbEntity
  8
0
100
AcDbLine
 62
7
  6
CONTINUOUS
 10
-8.1490533814
 20
8.2337528077
 11
-8.1483130513
 21
8.2549530886
  0
LINE
  5
215
100
AcDbEntity
  8
0
100
AcDbLine
 62
7
  6
CONTINUOUS
 10
-8.0750240708
 20
10.3536748961
 11
-8.0742837407
 21
10.3748751771
  0
LINE
  5
216
100
AcDbEntity
  8
0
100
AcDbLine
 62
7
  6
CONTINUOUS
 10
-8.1844745375
 20
8.2723095206
 11
-8.1829947793
 21
8.2934710497
  0
LINE
  5
217
100
AcDbEntity
  8
0
100
AcDbLine
 62
7
  6
CONTINUOUS
 10
-8.0365061097
 20
10.3883566241
 11
-8.0350263514
 21
10.4095181533
  0
LINE
  5
218
100
AcDbEntity
  8
0
100
AcDbLine
 62
7
  6
CONTINUOUS
 10
-8.2185285062
 20
8.3120789264
 11
-8.2163111226
 21
8.3331759216
  0
LINE
  5
219
100
AcDbEntity
  8
0
100
AcDbLine
 62
7
  6
CONTINUOUS
 10
-7.9968012378
 20
10.4216729675
 11
-7.9945838542
 21
10.4427699628
  0
LINE
  5
21A
100
AcDbEntity
  8
0
100
AcDbLine
 62
7
  6
CONTINUOUS
 10
-8.2511737978
 20
8.353012572
 11
-8.2482214905
 21
8.37401933
  0
LINE
  5
21B
100
AcDbEntity
  8
0
100
AcDbLine
 62
7
  6
CONTINUOUS
 10
-7.9559578294
 20
10.4535833354
 11
-7.9530055221
 21
10.4745900934
  0
LINE
  5
21C
100
AcDbEntity
  8
0
100
AcDbLine
 62
7
  6
CONTINUOUS
 10
-8.2823706392
 20
8.3950605863
 11
-8.2786870051
 21
8.4159515135
  0
LINE
  5
21D
100
AcDbEntity
  8
0
100
AcDbLine
 62
7
  6
CONTINUOUS
 10
-7.9140256459
 20
10.48404885
 11
-7.9103420118
 21
10.5049397772
  0
LINE
  5
21E
100
AcDbEntity
  8
0
100
AcDbLine
 62
7
  6
CONTINUOUS
 10
-8.3120810218
 20
8.4381717401
 11
-8.3076705488
 21
8.4589213841
  0
LINE
  5
21F
100
AcDbEntity
  8
0
100
AcDbLine
 62
7
  6
CONTINUOUS
 10
-7.8710557753
 20
10.5130323937
 11
-7.8666453023
 21
10.5337820377
  0
LINE
  5
220
100
AcDbEntity
  8
0
100
AcDbLine
 62
7
  6
CONTINUOUS
 10
-8.340268748
 20
8.4822935091
 11
-8.3351368097
 21
8.5028765897
  0
LINE
  5
221
100
AcDbEntity
  8
0
100
AcDbLine
 62
7
  6
CONTINUOUS
 10
-7.8271005697
 20
10.5404986545
 11
-7.8219686313
 21
10.5610817352
  0
LINE
  5
222
100
AcDbEntity
  8
0
100
AcDbLine
 62
7
  6
CONTINUOUS
 10
-8.3668994755
 20
8.5273721378
 11
-8.3610523242
 21
8.5477635777
  0
LINE
  5
223
100
AcDbEntity
  8
0
100
AcDbLine
 62
7
  6
CONTINUOUS
 10
-7.7822135817
 20
10.5664141691
 11
-7.7763664304
 21
10.586805609
  0
LINE
  5
224
100
AcDbEntity
  8
0
100
AcDbLine
 62
7
  6
CONTINUOUS
 10
-8.3919407589
 20
8.5733527048
 11
-8.3853855185
 21
8.5935276602
  0
LINE
  5
225
100
AcDbEntity
  8
0
100
AcDbLine
 62
7
  6
CONTINUOUS
 10
-7.7364494992
 20
10.5907473634
 11
-7.7298942589
 21
10.6109223188
  0
LINE
  5
226
100
AcDbEntity
  8
0
100
AcDbLine
 62
7
  6
CONTINUOUS
 10
-7.7298942589
 20
7.9244166855
 11
-7.7364494992
 21
7.9445916409
  0
LINE
  5
227
100
AcDbEntity
  8
0
100
AcDbLine
 62
7
  6
CONTINUOUS
 10
-8.3853855185
 20
9.9418113441
 11
-8.3919407589
 21
9.9619862995
  0
LINE
  5
228
100
AcDbEntity
  8
0
100
AcDbLine
 62
7
  6
CONTINUOUS
 10
-7.7763664304
 20
7.9485333952
 11
-7.7822135817
 21
7.9689248352
  0
LINE
  5
229
100
AcDbEntity
  8
0
100
AcDbLine
 62
7
  6
CONTINUOUS
 10
-8.3610523242
 20
9.9875754266
 11
-8.3668994755
 21
10.0079668665
  0
LINE
  5
22A
100
AcDbEntity
  8
0
100
AcDbLine
 62
7
  6
CONTINUOUS
 10
-7.8219686313
 20
7.9742572691
 11
-7.8271005697
 21
7.9948403498
  0
LINE
  5
22B
100
AcDbEntity
  8
0
100
AcDbLine
 62
7
  6
CONTINUOUS
 10
-8.3351368097
 20
10.0324624146
 11
-8.340268748
 21
10.0530454952
  0
LINE
  5
22C
100
AcDbEntity
  8
0
100
AcDbLine
 62
7
  6
CONTINUOUS
 10
-7.8666453023
 20
8.0015569666
 11
-7.8710557753
 21
8.0223066106
  0
LINE
  5
22D
100
AcDbEntity
  8
0
100
AcDbLine
 62
7
  6
CONTINUOUS
 10
-8.3076705488
 20
10.0764176202
 11
-8.3120810218
 21
10.0971672642
  0
LINE
  5
22E
100
AcDbEntity
  8
0
100
AcDbLine
 62
7
  6
CONTINUOUS
 10
-7.9103420118
 20
8.0303992271
 11
-7.9140256459
 21
8.0512901543
  0
LINE
  5
22F
100
AcDbEntity
  8
0
100
AcDbLine
 62
7
  6
CONTINUOUS
 10
-8.2786870051
 20
10.1193874908
 11
-8.2823706392
 21
10.140278418
  0
LINE
  5
230
100
AcDbEntity
  8
0
100
AcDbLine
 62
7
  6
CONTINUOUS
 10
-7.9530055221
 20
8.0607489109
 11
-7.9559578294
 21
8.0817556689
  0
LINE
  5
231
100
AcDbEntity
  8
0
100
AcDbLine
 62
7
  6
CONTINUOUS
 10
-8.2482214905
 20
10.1613196743
 11
-8.2511737978
 21
10.1823264323
  0
LINE
  5
232
100
AcDbEntity
  8
0
100
AcDbLine
 62
7
  6
CONTINUOUS
 10
-6.1300314603
 20
10.4427699628
 11
-6.1278140768
 21
10.4216729675
  0
LINE
  5
233
100
AcDbEntity
  8
0
100
AcDbLine
 62
7
  6
CONTINUOUS
 10
-5.9083041919
 20
8.3331759216
 11
-5.9060868083
 21
8.3120789264
  0
LINE
  5
234
100
AcDbEntity
  8
0
100
AcDbLine
 62
7
  6
CONTINUOUS
 10
-6.0895889631
 20
10.4095181533
 11
-6.0881092049
 21
10.3883566241
  0
LINE
  5
235
100
AcDbEntity
  8
0
100
AcDbLine
 62
7
  6
CONTINUOUS
 10
-5.9416205353
 20
8.2934710497
 11
-5.940140777
 21
8.2723095206
  0
LINE
  5
236
100
AcDbEntity
  8
0
100
AcDbLine
 62
7
  6
CONTINUOUS
 10
-6.0503315738
 20
10.3748751771
 11
-6.0495912437
 21
10.3536748961
  0
LINE
  5
237
100
AcDbEntity
  8
0
100
AcDbLine
 62
7
  6
CONTINUOUS
 10
-5.9763022633
 20
8.2549530886
 11
-5.9755619331
 21
8.2337528077
  0
LINE
  5
238
100
AcDbEntity
  8
0
100
AcDbLine
 62
7
  6
CONTINUOUS
 10
-6.0123071215
 20
10.3388832413
 11
-6.0123071215
 21
10.3176700379
  0
LINE
  5
239
100
AcDbEntity
  8
0
100
AcDbLine
 62
7
  6
CONTINUOUS
 10
-6.0123071215
 20
8.2176689664
 11
-6.0123071215
 21
8.196455763
  0
LINE
  5
23A
100
AcDbEntity
  8
0
100
AcDbLine
 62
7
  6
CONTINUOUS
 10
-5.9755619331
 20
10.3015861966
 11
-5.9763022633
 21
10.2803859157
  0
LINE
  5
23B
100
AcDbEntity
  8
0
100
AcDbLine
 62
7
  6
CONTINUOUS
 10
-6.0495912437
 20
8.1816641081
 11
-6.0503315738
 21
8.1604638272
  0
LINE
  5
23C
100
AcDbEntity
  8
0
100
AcDbLine
 62
7
  6
CONTINUOUS
 10
-5.940140777
 20
10.2630294837
 11
-5.9416205353
 21
10.2418679545
  0
LINE
  5
23D
100
AcDbEntity
  8
0
100
AcDbLine
 62
7
  6
CONTINUOUS
 10
-6.0881092049
 20
8.1469823801
 11
-6.0895889631
 21
8.125820851
  0
LINE
  5
23E
100
AcDbEntity
  8
0
100
AcDbLine
 62
7
  6
CONTINUOUS
 10
-5.9060868083
 20
10.2232600779
 11
-5.9083041919
 21
10.2021630826
  0
LINE
  5
23F
100
AcDbEntity
  8
0
100
AcDbLine
 62
7
  6
CONTINUOUS
 10
-6.1278140768
 20
8.1136660368
 11
-6.1300314603
 21
8.0925690415
  0
LINE
  5
240
100
AcDbEntity
  8
0
100
AcDbLine
 62
7
  6
CONTINUOUS
 10
-8.4153620891
 20
8.6201791899
 11
-8.4081067462
 21
8.6401130806
  0
LINE
  5
241
100
AcDbEntity
  8
0
100
AcDbLine
 62
7
  6
CONTINUOUS
 10
-7.6898640788
 20
10.6134685911
 11
-7.6826087359
 21
10.6334024818
  0
LINE
  5
242
100
AcDbEntity
  8
0
100
AcDbLine
 62
7
  6
CONTINUOUS
 10
-8.4371349309
 20
8.6677945422
 11
-8.429188325
 21
8.6874630819
  0
LINE
  5
243
100
AcDbEntity
  8
0
100
AcDbLine
 62
7
  6
CONTINUOUS
 10
-7.6425140775
 20
10.6345501699
 11
-7.6345674716
 21
10.6542187097
  0
LINE
  5
244
100
AcDbEntity
  8
0
100
AcDbLine
 62
7
  6
CONTINUOUS
 10
-8.4572327575
 20
8.7161407497
 11
-8.4486045703
 21
8.7355199753
  0
LINE
  5
245
100
AcDbEntity
  8
0
100
AcDbLine
 62
7
  6
CONTINUOUS
 10
-7.5944571841
 20
10.6539664152
 11
-7.5858289969
 21
10.6733456408
  0
LINE
  5
246
100
AcDbEntity
  8
0
100
AcDbLine
 62
7
  6
CONTINUOUS
 10
-8.4756310827
 20
8.76515891
 11
-8.4663318264
 21
8.784225211
  0
LINE
  5
247
100
AcDbEntity
  8
0
100
AcDbLine
 62
7
  6
CONTINUOUS
 10
-7.5457519484
 20
10.6716936712
 11
-7.5364526921
 21
10.6907599722
  0
LINE
  5
248
100
AcDbEntity
  8
0
100
AcDbLine
 62
7
  6
CONTINUOUS
 10
-8.492307491
 20
8.8147893021
 11
-8.4823484952
 21
8.8335194491
  0
LINE
  5
249
100
AcDbEntity
  8
0
100
AcDbLine
 62
7
  6
CONTINUOUS
 10
-7.4964577103
 20
10.6877103401
 11
-7.4864987146
 21
10.706440487
  0
LINE
  5
24A
100
AcDbEntity
  8
0
100
AcDbLine
 62
7
  6
CONTINUOUS
 10
-7.4864987146
 20
7.8288985173
 11
-7.4964577103
 21
7.8476286642
  0
LINE
  5
24B
100
AcDbEntity
  8
0
100
AcDbLine
 62
7
  6
CONTINUOUS
 10
-8.4823484952
 20
9.7018195552
 11
-8.492307491
 21
9.7205497021
  0
LINE
  5
24C
100
AcDbEntity
  8
0
100
AcDbLine
 62
7
  6
CONTINUOUS
 10
-7.5364526921
 20
7.8445790321
 11
-7.5457519484
 21
7.863645333
  0
LINE
  5
24D
100
AcDbEntity
  8
0
100
AcDbLine
 62
7
  6
CONTINUOUS
 10
-8.4663318264
 20
9.7511137933
 11
-8.4756310827
 21
9.7701800942
  0
LINE
  5
24E
100
AcDbEntity
  8
0
100
AcDbLine
 62
7
  6
CONTINUOUS
 10
-7.5858289969
 20
7.8619933634
 11
-7.5944571841
 21
7.8813725891
  0
LINE
  5
24F
100
AcDbEntity
  8
0
100
AcDbLine
 62
7
  6
CONTINUOUS
 10
-8.4486045703
 20
9.7998190289
 11
-8.4572327575
 21
9.8191982546
  0
LINE
  5
250
100
AcDbEntity
  8
0
100
AcDbLine
 62
7
  6
CONTINUOUS
 10
-7.6345674716
 20
7.8811202946
 11
-7.6425140775
 21
7.9007888344
  0
LINE
  5
251
100
AcDbEntity
  8
0
100
AcDbLine
 62
7
  6
CONTINUOUS
 10
-8.429188325
 20
9.8478759224
 11
-8.4371349309
 21
9.8675444621
  0
LINE
  5
252
100
AcDbEntity
  8
0
100
AcDbLine
 62
7
  6
CONTINUOUS
 10
-7.6826087359
 20
7.9019365224
 11
-7.6898640788
 21
7.9218704132
  0
LINE
  5
253
100
AcDbEntity
  8
0
100
AcDbLine
 62
7
  6
CONTINUOUS
 10
-8.4081067462
 20
9.8952259237
 11
-8.4153620891
 21
9.9151598144
  0
LINE
  5
254
100
AcDbEntity
  8
0
100
AcDbLine
 62
9
  6
CONTINUOUS
 10
-5.4373076573
 20
9.8926695021
 11
-5.4373076573
 21
8.6426695021
  0
LINE
  5
255
100
AcDbEntity
  8
0
100
AcDbLine
 62
7
  6
CONTINUOUS
 10
-5.8734415167
 20
10.1823264323
 11
-5.876393824
 21
10.1613196743
  0
LINE
  5
256
100
AcDbEntity
  8
0
100
AcDbLine
 62
7
  6
CONTINUOUS
 10
-6.1686574851
 20
8.0817556689
 11
-6.1716097924
 21
8.0607489109
  0
LINE
  5
257
100
AcDbEntity
  8
0
100
AcDbLine
 62
7
  6
CONTINUOUS
 10
-5.8422446753
 20
10.140278418
 11
-5.8459283094
 21
10.1193874908
  0
LINE
  5
258
100
AcDbEntity
  8
0
100
AcDbLine
 62
7
  6
CONTINUOUS
 10
-6.2105896686
 20
8.0512901543
 11
-6.2142733027
 21
8.0303992271
  0
LINE
  5
259
100
AcDbEntity
  8
0
100
AcDbLine
 62
7
  6
CONTINUOUS
 10
-5.8125342927
 20
10.0971672642
 11
-5.8169447657
 21
10.0764176202
  0
LINE
  5
25A
100
AcDbEntity
  8
0
100
AcDbLine
 62
7
  6
CONTINUOUS
 10
-6.2535595392
 20
8.0223066106
 11
-6.2579700122
 21
8.0015569666
  0
LINE
  5
25B
100
AcDbEntity
  8
0
100
AcDbLine
 62
7
  6
CONTINUOUS
 10
-5.7843465665
 20
10.0530454952
 11
-5.7894785049
 21
10.0324624146
  0
LINE
  5
25C
100
AcDbEntity
  8
0
100
AcDbLine
 62
7
  6
CONTINUOUS
 10
-6.2975147448
 20
7.9948403498
 11
-6.3026466832
 21
7.9742572691
  0
LINE
  5
25D
100
AcDbEntity
  8
0
100
AcDbLine
 62
7
  6
CONTINUOUS
 10
-5.757715839
 20
10.0079668665
 11
-5.7635629903
 21
9.9875754266
  0
LINE
  5
25E
100
AcDbEntity
  8
0
100
AcDbLine
 62
7
  6
CONTINUOUS
 10
-6.3424017328
 20
7.9689248352
 11
-6.3482488841
 21
7.9485333952
  0
LINE
  5
25F
100
AcDbEntity
  8
0
100
AcDbLine
 62
7
  6
CONTINUOUS
 10
-5.7326745556
 20
9.9619862995
 11
-5.739229796
 21
9.9418113441
  0
LINE
  5
260
100
AcDbEntity
  8
0
100
AcDbLine
 62
7
  6
CONTINUOUS
 10
-6.3881658153
 20
7.9445916409
 11
-6.3947210557
 21
7.9244166855
  0
LINE
  5
261
100
AcDbEntity
  8
0
100
AcDbLine
 62
7
  6
CONTINUOUS
 10
-5.7092532254
 20
9.9151598144
 11
-5.7165085683
 21
9.8952259237
  0
LINE
  5
262
100
AcDbEntity
  8
0
100
AcDbLine
 62
7
  6
CONTINUOUS
 10
-6.4347512357
 20
7.9218704132
 11
-6.4420065786
 21
7.9019365224
  0
LINE
  5
263
100
AcDbEntity
  8
0
100
AcDbLine
 62
7
  6
CONTINUOUS
 10
-6.482101237
 20
7.9007888344
 11
-6.4900478429
 21
7.8811202946
  0
LINE
  5
264
100
AcDbEntity
  8
0
100
AcDbLine
 62
7
  6
CONTINUOUS
 10
-8.5072416648
 20
8.864971459
 11
-8.4966350631
 21
8.8833426321
  0
LINE
  5
265
100
AcDbEntity
  8
0
100
AcDbLine
 62
7
  6
CONTINUOUS
 10
-7.4466345273
 20
10.7019969079
 11
-7.4360279256
 21
10.720368081
  0
LINE
  5
266
100
AcDbEntity
  8
0
100
AcDbLine
 62
7
  6
CONTINUOUS
 10
-8.520415409
 20
8.9156442414
 11
-8.5091741239
 21
8.9336340582
  0
LINE
  5
267
100
AcDbEntity
  8
0
100
AcDbLine
 62
7
  6
CONTINUOUS
 10
-7.3963431012
 20
10.7145359688
 11
-7.3851018161
 21
10.7325257856
  0
LINE
  5
268
100
AcDbEntity
  8
0
100
AcDbLine
 62
7
  6
CONTINUOUS
 10
-8.5318126736
 20
8.9667459124
 11
-8.5199504008
 21
8.984332455
  0
LINE
  5
269
100
AcDbEntity
  8
0
100
AcDbLine
 62
7
  6
CONTINUOUS
 10
-7.3456447044
 20
10.7253122457
 11
-7.3337824315
 21
10.7428987884
  0
LINE
  5
26A
100
AcDbEntity
  8
0
100
AcDbLine
 62
7
  6
CONTINUOUS
 10
-8.5414195727
 20
9.0182142124
 11
-8.5289507646
 21
9.0353760544
  0
LINE
  5
26B
100
AcDbEntity
  8
0
100
AcDbLine
 62
7
  6
CONTINUOUS
 10
-7.294601105
 20
10.7343126094
 11
-7.2821322968
 21
10.7514744515
  0
LINE
  5
26C
100
AcDbEntity
  8
0
100
AcDbLine
 62
7
  6
CONTINUOUS
 10
-7.2821322968
 20
7.7838645528
 11
-7.294601105
 21
7.8010263948
  0
LINE
  5
26D
100
AcDbEntity
  8
0
100
AcDbLine
 62
7
  6
CONTINUOUS
 10
-8.5289507646
 20
9.4999629498
 11
-8.5414195727
 21
9.5171247919
  0
LINE
  5
26E
100
AcDbEntity
  8
0
100
AcDbLine
 62
7
  6
CONTINUOUS
 10
-7.3337824315
 20
7.7924402159
 11
-7.3456447044
 21
7.8100267586
  0
LINE
  5
26F
100
AcDbEntity
  8
0
100
AcDbLine
 62
7
  6
CONTINUOUS
 10
-8.5199504008
 20
9.5510065492
 11
-8.5318126736
 21
9.5685930919
  0
LINE
  5
270
100
AcDbEntity
  8
0
100
AcDbLine
 62
7
  6
CONTINUOUS
 10
-7.3851018161
 20
7.8028132187
 11
-7.3963431012
 21
7.8208030355
  0
LINE
  5
271
100
AcDbEntity
  8
0
100
AcDbLine
 62
7
  6
CONTINUOUS
 10
-8.5091741239
 20
9.6017049461
 11
-8.520415409
 21
9.6196947629
  0
LINE
  5
272
100
AcDbEntity
  8
0
100
AcDbLine
 62
7
  6
CONTINUOUS
 10
-7.4360279256
 20
7.8149709233
 11
-7.4466345273
 21
7.8333420964
  0
LINE
  5
273
100
AcDbEntity
  8
0
100
AcDbLine
 62
7
  6
CONTINUOUS
 10
-8.4966350631
 20
9.6519963722
 11
-8.5072416648
 21
9.6703675453
  0
LINE
  5
274
100
AcDbEntity
  8
0
100
AcDbLine
 62
7
  6
CONTINUOUS
 10
-6.4900478429
 20
10.6542187097
 11
-6.482101237
 21
10.6345501699
  0
LINE
  5
275
100
AcDbEntity
  8
0
100
AcDbLine
 62
7
  6
CONTINUOUS
 10
-6.4420065786
 20
10.6334024818
 11
-6.4347512357
 21
10.6134685911
  0
LINE
  5
276
100
AcDbEntity
  8
0
100
AcDbLine
 62
7
  6
CONTINUOUS
 10
-5.7165085683
 20
8.6401130806
 11
-5.7092532254
 21
8.6201791899
  0
LINE
  5
277
100
AcDbEntity
  8
0
100
AcDbLine
 62
7
  6
CONTINUOUS
 10
-6.3947210557
 20
10.6109223188
 11
-6.3881658153
 21
10.5907473634
  0
LINE
  5
278
100
AcDbEntity
  8
0
100
AcDbLine
 62
7
  6
CONTINUOUS
 10
-5.739229796
 20
8.5935276602
 11
-5.7326745556
 21
8.5733527048
  0
LINE
  5
279
100
AcDbEntity
  8
0
100
AcDbLine
 62
7
  6
CONTINUOUS
 10
-6.3482488841
 20
10.586805609
 11
-6.3424017328
 21
10.5664141691
  0
LINE
  5
27A
100
AcDbEntity
  8
0
100
AcDbLine
 62
7
  6
CONTINUOUS
 10
-5.7635629903
 20
8.5477635777
 11
-5.757715839
 21
8.5273721378
  0
LINE
  5
27B
100
AcDbEntity
  8
0
100
AcDbLine
 62
7
  6
CONTINUOUS
 10
-6.3026466832
 20
10.5610817352
 11
-6.2975147448
 21
10.5404986545
  0
LINE
  5
27C
100
AcDbEntity
  8
0
100
AcDbLine
 62
7
  6
CONTINUOUS
 10
-5.7894785049
 20
8.5028765897
 11
-5.7843465665
 21
8.4822935091
  0
LINE
  5
27D
100
AcDbEntity
  8
0
100
AcDbLine
 62
7
  6
CONTINUOUS
 10
-6.2579700122
 20
10.5337820377
 11
-6.2535595392
 21
10.5130323937
  0
LINE
  5
27E
100
AcDbEntity
  8
0
100
AcDbLine
 62
7
  6
CONTINUOUS
 10
-5.8169447657
 20
8.4589213841
 11
-5.8125342927
 21
8.4381717401
  0
LINE
  5
27F
100
AcDbEntity
  8
0
100
AcDbLine
 62
7
  6
CONTINUOUS
 10
-6.2142733027
 20
10.5049397772
 11
-6.2105896686
 21
10.48404885
  0
LINE
  5
280
100
AcDbEntity
  8
0
100
AcDbLine
 62
7
  6
CONTINUOUS
 10
-5.8459283094
 20
8.4159515135
 11
-5.8422446753
 21
8.3950605863
  0
LINE
  5
281
100
AcDbEntity
  8
0
100
AcDbLine
 62
7
  6
CONTINUOUS
 10
-6.1716097924
 20
10.4745900934
 11
-6.1686574851
 21
10.4535833354
  0
LINE
  5
282
100
AcDbEntity
  8
0
100
AcDbLine
 62
7
  6
CONTINUOUS
 10
-5.876393824
 20
8.37401933
 11
-5.8734415167
 21
8.353012572
  0
LINE
  5
283
100
AcDbEntity
  8
0
100
AcDbLine
 62
7
  6
CONTINUOUS
 10
-6.5301581305
 20
7.8813725891
 11
-6.5387863176
 21
7.8619933634
  0
LINE
  5
284
100
AcDbEntity
  8
0
100
AcDbLine
 62
7
  6
CONTINUOUS
 10
-6.5788633661
 20
7.863645333
 11
-6.5881626224
 21
7.8445790321
  0
LINE
  5
285
100
AcDbEntity
  8
0
100
AcDbLine
 62
7
  6
CONTINUOUS
 10
-6.6281576042
 20
7.8476286642
 11
-6.6381165999
 21
7.8288985173
  0
LINE
  5
286
100
AcDbEntity
  8
0
100
AcDbLine
 62
7
  6
CONTINUOUS
 10
-6.6779807872
 20
7.8333420964
 11
-6.6885873889
 21
7.8149709233
  0
LINE
  5
287
100
AcDbEntity
  8
0
100
AcDbLine
 62
7
  6
CONTINUOUS
 10
-6.7282722133
 20
7.8208030355
 11
-6.7395134985
 21
7.8028132187
  0
LINE
  5
288
100
AcDbEntity
  8
0
100
AcDbLine
 62
7
  6
CONTINUOUS
 10
-8.5492244018
 20
9.0699864352
 11
-8.5361642496
 21
9.0867026676
  0
LINE
  5
289
100
AcDbEntity
  8
0
100
AcDbLine
 62
7
  6
CONTINUOUS
 10
-7.2432744918
 20
10.7415260945
 11
-7.2302143397
 21
10.7582423269
  0
LINE
  5
28A
100
AcDbEntity
  8
0
100
AcDbLine
 62
7
  6
CONTINUOUS
 10
-8.5552176518
 20
9.1219995044
 11
-8.5415820675
 21
9.138249761
  0
LINE
  5
28B
100
AcDbEntity
  8
0
100
AcDbLine
 62
7
  6
CONTINUOUS
 10
-7.1917273984
 20
10.7469439123
 11
-7.1780918141
 21
10.763194169
  0
LINE
  5
28C
100
AcDbEntity
  8
0
100
AcDbLine
 62
7
  6
CONTINUOUS
 10
-8.559392021
 20
9.1741900501
 11
-8.5451976173
 21
9.1899545324
  0
LINE
  5
28D
100
AcDbEntity
  8
0
100
AcDbLine
 62
7
  6
CONTINUOUS
 10
-7.140022627
 20
10.7505594622
 11
-7.1258282233
 21
10.7663239445
  0
LINE
  5
28E
100
AcDbEntity
  8
0
100
AcDbLine
 62
7
  6
CONTINUOUS
 10
-7.1258282233
 20
7.7690150598
 11
-7.140022627
 21
7.7847795421
  0
LINE
  5
28F
100
AcDbEntity
  8
0
100
AcDbLine
 62
7
  6
CONTINUOUS
 10
-8.5451976173
 20
9.3453844719
 11
-8.559392021
 21
9.3611489542
  0
LINE
  5
290
100
AcDbEntity
  8
0
100
AcDbLine
 62
7
  6
CONTINUOUS
 10
-7.1780918141
 20
7.7721448353
 11
-7.1917273984
 21
7.7883950919
  0
LINE
  5
291
100
AcDbEntity
  8
0
100
AcDbLine
 62
7
  6
CONTINUOUS
 10
-8.5415820675
 20
9.3970892433
 11
-8.5552176518
 21
9.4133394999
  0
LINE
  5
292
100
AcDbEntity
  8
0
100
AcDbLine
 62
7
  6
CONTINUOUS
 10
-7.2302143397
 20
7.7770966774
 11
-7.2432744918
 21
7.7938129098
  0
LINE
  5
293
100
AcDbEntity
  8
0
100
AcDbLine
 62
7
  6
CONTINUOUS
 10
-8.5361642496
 20
9.4486363367
 11
-8.5492244018
 21
9.4653525691
  0
LINE
  5
294
100
AcDbEntity
  8
0
100
AcDbLine
 62
7
  6
CONTINUOUS
 10
-6.7395134985
 20
10.7325257856
 11
-6.7282722133
 21
10.7145359688
  0
LINE
  5
295
100
AcDbEntity
  8
0
100
AcDbLine
 62
7
  6
CONTINUOUS
 10
-6.6885873889
 20
10.720368081
 11
-6.6779807872
 21
10.7019969079
  0
LINE
  5
296
100
AcDbEntity
  8
0
100
AcDbLine
 62
7
  6
CONTINUOUS
 10
-6.6381165999
 20
10.706440487
 11
-6.6281576042
 21
10.6877103401
  0
LINE
  5
297
100
AcDbEntity
  8
0
100
AcDbLine
 62
7
  6
CONTINUOUS
 10
-6.5881626224
 20
10.6907599722
 11
-6.5788633661
 21
10.6716936712
  0
LINE
  5
298
100
AcDbEntity
  8
0
100
AcDbLine
 62
7
  6
CONTINUOUS
 10
-6.5387863176
 20
10.6733456408
 11
-6.5301581305
 21
10.6539664152
  0
LINE
  5
299
100
AcDbEntity
  8
0
100
AcDbLine
 62
7
  6
CONTINUOUS
 10
-6.7789706102
 20
7.8100267586
 11
-6.790832883
 21
7.7924402159
  0
LINE
  5
29A
100
AcDbEntity
  8
0
100
AcDbLine
 62
7
  6
CONTINUOUS
 10
-6.8300142096
 20
7.8010263948
 11
-6.8424830177
 21
7.7838645528
  0
LINE
  5
29B
100
AcDbEntity
  8
0
100
AcDbLine
 62
7
  6
CONTINUOUS
 10
-6.8813408227
 20
7.7938129098
 11
-6.8944009749
 21
7.7770966774
  0
LINE
  5
29C
100
AcDbEntity
  8
0
100
AcDbLine
 62
7
  6
CONTINUOUS
 10
-8.5617424234
 20
9.226494486
 11
-8.5470064941
 21
9.2417539875
  0
LINE
  5
29D
100
AcDbEntity
  8
0
100
AcDbLine
 62
7
  6
CONTINUOUS
 10
-7.0882231719
 20
10.752368339
 11
-7.0734872425
 21
10.7676278405
  0
LINE
  5
29E
100
AcDbEntity
  8
0
100
AcDbLine
 62
7
  6
CONTINUOUS
 10
-8.5622659956
 20
9.2788490874
 11
-8.5470064941
 21
9.2935850167
  0
LINE
  5
29F
100
AcDbEntity
  8
0
100
AcDbLine
 62
7
  6
CONTINUOUS
 10
-7.0363921427
 20
10.752368339
 11
-7.0211326411
 21
10.7671042683
  0
LINE
  5
2A0
100
AcDbEntity
  8
0
100
AcDbLine
 62
7
  6
CONTINUOUS
 10
-8.5609620997
 20
9.3311900682
 11
-8.5451976173
 21
9.3453844719
  0
LINE
  5
2A1
100
AcDbEntity
  8
0
100
AcDbLine
 62
7
  6
CONTINUOUS
 10
-6.9845926875
 20
10.7505594622
 11
-6.9688282052
 21
10.7647538658
  0
LINE
  5
2A2
100
AcDbEntity
  8
0
100
AcDbLine
 62
7
  6
CONTINUOUS
 10
-6.9688282052
 20
7.7705851384
 11
-6.9845926875
 21
7.7847795421
  0
LINE
  5
2A3
100
AcDbEntity
  8
0
100
AcDbLine
 62
7
  6
CONTINUOUS
 10
-8.5451976173
 20
9.1899545324
 11
-8.5609620997
 21
9.2041489361
  0
LINE
  5
2A4
100
AcDbEntity
  8
0
100
AcDbLine
 62
7
  6
CONTINUOUS
 10
-7.0211326411
 20
7.768234736
 11
-7.0363921427
 21
7.7829706653
  0
LINE
  5
2A5
100
AcDbEntity
  8
0
100
AcDbLine
 62
7
  6
CONTINUOUS
 10
-8.5470064941
 20
9.2417539875
 11
-8.5622659956
 21
9.2564899169
  0
LINE
  5
2A6
100
AcDbEntity
  8
0
100
AcDbLine
 62
7
  6
CONTINUOUS
 10
-7.0734872425
 20
7.7677111638
 11
-7.0882231719
 21
7.7829706653
  0
LINE
  5
2A7
100
AcDbEntity
  8
0
100
AcDbLine
 62
7
  6
CONTINUOUS
 10
-8.5470064941
 20
9.2935850167
 11
-8.5617424234
 21
9.3088445183
  0
LINE
  5
2A8
100
AcDbEntity
  8
0
100
AcDbLine
 62
7
  6
CONTINUOUS
 10
-6.8944009749
 20
10.7582423269
 11
-6.8813408227
 21
10.7415260945
  0
LINE
  5
2A9
100
AcDbEntity
  8
0
100
AcDbLine
 62
7
  6
CONTINUOUS
 10
-6.8424830177
 20
10.7514744515
 11
-6.8300142096
 21
10.7343126094
  0
LINE
  5
2AA
100
AcDbEntity
  8
0
100
AcDbLine
 62
7
  6
CONTINUOUS
 10
-6.790832883
 20
10.7428987884
 11
-6.7789706102
 21
10.7253122457
  0
LINE
  5
2AB
100
AcDbEntity
  8
0
100
AcDbLine
 62
7
  6
CONTINUOUS
 10
-6.9328879161
 20
7.7883950919
 11
-6.9465235005
 21
7.7721448353
  0
LINE
  5
2AC
100
AcDbEntity
  8
0
100
AcDbLine
 62
7
  6
CONTINUOUS
 10
-6.9845926875
 20
7.7847795421
 11
-6.9987870912
 21
7.7690150598
  0
LINE
  5
2AD
100
AcDbEntity
  8
0
100
AcDbLine
 62
7
  6
CONTINUOUS
 10
-7.0363921427
 20
7.7829706653
 11
-7.051128072
 21
7.7677111638
  0
LINE
  5
2AE
100
AcDbEntity
  8
0
100
AcDbLine
 62
7
  6
CONTINUOUS
 10
-8.5578323241
 20
9.3834536589
 11
-8.5415820675
 21
9.3970892433
  0
LINE
  5
2AF
100
AcDbEntity
  8
0
100
AcDbLine
 62
7
  6
CONTINUOUS
 10
-6.9328879161
 20
10.7469439123
 11
-6.9166376595
 21
10.7605794967
  0
LINE
  5
2B0
100
AcDbEntity
  8
0
100
AcDbLine
 62
7
  6
CONTINUOUS
 10
-8.5528804821
 20
9.4355761845
 11
-8.5361642496
 21
9.4486363367
  0
LINE
  5
2B1
100
AcDbEntity
  8
0
100
AcDbLine
 62
7
  6
CONTINUOUS
 10
-6.8813408227
 20
10.7415260945
 11
-6.8646245903
 21
10.7545862466
  0
LINE
  5
2B2
100
AcDbEntity
  8
0
100
AcDbLine
 62
7
  6
CONTINUOUS
 10
-8.5461126067
 20
9.4874941417
 11
-8.5289507646
 21
9.4999629498
  0
LINE
  5
2B3
100
AcDbEntity
  8
0
100
AcDbLine
 62
7
  6
CONTINUOUS
 10
-6.8300142096
 20
10.7343126094
 11
-6.8128523675
 21
10.7467814176
  0
LINE
  5
2B4
100
AcDbEntity
  8
0
100
AcDbLine
 62
7
  6
CONTINUOUS
 10
-6.8128523675
 20
7.7885575867
 11
-6.8300142096
 21
7.8010263948
  0
LINE
  5
2B5
100
AcDbEntity
  8
0
100
AcDbLine
 62
7
  6
CONTINUOUS
 10
-8.5289507646
 20
9.0353760544
 11
-8.5461126067
 21
9.0478448626
  0
LINE
  5
2B6
100
AcDbEntity
  8
0
100
AcDbLine
 62
7
  6
CONTINUOUS
 10
-6.8646245903
 20
7.7807527577
 11
-6.8813408227
 21
7.7938129098
  0
LINE
  5
2B7
100
AcDbEntity
  8
0
100
AcDbLine
 62
7
  6
CONTINUOUS
 10
-8.5361642496
 20
9.0867026676
 11
-8.5528804821
 21
9.0997628197
  0
LINE
  5
2B8
100
AcDbEntity
  8
0
100
AcDbLine
 62
7
  6
CONTINUOUS
 10
-6.9166376595
 20
7.7747595076
 11
-6.9328879161
 21
7.7883950919
  0
LINE
  5
2B9
100
AcDbEntity
  8
0
100
AcDbLine
 62
7
  6
CONTINUOUS
 10
-8.5415820675
 20
9.138249761
 11
-8.5578323241
 21
9.1518853453
  0
LINE
  5
2BA
100
AcDbEntity
  8
0
100
AcDbLine
 62
7
  6
CONTINUOUS
 10
-7.051128072
 20
10.7676278405
 11
-7.0363921427
 21
10.752368339
  0
LINE
  5
2BB
100
AcDbEntity
  8
0
100
AcDbLine
 62
7
  6
CONTINUOUS
 10
-6.9987870912
 20
10.7663239445
 11
-6.9845926875
 21
10.7505594622
  0
LINE
  5
2BC
100
AcDbEntity
  8
0
100
AcDbLine
 62
7
  6
CONTINUOUS
 10
-6.9465235005
 20
10.763194169
 11
-6.9328879161
 21
10.7469439123
  0
LINE
  5
2BD
100
AcDbEntity
  8
0
100
AcDbLine
 62
7
  6
CONTINUOUS
 10
-7.0882231719
 20
7.7829706653
 11
-7.1034826734
 21
7.768234736
  0
LINE
  5
2BE
100
AcDbEntity
  8
0
100
AcDbLine
 62
7
  6
CONTINUOUS
 10
-7.140022627
 20
7.7847795421
 11
-7.1557871094
 21
7.7705851384
  0
LINE
  5
2BF
100
AcDbEntity
  8
0
100
AcDbLine
 62
7
  6
CONTINUOUS
 10
-7.1917273984
 20
7.7883950919
 11
-7.207977655
 21
7.7747595076
  0
LINE
  5
2C0
100
AcDbEntity
  8
0
100
AcDbLine
 62
7
  6
CONTINUOUS
 10
-8.5375369435
 20
9.5391442764
 11
-8.5199504008
 21
9.5510065492
  0
LINE
  5
2C1
100
AcDbEntity
  8
0
100
AcDbLine
 62
7
  6
CONTINUOUS
 10
-6.7789706102
 20
10.7253122457
 11
-6.7613840675
 21
10.7371745185
  0
LINE
  5
2C2
100
AcDbEntity
  8
0
100
AcDbLine
 62
7
  6
CONTINUOUS
 10
-8.5271639407
 20
9.5904636609
 11
-8.5091741239
 21
9.6017049461
  0
LINE
  5
2C3
100
AcDbEntity
  8
0
100
AcDbLine
 62
7
  6
CONTINUOUS
 10
-6.7282722133
 20
10.7145359688
 11
-6.7102823965
 21
10.7257772539
  0
LINE
  5
2C4
100
AcDbEntity
  8
0
100
AcDbLine
 62
7
  6
CONTINUOUS
 10
-6.7102823965
 20
7.8095617504
 11
-6.7282722133
 21
7.8208030355
  0
LINE
  5
2C5
100
AcDbEntity
  8
0
100
AcDbLine
 62
7
  6
CONTINUOUS
 10
-8.5091741239
 20
8.9336340582
 11
-8.5271639407
 21
8.9448753433
  0
LINE
  5
2C6
100
AcDbEntity
  8
0
100
AcDbLine
 62
7
  6
CONTINUOUS
 10
-6.7613840675
 20
7.7981644858
 11
-6.7789706102
 21
7.8100267586
  0
LINE
  5
2C7
100
AcDbEntity
  8
0
100
AcDbLine
 62
7
  6
CONTINUOUS
 10
-8.5199504008
 20
8.984332455
 11
-8.5375369435
 21
8.9961947279
  0
LINE
  5
2C8
100
AcDbEntity
  8
0
100
AcDbLine
 62
7
  6
CONTINUOUS
 10
-7.207977655
 20
10.7605794967
 11
-7.1917273984
 21
10.7469439123
  0
LINE
  5
2C9
100
AcDbEntity
  8
0
100
AcDbLine
 62
7
  6
CONTINUOUS
 10
-7.1557871094
 20
10.7647538658
 11
-7.140022627
 21
10.7505594622
  0
LINE
  5
2CA
100
AcDbEntity
  8
0
100
AcDbLine
 62
7
  6
CONTINUOUS
 10
-7.1034826734
 20
10.7671042683
 11
-7.0882231719
 21
10.752368339
  0
LINE
  5
2CB
100
AcDbEntity
  8
0
100
AcDbLine
 62
7
  6
CONTINUOUS
 10
-7.2432744918
 20
7.7938129098
 11
-7.2599907242
 21
7.7807527577
  0
LINE
  5
2CC
100
AcDbEntity
  8
0
100
AcDbLine
 62
7
  6
CONTINUOUS
 10
-7.294601105
 20
7.8010263948
 11
-7.3117629471
 21
7.7885575867
  0
LINE
  5
2CD
100
AcDbEntity
  8
0
100
AcDbLine
 62
7
  6
CONTINUOUS
 10
-7.3456447044
 20
7.8100267586
 11
-7.363231247
 21
7.7981644858
  0
LINE
  5
2CE
100
AcDbEntity
  8
0
100
AcDbLine
 62
7
  6
CONTINUOUS
 10
-8.5150062361
 20
9.6413897705
 11
-8.4966350631
 21
9.6519963722
  0
LINE
  5
2CF
100
AcDbEntity
  8
0
100
AcDbLine
 62
7
  6
CONTINUOUS
 10
-6.6779807872
 20
10.7019969079
 11
-6.6596096141
 21
10.7126035097
  0
LINE
  5
2D0
100
AcDbEntity
  8
0
100
AcDbLine
 62
7
  6
CONTINUOUS
 10
-8.5010786421
 20
9.6918605595
 11
-8.4823484952
 21
9.7018195552
  0
LINE
  5
2D1
100
AcDbEntity
  8
0
100
AcDbLine
 62
7
  6
CONTINUOUS
 10
-6.6281576042
 20
10.6877103401
 11
-6.6094274573
 21
10.6976693359
  0
LINE
  5
2D2
100
AcDbEntity
  8
0
100
AcDbLine
 62
7
  6
CONTINUOUS
 10
-6.6094274573
 20
7.8376696684
 11
-6.6281576042
 21
7.8476286642
  0
LINE
  5
2D3
100
AcDbEntity
  8
0
100
AcDbLine
 62
7
  6
CONTINUOUS
 10
-8.4823484952
 20
8.8335194491
 11
-8.5010786421
 21
8.8434784448
  0
LINE
  5
2D4
100
AcDbEntity
  8
0
100
AcDbLine
 62
7
  6
CONTINUOUS
 10
-6.6596096141
 20
7.8227354946
 11
-6.6779807872
 21
7.8333420964
  0
LINE
  5
2D5
100
AcDbEntity
  8
0
100
AcDbLine
 62
7
  6
CONTINUOUS
 10
-8.4966350631
 20
8.8833426321
 11
-8.5150062361
 21
8.8939492338
  0
LINE
  5
2D6
100
AcDbEntity
  8
0
100
AcDbLine
 62
7
  6
CONTINUOUS
 10
-7.363231247
 20
10.7371745185
 11
-7.3456447044
 21
10.7253122457
  0
LINE
  5
2D7
100
AcDbEntity
  8
0
100
AcDbLine
 62
7
  6
CONTINUOUS
 10
-7.3117629471
 20
10.7467814176
 11
-7.294601105
 21
10.7343126094
  0
LINE
  5
2D8
100
AcDbEntity
  8
0
100
AcDbLine
 62
7
  6
CONTINUOUS
 10
-7.2599907242
 20
10.7545862466
 11
-7.2432744918
 21
10.7415260945
  0
LINE
  5
2D9
100
AcDbEntity
  8
0
100
AcDbLine
 62
7
  6
CONTINUOUS
 10
-7.3963431012
 20
7.8208030355
 11
-7.414332918
 21
7.8095617504
  0
LINE
  5
2DA
100
AcDbEntity
  8
0
100
AcDbLine
 62
7
  6
CONTINUOUS
 10
-7.4466345273
 20
7.8333420964
 11
-7.4650057004
 21
7.8227354946
  0
LINE
  5
2DB
100
AcDbEntity
  8
0
100
AcDbLine
 62
7
  6
CONTINUOUS
 10
-8.4853981273
 20
9.741814537
 11
-8.4663318264
 21
9.7511137933
  0
LINE
  5
2DC
100
AcDbEntity
  8
0
100
AcDbLine
 62
7
  6
CONTINUOUS
 10
-6.5788633661
 20
10.6716936712
 11
-6.5597970652
 21
10.6809929276
  0
LINE
  5
2DD
100
AcDbEntity
  8
0
100
AcDbLine
 62
7
  6
CONTINUOUS
 10
-8.467983796
 20
9.7911908418
 11
-8.4486045703
 21
9.7998190289
  0
LINE
  5
2DE
100
AcDbEntity
  8
0
100
AcDbLine
 62
7
  6
CONTINUOUS
 10
-6.5301581305
 20
10.6539664152
 11
-6.5107789048
 21
10.6625946024
  0
LINE
  5
2DF
100
AcDbEntity
  8
0
100
AcDbLine
 62
7
  6
CONTINUOUS
 10
-8.4488568648
 20
9.8399293165
 11
-8.429188325
 21
9.8478759224
  0
LINE
  5
2E0
100
AcDbEntity
  8
0
100
AcDbLine
 62
7
  6
CONTINUOUS
 10
-6.482101237
 20
10.6345501699
 11
-6.4624326973
 21
10.6424967758
  0
LINE
  5
2E1
100
AcDbEntity
  8
0
100
AcDbLine
 62
7
  6
CONTINUOUS
 10
-6.4624326973
 20
7.8928422285
 11
-6.482101237
 21
7.9007888344
  0
LINE
  5
2E2
100
AcDbEntity
  8
0
100
AcDbLine
 62
7
  6
CONTINUOUS
 10
-8.429188325
 20
8.6874630819
 11
-8.4488568648
 21
8.6954096878
  0
LINE
  5
2E3
100
AcDbEntity
  8
0
100
AcDbLine
 62
7
  6
CONTINUOUS
 10
-6.5107789048
 20
7.8727444019
 11
-6.5301581305
 21
7.8813725891
  0
LINE
  5
2E4
100
AcDbEntity
  8
0
100
AcDbLine
 62
7
  6
CONTINUOUS
 10
-8.4486045703
 20
8.7355199753
 11
-8.467983796
 21
8.7441481625
  0
LINE
  5
2E5
100
AcDbEntity
  8
0
100
AcDbLine
 62
7
  6
CONTINUOUS
 10
-6.5597970652
 20
7.8543460767
 11
-6.5788633661
 21
7.863645333
  0
LINE
  5
2E6
100
AcDbEntity
  8
0
100
AcDbLine
 62
7
  6
CONTINUOUS
 10
-8.4663318264
 20
8.784225211
 11
-8.4853981273
 21
8.7935244673
  0
LINE
  5
2E7
100
AcDbEntity
  8
0
100
AcDbLine
 62
7
  6
CONTINUOUS
 10
-7.4650057004
 20
10.7126035097
 11
-7.4466345273
 21
10.7019969079
  0
LINE
  5
2E8
100
AcDbEntity
  8
0
100
AcDbLine
 62
7
  6
CONTINUOUS
 10
-7.414332918
 20
10.7257772539
 11
-7.3963431012
 21
10.7145359688
  0
LINE
  5
2E9
100
AcDbEntity
  8
0
100
AcDbLine
 62
7
  6
CONTINUOUS
 10
-7.4964577103
 20
7.8476286642
 11
-7.5151878573
 21
7.8376696684
  0
LINE
  5
2EA
100
AcDbEntity
  8
0
100
AcDbLine
 62
7
  6
CONTINUOUS
 10
-7.5457519484
 20
7.863645333
 11
-7.5648182494
 21
7.8543460767
  0
LINE
  5
2EB
100
AcDbEntity
  8
0
100
AcDbLine
 62
7
  6
CONTINUOUS
 10
-8.428040637
 20
9.8879705808
 11
-8.4081067462
 21
9.8952259237
  0
LINE
  5
2EC
100
AcDbEntity
  8
0
100
AcDbLine
 62
7
  6
CONTINUOUS
 10
-6.4347512357
 20
10.6134685911
 11
-6.414817345
 21
10.620723934
  0
LINE
  5
2ED
100
AcDbEntity
  8
0
100
AcDbLine
 62
7
  6
CONTINUOUS
 10
-8.4055604739
 20
9.9352561038
 11
-8.3853855185
 21
9.9418113441
  0
LINE
  5
2EE
100
AcDbEntity
  8
0
100
AcDbLine
 62
7
  6
CONTINUOUS
 10
-6.3881658153
 20
10.5907473634
 11
-6.3679908599
 21
10.5973026038
  0
LINE
  5
2EF
100
AcDbEntity
  8
0
100
AcDbLine
 62
7
  6
CONTINUOUS
 10
-6.3679908599
 20
7.9380364005
 11
-6.3881658153
 21
7.9445916409
  0
LINE
  5
2F0
100
AcDbEntity
  8
0
100
AcDbLine
 62
7
  6
CONTINUOUS
 10
-8.3853855185
 20
8.5935276602
 11
-8.4055604739
 21
8.6000829005
  0
LINE
  5
2F1
100
AcDbEntity
  8
0
100
AcDbLine
 62
7
  6
CONTINUOUS
 10
-6.414817345
 20
7.9146150703
 11
-6.4347512357
 21
7.9218704132
  0
LINE
  5
2F2
100
AcDbEntity
  8
0
100
AcDbLine
 62
7
  6
CONTINUOUS
 10
-8.4081067462
 20
8.6401130806
 11
-8.428040637
 21
8.6473684235
  0
LINE
  5
2F3
100
AcDbEntity
  8
0
100
AcDbLine
 62
7
  6
CONTINUOUS
 10
-7.5648182494
 20
10.6809929276
 11
-7.5457519484
 21
10.6716936712
  0
LINE
  5
2F4
100
AcDbEntity
  8
0
100
AcDbLine
 62
7
  6
CONTINUOUS
 10
-7.5151878573
 20
10.6976693359
 11
-7.4964577103
 21
10.6877103401
  0
LINE
  5
2F5
100
AcDbEntity
  8
0
100
AcDbLine
 62
7
  6
CONTINUOUS
 10
-7.5944571841
 20
7.8813725891
 11
-7.6138364097
 21
7.8727444019
  0
LINE
  5
2F6
100
AcDbEntity
  8
0
100
AcDbLine
 62
7
  6
CONTINUOUS
 10
-7.6425140775
 20
7.9007888344
 11
-7.6621826172
 21
7.8928422285
  0
LINE
  5
2F7
100
AcDbEntity
  8
0
100
AcDbLine
 62
7
  6
CONTINUOUS
 10
-5.7094848579
 20
8.6426695021
 11
-5.7165085683
 21
8.6401130806
  0
LINE
  5
2F8
100
AcDbEntity
  8
0
100
AcDbLine
 62
7
  6
CONTINUOUS
 10
-7.6898640788
 20
7.9218704132
 11
-7.7097979695
 21
7.9146150703
  0
LINE
  5
2F9
100
AcDbEntity
  8
0
100
AcDbLine
 62
7
  6
CONTINUOUS
 10
-8.3814437642
 20
9.9817282753
 11
-8.3610523242
 21
9.9875754266
  0
LINE
  5
2FA
100
AcDbEntity
  8
0
100
AcDbLine
 62
7
  6
CONTINUOUS
 10
-6.3424017328
 20
10.5664141691
 11
-6.3220102929
 21
10.5722613204
  0
LINE
  5
2FB
100
AcDbEntity
  8
0
100
AcDbLine
 62
7
  6
CONTINUOUS
 10
30.2311045758
 20
8.5080085281
 11
30.2105214951
 21
8.5028765897
  0
LINE
  5
2FC
100
AcDbEntity
  8
0
100
AcDbLine
 62
7
  6
CONTINUOUS
 10
28.1728994303
 20
7.9948403498
 11
28.1523163497
 21
7.9897084114
  0
LINE
  5
2FD
100
AcDbEntity
  8
0
100
AcDbLine
 62
7
  6
CONTINUOUS
 10
-6.2769316642
 20
7.9897084114
 11
-6.2975147448
 21
7.9948403498
  0
LINE
  5
2FE
100
AcDbEntity
  8
0
100
AcDbLine
 62
7
  6
CONTINUOUS
 10
-8.3351368097
 20
8.5028765897
 11
-8.3557198903
 21
8.5080085281
  0
LINE
  5
2FF
100
AcDbEntity
  8
0
100
AcDbLine
 62
7
  6
CONTINUOUS
 10
-6.3220102929
 20
7.9630776839
 11
-6.3424017328
 21
7.9689248352
  0
LINE
  5
300
100
AcDbEntity
  8
0
100
AcDbLine
 62
7
  6
CONTINUOUS
 10
-8.3610523242
 20
8.5477635777
 11
-8.3814437642
 21
8.553610729
  0
LINE
  5
301
100
AcDbEntity
  8
0
100
AcDbLine
 62
7
  6
CONTINUOUS
 10
-7.7097979695
 20
10.620723934
 11
-7.6898640788
 21
10.6134685911
  0
LINE
  5
302
100
AcDbEntity
  8
0
100
AcDbLine
 62
7
  6
CONTINUOUS
 10
-5.7165085683
 20
9.8952259237
 11
-5.7094848579
 21
9.8926695021
  0
LINE
  5
303
100
AcDbEntity
  8
0
100
AcDbLine
 62
7
  6
CONTINUOUS
 10
-7.6621826172
 20
10.6424967758
 11
-7.6425140775
 21
10.6345501699
  0
LINE
  5
304
100
AcDbEntity
  8
0
100
AcDbLine
 62
7
  6
CONTINUOUS
 10
-7.6138364097
 20
10.6625946024
 11
-7.5944571841
 21
10.6539664152
  0
LINE
  5
305
100
AcDbEntity
  8
0
100
AcDbLine
 62
7
  6
CONTINUOUS
 10
-5.7190548406
 20
8.6000829005
 11
-5.739229796
 21
8.5935276602
  0
LINE
  5
306
100
AcDbEntity
  8
0
100
AcDbLine
 62
7
  6
CONTINUOUS
 10
-7.7364494992
 20
7.9445916409
 11
-7.7566244546
 21
7.9380364005
  0
LINE
  5
307
100
AcDbEntity
  8
0
100
AcDbLine
 62
7
  6
CONTINUOUS
 10
-5.7431715504
 20
8.553610729
 11
-5.7635629903
 21
8.5477635777
  0
LINE
  5
308
100
AcDbEntity
  8
0
100
AcDbLine
 62
7
  6
CONTINUOUS
 10
-7.7822135817
 20
7.9689248352
 11
-7.8026050216
 21
7.9630776839
  0
LINE
  5
309
100
AcDbEntity
  8
0
100
AcDbLine
 62
7
  6
CONTINUOUS
 10
30.2038048783
 20
8.4633318571
 11
30.1830552343
 21
8.4589213841
  0
LINE
  5
30A
100
AcDbEntity
  8
0
100
AcDbLine
 62
7
  6
CONTINUOUS
 10
28.1289442247
 20
8.0223066106
 11
28.1081945806
 21
8.0178961376
  0
LINE
  5
30B
100
AcDbEntity
  8
0
100
AcDbLine
 62
7
  6
CONTINUOUS
 10
30.1749626178
 20
8.4196351476
 11
30.1540716906
 21
8.4159515135
  0
LINE
  5
30C
100
AcDbEntity
  8
0
100
AcDbLine
 62
7
  6
CONTINUOUS
 10
28.0859743541
 20
8.0512901543
 11
28.0650834269
 21
8.0476065202
  0
LINE
  5
30D
100
AcDbEntity
  8
0
100
AcDbLine
 62
7
  6
CONTINUOUS
 10
-6.1896987414
 20
8.0476065202
 11
-6.2105896686
 21
8.0512901543
  0
LINE
  5
30E
100
AcDbEntity
  8
0
100
AcDbLine
 62
7
  6
CONTINUOUS
 10
-8.2786870051
 20
8.4159515135
 11
-8.2995779323
 21
8.4196351476
  0
LINE
  5
30F
100
AcDbEntity
  8
0
100
AcDbLine
 62
7
  6
CONTINUOUS
 10
-6.2328098952
 20
8.0178961376
 11
-6.2535595392
 21
8.0223066106
  0
LINE
  5
310
100
AcDbEntity
  8
0
100
AcDbLine
 62
7
  6
CONTINUOUS
 10
-8.3076705488
 20
8.4589213841
 11
-8.3284201928
 21
8.4633318571
  0
LINE
  5
311
100
AcDbEntity
  8
0
100
AcDbLine
 62
7
  6
CONTINUOUS
 10
-7.8026050216
 20
10.5722613204
 11
-7.7822135817
 21
10.5664141691
  0
LINE
  5
312
100
AcDbEntity
  8
0
100
AcDbLine
 62
7
  6
CONTINUOUS
 10
-5.7635629903
 20
9.9875754266
 11
-5.7431715504
 21
9.9817282753
  0
LINE
  5
313
100
AcDbEntity
  8
0
100
AcDbLine
 62
7
  6
CONTINUOUS
 10
-7.7566244546
 20
10.5973026038
 11
-7.7364494992
 21
10.5907473634
  0
LINE
  5
314
100
AcDbEntity
  8
0
100
AcDbLine
 62
7
  6
CONTINUOUS
 10
-5.739229796
 20
9.9418113441
 11
-5.7190548406
 21
9.9352561038
  0
LINE
  5
315
100
AcDbEntity
  8
0
100
AcDbLine
 62
7
  6
CONTINUOUS
 10
27.6442801097
 20
10.0273304762
 11
27.6648631903
 21
10.0324624146
  0
LINE
  5
316
100
AcDbEntity
  8
0
100
AcDbLine
 62
7
  6
CONTINUOUS
 10
29.7024852552
 20
10.5404986545
 11
29.7230683358
 21
10.5456305929
  0
LINE
  5
317
100
AcDbEntity
  8
0
100
AcDbLine
 62
7
  6
CONTINUOUS
 10
27.6715798072
 20
10.0720071472
 11
27.6923294512
 21
10.0764176202
  0
LINE
  5
318
100
AcDbEntity
  8
0
100
AcDbLine
 62
7
  6
CONTINUOUS
 10
29.7464404608
 20
10.5130323937
 11
29.7671901048
 21
10.5174428667
  0
LINE
  5
319
100
AcDbEntity
  8
0
100
AcDbLine
 62
7
  6
CONTINUOUS
 10
30.144612934
 20
8.3769716373
 11
30.123606176
 21
8.37401933
  0
LINE
  5
31A
100
AcDbEntity
  8
0
100
AcDbLine
 62
7
  6
CONTINUOUS
 10
28.0440421706
 20
8.0817556689
 11
28.0230354126
 21
8.0788033616
  0
LINE
  5
31B
100
AcDbEntity
  8
0
100
AcDbLine
 62
7
  6
CONTINUOUS
 10
30.1127928034
 20
8.3353933052
 11
30.0916958081
 21
8.3331759216
  0
LINE
  5
31C
100
AcDbEntity
  8
0
100
AcDbLine
 62
7
  6
CONTINUOUS
 10
28.0031987622
 20
8.1136660368
 11
27.982101767
 21
8.1114486532
  0
LINE
  5
31D
100
AcDbEntity
  8
0
100
AcDbLine
 62
7
  6
CONTINUOUS
 10
-6.1067170815
 20
8.1114486532
 11
-6.1278140768
 21
8.1136660368
  0
LINE
  5
31E
100
AcDbEntity
  8
0
100
AcDbLine
 62
7
  6
CONTINUOUS
 10
-8.2163111226
 20
8.3331759216
 11
-8.2374081179
 21
8.3353933052
  0
LINE
  5
31F
100
AcDbEntity
  8
0
100
AcDbLine
 62
7
  6
CONTINUOUS
 10
-6.1476507271
 20
8.0788033616
 11
-6.1686574851
 21
8.0817556689
  0
LINE
  5
320
100
AcDbEntity
  8
0
100
AcDbLine
 62
7
  6
CONTINUOUS
 10
-8.2482214905
 20
8.37401933
 11
-8.2692282485
 21
8.3769716373
  0
LINE
  5
321
100
AcDbEntity
  8
0
100
AcDbLine
 62
7
  6
CONTINUOUS
 10
-7.8918054194
 20
10.5174428667
 11
-7.8710557753
 21
10.5130323937
  0
LINE
  5
322
100
AcDbEntity
  8
0
100
AcDbLine
 62
7
  6
CONTINUOUS
 10
-5.8169447657
 20
10.0764176202
 11
-5.7961951217
 21
10.0720071472
  0
LINE
  5
323
100
AcDbEntity
  8
0
100
AcDbLine
 62
7
  6
CONTINUOUS
 10
-7.8476836503
 20
10.5456305929
 11
-7.8271005697
 21
10.5404986545
  0
LINE
  5
324
100
AcDbEntity
  8
0
100
AcDbLine
 62
7
  6
CONTINUOUS
 10
-5.7894785049
 20
10.0324624146
 11
-5.7688954242
 21
10.0273304762
  0
LINE
  5
325
100
AcDbEntity
  8
0
100
AcDbLine
 62
7
  6
CONTINUOUS
 10
27.7004220677
 20
10.1157038567
 11
27.7213129949
 21
10.1193874908
  0
LINE
  5
326
100
AcDbEntity
  8
0
100
AcDbLine
 62
7
  6
CONTINUOUS
 10
29.7894103314
 20
10.48404885
 11
29.8103012586
 21
10.4877324841
  0
LINE
  5
327
100
AcDbEntity
  8
0
100
AcDbLine
 62
7
  6
CONTINUOUS
 10
27.7307717515
 20
10.158367367
 11
27.7517785095
 21
10.1613196743
  0
LINE
  5
328
100
AcDbEntity
  8
0
100
AcDbLine
 62
7
  6
CONTINUOUS
 10
29.8313425149
 20
10.4535833354
 11
29.8523492729
 21
10.4565356427
  0
LINE
  5
329
100
AcDbEntity
  8
0
100
AcDbLine
 62
7
  6
CONTINUOUS
 10
30.0795409939
 20
8.294950808
 11
30.0583794647
 21
8.2934710497
  0
LINE
  5
32A
100
AcDbEntity
  8
0
100
AcDbLine
 62
7
  6
CONTINUOUS
 10
27.9634938903
 20
8.1469823801
 11
27.9423323612
 21
8.1455026219
  0
LINE
  5
32B
100
AcDbEntity
  8
0
100
AcDbLine
 62
7
  6
CONTINUOUS
 10
30.0448980177
 20
8.2556934187
 11
30.0236977367
 21
8.2549530886
  0
LINE
  5
32C
100
AcDbEntity
  8
0
100
AcDbLine
 62
7
  6
CONTINUOUS
 10
27.9249759292
 20
8.1816641081
 11
27.9037756483
 21
8.180923778
  0
LINE
  5
32D
100
AcDbEntity
  8
0
100
AcDbLine
 62
7
  6
CONTINUOUS
 10
-6.0283909628
 20
8.180923778
 11
-6.0495912437
 21
8.1816641081
  0
LINE
  5
32E
100
AcDbEntity
  8
0
100
AcDbLine
 62
7
  6
CONTINUOUS
 10
-8.1483130513
 20
8.2549530886
 11
-8.1695133322
 21
8.2556934187
  0
LINE
  5
32F
100
AcDbEntity
  8
0
100
AcDbLine
 62
7
  6
CONTINUOUS
 10
-6.0669476757
 20
8.1455026219
 11
-6.0881092049
 21
8.1469823801
  0
LINE
  5
330
100
AcDbEntity
  8
0
100
AcDbLine
 62
7
  6
CONTINUOUS
 10
-8.1829947793
 20
8.2934710497
 11
-8.2041563084
 21
8.294950808
  0
LINE
  5
331
100
AcDbEntity
  8
0
100
AcDbLine
 62
7
  6
CONTINUOUS
 10
-7.9769645874
 20
10.4565356427
 11
-7.9559578294
 21
10.4535833354
  0
LINE
  5
332
100
AcDbEntity
  8
0
100
AcDbLine
 62
7
  6
CONTINUOUS
 10
-5.876393824
 20
10.1613196743
 11
-5.855387066
 21
10.158367367
  0
LINE
  5
333
100
AcDbEntity
  8
0
100
AcDbLine
 62
7
  6
CONTINUOUS
 10
-7.9349165731
 20
10.4877324841
 11
-7.9140256459
 21
10.48404885
  0
LINE
  5
334
100
AcDbEntity
  8
0
100
AcDbLine
 62
7
  6
CONTINUOUS
 10
-5.8459283094
 20
10.1193874908
 11
-5.8250373822
 21
10.1157038567
  0
LINE
  5
335
100
AcDbEntity
  8
0
100
AcDbLine
 62
7
  6
CONTINUOUS
 10
27.7625918821
 20
10.1999456991
 11
27.7836888774
 21
10.2021630826
  0
LINE
  5
336
100
AcDbEntity
  8
0
100
AcDbLine
 62
7
  6
CONTINUOUS
 10
29.8721859232
 20
10.4216729675
 11
29.8932829185
 21
10.4238903511
  0
LINE
  5
337
100
AcDbEntity
  8
0
100
AcDbLine
 62
7
  6
CONTINUOUS
 10
27.7958436916
 20
10.2403881963
 11
27.8170052207
 21
10.2418679545
  0
LINE
  5
338
100
AcDbEntity
  8
0
100
AcDbLine
 62
7
  6
CONTINUOUS
 10
29.9118907951
 20
10.3883566241
 11
29.9330523243
 21
10.3898363824
  0
LINE
  5
339
100
AcDbEntity
  8
0
100
AcDbLine
 62
7
  6
CONTINUOUS
 10
-5.9551019823
 20
8.2556934187
 11
-5.9763022633
 21
8.2549530886
  0
LINE
  5
33A
100
AcDbEntity
  8
0
100
AcDbLine
 62
7
  6
CONTINUOUS
 10
-8.0750240708
 20
8.1816641081
 11
-8.0962243517
 21
8.180923778
  0
LINE
  5
33B
100
AcDbEntity
  8
0
100
AcDbLine
 62
7
  6
CONTINUOUS
 10
30.0089060819
 20
8.2176689664
 11
29.9876928785
 21
8.2176689664
  0
LINE
  5
33C
100
AcDbEntity
  8
0
100
AcDbLine
 62
7
  6
CONTINUOUS
 10
27.887691807
 20
8.2176689664
 11
27.8664786036
 21
8.2176689664
  0
LINE
  5
33D
100
AcDbEntity
  8
0
100
AcDbLine
 62
7
  6
CONTINUOUS
 10
-5.9910939181
 20
8.2176689664
 11
-6.0123071215
 21
8.2176689664
  0
LINE
  5
33E
100
AcDbEntity
  8
0
100
AcDbLine
 62
7
  6
CONTINUOUS
 10
-8.112308193
 20
8.2176689664
 11
-8.1335213964
 21
8.2176689664
  0
LINE
  5
33F
100
AcDbEntity
  8
0
100
AcDbLine
 62
7
  6
CONTINUOUS
 10
-7.0592278156
 20
8.6426695021
 11
28.9346125011
 21
8.6426695021
  0
LINE
  5
340
100
AcDbEntity
  8
0
100
AcDbLine
 62
7
  6
CONTINUOUS
 10
29.9716090372
 20
8.180923778
 11
29.9504087563
 21
8.1816641081
  0
LINE
  5
341
100
AcDbEntity
  8
0
100
AcDbLine
 62
7
  6
CONTINUOUS
 10
27.8516869487
 20
8.2549530886
 11
27.8304866678
 21
8.2556934187
  0
LINE
  5
342
100
AcDbEntity
  8
0
100
AcDbLine
 62
7
  6
CONTINUOUS
 10
-8.0576676388
 20
10.3898363824
 11
-8.0365061097
 21
10.3883566241
  0
LINE
  5
343
100
AcDbEntity
  8
0
100
AcDbLine
 62
7
  6
CONTINUOUS
 10
-5.9416205353
 20
10.2418679545
 11
-5.9204590061
 21
10.2403881963
  0
LINE
  5
344
100
AcDbEntity
  8
0
100
AcDbLine
 62
7
  6
CONTINUOUS
 10
-8.017898233
 20
10.4238903511
 11
-7.9968012378
 21
10.4216729675
  0
LINE
  5
345
100
AcDbEntity
  8
0
100
AcDbLine
 62
7
  6
CONTINUOUS
 10
-5.9083041919
 20
10.2021630826
 11
-5.8872071966
 21
10.1999456991
  0
LINE
  5
346
100
AcDbEntity
  8
0
100
AcDbLine
 62
7
  6
CONTINUOUS
 10
-5.855387066
 20
8.3769716373
 11
-5.876393824
 21
8.37401933
  0
LINE
  5
347
100
AcDbEntity
  8
0
100
AcDbLine
 62
7
  6
CONTINUOUS
 10
-7.9559578294
 20
8.0817556689
 11
-7.9769645874
 21
8.0788033616
  0
LINE
  5
348
100
AcDbEntity
  8
0
100
AcDbLine
 62
7
  6
CONTINUOUS
 10
-5.8872071966
 20
8.3353933052
 11
-5.9083041919
 21
8.3331759216
  0
LINE
  5
349
100
AcDbEntity
  8
0
100
AcDbLine
 62
7
  6
CONTINUOUS
 10
-7.9968012378
 20
8.1136660368
 11
-8.017898233
 21
8.1114486532
  0
LINE
  5
34A
100
AcDbEntity
  8
0
100
AcDbLine
 62
7
  6
CONTINUOUS
 10
-5.9204590061
 20
8.294950808
 11
-5.9416205353
 21
8.2934710497
  0
LINE
  5
34B
100
AcDbEntity
  8
0
100
AcDbLine
 62
7
  6
CONTINUOUS
 10
-8.0365061097
 20
8.1469823801
 11
-8.0576676388
 21
8.1455026219
  0
LINE
  5
34C
100
AcDbEntity
  8
0
100
AcDbLine
 62
7
  6
CONTINUOUS
 10
27.8304866678
 20
10.2796455856
 11
27.8516869487
 21
10.2803859157
  0
LINE
  5
34D
100
AcDbEntity
  8
0
100
AcDbLine
 62
7
  6
CONTINUOUS
 10
29.9504087563
 20
10.3536748961
 11
29.9716090372
 21
10.3544152263
  0
LINE
  5
34E
100
AcDbEntity
  8
0
100
AcDbLine
 62
7
  6
CONTINUOUS
 10
-7.0592278156
 20
9.8926695021
 11
28.9346125011
 21
9.8926695021
  0
LINE
  5
34F
100
AcDbEntity
  8
0
100
AcDbLine
 62
7
  6
CONTINUOUS
 10
-8.1335213964
 20
10.3176700379
 11
-8.112308193
 21
10.3176700379
  0
LINE
  5
350
100
AcDbEntity
  8
0
100
AcDbLine
 62
7
  6
CONTINUOUS
 10
-6.0123071215
 20
10.3176700379
 11
-5.9910939181
 21
10.3176700379
  0
LINE
  5
351
100
AcDbEntity
  8
0
100
AcDbLine
 62
7
  6
CONTINUOUS
 10
27.8664786036
 20
10.3176700379
 11
27.887691807
 21
10.3176700379
  0
LINE
  5
352
100
AcDbEntity
  8
0
100
AcDbLine
 62
7
  6
CONTINUOUS
 10
29.9876928785
 20
10.3176700379
 11
30.0089060819
 21
10.3176700379
  0
LINE
  5
353
100
AcDbEntity
  8
0
100
AcDbLine
 62
7
  6
CONTINUOUS
 10
-8.0962243517
 20
10.3544152263
 11
-8.0750240708
 21
10.3536748961
  0
LINE
  5
354
100
AcDbEntity
  8
0
100
AcDbLine
 62
7
  6
CONTINUOUS
 10
-5.9763022633
 20
10.2803859157
 11
-5.9551019823
 21
10.2796455856
  0
LINE
  5
355
100
AcDbEntity
  8
0
100
AcDbLine
 62
7
  6
CONTINUOUS
 10
29.9330523243
 20
8.1455026219
 11
29.9118907951
 21
8.1469823801
  0
LINE
  5
356
100
AcDbEntity
  8
0
100
AcDbLine
 62
7
  6
CONTINUOUS
 10
27.8170052207
 20
8.2934710497
 11
27.7958436916
 21
8.294950808
  0
LINE
  5
357
100
AcDbEntity
  8
0
100
AcDbLine
 62
7
  6
CONTINUOUS
 10
29.8932829185
 20
8.1114486532
 11
29.8721859232
 21
8.1136660368
  0
LINE
  5
358
100
AcDbEntity
  8
0
100
AcDbLine
 62
7
  6
CONTINUOUS
 10
27.7836888774
 20
8.3331759216
 11
27.7625918821
 21
8.3353933052
  0
LINE
  5
359
100
AcDbEntity
  8
0
100
AcDbLine
 62
7
  6
CONTINUOUS
 10
29.8523492729
 20
8.0788033616
 11
29.8313425149
 21
8.0817556689
  0
LINE
  5
35A
100
AcDbEntity
  8
0
100
AcDbLine
 62
7
  6
CONTINUOUS
 10
27.7517785095
 20
8.37401933
 11
27.7307717515
 21
8.3769716373
  0
LINE
  5
35B
100
AcDbEntity
  8
0
100
AcDbLine
 62
7
  6
CONTINUOUS
 10
-5.7961951217
 20
8.4633318571
 11
-5.8169447657
 21
8.4589213841
  0
LINE
  5
35C
100
AcDbEntity
  8
0
100
AcDbLine
 62
7
  6
CONTINUOUS
 10
-7.8710557753
 20
8.0223066106
 11
-7.8918054194
 21
8.0178961376
  0
LINE
  5
35D
100
AcDbEntity
  8
0
100
AcDbLine
 62
7
  6
CONTINUOUS
 10
-5.8250373822
 20
8.4196351476
 11
-5.8459283094
 21
8.4159515135
  0
LINE
  5
35E
100
AcDbEntity
  8
0
100
AcDbLine
 62
7
  6
CONTINUOUS
 10
-7.9140256459
 20
8.0512901543
 11
-7.9349165731
 21
8.0476065202
  0
LINE
  5
35F
100
AcDbEntity
  8
0
100
AcDbLine
 62
7
  6
CONTINUOUS
 10
-8.2041563084
 20
10.2403881963
 11
-8.1829947793
 21
10.2418679545
  0
LINE
  5
360
100
AcDbEntity
  8
0
100
AcDbLine
 62
7
  6
CONTINUOUS
 10
-6.0881092049
 20
10.3883566241
 11
-6.0669476757
 21
10.3898363824
  0
LINE
  5
361
100
AcDbEntity
  8
0
100
AcDbLine
 62
7
  6
CONTINUOUS
 10
-8.1695133322
 20
10.2796455856
 11
-8.1483130513
 21
10.2803859157
  0
LINE
  5
362
100
AcDbEntity
  8
0
100
AcDbLine
 62
7
  6
CONTINUOUS
 10
-6.0495912437
 20
10.3536748961
 11
-6.0283909628
 21
10.3544152263
  0
LINE
  5
363
100
AcDbEntity
  8
0
100
AcDbLine
 62
7
  6
CONTINUOUS
 10
27.9037756483
 20
10.3544152263
 11
27.9249759292
 21
10.3536748961
  0
LINE
  5
364
100
AcDbEntity
  8
0
100
AcDbLine
 62
7
  6
CONTINUOUS
 10
30.0236977367
 20
10.2803859157
 11
30.0448980177
 21
10.2796455856
  0
LINE
  5
365
100
AcDbEntity
  8
0
100
AcDbLine
 62
7
  6
CONTINUOUS
 10
27.9423323612
 20
10.3898363824
 11
27.9634938903
 21
10.3883566241
  0
LINE
  5
366
100
AcDbEntity
  8
0
100
AcDbLine
 62
7
  6
CONTINUOUS
 10
30.0583794647
 20
10.2418679545
 11
30.0795409939
 21
10.2403881963
  0
LINE
  5
367
100
AcDbEntity
  8
0
100
AcDbLine
 62
7
  6
CONTINUOUS
 10
29.8103012586
 20
8.0476065202
 11
29.7894103314
 21
8.0512901543
  0
LINE
  5
368
100
AcDbEntity
  8
0
100
AcDbLine
 62
7
  6
CONTINUOUS
 10
27.7213129949
 20
8.4159515135
 11
27.7004220677
 21
8.4196351476
  0
LINE
  5
369
100
AcDbEntity
  8
0
100
AcDbLine
 62
7
  6
CONTINUOUS
 10
29.7671901048
 20
8.0178961376
 11
29.7464404608
 21
8.0223066106
  0
LINE
  5
36A
100
AcDbEntity
  8
0
100
AcDbLine
 62
7
  6
CONTINUOUS
 10
27.6923294512
 20
8.4589213841
 11
27.6715798072
 21
8.4633318571
  0
LINE
  5
36B
100
AcDbEntity
  8
0
100
AcDbLine
 62
7
  6
CONTINUOUS
 10
27.6185562358
 20
9.9817282753
 11
27.6389476758
 21
9.9875754266
  0
LINE
  5
36C
100
AcDbEntity
  8
0
100
AcDbLine
 62
7
  6
CONTINUOUS
 10
29.6575982672
 20
10.5664141691
 11
29.6779897071
 21
10.5722613204
  0
LINE
  5
36D
100
AcDbEntity
  8
0
100
AcDbLine
 62
7
  6
CONTINUOUS
 10
-5.7688954242
 20
8.5080085281
 11
-5.7894785049
 21
8.5028765897
  0
LINE
  5
36E
100
AcDbEntity
  8
0
100
AcDbLine
 62
7
  6
CONTINUOUS
 10
-7.8271005697
 20
7.9948403498
 11
-7.8476836503
 21
7.9897084114
  0
LINE
  5
36F
100
AcDbEntity
  8
0
100
AcDbLine
 62
7
  6
CONTINUOUS
 10
-8.2692282485
 20
10.158367367
 11
-8.2482214905
 21
10.1613196743
  0
LINE
  5
370
100
AcDbEntity
  8
0
100
AcDbLine
 62
7
  6
CONTINUOUS
 10
-6.1686574851
 20
10.4535833354
 11
-6.1476507271
 21
10.4565356427
  0
LINE
  5
371
100
AcDbEntity
  8
0
100
AcDbLine
 62
7
  6
CONTINUOUS
 10
-8.2374081179
 20
10.1999456991
 11
-8.2163111226
 21
10.2021630826
  0
LINE
  5
372
100
AcDbEntity
  8
0
100
AcDbLine
 62
7
  6
CONTINUOUS
 10
-6.1278140768
 20
10.4216729675
 11
-6.1067170815
 21
10.4238903511
  0
LINE
  5
373
100
AcDbEntity
  8
0
100
AcDbLine
 62
7
  6
CONTINUOUS
 10
27.982101767
 20
10.4238903511
 11
28.0031987622
 21
10.4216729675
  0
LINE
  5
374
100
AcDbEntity
  8
0
100
AcDbLine
 62
7
  6
CONTINUOUS
 10
30.0916958081
 20
10.2021630826
 11
30.1127928034
 21
10.1999456991
  0
LINE
  5
375
100
AcDbEntity
  8
0
100
AcDbLine
 62
7
  6
CONTINUOUS
 10
28.0230354126
 20
10.4565356427
 11
28.0440421706
 21
10.4535833354
  0
LINE
  5
376
100
AcDbEntity
  8
0
100
AcDbLine
 62
7
  6
CONTINUOUS
 10
30.123606176
 20
10.1613196743
 11
30.144612934
 21
10.158367367
  0
LINE
  5
377
100
AcDbEntity
  8
0
100
AcDbLine
 62
7
  6
CONTINUOUS
 10
29.7230683358
 20
7.9897084114
 11
29.7024852552
 21
7.9948403498
  0
LINE
  5
378
100
AcDbEntity
  8
0
100
AcDbLine
 62
7
  6
CONTINUOUS
 10
27.6648631903
 20
8.5028765897
 11
27.6442801097
 21
8.5080085281
  0
LINE
  5
379
100
AcDbEntity
  8
0
100
AcDbLine
 62
7
  6
CONTINUOUS
 10
29.6779897071
 20
7.9630776839
 11
29.6575982672
 21
7.9689248352
  0
LINE
  5
37A
100
AcDbEntity
  8
0
100
AcDbLine
 62
7
  6
CONTINUOUS
 10
27.6389476758
 20
8.5477635777
 11
27.6185562358
 21
8.553610729
  0
LINE
  5
37B
100
AcDbEntity
  8
0
100
AcDbLine
 62
7
  6
CONTINUOUS
 10
27.5848695434
 20
9.8926695021
 11
27.5918932538
 21
9.8952259237
  0
LINE
  5
37C
100
AcDbEntity
  8
0
100
AcDbLine
 62
7
  6
CONTINUOUS
 10
29.5652487643
 20
10.6134685911
 11
29.585182655
 21
10.620723934
  0
LINE
  5
37D
100
AcDbEntity
  8
0
100
AcDbLine
 62
7
  6
CONTINUOUS
 10
27.5944395261
 20
9.9352561038
 11
27.6146144815
 21
9.9418113441
  0
LINE
  5
37E
100
AcDbEntity
  8
0
100
AcDbLine
 62
7
  6
CONTINUOUS
 10
29.6118341847
 20
10.5907473634
 11
29.6320091401
 21
10.5973026038
  0
LINE
  5
37F
100
AcDbEntity
  8
0
100
AcDbLine
 62
7
  6
CONTINUOUS
 10
-8.3284201928
 20
10.0720071472
 11
-8.3076705488
 21
10.0764176202
  0
LINE
  5
380
100
AcDbEntity
  8
0
100
AcDbLine
 62
7
  6
CONTINUOUS
 10
-6.2535595392
 20
10.5130323937
 11
-6.2328098952
 21
10.5174428667
  0
LINE
  5
381
100
AcDbEntity
  8
0
100
AcDbLine
 62
7
  6
CONTINUOUS
 10
-8.2995779323
 20
10.1157038567
 11
-8.2786870051
 21
10.1193874908
  0
LINE
  5
382
100
AcDbEntity
  8
0
100
AcDbLine
 62
7
  6
CONTINUOUS
 10
-6.2105896686
 20
10.48404885
 11
-6.1896987414
 21
10.4877324841
  0
LINE
  5
383
100
AcDbEntity
  8
0
100
AcDbLine
 62
7
  6
CONTINUOUS
 10
28.0650834269
 20
10.4877324841
 11
28.0859743541
 21
10.48404885
  0
LINE
  5
384
100
AcDbEntity
  8
0
100
AcDbLine
 62
7
  6
CONTINUOUS
 10
30.1540716906
 20
10.1193874908
 11
30.1749626178
 21
10.1157038567
  0
LINE
  5
385
100
AcDbEntity
  8
0
100
AcDbLine
 62
7
  6
CONTINUOUS
 10
28.1081945806
 20
10.5174428667
 11
28.1289442247
 21
10.5130323937
  0
LINE
  5
386
100
AcDbEntity
  8
0
100
AcDbLine
 62
7
  6
CONTINUOUS
 10
30.1830552343
 20
10.0764176202
 11
30.2038048783
 21
10.0720071472
  0
LINE
  5
387
100
AcDbEntity
  8
0
100
AcDbLine
 62
7
  6
CONTINUOUS
 10
29.6320091401
 20
7.9380364005
 11
29.6118341847
 21
7.9445916409
  0
LINE
  5
388
100
AcDbEntity
  8
0
100
AcDbLine
 62
7
  6
CONTINUOUS
 10
27.6146144815
 20
8.5935276602
 11
27.5944395261
 21
8.6000829005
  0
LINE
  5
389
100
AcDbEntity
  8
0
100
AcDbLine
 62
7
  6
CONTINUOUS
 10
29.585182655
 20
7.9146150703
 11
29.5652487643
 21
7.9218704132
  0
LINE
  5
38A
100
AcDbEntity
  8
0
100
AcDbLine
 62
7
  6
CONTINUOUS
 10
27.5918932538
 20
8.6401130806
 11
27.5848695434
 21
8.6426695021
  0
LINE
  5
38B
100
AcDbEntity
  8
0
100
AcDbLine
 62
7
  6
CONTINUOUS
 10
29.4698418695
 20
10.6539664152
 11
29.4892210952
 21
10.6625946024
  0
LINE
  5
38C
100
AcDbEntity
  8
0
100
AcDbLine
 62
7
  6
CONTINUOUS
 10
29.517898763
 20
10.6345501699
 11
29.5375673027
 21
10.6424967758
  0
LINE
  5
38D
100
AcDbEntity
  8
0
100
AcDbLine
 62
7
  6
CONTINUOUS
 10
30.2809451594
 20
8.6000829005
 11
30.260770204
 21
8.5935276602
  0
LINE
  5
38E
100
AcDbEntity
  8
0
100
AcDbLine
 62
7
  6
CONTINUOUS
 10
28.2635505008
 20
7.9445916409
 11
28.2433755454
 21
7.9380364005
  0
LINE
  5
38F
100
AcDbEntity
  8
0
100
AcDbLine
 62
7
  6
CONTINUOUS
 10
30.2568284496
 20
8.553610729
 11
30.2364370097
 21
8.5477635777
  0
LINE
  5
390
100
AcDbEntity
  8
0
100
AcDbLine
 62
7
  6
CONTINUOUS
 10
28.2177864183
 20
7.9689248352
 11
28.1973949784
 21
7.9630776839
  0
LINE
  5
391
100
AcDbEntity
  8
0
100
AcDbLine
 62
7
  6
CONTINUOUS
 10
-8.3557198903
 20
10.0273304762
 11
-8.3351368097
 21
10.0324624146
  0
LINE
  5
392
100
AcDbEntity
  8
0
100
AcDbLine
 62
7
  6
CONTINUOUS
 10
-6.2975147448
 20
10.5404986545
 11
-6.2769316642
 21
10.5456305929
  0
LINE
  5
393
100
AcDbEntity
  8
0
100
AcDbLine
 62
7
  6
CONTINUOUS
 10
28.1523163497
 20
10.5456305929
 11
28.1728994303
 21
10.5404986545
  0
LINE
  5
394
100
AcDbEntity
  8
0
100
AcDbLine
 62
7
  6
CONTINUOUS
 10
30.2105214951
 20
10.0324624146
 11
30.2311045758
 21
10.0273304762
  0
LINE
  5
395
100
AcDbEntity
  8
0
100
AcDbLine
 62
7
  6
CONTINUOUS
 10
28.1973949784
 20
10.5722613204
 11
28.2177864183
 21
10.5664141691
  0
LINE
  5
396
100
AcDbEntity
  8
0
100
AcDbLine
 62
7
  6
CONTINUOUS
 10
30.2364370097
 20
9.9875754266
 11
30.2568284496
 21
9.9817282753
  0
LINE
  5
397
100
AcDbEntity
  8
0
100
AcDbLine
 62
7
  6
CONTINUOUS
 10
28.2433755454
 20
10.5973026038
 11
28.2635505008
 21
10.5907473634
  0
LINE
  5
398
100
AcDbEntity
  8
0
100
AcDbLine
 62
7
  6
CONTINUOUS
 10
30.260770204
 20
9.9418113441
 11
30.2809451594
 21
9.9352561038
  0
LINE
  5
399
100
AcDbEntity
  8
0
100
AcDbLine
 62
7
  6
CONTINUOUS
 10
29.5375673027
 20
7.8928422285
 11
29.517898763
 21
7.9007888344
  0
LINE
  5
39A
100
AcDbEntity
  8
0
100
AcDbLine
 62
7
  6
CONTINUOUS
 10
29.4892210952
 20
7.8727444019
 11
29.4698418695
 21
7.8813725891
  0
LINE
  5
39B
100
AcDbEntity
  8
0
100
AcDbLine
 62
7
  6
CONTINUOUS
 10
29.3220192128
 20
10.7019969079
 11
29.3403903859
 21
10.7126035097
  0
LINE
  5
39C
100
AcDbEntity
  8
0
100
AcDbLine
 62
7
  6
CONTINUOUS
 10
29.3718423958
 20
10.6877103401
 11
29.3905725427
 21
10.6976693359
  0
LINE
  5
39D
100
AcDbEntity
  8
0
100
AcDbLine
 62
7
  6
CONTINUOUS
 10
29.4211366339
 20
10.6716936712
 11
29.4402029348
 21
10.6809929276
  0
LINE
  5
39E
100
AcDbEntity
  8
0
100
AcDbLine
 62
7
  6
CONTINUOUS
 10
30.3242415503
 20
8.6954096878
 11
30.3045730105
 21
8.6874630819
  0
LINE
  5
39F
100
AcDbEntity
  8
0
100
AcDbLine
 62
7
  6
CONTINUOUS
 10
28.3574859225
 20
7.9007888344
 11
28.3378173828
 21
7.8928422285
  0
LINE
  5
3A0
100
AcDbEntity
  8
0
100
AcDbLine
 62
7
  6
CONTINUOUS
 10
30.3034253224
 20
8.6473684235
 11
30.2834914317
 21
8.6401130806
  0
LINE
  5
3A1
100
AcDbEntity
  8
0
100
AcDbLine
 62
7
  6
CONTINUOUS
 10
28.3101359212
 20
7.9218704132
 11
28.2902020305
 21
7.9146150703
  0
LINE
  5
3A2
100
AcDbEntity
  8
0
100
AcDbLine
 62
7
  6
CONTINUOUS
 10
28.2902020305
 20
10.620723934
 11
28.3101359212
 21
10.6134685911
  0
LINE
  5
3A3
100
AcDbEntity
  8
0
100
AcDbLine
 62
7
  6
CONTINUOUS
 10
30.2834914317
 20
9.8952259237
 11
30.3034253224
 21
9.8879705808
  0
LINE
  5
3A4
100
AcDbEntity
  8
0
100
AcDbLine
 62
7
  6
CONTINUOUS
 10
28.3378173828
 20
10.6424967758
 11
28.3574859225
 21
10.6345501699
  0
LINE
  5
3A5
100
AcDbEntity
  8
0
100
AcDbLine
 62
7
  6
CONTINUOUS
 10
30.3045730105
 20
9.8478759224
 11
30.3242415503
 21
9.8399293165
  0
LINE
  5
3A6
100
AcDbEntity
  8
0
100
AcDbLine
 62
7
  6
CONTINUOUS
 10
29.4402029348
 20
7.8543460767
 11
29.4211366339
 21
7.863645333
  0
LINE
  5
3A7
100
AcDbEntity
  8
0
100
AcDbLine
 62
7
  6
CONTINUOUS
 10
29.3905725427
 20
7.8376696684
 11
29.3718423958
 21
7.8476286642
  0
LINE
  5
3A8
100
AcDbEntity
  8
0
100
AcDbLine
 62
7
  6
CONTINUOUS
 10
29.3403903859
 20
7.8227354946
 11
29.3220192128
 21
7.8333420964
  0
LINE
  5
3A9
100
AcDbEntity
  8
0
100
AcDbLine
 62
7
  6
CONTINUOUS
 10
29.2210293898
 20
10.7253122457
 11
29.2386159325
 21
10.7371745185
  0
LINE
  5
3AA
100
AcDbEntity
  8
0
100
AcDbLine
 62
7
  6
CONTINUOUS
 10
29.2717277867
 20
10.7145359688
 11
29.2897176035
 21
10.7257772539
  0
LINE
  5
3AB
100
AcDbEntity
  8
0
100
AcDbLine
 62
7
  6
CONTINUOUS
 10
30.3607828128
 20
8.7935244673
 11
30.3417165118
 21
8.784225211
  0
LINE
  5
3AC
100
AcDbEntity
  8
0
100
AcDbLine
 62
7
  6
CONTINUOUS
 10
28.4542480516
 20
7.863645333
 11
28.4351817506
 21
7.8543460767
  0
LINE
  5
3AD
100
AcDbEntity
  8
0
100
AcDbLine
 62
7
  6
CONTINUOUS
 10
30.3433684814
 20
8.7441481625
 11
30.3239892558
 21
8.7355199753
  0
LINE
  5
3AE
100
AcDbEntity
  8
0
100
AcDbLine
 62
7
  6
CONTINUOUS
 10
28.4055428159
 20
7.8813725891
 11
28.3861635903
 21
7.8727444019
  0
LINE
  5
3AF
100
AcDbEntity
  8
0
100
AcDbLine
 62
7
  6
CONTINUOUS
 10
28.3861635903
 20
10.6625946024
 11
28.4055428159
 21
10.6539664152
  0
LINE
  5
3B0
100
AcDbEntity
  8
0
100
AcDbLine
 62
7
  6
CONTINUOUS
 10
30.3239892558
 20
9.7998190289
 11
30.3433684814
 21
9.7911908418
  0
LINE
  5
3B1
100
AcDbEntity
  8
0
100
AcDbLine
 62
7
  6
CONTINUOUS
 10
28.4351817506
 20
10.6809929276
 11
28.4542480516
 21
10.6716936712
  0
LINE
  5
3B2
100
AcDbEntity
  8
0
100
AcDbLine
 62
7
  6
CONTINUOUS
 10
30.3417165118
 20
9.7511137933
 11
30.3607828128
 21
9.741814537
  0
LINE
  5
3B3
100
AcDbEntity
  8
0
100
AcDbLine
 62
7
  6
CONTINUOUS
 10
29.2897176035
 20
7.8095617504
 11
29.2717277867
 21
7.8208030355
  0
LINE
  5
3B4
100
AcDbEntity
  8
0
100
AcDbLine
 62
7
  6
CONTINUOUS
 10
29.2386159325
 20
7.7981644858
 11
29.2210293898
 21
7.8100267586
  0
LINE
  5
3B5
100
AcDbEntity
  8
0
100
AcDbLine
 62
7
  6
CONTINUOUS
 10
29.0671120839
 20
10.7469439123
 11
29.0833623405
 21
10.7605794967
  0
LINE
  5
3B6
100
AcDbEntity
  8
0
100
AcDbLine
 62
7
  6
CONTINUOUS
 10
29.1186591773
 20
10.7415260945
 11
29.1353754097
 21
10.7545862466
  0
LINE
  5
3B7
100
AcDbEntity
  8
0
100
AcDbLine
 62
7
  6
CONTINUOUS
 10
29.1699857904
 20
10.7343126094
 11
29.1871476325
 21
10.7467814176
  0
LINE
  5
3B8
100
AcDbEntity
  8
0
100
AcDbLine
 62
7
  6
CONTINUOUS
 10
30.4025486261
 20
8.9448753433
 11
30.3845588094
 21
8.9336340582
  0
LINE
  5
3B9
100
AcDbEntity
  8
0
100
AcDbLine
 62
7
  6
CONTINUOUS
 10
28.6036568988
 20
7.8208030355
 11
28.585667082
 21
7.8095617504
  0
LINE
  5
3BA
100
AcDbEntity
  8
0
100
AcDbLine
 62
7
  6
CONTINUOUS
 10
30.3903909216
 20
8.8939492338
 11
30.3720197485
 21
8.8833426321
  0
LINE
  5
3BB
100
AcDbEntity
  8
0
100
AcDbLine
 62
7
  6
CONTINUOUS
 10
28.5533654727
 20
7.8333420964
 11
28.5349942996
 21
7.8227354946
  0
LINE
  5
3BC
100
AcDbEntity
  8
0
100
AcDbLine
 62
7
  6
CONTINUOUS
 10
30.3764633276
 20
8.8434784448
 11
30.3577331807
 21
8.8335194491
  0
LINE
  5
3BD
100
AcDbEntity
  8
0
100
AcDbLine
 62
7
  6
CONTINUOUS
 10
28.5035422897
 20
7.8476286642
 11
28.4848121427
 21
7.8376696684
  0
LINE
  5
3BE
100
AcDbEntity
  8
0
100
AcDbLine
 62
7
  6
CONTINUOUS
 10
28.4848121427
 20
10.6976693359
 11
28.5035422897
 21
10.6877103401
  0
LINE
  5
3BF
100
AcDbEntity
  8
0
100
AcDbLine
 62
7
  6
CONTINUOUS
 10
30.3577331807
 20
9.7018195552
 11
30.3764633276
 21
9.6918605595
  0
LINE
  5
3C0
100
AcDbEntity
  8
0
100
AcDbLine
 62
7
  6
CONTINUOUS
 10
28.5349942996
 20
10.7126035097
 11
28.5533654727
 21
10.7019969079
  0
LINE
  5
3C1
100
AcDbEntity
  8
0
100
AcDbLine
 62
7
  6
CONTINUOUS
 10
30.3720197485
 20
9.6519963722
 11
30.3903909216
 21
9.6413897705
  0
LINE
  5
3C2
100
AcDbEntity
  8
0
100
AcDbLine
 62
7
  6
CONTINUOUS
 10
28.585667082
 20
10.7257772539
 11
28.6036568988
 21
10.7145359688
  0
LINE
  5
3C3
100
AcDbEntity
  8
0
100
AcDbLine
 62
7
  6
CONTINUOUS
 10
30.3845588094
 20
9.6017049461
 11
30.4025486261
 21
9.5904636609
  0
LINE
  5
3C4
100
AcDbEntity
  8
0
100
AcDbLine
 62
7
  6
CONTINUOUS
 10
29.1871476325
 20
7.7885575867
 11
29.1699857904
 21
7.8010263948
  0
LINE
  5
3C5
100
AcDbEntity
  8
0
100
AcDbLine
 62
7
  6
CONTINUOUS
 10
29.1353754097
 20
7.7807527577
 11
29.1186591773
 21
7.7938129098
  0
LINE
  5
3C6
100
AcDbEntity
  8
0
100
AcDbLine
 62
7
  6
CONTINUOUS
 10
29.0833623405
 20
7.7747595076
 11
29.0671120839
 21
7.7883950919
  0
LINE
  5
3C7
100
AcDbEntity
  8
0
100
AcDbLine
 62
7
  6
CONTINUOUS
 10
28.9117768281
 20
10.752368339
 11
28.9265127575
 21
10.7676278405
  0
LINE
  5
3C8
100
AcDbEntity
  8
0
100
AcDbLine
 62
7
  6
CONTINUOUS
 10
28.9636078573
 20
10.752368339
 11
28.9788673589
 21
10.7671042683
  0
LINE
  5
3C9
100
AcDbEntity
  8
0
100
AcDbLine
 62
7
  6
CONTINUOUS
 10
29.0154073125
 20
10.7505594622
 11
29.0311717948
 21
10.7647538658
  0
LINE
  5
3CA
100
AcDbEntity
  8
0
100
AcDbLine
 62
7
  6
CONTINUOUS
 10
30.4214972921
 20
9.0478448626
 11
30.40433545
 21
9.0353760544
  0
LINE
  5
3CB
100
AcDbEntity
  8
0
100
AcDbLine
 62
7
  6
CONTINUOUS
 10
28.705398895
 20
7.8010263948
 11
28.6882370529
 21
7.7885575867
  0
LINE
  5
3CC
100
AcDbEntity
  8
0
100
AcDbLine
 62
7
  6
CONTINUOUS
 10
30.412921629
 20
8.9961947279
 11
30.3953350863
 21
8.984332455
  0
LINE
  5
3CD
100
AcDbEntity
  8
0
100
AcDbLine
 62
7
  6
CONTINUOUS
 10
28.6543552956
 20
7.8100267586
 11
28.636768753
 21
7.7981644858
  0
LINE
  5
3CE
100
AcDbEntity
  8
0
100
AcDbLine
 62
7
  6
CONTINUOUS
 10
28.636768753
 20
10.7371745185
 11
28.6543552956
 21
10.7253122457
  0
LINE
  5
3CF
100
AcDbEntity
  8
0
100
AcDbLine
 62
7
  6
CONTINUOUS
 10
30.3953350863
 20
9.5510065492
 11
30.412921629
 21
9.5391442764
  0
LINE
  5
3D0
100
AcDbEntity
  8
0
100
AcDbLine
 62
7
  6
CONTINUOUS
 10
28.6882370529
 20
10.7467814176
 11
28.705398895
 21
10.7343126094
  0
LINE
  5
3D1
100
AcDbEntity
  8
0
100
AcDbLine
 62
7
  6
CONTINUOUS
 10
30.40433545
 20
9.4999629498
 11
30.4214972921
 21
9.4874941417
  0
LINE
  5
3D2
100
AcDbEntity
  8
0
100
AcDbLine
 62
7
  6
CONTINUOUS
 10
29.0311717948
 20
7.7705851384
 11
29.0154073125
 21
7.7847795421
  0
LINE
  5
3D3
100
AcDbEntity
  8
0
100
AcDbLine
 62
7
  6
CONTINUOUS
 10
28.9788673589
 20
7.768234736
 11
28.9636078573
 21
7.7829706653
  0
LINE
  5
3D4
100
AcDbEntity
  8
0
100
AcDbLine
 62
7
  6
CONTINUOUS
 10
28.9265127575
 20
7.7677111638
 11
28.9117768281
 21
7.7829706653
  0
LINE
  5
3D5
100
AcDbEntity
  8
0
100
AcDbLine
 62
7
  6
CONTINUOUS
 10
28.7567255082
 20
10.7415260945
 11
28.7697856603
 21
10.7582423269
  0
LINE
  5
3D6
100
AcDbEntity
  8
0
100
AcDbLine
 62
7
  6
CONTINUOUS
 10
28.8082726016
 20
10.7469439123
 11
28.8219081859
 21
10.763194169
  0
LINE
  5
3D7
100
AcDbEntity
  8
0
100
AcDbLine
 62
7
  6
CONTINUOUS
 10
28.859977373
 20
10.7505594622
 11
28.8741717767
 21
10.7663239445
  0
LINE
  5
3D8
100
AcDbEntity
  8
0
100
AcDbLine
 62
7
  6
CONTINUOUS
 10
30.4363467851
 20
9.2041489361
 11
30.4205823028
 21
9.1899545324
  0
LINE
  5
3D9
100
AcDbEntity
  8
0
100
AcDbLine
 62
7
  6
CONTINUOUS
 10
28.859977373
 20
7.7847795421
 11
28.8442128906
 21
7.7705851384
  0
LINE
  5
3DA
100
AcDbEntity
  8
0
100
AcDbLine
 62
7
  6
CONTINUOUS
 10
30.4332170095
 20
9.1518853453
 11
30.4169667529
 21
9.138249761
  0
LINE
  5
3DB
100
AcDbEntity
  8
0
100
AcDbLine
 62
7
  6
CONTINUOUS
 10
28.8082726016
 20
7.7883950919
 11
28.792022345
 21
7.7747595076
  0
LINE
  5
3DC
100
AcDbEntity
  8
0
100
AcDbLine
 62
7
  6
CONTINUOUS
 10
30.4282651675
 20
9.0997628197
 11
30.4115489351
 21
9.0867026676
  0
LINE
  5
3DD
100
AcDbEntity
  8
0
100
AcDbLine
 62
7
  6
CONTINUOUS
 10
28.7567255082
 20
7.7938129098
 11
28.7400092758
 21
7.7807527577
  0
LINE
  5
3DE
100
AcDbEntity
  8
0
100
AcDbLine
 62
7
  6
CONTINUOUS
 10
28.7400092758
 20
10.7545862466
 11
28.7567255082
 21
10.7415260945
  0
LINE
  5
3DF
100
AcDbEntity
  8
0
100
AcDbLine
 62
7
  6
CONTINUOUS
 10
30.4115489351
 20
9.4486363367
 11
30.4282651675
 21
9.4355761845
  0
LINE
  5
3E0
100
AcDbEntity
  8
0
100
AcDbLine
 62
7
  6
CONTINUOUS
 10
28.792022345
 20
10.7605794967
 11
28.8082726016
 21
10.7469439123
  0
LINE
  5
3E1
100
AcDbEntity
  8
0
100
AcDbLine
 62
7
  6
CONTINUOUS
 10
30.4169667529
 20
9.3970892433
 11
30.4332170095
 21
9.3834536589
  0
LINE
  5
3E2
100
AcDbEntity
  8
0
100
AcDbLine
 62
7
  6
CONTINUOUS
 10
28.8442128906
 20
10.7647538658
 11
28.859977373
 21
10.7505594622
  0
LINE
  5
3E3
100
AcDbEntity
  8
0
100
AcDbLine
 62
7
  6
CONTINUOUS
 10
30.4205823028
 20
9.3453844719
 11
30.4363467851
 21
9.3311900682
  0
LINE
  5
3E4
100
AcDbEntity
  8
0
100
AcDbLine
 62
7
  6
CONTINUOUS
 10
28.8741717767
 20
7.7690150598
 11
28.859977373
 21
7.7847795421
  0
LINE
  5
3E5
100
AcDbEntity
  8
0
100
AcDbLine
 62
7
  6
CONTINUOUS
 10
28.8219081859
 20
7.7721448353
 11
28.8082726016
 21
7.7883950919
  0
LINE
  5
3E6
100
AcDbEntity
  8
0
100
AcDbLine
 62
7
  6
CONTINUOUS
 10
28.7697856603
 20
7.7770966774
 11
28.7567255082
 21
7.7938129098
  0
LINE
  5
3E7
100
AcDbEntity
  8
0
100
AcDbLine
 62
7
  6
CONTINUOUS
 10
28.6036568988
 20
10.7145359688
 11
28.6148981839
 21
10.7325257856
  0
LINE
  5
3E8
100
AcDbEntity
  8
0
100
AcDbLine
 62
7
  6
CONTINUOUS
 10
28.6543552956
 20
10.7253122457
 11
28.6662175685
 21
10.7428987884
  0
LINE
  5
3E9
100
AcDbEntity
  8
0
100
AcDbLine
 62
7
  6
CONTINUOUS
 10
28.705398895
 20
10.7343126094
 11
28.7178677032
 21
10.7514744515
  0
LINE
  5
3EA
100
AcDbEntity
  8
0
100
AcDbLine
 62
7
  6
CONTINUOUS
 10
30.4347767064
 20
9.3611489542
 11
30.4205823028
 21
9.3453844719
  0
LINE
  5
3EB
100
AcDbEntity
  8
0
100
AcDbLine
 62
7
  6
CONTINUOUS
 10
29.0154073125
 20
7.7847795421
 11
29.0012129088
 21
7.7690150598
  0
LINE
  5
3EC
100
AcDbEntity
  8
0
100
AcDbLine
 62
7
  6
CONTINUOUS
 10
30.4371271089
 20
9.3088445183
 11
30.4223911796
 21
9.2935850167
  0
LINE
  5
3ED
100
AcDbEntity
  8
0
100
AcDbLine
 62
7
  6
CONTINUOUS
 10
28.9636078573
 20
7.7829706653
 11
28.948871928
 21
7.7677111638
  0
LINE
  5
3EE
100
AcDbEntity
  8
0
100
AcDbLine
 62
7
  6
CONTINUOUS
 10
30.4376506811
 20
9.2564899169
 11
30.4223911796
 21
9.2417539875
  0
LINE
  5
3EF
100
AcDbEntity
  8
0
100
AcDbLine
 62
7
  6
CONTINUOUS
 10
28.9117768281
 20
7.7829706653
 11
28.8965173266
 21
7.768234736
  0
LINE
  5
3F0
100
AcDbEntity
  8
0
100
AcDbLine
 62
7
  6
CONTINUOUS
 10
28.8965173266
 20
10.7671042683
 11
28.9117768281
 21
10.752368339
  0
LINE
  5
3F1
100
AcDbEntity
  8
0
100
AcDbLine
 62
7
  6
CONTINUOUS
 10
30.4223911796
 20
9.2935850167
 11
30.4376506811
 21
9.2788490874
  0
LINE
  5
3F2
100
AcDbEntity
  8
0
100
AcDbLine
 62
7
  6
CONTINUOUS
 10
28.948871928
 20
10.7676278405
 11
28.9636078573
 21
10.752368339
  0
LINE
  5
3F3
100
AcDbEntity
  8
0
100
AcDbLine
 62
7
  6
CONTINUOUS
 10
30.4223911796
 20
9.2417539875
 11
30.4371271089
 21
9.226494486
  0
LINE
  5
3F4
100
AcDbEntity
  8
0
100
AcDbLine
 62
7
  6
CONTINUOUS
 10
29.0012129088
 20
10.7663239445
 11
29.0154073125
 21
10.7505594622
  0
LINE
  5
3F5
100
AcDbEntity
  8
0
100
AcDbLine
 62
7
  6
CONTINUOUS
 10
30.4205823028
 20
9.1899545324
 11
30.4347767064
 21
9.1741900501
  0
LINE
  5
3F6
100
AcDbEntity
  8
0
100
AcDbLine
 62
7
  6
CONTINUOUS
 10
28.7178677032
 20
7.7838645528
 11
28.705398895
 21
7.8010263948
  0
LINE
  5
3F7
100
AcDbEntity
  8
0
100
AcDbLine
 62
7
  6
CONTINUOUS
 10
28.6662175685
 20
7.7924402159
 11
28.6543552956
 21
7.8100267586
  0
LINE
  5
3F8
100
AcDbEntity
  8
0
100
AcDbLine
 62
7
  6
CONTINUOUS
 10
28.6148981839
 20
7.8028132187
 11
28.6036568988
 21
7.8208030355
  0
LINE
  5
3F9
100
AcDbEntity
  8
0
100
AcDbLine
 62
7
  6
CONTINUOUS
 10
28.3574859225
 20
10.6345501699
 11
28.3654325284
 21
10.6542187097
  0
LINE
  5
3FA
100
AcDbEntity
  8
0
100
AcDbLine
 62
7
  6
CONTINUOUS
 10
28.4055428159
 20
10.6539664152
 11
28.4141710031
 21
10.6733456408
  0
LINE
  5
3FB
100
AcDbEntity
  8
0
100
AcDbLine
 62
7
  6
CONTINUOUS
 10
28.4542480516
 20
10.6716936712
 11
28.4635473079
 21
10.6907599722
  0
LINE
  5
3FC
100
AcDbEntity
  8
0
100
AcDbLine
 62
7
  6
CONTINUOUS
 10
28.5035422897
 20
10.6877103401
 11
28.5135012854
 21
10.706440487
  0
LINE
  5
3FD
100
AcDbEntity
  8
0
100
AcDbLine
 62
7
  6
CONTINUOUS
 10
28.5533654727
 20
10.7019969079
 11
28.5639720744
 21
10.720368081
  0
LINE
  5
3FE
100
AcDbEntity
  8
0
100
AcDbLine
 62
7
  6
CONTINUOUS
 10
30.4168042582
 20
9.5171247919
 11
30.40433545
 21
9.4999629498
  0
LINE
  5
3FF
100
AcDbEntity
  8
0
100
AcDbLine
 62
7
  6
CONTINUOUS
 10
29.1699857904
 20
7.8010263948
 11
29.1575169823
 21
7.7838645528
  0
LINE
  5
400
100
AcDbEntity
  8
0
100
AcDbLine
 62
7
  6
CONTINUOUS
 10
30.4246090872
 20
9.4653525691
 11
30.4115489351
 21
9.4486363367
  0
LINE
  5
401
100
AcDbEntity
  8
0
100
AcDbLine
 62
7
  6
CONTINUOUS
 10
29.1186591773
 20
7.7938129098
 11
29.1055990251
 21
7.7770966774
  0
LINE
  5
402
100
AcDbEntity
  8
0
100
AcDbLine
 62
7
  6
CONTINUOUS
 10
30.4306023373
 20
9.4133394999
 11
30.4169667529
 21
9.3970892433
  0
LINE
  5
403
100
AcDbEntity
  8
0
100
AcDbLine
 62
7
  6
CONTINUOUS
 10
29.0671120839
 20
7.7883950919
 11
29.0534764995
 21
7.7721448353
  0
LINE
  5
404
100
AcDbEntity
  8
0
100
AcDbLine
 62
7
  6
CONTINUOUS
 10
29.0534764995
 20
10.763194169
 11
29.0671120839
 21
10.7469439123
  0
LINE
  5
405
100
AcDbEntity
  8
0
100
AcDbLine
 62
7
  6
CONTINUOUS
 10
30.4169667529
 20
9.138249761
 11
30.4306023373
 21
9.1219995044
  0
LINE
  5
406
100
AcDbEntity
  8
0
100
AcDbLine
 62
7
  6
CONTINUOUS
 10
29.1055990251
 20
10.7582423269
 11
29.1186591773
 21
10.7415260945
  0
LINE
  5
407
100
AcDbEntity
  8
0
100
AcDbLine
 62
7
  6
CONTINUOUS
 10
30.4115489351
 20
9.0867026676
 11
30.4246090872
 21
9.0699864352
  0
LINE
  5
408
100
AcDbEntity
  8
0
100
AcDbLine
 62
7
  6
CONTINUOUS
 10
29.1575169823
 20
10.7514744515
 11
29.1699857904
 21
10.7343126094
  0
LINE
  5
409
100
AcDbEntity
  8
0
100
AcDbLine
 62
7
  6
CONTINUOUS
 10
30.40433545
 20
9.0353760544
 11
30.4168042582
 21
9.0182142124
  0
LINE
  5
40A
100
AcDbEntity
  8
0
100
AcDbLine
 62
7
  6
CONTINUOUS
 10
28.5639720744
 20
7.8149709233
 11
28.5533654727
 21
7.8333420964
  0
LINE
  5
40B
100
AcDbEntity
  8
0
100
AcDbLine
 62
7
  6
CONTINUOUS
 10
28.5135012854
 20
7.8288985173
 11
28.5035422897
 21
7.8476286642
  0
LINE
  5
40C
100
AcDbEntity
  8
0
100
AcDbLine
 62
7
  6
CONTINUOUS
 10
28.4635473079
 20
7.8445790321
 11
28.4542480516
 21
7.863645333
  0
LINE
  5
40D
100
AcDbEntity
  8
0
100
AcDbLine
 62
7
  6
CONTINUOUS
 10
28.4141710031
 20
7.8619933634
 11
28.4055428159
 21
7.8813725891
  0
LINE
  5
40E
100
AcDbEntity
  8
0
100
AcDbLine
 62
7
  6
CONTINUOUS
 10
28.3654325284
 20
7.8811202946
 11
28.3574859225
 21
7.9007888344
  0
LINE
  5
40F
100
AcDbEntity
  8
0
100
AcDbLine
 62
7
  6
CONTINUOUS
 10
28.0054161458
 20
8.0925690415
 11
28.0031987622
 21
8.1136660368
  0
LINE
  5
410
100
AcDbEntity
  8
0
100
AcDbLine
 62
7
  6
CONTINUOUS
 10
27.7836888774
 20
10.2021630826
 11
27.7814714938
 21
10.2232600779
  0
LINE
  5
411
100
AcDbEntity
  8
0
100
AcDbLine
 62
7
  6
CONTINUOUS
 10
27.9649736486
 20
8.125820851
 11
27.9634938903
 21
8.1469823801
  0
LINE
  5
412
100
AcDbEntity
  8
0
100
AcDbLine
 62
7
  6
CONTINUOUS
 10
27.8170052207
 20
10.2418679545
 11
27.8155254625
 21
10.2630294837
  0
LINE
  5
413
100
AcDbEntity
  8
0
100
AcDbLine
 62
7
  6
CONTINUOUS
 10
27.9257162593
 20
8.1604638272
 11
27.9249759292
 21
8.1816641081
  0
LINE
  5
414
100
AcDbEntity
  8
0
100
AcDbLine
 62
7
  6
CONTINUOUS
 10
27.8516869487
 20
10.2803859157
 11
27.8509466186
 21
10.3015861966
  0
LINE
  5
415
100
AcDbEntity
  8
0
100
AcDbLine
 62
9
  6
CONTINUOUS
 10
27.3126923427
 20
9.8926695021
 11
27.3126923427
 21
8.6426695021
  0
LINE
  5
416
100
AcDbEntity
  8
0
100
AcDbLine
 62
7
  6
CONTINUOUS
 10
27.887691807
 20
8.196455763
 11
27.887691807
 21
8.2176689664
  0
LINE
  5
417
100
AcDbEntity
  8
0
100
AcDbLine
 62
7
  6
CONTINUOUS
 10
27.887691807
 20
10.3176700379
 11
27.887691807
 21
10.3388832413
  0
LINE
  5
418
100
AcDbEntity
  8
0
100
AcDbLine
 62
7
  6
CONTINUOUS
 10
27.8509466186
 20
8.2337528077
 11
27.8516869487
 21
8.2549530886
  0
LINE
  5
419
100
AcDbEntity
  8
0
100
AcDbLine
 62
7
  6
CONTINUOUS
 10
27.9249759292
 20
10.3536748961
 11
27.9257162593
 21
10.3748751771
  0
LINE
  5
41A
100
AcDbEntity
  8
0
100
AcDbLine
 62
7
  6
CONTINUOUS
 10
27.8155254625
 20
8.2723095206
 11
27.8170052207
 21
8.2934710497
  0
LINE
  5
41B
100
AcDbEntity
  8
0
100
AcDbLine
 62
7
  6
CONTINUOUS
 10
27.9634938903
 20
10.3883566241
 11
27.9649736486
 21
10.4095181533
  0
LINE
  5
41C
100
AcDbEntity
  8
0
100
AcDbLine
 62
7
  6
CONTINUOUS
 10
27.7814714938
 20
8.3120789264
 11
27.7836888774
 21
8.3331759216
  0
LINE
  5
41D
100
AcDbEntity
  8
0
100
AcDbLine
 62
7
  6
CONTINUOUS
 10
28.0031987622
 20
10.4216729675
 11
28.0054161458
 21
10.4427699628
  0
LINE
  5
41E
100
AcDbEntity
  8
0
100
AcDbLine
 62
7
  6
CONTINUOUS
 10
27.7488262022
 20
8.353012572
 11
27.7517785095
 21
8.37401933
  0
LINE
  5
41F
100
AcDbEntity
  8
0
100
AcDbLine
 62
7
  6
CONTINUOUS
 10
28.0440421706
 20
10.4535833354
 11
28.0469944779
 21
10.4745900934
  0
LINE
  5
420
100
AcDbEntity
  8
0
100
AcDbLine
 62
7
  6
CONTINUOUS
 10
27.7176293608
 20
8.3950605863
 11
27.7213129949
 21
8.4159515135
  0
LINE
  5
421
100
AcDbEntity
  8
0
100
AcDbLine
 62
7
  6
CONTINUOUS
 10
28.0859743541
 20
10.48404885
 11
28.0896579882
 21
10.5049397772
  0
LINE
  5
422
100
AcDbEntity
  8
0
100
AcDbLine
 62
7
  6
CONTINUOUS
 10
27.6879189782
 20
8.4381717401
 11
27.6923294512
 21
8.4589213841
  0
LINE
  5
423
100
AcDbEntity
  8
0
100
AcDbLine
 62
7
  6
CONTINUOUS
 10
28.1289442247
 20
10.5130323937
 11
28.1333546977
 21
10.5337820377
  0
LINE
  5
424
100
AcDbEntity
  8
0
100
AcDbLine
 62
7
  6
CONTINUOUS
 10
27.659731252
 20
8.4822935091
 11
27.6648631903
 21
8.5028765897
  0
LINE
  5
425
100
AcDbEntity
  8
0
100
AcDbLine
 62
7
  6
CONTINUOUS
 10
28.1728994303
 20
10.5404986545
 11
28.1780313687
 21
10.5610817352
  0
LINE
  5
426
100
AcDbEntity
  8
0
100
AcDbLine
 62
7
  6
CONTINUOUS
 10
27.6331005245
 20
8.5273721378
 11
27.6389476758
 21
8.5477635777
  0
LINE
  5
427
100
AcDbEntity
  8
0
100
AcDbLine
 62
7
  6
CONTINUOUS
 10
28.2177864183
 20
10.5664141691
 11
28.2236335696
 21
10.586805609
  0
LINE
  5
428
100
AcDbEntity
  8
0
100
AcDbLine
 62
7
  6
CONTINUOUS
 10
27.6080592411
 20
8.5733527048
 11
27.6146144815
 21
8.5935276602
  0
LINE
  5
429
100
AcDbEntity
  8
0
100
AcDbLine
 62
7
  6
CONTINUOUS
 10
28.2635505008
 20
10.5907473634
 11
28.2701057411
 21
10.6109223188
  0
LINE
  5
42A
100
AcDbEntity
  8
0
100
AcDbLine
 62
7
  6
CONTINUOUS
 10
27.5846379109
 20
8.6201791899
 11
27.5918932538
 21
8.6401130806
  0
LINE
  5
42B
100
AcDbEntity
  8
0
100
AcDbLine
 62
7
  6
CONTINUOUS
 10
28.3101359212
 20
10.6134685911
 11
28.3173912641
 21
10.6334024818
  0
LINE
  5
42C
100
AcDbEntity
  8
0
100
AcDbLine
 62
7
  6
CONTINUOUS
 10
30.3676921765
 20
9.7205497021
 11
30.3577331807
 21
9.7018195552
  0
LINE
  5
42D
100
AcDbEntity
  8
0
100
AcDbLine
 62
7
  6
CONTINUOUS
 10
29.3718423958
 20
7.8476286642
 11
29.3618834001
 21
7.8288985173
  0
LINE
  5
42E
100
AcDbEntity
  8
0
100
AcDbLine
 62
7
  6
CONTINUOUS
 10
30.3826263502
 20
9.6703675453
 11
30.3720197485
 21
9.6519963722
  0
LINE
  5
42F
100
AcDbEntity
  8
0
100
AcDbLine
 62
7
  6
CONTINUOUS
 10
29.3220192128
 20
7.8333420964
 11
29.3114126111
 21
7.8149709233
  0
LINE
  5
430
100
AcDbEntity
  8
0
100
AcDbLine
 62
7
  6
CONTINUOUS
 10
30.3958000945
 20
9.6196947629
 11
30.3845588094
 21
9.6017049461
  0
LINE
  5
431
100
AcDbEntity
  8
0
100
AcDbLine
 62
7
  6
CONTINUOUS
 10
29.2717277867
 20
7.8208030355
 11
29.2604865015
 21
7.8028132187
  0
LINE
  5
432
100
AcDbEntity
  8
0
100
AcDbLine
 62
7
  6
CONTINUOUS
 10
30.4071973591
 20
9.5685930919
 11
30.3953350863
 21
9.5510065492
  0
LINE
  5
433
100
AcDbEntity
  8
0
100
AcDbLine
 62
7
  6
CONTINUOUS
 10
29.2210293898
 20
7.8100267586
 11
29.209167117
 21
7.7924402159
  0
LINE
  5
434
100
AcDbEntity
  8
0
100
AcDbLine
 62
7
  6
CONTINUOUS
 10
29.209167117
 20
10.7428987884
 11
29.2210293898
 21
10.7253122457
  0
LINE
  5
435
100
AcDbEntity
  8
0
100
AcDbLine
 62
7
  6
CONTINUOUS
 10
30.3953350863
 20
8.984332455
 11
30.4071973591
 21
8.9667459124
  0
LINE
  5
436
100
AcDbEntity
  8
0
100
AcDbLine
 62
7
  6
CONTINUOUS
 10
29.2604865015
 20
10.7325257856
 11
29.2717277867
 21
10.7145359688
  0
LINE
  5
437
100
AcDbEntity
  8
0
100
AcDbLine
 62
7
  6
CONTINUOUS
 10
30.3845588094
 20
8.9336340582
 11
30.3958000945
 21
8.9156442414
  0
LINE
  5
438
100
AcDbEntity
  8
0
100
AcDbLine
 62
7
  6
CONTINUOUS
 10
29.3114126111
 20
10.720368081
 11
29.3220192128
 21
10.7019969079
  0
LINE
  5
439
100
AcDbEntity
  8
0
100
AcDbLine
 62
7
  6
CONTINUOUS
 10
30.3720197485
 20
8.8833426321
 11
30.3826263502
 21
8.864971459
  0
LINE
  5
43A
100
AcDbEntity
  8
0
100
AcDbLine
 62
7
  6
CONTINUOUS
 10
29.3618834001
 20
10.706440487
 11
29.3718423958
 21
10.6877103401
  0
LINE
  5
43B
100
AcDbEntity
  8
0
100
AcDbLine
 62
7
  6
CONTINUOUS
 10
30.3577331807
 20
8.8335194491
 11
30.3676921765
 21
8.8147893021
  0
LINE
  5
43C
100
AcDbEntity
  8
0
100
AcDbLine
 62
7
  6
CONTINUOUS
 10
28.3173912641
 20
7.9019365224
 11
28.3101359212
 21
7.9218704132
  0
LINE
  5
43D
100
AcDbEntity
  8
0
100
AcDbLine
 62
7
  6
CONTINUOUS
 10
27.5918932538
 20
9.8952259237
 11
27.5846379109
 21
9.9151598144
  0
LINE
  5
43E
100
AcDbEntity
  8
0
100
AcDbLine
 62
7
  6
CONTINUOUS
 10
28.2701057411
 20
7.9244166855
 11
28.2635505008
 21
7.9445916409
  0
LINE
  5
43F
100
AcDbEntity
  8
0
100
AcDbLine
 62
7
  6
CONTINUOUS
 10
27.6146144815
 20
9.9418113441
 11
27.6080592411
 21
9.9619862995
  0
LINE
  5
440
100
AcDbEntity
  8
0
100
AcDbLine
 62
7
  6
CONTINUOUS
 10
28.2236335696
 20
7.9485333952
 11
28.2177864183
 21
7.9689248352
  0
LINE
  5
441
100
AcDbEntity
  8
0
100
AcDbLine
 62
7
  6
CONTINUOUS
 10
27.6389476758
 20
9.9875754266
 11
27.6331005245
 21
10.0079668665
  0
LINE
  5
442
100
AcDbEntity
  8
0
100
AcDbLine
 62
7
  6
CONTINUOUS
 10
28.1780313687
 20
7.9742572691
 11
28.1728994303
 21
7.9948403498
  0
LINE
  5
443
100
AcDbEntity
  8
0
100
AcDbLine
 62
7
  6
CONTINUOUS
 10
27.6648631903
 20
10.0324624146
 11
27.659731252
 21
10.0530454952
  0
LINE
  5
444
100
AcDbEntity
  8
0
100
AcDbLine
 62
7
  6
CONTINUOUS
 10
28.1333546977
 20
8.0015569666
 11
28.1289442247
 21
8.0223066106
  0
LINE
  5
445
100
AcDbEntity
  8
0
100
AcDbLine
 62
7
  6
CONTINUOUS
 10
27.6923294512
 20
10.0764176202
 11
27.6879189782
 21
10.0971672642
  0
LINE
  5
446
100
AcDbEntity
  8
0
100
AcDbLine
 62
7
  6
CONTINUOUS
 10
28.0896579882
 20
8.0303992271
 11
28.0859743541
 21
8.0512901543
  0
LINE
  5
447
100
AcDbEntity
  8
0
100
AcDbLine
 62
7
  6
CONTINUOUS
 10
27.7213129949
 20
10.1193874908
 11
27.7176293608
 21
10.140278418
  0
LINE
  5
448
100
AcDbEntity
  8
0
100
AcDbLine
 62
7
  6
CONTINUOUS
 10
28.0469944779
 20
8.0607489109
 11
28.0440421706
 21
8.0817556689
  0
LINE
  5
449
100
AcDbEntity
  8
0
100
AcDbLine
 62
7
  6
CONTINUOUS
 10
27.7517785095
 20
10.1613196743
 11
27.7488262022
 21
10.1823264323
  0
LINE
  5
44A
100
AcDbEntity
  8
0
100
AcDbLine
 62
7
  6
CONTINUOUS
 10
29.8699685397
 20
10.4427699628
 11
29.8721859232
 21
10.4216729675
  0
LINE
  5
44B
100
AcDbEntity
  8
0
100
AcDbLine
 62
7
  6
CONTINUOUS
 10
30.0916958081
 20
8.3331759216
 11
30.0939131917
 21
8.3120789264
  0
LINE
  5
44C
100
AcDbEntity
  8
0
100
AcDbLine
 62
7
  6
CONTINUOUS
 10
29.9104110369
 20
10.4095181533
 11
29.9118907951
 21
10.3883566241
  0
LINE
  5
44D
100
AcDbEntity
  8
0
100
AcDbLine
 62
7
  6
CONTINUOUS
 10
30.0583794647
 20
8.2934710497
 11
30.059859223
 21
8.2723095206
  0
LINE
  5
44E
100
AcDbEntity
  8
0
100
AcDbLine
 62
7
  6
CONTINUOUS
 10
29.9496684262
 20
10.3748751771
 11
29.9504087563
 21
10.3536748961
  0
LINE
  5
44F
100
AcDbEntity
  8
0
100
AcDbLine
 62
7
  6
CONTINUOUS
 10
30.0236977367
 20
8.2549530886
 11
30.0244380669
 21
8.2337528077
  0
LINE
  5
450
100
AcDbEntity
  8
0
100
AcDbLine
 62
7
  6
CONTINUOUS
 10
29.9876928785
 20
10.3388832413
 11
29.9876928785
 21
10.3176700379
  0
LINE
  5
451
100
AcDbEntity
  8
0
100
AcDbLine
 62
7
  6
CONTINUOUS
 10
29.9876928785
 20
8.2176689664
 11
29.9876928785
 21
8.196455763
  0
LINE
  5
452
100
AcDbEntity
  8
0
100
AcDbLine
 62
7
  6
CONTINUOUS
 10
30.0244380669
 20
10.3015861966
 11
30.0236977367
 21
10.2803859157
  0
LINE
  5
453
100
AcDbEntity
  8
0
100
AcDbLine
 62
7
  6
CONTINUOUS
 10
29.9504087563
 20
8.1816641081
 11
29.9496684262
 21
8.1604638272
  0
LINE
  5
454
100
AcDbEntity
  8
0
100
AcDbLine
 62
7
  6
CONTINUOUS
 10
30.059859223
 20
10.2630294837
 11
30.0583794647
 21
10.2418679545
  0
LINE
  5
455
100
AcDbEntity
  8
0
100
AcDbLine
 62
7
  6
CONTINUOUS
 10
29.9118907951
 20
8.1469823801
 11
29.9104110369
 21
8.125820851
  0
LINE
  5
456
100
AcDbEntity
  8
0
100
AcDbLine
 62
7
  6
CONTINUOUS
 10
30.0939131917
 20
10.2232600779
 11
30.0916958081
 21
10.2021630826
  0
LINE
  5
457
100
AcDbEntity
  8
0
100
AcDbLine
 62
7
  6
CONTINUOUS
 10
29.8721859232
 20
8.1136660368
 11
29.8699685397
 21
8.0925690415
  0
LINE
  5
458
100
AcDbEntity
  8
0
100
AcDbLine
 62
7
  6
CONTINUOUS
 10
30.1265584833
 20
10.1823264323
 11
30.123606176
 21
10.1613196743
  0
LINE
  5
459
100
AcDbEntity
  8
0
100
AcDbLine
 62
7
  6
CONTINUOUS
 10
29.8313425149
 20
8.0817556689
 11
29.8283902076
 21
8.0607489109
  0
LINE
  5
45A
100
AcDbEntity
  8
0
100
AcDbLine
 62
7
  6
CONTINUOUS
 10
30.1577553247
 20
10.140278418
 11
30.1540716906
 21
10.1193874908
  0
LINE
  5
45B
100
AcDbEntity
  8
0
100
AcDbLine
 62
7
  6
CONTINUOUS
 10
29.7894103314
 20
8.0512901543
 11
29.7857266973
 21
8.0303992271
  0
LINE
  5
45C
100
AcDbEntity
  8
0
100
AcDbLine
 62
7
  6
CONTINUOUS
 10
30.1874657073
 20
10.0971672642
 11
30.1830552343
 21
10.0764176202
  0
LINE
  5
45D
100
AcDbEntity
  8
0
100
AcDbLine
 62
7
  6
CONTINUOUS
 10
29.7464404608
 20
8.0223066106
 11
29.7420299878
 21
8.0015569666
  0
LINE
  5
45E
100
AcDbEntity
  8
0
100
AcDbLine
 62
7
  6
CONTINUOUS
 10
30.2156534335
 20
10.0530454952
 11
30.2105214951
 21
10.0324624146
  0
LINE
  5
45F
100
AcDbEntity
  8
0
100
AcDbLine
 62
7
  6
CONTINUOUS
 10
29.7024852552
 20
7.9948403498
 11
29.6973533168
 21
7.9742572691
  0
LINE
  5
460
100
AcDbEntity
  8
0
100
AcDbLine
 62
7
  6
CONTINUOUS
 10
30.242284161
 20
10.0079668665
 11
30.2364370097
 21
9.9875754266
  0
LINE
  5
461
100
AcDbEntity
  8
0
100
AcDbLine
 62
7
  6
CONTINUOUS
 10
29.6575982672
 20
7.9689248352
 11
29.6517511159
 21
7.9485333952
  0
LINE
  5
462
100
AcDbEntity
  8
0
100
AcDbLine
 62
7
  6
CONTINUOUS
 10
30.2673254444
 20
9.9619862995
 11
30.260770204
 21
9.9418113441
  0
LINE
  5
463
100
AcDbEntity
  8
0
100
AcDbLine
 62
7
  6
CONTINUOUS
 10
29.6118341847
 20
7.9445916409
 11
29.6052789443
 21
7.9244166855
  0
LINE
  5
464
100
AcDbEntity
  8
0
100
AcDbLine
 62
7
  6
CONTINUOUS
 10
30.2907467746
 20
9.9151598144
 11
30.2834914317
 21
9.8952259237
  0
LINE
  5
465
100
AcDbEntity
  8
0
100
AcDbLine
 62
7
  6
CONTINUOUS
 10
29.5652487643
 20
7.9218704132
 11
29.5579934214
 21
7.9019365224
  0
LINE
  5
466
100
AcDbEntity
  8
0
100
AcDbLine
 62
7
  6
CONTINUOUS
 10
30.3125196164
 20
9.8675444621
 11
30.3045730105
 21
9.8478759224
  0
LINE
  5
467
100
AcDbEntity
  8
0
100
AcDbLine
 62
7
  6
CONTINUOUS
 10
29.517898763
 20
7.9007888344
 11
29.5099521571
 21
7.8811202946
  0
LINE
  5
468
100
AcDbEntity
  8
0
100
AcDbLine
 62
7
  6
CONTINUOUS
 10
30.332617443
 20
9.8191982546
 11
30.3239892558
 21
9.7998190289
  0
LINE
  5
469
100
AcDbEntity
  8
0
100
AcDbLine
 62
7
  6
CONTINUOUS
 10
29.4698418695
 20
7.8813725891
 11
29.4612136824
 21
7.8619933634
  0
LINE
  5
46A
100
AcDbEntity
  8
0
100
AcDbLine
 62
7
  6
CONTINUOUS
 10
30.3510157682
 20
9.7701800942
 11
30.3417165118
 21
9.7511137933
  0
LINE
  5
46B
100
AcDbEntity
  8
0
100
AcDbLine
 62
7
  6
CONTINUOUS
 10
29.4211366339
 20
7.863645333
 11
29.4118373776
 21
7.8445790321
  0
LINE
  5
46C
100
AcDbEntity
  8
0
100
AcDbLine
 62
7
  6
CONTINUOUS
 10
29.4118373776
 20
10.6907599722
 11
29.4211366339
 21
10.6716936712
  0
LINE
  5
46D
100
AcDbEntity
  8
0
100
AcDbLine
 62
7
  6
CONTINUOUS
 10
30.3417165118
 20
8.784225211
 11
30.3510157682
 21
8.76515891
  0
LINE
  5
46E
100
AcDbEntity
  8
0
100
AcDbLine
 62
7
  6
CONTINUOUS
 10
29.4612136824
 20
10.6733456408
 11
29.4698418695
 21
10.6539664152
  0
LINE
  5
46F
100
AcDbEntity
  8
0
100
AcDbLine
 62
7
  6
CONTINUOUS
 10
30.3239892558
 20
8.7355199753
 11
30.332617443
 21
8.7161407497
  0
LINE
  5
470
100
AcDbEntity
  8
0
100
AcDbLine
 62
7
  6
CONTINUOUS
 10
29.5099521571
 20
10.6542187097
 11
29.517898763
 21
10.6345501699
  0
LINE
  5
471
100
AcDbEntity
  8
0
100
AcDbLine
 62
7
  6
CONTINUOUS
 10
30.3045730105
 20
8.6874630819
 11
30.3125196164
 21
8.6677945422
  0
LINE
  5
472
100
AcDbEntity
  8
0
100
AcDbLine
 62
7
  6
CONTINUOUS
 10
29.5579934214
 20
10.6334024818
 11
29.5652487643
 21
10.6134685911
  0
LINE
  5
473
100
AcDbEntity
  8
0
100
AcDbLine
 62
7
  6
CONTINUOUS
 10
30.2834914317
 20
8.6401130806
 11
30.2907467746
 21
8.6201791899
  0
LINE
  5
474
100
AcDbEntity
  8
0
100
AcDbLine
 62
7
  6
CONTINUOUS
 10
29.6052789443
 20
10.6109223188
 11
29.6118341847
 21
10.5907473634
  0
LINE
  5
475
100
AcDbEntity
  8
0
100
AcDbLine
 62
7
  6
CONTINUOUS
 10
30.260770204
 20
8.5935276602
 11
30.2673254444
 21
8.5733527048
  0
LINE
  5
476
100
AcDbEntity
  8
0
100
AcDbLine
 62
7
  6
CONTINUOUS
 10
29.6517511159
 20
10.586805609
 11
29.6575982672
 21
10.5664141691
  0
LINE
  5
477
100
AcDbEntity
  8
0
100
AcDbLine
 62
7
  6
CONTINUOUS
 10
30.2364370097
 20
8.5477635777
 11
30.242284161
 21
8.5273721378
  0
LINE
  5
478
100
AcDbEntity
  8
0
100
AcDbLine
 62
7
  6
CONTINUOUS
 10
29.6973533168
 20
10.5610817352
 11
29.7024852552
 21
10.5404986545
  0
LINE
  5
479
100
AcDbEntity
  8
0
100
AcDbLine
 62
7
  6
CONTINUOUS
 10
30.2105214951
 20
8.5028765897
 11
30.2156534335
 21
8.4822935091
  0
LINE
  5
47A
100
AcDbEntity
  8
0
100
AcDbLine
 62
7
  6
CONTINUOUS
 10
29.7420299878
 20
10.5337820377
 11
29.7464404608
 21
10.5130323937
  0
LINE
  5
47B
100
AcDbEntity
  8
0
100
AcDbLine
 62
7
  6
CONTINUOUS
 10
30.1830552343
 20
8.4589213841
 11
30.1874657073
 21
8.4381717401
  0
LINE
  5
47C
100
AcDbEntity
  8
0
100
AcDbLine
 62
7
  6
CONTINUOUS
 10
29.7857266973
 20
10.5049397772
 11
29.7894103314
 21
10.48404885
  0
LINE
  5
47D
100
AcDbEntity
  8
0
100
AcDbLine
 62
7
  6
CONTINUOUS
 10
30.1540716906
 20
8.4159515135
 11
30.1577553247
 21
8.3950605863
  0
LINE
  5
47E
100
AcDbEntity
  8
0
100
AcDbLine
 62
7
  6
CONTINUOUS
 10
29.8283902076
 20
10.4745900934
 11
29.8313425149
 21
10.4535833354
  0
LINE
  5
47F
100
AcDbEntity
  8
0
100
AcDbLine
 62
7
  6
CONTINUOUS
 10
30.123606176
 20
8.37401933
 11
30.1265584833
 21
8.353012572
  0
ARC
  5
480
100
AcDbEntity
  8
0
100
AcDbCircle
 62
7
  6
CONTINUOUS
 10
-7.0623076573
 20
9.2676695021
 40
1.5
100
AcDbArc
 50
179.5729673449
 51
180.4270326551
  0
ARC
  5
481
100
AcDbEntity
  8
0
100
AcDbCircle
 62
7
  6
CONTINUOUS
 10
28.9376923427
 20
9.2676695021
 40
1.5
100
AcDbArc
 50
359.5729673449
 51
0.4270326551
  0
ARC
  5
482
100
AcDbEntity
  8
0
100
AcDbCircle
 62
7
  6
CONTINUOUS
 10
28.9376923427
 20
9.2676695021
 40
1.5
100
AcDbArc
 50
0.4414648955
 51
3.5534127816
  0
ARC
  5
483
100
AcDbEntity
  8
0
100
AcDbCircle
 62
7
  6
CONTINUOUS
 10
28.9376923427
 20
9.2676695021
 40
1.5
100
AcDbArc
 50
3.5729673449
 51
7.5489308986
  0
ARC
  5
484
100
AcDbEntity
  8
0
100
AcDbCircle
 62
7
  6
CONTINUOUS
 10
28.9376923427
 20
9.2676695021
 40
1.5
100
AcDbArc
 50
7.5729673449
 51
9.5430844091
  0
ARC
  5
485
100
AcDbEntity
  8
0
100
AcDbCircle
 62
7
  6
CONTINUOUS
 10
28.9376923427
 20
9.2676695021
 40
1.5
100
AcDbArc
 50
9.5729673449
 51
11.5451019193
  0
ARC
  5
486
100
AcDbEntity
  8
0
100
AcDbCircle
 62
7
  6
CONTINUOUS
 10
28.9376923427
 20
9.2676695021
 40
1.5
100
AcDbArc
 50
11.5729673449
 51
13.5462613892
  0
ARC
  5
487
100
AcDbEntity
  8
0
100
AcDbCircle
 62
7
  6
CONTINUOUS
 10
28.9376923427
 20
9.2676695021
 40
1.5
100
AcDbArc
 50
13.5729673449
 51
15.5419153251
  0
ARC
  5
488
100
AcDbEntity
  8
0
100
AcDbCircle
 62
7
  6
CONTINUOUS
 10
28.9376923427
 20
9.2676695021
 40
1.5
100
AcDbArc
 50
15.5729673449
 51
17.5499925414
  0
ARC
  5
489
100
AcDbEntity
  8
0
100
AcDbCircle
 62
7
  6
CONTINUOUS
 10
28.9376923427
 20
9.2676695021
 40
1.5
100
AcDbArc
 50
17.5729673449
 51
20.4270326551
  0
ARC
  5
48A
100
AcDbEntity
  8
0
100
AcDbCircle
 62
7
  6
CONTINUOUS
 10
28.9376923427
 20
9.2676695021
 40
1.5
100
AcDbArc
 50
20.4421861003
 51
21.5542923975
  0
ARC
  5
48B
100
AcDbEntity
  8
0
100
AcDbCircle
 62
7
  6
CONTINUOUS
 10
28.9376923427
 20
9.2676695021
 40
1.5
100
AcDbArc
 50
21.5729673449
 51
24.4270326551
  0
ARC
  5
48C
100
AcDbEntity
  8
0
100
AcDbCircle
 62
7
  6
CONTINUOUS
 10
28.9376923427
 20
9.2676695021
 40
1.5
100
AcDbArc
 50
24.4468547406
 51
28.4270326551
  0
ARC
  5
48D
100
AcDbEntity
  8
0
100
AcDbCircle
 62
7
  6
CONTINUOUS
 10
28.9376923427
 20
9.2676695021
 40
1.5
100
AcDbArc
 50
28.450974955
 51
30.4270326551
  0
ARC
  5
48E
100
AcDbEntity
  8
0
100
AcDbCircle
 62
7
  6
CONTINUOUS
 10
28.9376923427
 20
9.2676695021
 40
1.5
100
AcDbArc
 50
30.4573257544
 51
32.4270326551
  0
ARC
  5
48F
100
AcDbEntity
  8
0
100
AcDbCircle
 62
7
  6
CONTINUOUS
 10
28.9376923427
 20
9.2676695021
 40
1.5
100
AcDbArc
 50
32.4545568494
 51
34.4270326551
  0
ARC
  5
490
100
AcDbEntity
  8
0
100
AcDbCircle
 62
7
  6
CONTINUOUS
 10
28.9376923427
 20
9.2676695021
 40
1.5
100
AcDbArc
 50
34.4539872205
 51
36.4270326551
  0
ARC
  5
491
100
AcDbEntity
  8
0
100
AcDbCircle
 62
7
  6
CONTINUOUS
 10
28.9376923427
 20
9.2676695021
 40
1.5
100
AcDbArc
 50
36.4576075168
 51
38.4270326551
  0
ARC
  5
492
100
AcDbEntity
  8
0
100
AcDbCircle
 62
7
  6
CONTINUOUS
 10
28.9376923427
 20
9.2676695021
 40
1.5
100
AcDbArc
 50
38.4500122629
 51
42.4270326551
  0
ARC
  5
493
100
AcDbEntity
  8
0
100
AcDbCircle
 62
7
  6
CONTINUOUS
 10
28.9376923427
 20
9.2676695021
 40
1.5
100
AcDbArc
 50
42.4453872429
 51
45.5572043456
  0
ARC
  5
494
100
AcDbEntity
  8
0
100
AcDbCircle
 62
7
  6
CONTINUOUS
 10
28.9376923427
 20
9.2676695021
 40
1.5
100
AcDbArc
 50
45.5729673449
 51
49.5522208719
  0
ARC
  5
495
100
AcDbEntity
  8
0
100
AcDbCircle
 62
7
  6
CONTINUOUS
 10
28.9376923427
 20
9.2676695021
 40
1.5
100
AcDbArc
 50
49.5729673449
 51
51.5410312721
  0
ARC
  5
496
100
AcDbEntity
  8
0
100
AcDbCircle
 62
7
  6
CONTINUOUS
 10
28.9376923427
 20
9.2676695021
 40
1.5
100
AcDbArc
 50
51.5729673449
 51
53.5478967301
  0
ARC
  5
497
100
AcDbEntity
  8
0
100
AcDbCircle
 62
7
  6
CONTINUOUS
 10
28.9376923427
 20
9.2676695021
 40
1.5
100
AcDbArc
 50
53.5729673449
 51
55.5438035806
  0
ARC
  5
498
100
AcDbEntity
  8
0
100
AcDbCircle
 62
7
  6
CONTINUOUS
 10
28.9376923427
 20
9.2676695021
 40
1.5
100
AcDbArc
 50
55.5729673449
 51
57.5442343716
  0
ARC
  5
499
100
AcDbEntity
  8
0
100
AcDbCircle
 62
7
  6
CONTINUOUS
 10
28.9376923427
 20
9.2676695021
 40
1.5
100
AcDbArc
 50
57.5729673449
 51
59.547150363
  0
ARC
  5
49A
100
AcDbEntity
  8
0
100
AcDbCircle
 62
7
  6
CONTINUOUS
 10
28.9376923427
 20
9.2676695021
 40
1.5
100
AcDbArc
 50
59.5729673449
 51
61.5412573973
  0
ARC
  5
49B
100
AcDbEntity
  8
0
100
AcDbCircle
 62
7
  6
CONTINUOUS
 10
28.9376923427
 20
9.2676695021
 40
1.5
100
AcDbArc
 50
61.5729673449
 51
63.5510564354
  0
ARC
  5
49C
100
AcDbEntity
  8
0
100
AcDbCircle
 62
7
  6
CONTINUOUS
 10
28.9376923427
 20
9.2676695021
 40
1.5
100
AcDbArc
 50
63.5729673449
 51
66.4270326551
  0
ARC
  5
49D
100
AcDbEntity
  8
0
100
AcDbCircle
 62
7
  6
CONTINUOUS
 10
28.9376923427
 20
9.2676695021
 40
1.5
100
AcDbArc
 50
66.4434034333
 51
67.5554400257
  0
ARC
  5
49E
100
AcDbEntity
  8
0
100
AcDbCircle
 62
7
  6
CONTINUOUS
 10
28.9376923427
 20
9.2676695021
 40
1.5
100
AcDbArc
 50
67.5729673449
 51
70.4270326551
  0
ARC
  5
49F
100
AcDbEntity
  8
0
100
AcDbCircle
 62
7
  6
CONTINUOUS
 10
28.9376923427
 20
9.2676695021
 40
1.5
100
AcDbArc
 50
70.4479138232
 51
72.4270326551
  0
ARC
  5
4A0
100
AcDbEntity
  8
0
100
AcDbCircle
 62
7
  6
CONTINUOUS
 10
28.9376923427
 20
9.2676695021
 40
1.5
100
AcDbArc
 50
72.4593907395
 51
74.4270326551
  0
ARC
  5
4A1
100
AcDbEntity
  8
0
100
AcDbCircle
 62
7
  6
CONTINUOUS
 10
28.9376923427
 20
9.2676695021
 40
1.5
100
AcDbArc
 50
74.4518968919
 51
76.4270326551
  0
ARC
  5
4A2
100
AcDbEntity
  8
0
100
AcDbCircle
 62
7
  6
CONTINUOUS
 10
28.9376923427
 20
9.2676695021
 40
1.5
100
AcDbArc
 50
76.4565423272
 51
78.4270326551
  0
ARC
  5
4A3
100
AcDbEntity
  8
0
100
AcDbCircle
 62
7
  6
CONTINUOUS
 10
28.9376923427
 20
9.2676695021
 40
1.5
100
AcDbArc
 50
78.4553772636
 51
80.4270326551
  0
ARC
  5
4A4
100
AcDbEntity
  8
0
100
AcDbCircle
 62
7
  6
CONTINUOUS
 10
28.9376923427
 20
9.2676695021
 40
1.5
100
AcDbArc
 50
80.4530712648
 51
82.4270326551
  0
ARC
  5
4A5
100
AcDbEntity
  8
0
100
AcDbCircle
 62
7
  6
CONTINUOUS
 10
28.9376923427
 20
9.2676695021
 40
1.5
100
AcDbArc
 50
82.4583407198
 51
84.4270326551
  0
ARC
  5
4A6
100
AcDbEntity
  8
0
100
AcDbCircle
 62
7
  6
CONTINUOUS
 10
28.9376923427
 20
9.2676695021
 40
1.5
100
AcDbArc
 50
84.4489366494
 51
88.4270326551
  0
ARC
  5
4A7
100
AcDbEntity
  8
0
100
AcDbCircle
 62
7
  6
CONTINUOUS
 10
28.9376923427
 20
9.2676695021
 40
1.5
100
AcDbArc
 50
88.4441106551
 51
91.5558893449
  0
ARC
  5
4A8
100
AcDbEntity
  8
0
100
AcDbCircle
 62
7
  6
CONTINUOUS
 10
28.9376923427
 20
9.2676695021
 40
1.5
100
AcDbArc
 50
91.5729673449
 51
95.5510633506
  0
ARC
  5
4A9
100
AcDbEntity
  8
0
100
AcDbCircle
 62
7
  6
CONTINUOUS
 10
28.9376923427
 20
9.2676695021
 40
1.5
100
AcDbArc
 50
95.5729673449
 51
97.5416592802
  0
ARC
  5
4AA
100
AcDbEntity
  8
0
100
AcDbCircle
 62
7
  6
CONTINUOUS
 10
28.9376923427
 20
9.2676695021
 40
1.5
100
AcDbArc
 50
97.5729673449
 51
99.5469287352
  0
ARC
  5
4AB
100
AcDbEntity
  8
0
100
AcDbCircle
 62
7
  6
CONTINUOUS
 10
28.9376923427
 20
9.2676695021
 40
1.5
100
AcDbArc
 50
99.5729673449
 51
101.5446227364
  0
ARC
  5
4AC
100
AcDbEntity
  8
0
100
AcDbCircle
 62
7
  6
CONTINUOUS
 10
28.9376923427
 20
9.2676695021
 40
1.5
100
AcDbArc
 50
101.5729673449
 51
103.5434576728
  0
ARC
  5
4AD
100
AcDbEntity
  8
0
100
AcDbCircle
 62
7
  6
CONTINUOUS
 10
28.9376923427
 20
9.2676695021
 40
1.5
100
AcDbArc
 50
103.5729673449
 51
105.5481031081
  0
ARC
  5
4AE
100
AcDbEntity
  8
0
100
AcDbCircle
 62
7
  6
CONTINUOUS
 10
28.9376923427
 20
9.2676695021
 40
1.5
100
AcDbArc
 50
105.5729673449
 51
107.5406092605
  0
ARC
  5
4AF
100
AcDbEntity
  8
0
100
AcDbCircle
 62
7
  6
CONTINUOUS
 10
28.9376923427
 20
9.2676695021
 40
1.5
100
AcDbArc
 50
107.5729673449
 51
109.5520861768
  0
ARC
  5
4B0
100
AcDbEntity
  8
0
100
AcDbCircle
 62
7
  6
CONTINUOUS
 10
28.9376923427
 20
9.2676695021
 40
1.5
100
AcDbArc
 50
109.5729673449
 51
112.4270326551
  0
ARC
  5
4B1
100
AcDbEntity
  8
0
100
AcDbCircle
 62
7
  6
CONTINUOUS
 10
28.9376923427
 20
9.2676695021
 40
1.5
100
AcDbArc
 50
112.4445599743
 51
113.5565965667
  0
ARC
  5
4B2
100
AcDbEntity
  8
0
100
AcDbCircle
 62
7
  6
CONTINUOUS
 10
28.9376923427
 20
9.2676695021
 40
1.5
100
AcDbArc
 50
113.5729673449
 51
116.4270326551
  0
ARC
  5
4B3
100
AcDbEntity
  8
0
100
AcDbCircle
 62
7
  6
CONTINUOUS
 10
28.9376923427
 20
9.2676695021
 40
1.5
100
AcDbArc
 50
116.4489435646
 51
118.4270326551
  0
ARC
  5
4B4
100
AcDbEntity
  8
0
100
AcDbCircle
 62
7
  6
CONTINUOUS
 10
28.9376923427
 20
9.2676695021
 40
1.5
100
AcDbArc
 50
118.4587426027
 51
120.4270326551
  0
ARC
  5
4B5
100
AcDbEntity
  8
0
100
AcDbCircle
 62
7
  6
CONTINUOUS
 10
28.9376923427
 20
9.2676695021
 40
1.5
100
AcDbArc
 50
120.452849637
 51
122.4270326551
  0
ARC
  5
4B6
100
AcDbEntity
  8
0
100
AcDbCircle
 62
7
  6
CONTINUOUS
 10
28.9376923427
 20
9.2676695021
 40
1.5
100
AcDbArc
 50
122.4557656284
 51
124.4270326551
  0
ARC
  5
4B7
100
AcDbEntity
  8
0
100
AcDbCircle
 62
7
  6
CONTINUOUS
 10
28.9376923427
 20
9.2676695021
 40
1.5
100
AcDbArc
 50
124.4561964194
 51
126.4270326551
  0
ARC
  5
4B8
100
AcDbEntity
  8
0
100
AcDbCircle
 62
7
  6
CONTINUOUS
 10
28.9376923427
 20
9.2676695021
 40
1.5
100
AcDbArc
 50
126.4521032699
 51
128.4270326551
  0
ARC
  5
4B9
100
AcDbEntity
  8
0
100
AcDbCircle
 62
7
  6
CONTINUOUS
 10
28.9376923427
 20
9.2676695021
 40
1.5
100
AcDbArc
 50
128.4589687279
 51
130.4270326551
  0
ARC
  5
4BA
100
AcDbEntity
  8
0
100
AcDbCircle
 62
7
  6
CONTINUOUS
 10
28.9376923427
 20
9.2676695021
 40
1.5
100
AcDbArc
 50
130.4477791281
 51
134.4270326551
  0
ARC
  5
4BB
100
AcDbEntity
  8
0
100
AcDbCircle
 62
7
  6
CONTINUOUS
 10
28.9376923427
 20
9.2676695021
 40
1.5
100
AcDbArc
 50
134.4427956544
 51
137.5546127571
  0
ARC
  5
4BC
100
AcDbEntity
  8
0
100
AcDbCircle
 62
7
  6
CONTINUOUS
 10
28.9376923427
 20
9.2676695021
 40
1.5
100
AcDbArc
 50
137.5729673449
 51
141.5499877371
  0
ARC
  5
4BD
100
AcDbEntity
  8
0
100
AcDbCircle
 62
7
  6
CONTINUOUS
 10
28.9376923427
 20
9.2676695021
 40
1.5
100
AcDbArc
 50
141.5729673449
 51
143.5423924832
  0
ARC
  5
4BE
100
AcDbEntity
  8
0
100
AcDbCircle
 62
7
  6
CONTINUOUS
 10
28.9376923427
 20
9.2676695021
 40
1.5
100
AcDbArc
 50
143.5729673449
 51
145.5460127795
  0
ARC
  5
4BF
100
AcDbEntity
  8
0
100
AcDbCircle
 62
7
  6
CONTINUOUS
 10
28.9376923427
 20
9.2676695021
 40
1.5
100
AcDbArc
 50
145.5729673449
 51
147.5454431506
  0
ARC
  5
4C0
100
AcDbEntity
  8
0
100
AcDbCircle
 62
7
  6
CONTINUOUS
 10
28.9376923427
 20
9.2676695021
 40
1.5
100
AcDbArc
 50
147.5729673449
 51
149.5426742456
  0
ARC
  5
4C1
100
AcDbEntity
  8
0
100
AcDbCircle
 62
7
  6
CONTINUOUS
 10
28.9376923427
 20
9.2676695021
 40
1.5
100
AcDbArc
 50
149.5729673449
 51
151.549025045
  0
ARC
  5
4C2
100
AcDbEntity
  8
0
100
AcDbCircle
 62
7
  6
CONTINUOUS
 10
28.9376923427
 20
9.2676695021
 40
1.5
100
AcDbArc
 50
151.5729673449
 51
155.3687799349
  0
ARC
  5
4C3
100
AcDbEntity
  8
0
100
AcDbCircle
 62
7
  6
CONTINUOUS
 10
28.9376923427
 20
9.2676695021
 40
1.5
100
AcDbArc
 50
356.4465872184
 51
359.5585351045
  0
ARC
  5
4C4
100
AcDbEntity
  8
0
100
AcDbCircle
 62
7
  6
CONTINUOUS
 10
28.9376923427
 20
9.2676695021
 40
1.5
100
AcDbArc
 50
352.4510691014
 51
356.4270326551
  0
ARC
  5
4C5
100
AcDbEntity
  8
0
100
AcDbCircle
 62
7
  6
CONTINUOUS
 10
28.9376923427
 20
9.2676695021
 40
1.5
100
AcDbArc
 50
350.4569155909
 51
352.4270326551
  0
ARC
  5
4C6
100
AcDbEntity
  8
0
100
AcDbCircle
 62
7
  6
CONTINUOUS
 10
28.9376923427
 20
9.2676695021
 40
1.5
100
AcDbArc
 50
348.4548980807
 51
350.4270326551
  0
ARC
  5
4C7
100
AcDbEntity
  8
0
100
AcDbCircle
 62
7
  6
CONTINUOUS
 10
28.9376923427
 20
9.2676695021
 40
1.5
100
AcDbArc
 50
346.4537386108
 51
348.4270326551
  0
ARC
  5
4C8
100
AcDbEntity
  8
0
100
AcDbCircle
 62
7
  6
CONTINUOUS
 10
28.9376923427
 20
9.2676695021
 40
1.5
100
AcDbArc
 50
344.4580846749
 51
346.4270326551
  0
ARC
  5
4C9
100
AcDbEntity
  8
0
100
AcDbCircle
 62
7
  6
CONTINUOUS
 10
28.9376923427
 20
9.2676695021
 40
1.5
100
AcDbArc
 50
342.4500074586
 51
344.4270326551
  0
ARC
  5
4CA
100
AcDbEntity
  8
0
100
AcDbCircle
 62
7
  6
CONTINUOUS
 10
28.9376923427
 20
9.2676695021
 40
1.5
100
AcDbArc
 50
339.5729673449
 51
342.4270326551
  0
ARC
  5
4CB
100
AcDbEntity
  8
0
100
AcDbCircle
 62
7
  6
CONTINUOUS
 10
28.9376923427
 20
9.2676695021
 40
1.5
100
AcDbArc
 50
338.4457076025
 51
339.5578138997
  0
ARC
  5
4CC
100
AcDbEntity
  8
0
100
AcDbCircle
 62
7
  6
CONTINUOUS
 10
28.9376923427
 20
9.2676695021
 40
1.5
100
AcDbArc
 50
335.5729673449
 51
338.4270326551
  0
ARC
  5
4CD
100
AcDbEntity
  8
0
100
AcDbCircle
 62
7
  6
CONTINUOUS
 10
28.9376923427
 20
9.2676695021
 40
1.5
100
AcDbArc
 50
331.5729673449
 51
335.5531452594
  0
ARC
  5
4CE
100
AcDbEntity
  8
0
100
AcDbCircle
 62
7
  6
CONTINUOUS
 10
28.9376923427
 20
9.2676695021
 40
1.5
100
AcDbArc
 50
329.5729673449
 51
331.549025045
  0
ARC
  5
4CF
100
AcDbEntity
  8
0
100
AcDbCircle
 62
7
  6
CONTINUOUS
 10
28.9376923427
 20
9.2676695021
 40
1.5
100
AcDbArc
 50
327.5729673449
 51
329.5426742456
  0
ARC
  5
4D0
100
AcDbEntity
  8
0
100
AcDbCircle
 62
7
  6
CONTINUOUS
 10
28.9376923427
 20
9.2676695021
 40
1.5
100
AcDbArc
 50
325.5729673449
 51
327.5454431506
  0
ARC
  5
4D1
100
AcDbEntity
  8
0
100
AcDbCircle
 62
7
  6
CONTINUOUS
 10
28.9376923427
 20
9.2676695021
 40
1.5
100
AcDbArc
 50
323.5729673449
 51
325.5460127795
  0
ARC
  5
4D2
100
AcDbEntity
  8
0
100
AcDbCircle
 62
7
  6
CONTINUOUS
 10
28.9376923427
 20
9.2676695021
 40
1.5
100
AcDbArc
 50
321.5729673449
 51
323.5423924832
  0
ARC
  5
4D3
100
AcDbEntity
  8
0
100
AcDbCircle
 62
7
  6
CONTINUOUS
 10
28.9376923427
 20
9.2676695021
 40
1.5
100
AcDbArc
 50
317.5729673449
 51
321.5499877371
  0
ARC
  5
4D4
100
AcDbEntity
  8
0
100
AcDbCircle
 62
7
  6
CONTINUOUS
 10
28.9376923427
 20
9.2676695021
 40
1.5
100
AcDbArc
 50
314.4427956544
 51
317.5546127571
  0
ARC
  5
4D5
100
AcDbEntity
  8
0
100
AcDbCircle
 62
7
  6
CONTINUOUS
 10
28.9376923427
 20
9.2676695021
 40
1.5
100
AcDbArc
 50
310.4477791281
 51
314.4270326551
  0
ARC
  5
4D6
100
AcDbEntity
  8
0
100
AcDbCircle
 62
7
  6
CONTINUOUS
 10
28.9376923427
 20
9.2676695021
 40
1.5
100
AcDbArc
 50
308.4589687279
 51
310.4270326551
  0
ARC
  5
4D7
100
AcDbEntity
  8
0
100
AcDbCircle
 62
7
  6
CONTINUOUS
 10
28.9376923427
 20
9.2676695021
 40
1.5
100
AcDbArc
 50
306.4521032699
 51
308.4270326551
  0
ARC
  5
4D8
100
AcDbEntity
  8
0
100
AcDbCircle
 62
7
  6
CONTINUOUS
 10
28.9376923427
 20
9.2676695021
 40
1.5
100
AcDbArc
 50
304.4561964194
 51
306.4270326551
  0
ARC
  5
4D9
100
AcDbEntity
  8
0
100
AcDbCircle
 62
7
  6
CONTINUOUS
 10
28.9376923427
 20
9.2676695021
 40
1.5
100
AcDbArc
 50
302.4557656284
 51
304.4270326551
  0
ARC
  5
4DA
100
AcDbEntity
  8
0
100
AcDbCircle
 62
7
  6
CONTINUOUS
 10
28.9376923427
 20
9.2676695021
 40
1.5
100
AcDbArc
 50
300.452849637
 51
302.4270326551
  0
ARC
  5
4DB
100
AcDbEntity
  8
0
100
AcDbCircle
 62
7
  6
CONTINUOUS
 10
28.9376923427
 20
9.2676695021
 40
1.5
100
AcDbArc
 50
298.4587426027
 51
300.4270326551
  0
ARC
  5
4DC
100
AcDbEntity
  8
0
100
AcDbCircle
 62
7
  6
CONTINUOUS
 10
28.9376923427
 20
9.2676695021
 40
1.5
100
AcDbArc
 50
296.4489435646
 51
298.4270326551
  0
ARC
  5
4DD
100
AcDbEntity
  8
0
100
AcDbCircle
 62
7
  6
CONTINUOUS
 10
28.9376923427
 20
9.2676695021
 40
1.5
100
AcDbArc
 50
293.5729673449
 51
296.4270326551
  0
ARC
  5
4DE
100
AcDbEntity
  8
0
100
AcDbCircle
 62
7
  6
CONTINUOUS
 10
28.9376923427
 20
9.2676695021
 40
1.5
100
AcDbArc
 50
292.4445599743
 51
293.5565965667
  0
ARC
  5
4DF
100
AcDbEntity
  8
0
100
AcDbCircle
 62
7
  6
CONTINUOUS
 10
28.9376923427
 20
9.2676695021
 40
1.5
100
AcDbArc
 50
289.5729673449
 51
292.4270326551
  0
ARC
  5
4E0
100
AcDbEntity
  8
0
100
AcDbCircle
 62
7
  6
CONTINUOUS
 10
28.9376923427
 20
9.2676695021
 40
1.5
100
AcDbArc
 50
287.5729673449
 51
289.5520861768
  0
ARC
  5
4E1
100
AcDbEntity
  8
0
100
AcDbCircle
 62
7
  6
CONTINUOUS
 10
28.9376923427
 20
9.2676695021
 40
1.5
100
AcDbArc
 50
285.5729673449
 51
287.5406092605
  0
ARC
  5
4E2
100
AcDbEntity
  8
0
100
AcDbCircle
 62
7
  6
CONTINUOUS
 10
28.9376923427
 20
9.2676695021
 40
1.5
100
AcDbArc
 50
283.5729673449
 51
285.5481031081
  0
ARC
  5
4E3
100
AcDbEntity
  8
0
100
AcDbCircle
 62
7
  6
CONTINUOUS
 10
28.9376923427
 20
9.2676695021
 40
1.5
100
AcDbArc
 50
281.5729673449
 51
283.5434576728
  0
ARC
  5
4E4
100
AcDbEntity
  8
0
100
AcDbCircle
 62
7
  6
CONTINUOUS
 10
28.9376923427
 20
9.2676695021
 40
1.5
100
AcDbArc
 50
279.5729673449
 51
281.5446227364
  0
ARC
  5
4E5
100
AcDbEntity
  8
0
100
AcDbCircle
 62
7
  6
CONTINUOUS
 10
28.9376923427
 20
9.2676695021
 40
1.5
100
AcDbArc
 50
277.5729673449
 51
279.5469287352
  0
ARC
  5
4E6
100
AcDbEntity
  8
0
100
AcDbCircle
 62
7
  6
CONTINUOUS
 10
28.9376923427
 20
9.2676695021
 40
1.5
100
AcDbArc
 50
275.5729673449
 51
277.5416592802
  0
ARC
  5
4E7
100
AcDbEntity
  8
0
100
AcDbCircle
 62
7
  6
CONTINUOUS
 10
28.9376923427
 20
9.2676695021
 40
1.5
100
AcDbArc
 50
271.5729673449
 51
275.5510633506
  0
ARC
  5
4E8
100
AcDbEntity
  8
0
100
AcDbCircle
 62
7
  6
CONTINUOUS
 10
28.9376923427
 20
9.2676695021
 40
1.5
100
AcDbArc
 50
268.4441106551
 51
271.5558893449
  0
ARC
  5
4E9
100
AcDbEntity
  8
0
100
AcDbCircle
 62
7
  6
CONTINUOUS
 10
28.9376923427
 20
9.2676695021
 40
1.5
100
AcDbArc
 50
264.4489366494
 51
268.4270326551
  0
ARC
  5
4EA
100
AcDbEntity
  8
0
100
AcDbCircle
 62
7
  6
CONTINUOUS
 10
28.9376923427
 20
9.2676695021
 40
1.5
100
AcDbArc
 50
262.4583407198
 51
264.4270326551
  0
ARC
  5
4EB
100
AcDbEntity
  8
0
100
AcDbCircle
 62
7
  6
CONTINUOUS
 10
28.9376923427
 20
9.2676695021
 40
1.5
100
AcDbArc
 50
260.4530712648
 51
262.4270326551
  0
ARC
  5
4EC
100
AcDbEntity
  8
0
100
AcDbCircle
 62
7
  6
CONTINUOUS
 10
28.9376923427
 20
9.2676695021
 40
1.5
100
AcDbArc
 50
258.4553772636
 51
260.4270326551
  0
ARC
  5
4ED
100
AcDbEntity
  8
0
100
AcDbCircle
 62
7
  6
CONTINUOUS
 10
28.9376923427
 20
9.2676695021
 40
1.5
100
AcDbArc
 50
256.4565423272
 51
258.4270326551
  0
ARC
  5
4EE
100
AcDbEntity
  8
0
100
AcDbCircle
 62
7
  6
CONTINUOUS
 10
28.9376923427
 20
9.2676695021
 40
1.5
100
AcDbArc
 50
254.4518968919
 51
256.4270326551
  0
ARC
  5
4EF
100
AcDbEntity
  8
0
100
AcDbCircle
 62
7
  6
CONTINUOUS
 10
28.9376923427
 20
9.2676695021
 40
1.5
100
AcDbArc
 50
252.4593907395
 51
254.4270326551
  0
ARC
  5
4F0
100
AcDbEntity
  8
0
100
AcDbCircle
 62
7
  6
CONTINUOUS
 10
28.9376923427
 20
9.2676695021
 40
1.5
100
AcDbArc
 50
250.4479138232
 51
252.4270326551
  0
ARC
  5
4F1
100
AcDbEntity
  8
0
100
AcDbCircle
 62
7
  6
CONTINUOUS
 10
28.9376923427
 20
9.2676695021
 40
1.5
100
AcDbArc
 50
247.5729673449
 51
250.4270326551
  0
ARC
  5
4F2
100
AcDbEntity
  8
0
100
AcDbCircle
 62
7
  6
CONTINUOUS
 10
28.9376923427
 20
9.2676695021
 40
1.5
100
AcDbArc
 50
246.4434034333
 51
247.5554400257
  0
ARC
  5
4F3
100
AcDbEntity
  8
0
100
AcDbCircle
 62
7
  6
CONTINUOUS
 10
28.9376923427
 20
9.2676695021
 40
1.5
100
AcDbArc
 50
243.5729673449
 51
246.4270326551
  0
ARC
  5
4F4
100
AcDbEntity
  8
0
100
AcDbCircle
 62
7
  6
CONTINUOUS
 10
28.9376923427
 20
9.2676695021
 40
1.5
100
AcDbArc
 50
241.5729673449
 51
243.5510564354
  0
ARC
  5
4F5
100
AcDbEntity
  8
0
100
AcDbCircle
 62
7
  6
CONTINUOUS
 10
28.9376923427
 20
9.2676695021
 40
1.5
100
AcDbArc
 50
239.5729673449
 51
241.5412573973
  0
ARC
  5
4F6
100
AcDbEntity
  8
0
100
AcDbCircle
 62
7
  6
CONTINUOUS
 10
28.9376923427
 20
9.2676695021
 40
1.5
100
AcDbArc
 50
237.5729673449
 51
239.547150363
  0
ARC
  5
4F7
100
AcDbEntity
  8
0
100
AcDbCircle
 62
7
  6
CONTINUOUS
 10
28.9376923427
 20
9.2676695021
 40
1.5
100
AcDbArc
 50
235.5729673449
 51
237.5442343716
  0
ARC
  5
4F8
100
AcDbEntity
  8
0
100
AcDbCircle
 62
7
  6
CONTINUOUS
 10
28.9376923427
 20
9.2676695021
 40
1.5
100
AcDbArc
 50
233.5729673449
 51
235.5438035806
  0
ARC
  5
4F9
100
AcDbEntity
  8
0
100
AcDbCircle
 62
7
  6
CONTINUOUS
 10
28.9376923427
 20
9.2676695021
 40
1.5
100
AcDbArc
 50
231.5729673449
 51
233.5478967301
  0
ARC
  5
4FA
100
AcDbEntity
  8
0
100
AcDbCircle
 62
7
  6
CONTINUOUS
 10
28.9376923427
 20
9.2676695021
 40
1.5
100
AcDbArc
 50
229.5729673449
 51
231.5410312721
  0
ARC
  5
4FB
100
AcDbEntity
  8
0
100
AcDbCircle
 62
7
  6
CONTINUOUS
 10
28.9376923427
 20
9.2676695021
 40
1.5
100
AcDbArc
 50
225.5729673449
 51
229.5522208719
  0
ARC
  5
4FC
100
AcDbEntity
  8
0
100
AcDbCircle
 62
7
  6
CONTINUOUS
 10
28.9376923427
 20
9.2676695021
 40
1.5
100
AcDbArc
 50
222.4453872429
 51
225.5572043456
  0
ARC
  5
4FD
100
AcDbEntity
  8
0
100
AcDbCircle
 62
7
  6
CONTINUOUS
 10
28.9376923427
 20
9.2676695021
 40
1.5
100
AcDbArc
 50
218.4500122629
 51
222.4270326551
  0
ARC
  5
4FE
100
AcDbEntity
  8
0
100
AcDbCircle
 62
7
  6
CONTINUOUS
 10
28.9376923427
 20
9.2676695021
 40
1.5
100
AcDbArc
 50
216.4576075168
 51
218.4270326551
  0
ARC
  5
4FF
100
AcDbEntity
  8
0
100
AcDbCircle
 62
7
  6
CONTINUOUS
 10
28.9376923427
 20
9.2676695021
 40
1.5
100
AcDbArc
 50
214.4539872205
 51
216.4270326551
  0
ARC
  5
500
100
AcDbEntity
  8
0
100
AcDbCircle
 62
7
  6
CONTINUOUS
 10
28.9376923427
 20
9.2676695021
 40
1.5
100
AcDbArc
 50
212.4545568494
 51
214.4270326551
  0
ARC
  5
501
100
AcDbEntity
  8
0
100
AcDbCircle
 62
7
  6
CONTINUOUS
 10
28.9376923427
 20
9.2676695021
 40
1.5
100
AcDbArc
 50
210.4573257544
 51
212.4270326551
  0
ARC
  5
502
100
AcDbEntity
  8
0
100
AcDbCircle
 62
7
  6
CONTINUOUS
 10
28.9376923427
 20
9.2676695021
 40
1.5
100
AcDbArc
 50
208.450974955
 51
210.4270326551
  0
ARC
  5
503
100
AcDbEntity
  8
0
100
AcDbCircle
 62
7
  6
CONTINUOUS
 10
28.9376923427
 20
9.2676695021
 40
1.5
100
AcDbArc
 50
204.6312200651
 51
208.4270326551
  0
ARC
  5
504
100
AcDbEntity
  8
0
100
AcDbCircle
 62
7
  6
CONTINUOUS
 10
-7.0623076573
 20
9.2676695021
 40
1.5
100
AcDbArc
 50
331.5729673449
 51
335.3687799349
  0
ARC
  5
505
100
AcDbEntity
  8
0
100
AcDbCircle
 62
7
  6
CONTINUOUS
 10
-7.0623076573
 20
9.2676695021
 40
1.5
100
AcDbArc
 50
329.5729673449
 51
331.549025045
  0
ARC
  5
506
100
AcDbEntity
  8
0
100
AcDbCircle
 62
7
  6
CONTINUOUS
 10
-7.0623076573
 20
9.2676695021
 40
1.5
100
AcDbArc
 50
327.5729673449
 51
329.5426742456
  0
ARC
  5
507
100
AcDbEntity
  8
0
100
AcDbCircle
 62
7
  6
CONTINUOUS
 10
-7.0623076573
 20
9.2676695021
 40
1.5
100
AcDbArc
 50
325.5729673449
 51
327.5454431506
  0
ARC
  5
508
100
AcDbEntity
  8
0
100
AcDbCircle
 62
7
  6
CONTINUOUS
 10
-7.0623076573
 20
9.2676695021
 40
1.5
100
AcDbArc
 50
323.5729673449
 51
325.5460127795
  0
ARC
  5
509
100
AcDbEntity
  8
0
100
AcDbCircle
 62
7
  6
CONTINUOUS
 10
-7.0623076573
 20
9.2676695021
 40
1.5
100
AcDbArc
 50
321.5729673449
 51
323.5423924832
  0
ARC
  5
50A
100
AcDbEntity
  8
0
100
AcDbCircle
 62
7
  6
CONTINUOUS
 10
-7.0623076573
 20
9.2676695021
 40
1.5
100
AcDbArc
 50
317.5729673449
 51
321.5499877371
  0
ARC
  5
50B
100
AcDbEntity
  8
0
100
AcDbCircle
 62
7
  6
CONTINUOUS
 10
-7.0623076573
 20
9.2676695021
 40
1.5
100
AcDbArc
 50
314.4427956544
 51
317.5546127571
  0
ARC
  5
50C
100
AcDbEntity
  8
0
100
AcDbCircle
 62
7
  6
CONTINUOUS
 10
-7.0623076573
 20
9.2676695021
 40
1.5
100
AcDbArc
 50
310.4477791281
 51
314.4270326551
  0
ARC
  5
50D
100
AcDbEntity
  8
0
100
AcDbCircle
 62
7
  6
CONTINUOUS
 10
-7.0623076573
 20
9.2676695021
 40
1.5
100
AcDbArc
 50
308.4589687279
 51
310.4270326551
  0
ARC
  5
50E
100
AcDbEntity
  8
0
100
AcDbCircle
 62
7
  6
CONTINUOUS
 10
-7.0623076573
 20
9.2676695021
 40
1.5
100
AcDbArc
 50
306.4521032699
 51
308.4270326551
  0
ARC
  5
50F
100
AcDbEntity
  8
0
100
AcDbCircle
 62
7
  6
CONTINUOUS
 10
-7.0623076573
 20
9.2676695021
 40
1.5
100
AcDbArc
 50
304.4561964194
 51
306.4270326551
  0
ARC
  5
510
100
AcDbEntity
  8
0
100
AcDbCircle
 62
7
  6
CONTINUOUS
 10
-7.0623076573
 20
9.2676695021
 40
1.5
100
AcDbArc
 50
302.4557656284
 51
304.4270326551
  0
ARC
  5
511
100
AcDbEntity
  8
0
100
AcDbCircle
 62
7
  6
CONTINUOUS
 10
-7.0623076573
 20
9.2676695021
 40
1.5
100
AcDbArc
 50
300.452849637
 51
302.4270326551
  0
ARC
  5
512
100
AcDbEntity
  8
0
100
AcDbCircle
 62
7
  6
CONTINUOUS
 10
-7.0623076573
 20
9.2676695021
 40
1.5
100
AcDbArc
 50
298.4587426027
 51
300.4270326551
  0
ARC
  5
513
100
AcDbEntity
  8
0
100
AcDbCircle
 62
7
  6
CONTINUOUS
 10
-7.0623076573
 20
9.2676695021
 40
1.5
100
AcDbArc
 50
296.4489435646
 51
298.4270326551
  0
ARC
  5
514
100
AcDbEntity
  8
0
100
AcDbCircle
 62
7
  6
CONTINUOUS
 10
-7.0623076573
 20
9.2676695021
 40
1.5
100
AcDbArc
 50
293.5729673449
 51
296.4270326551
  0
ARC
  5
515
100
AcDbEntity
  8
0
100
AcDbCircle
 62
7
  6
CONTINUOUS
 10
-7.0623076573
 20
9.2676695021
 40
1.5
100
AcDbArc
 50
292.4445599743
 51
293.5565965667
  0
ARC
  5
516
100
AcDbEntity
  8
0
100
AcDbCircle
 62
7
  6
CONTINUOUS
 10
-7.0623076573
 20
9.2676695021
 40
1.5
100
AcDbArc
 50
289.5729673449
 51
292.4270326551
  0
ARC
  5
517
100
AcDbEntity
  8
0
100
AcDbCircle
 62
7
  6
CONTINUOUS
 10
-7.0623076573
 20
9.2676695021
 40
1.5
100
AcDbArc
 50
287.5729673449
 51
289.5520861768
  0
ARC
  5
518
100
AcDbEntity
  8
0
100
AcDbCircle
 62
7
  6
CONTINUOUS
 10
-7.0623076573
 20
9.2676695021
 40
1.5
100
AcDbArc
 50
285.5729673449
 51
287.5406092605
  0
ARC
  5
519
100
AcDbEntity
  8
0
100
AcDbCircle
 62
7
  6
CONTINUOUS
 10
-7.0623076573
 20
9.2676695021
 40
1.5
100
AcDbArc
 50
283.5729673449
 51
285.5481031081
  0
ARC
  5
51A
100
AcDbEntity
  8
0
100
AcDbCircle
 62
7
  6
CONTINUOUS
 10
-7.0623076573
 20
9.2676695021
 40
1.5
100
AcDbArc
 50
281.5729673449
 51
283.5434576728
  0
ARC
  5
51B
100
AcDbEntity
  8
0
100
AcDbCircle
 62
7
  6
CONTINUOUS
 10
-7.0623076573
 20
9.2676695021
 40
1.5
100
AcDbArc
 50
279.5729673449
 51
281.5446227364
  0
ARC
  5
51C
100
AcDbEntity
  8
0
100
AcDbCircle
 62
7
  6
CONTINUOUS
 10
-7.0623076573
 20
9.2676695021
 40
1.5
100
AcDbArc
 50
277.5729673449
 51
279.5469287352
  0
ARC
  5
51D
100
AcDbEntity
  8
0
100
AcDbCircle
 62
7
  6
CONTINUOUS
 10
-7.0623076573
 20
9.2676695021
 40
1.5
100
AcDbArc
 50
275.5729673449
 51
277.5416592802
  0
ARC
  5
51E
100
AcDbEntity
  8
0
100
AcDbCircle
 62
7
  6
CONTINUOUS
 10
-7.0623076573
 20
9.2676695021
 40
1.5
100
AcDbArc
 50
271.5729673449
 51
275.5510633506
  0
ARC
  5
51F
100
AcDbEntity
  8
0
100
AcDbCircle
 62
7
  6
CONTINUOUS
 10
-7.0623076573
 20
9.2676695021
 40
1.5
100
AcDbArc
 50
268.4441106551
 51
271.5558893449
  0
ARC
  5
520
100
AcDbEntity
  8
0
100
AcDbCircle
 62
7
  6
CONTINUOUS
 10
-7.0623076573
 20
9.2676695021
 40
1.5
100
AcDbArc
 50
264.4489366494
 51
268.4270326551
  0
ARC
  5
521
100
AcDbEntity
  8
0
100
AcDbCircle
 62
7
  6
CONTINUOUS
 10
-7.0623076573
 20
9.2676695021
 40
1.5
100
AcDbArc
 50
262.4583407198
 51
264.4270326551
  0
ARC
  5
522
100
AcDbEntity
  8
0
100
AcDbCircle
 62
7
  6
CONTINUOUS
 10
-7.0623076573
 20
9.2676695021
 40
1.5
100
AcDbArc
 50
260.4530712648
 51
262.4270326551
  0
ARC
  5
523
100
AcDbEntity
  8
0
100
AcDbCircle
 62
7
  6
CONTINUOUS
 10
-7.0623076573
 20
9.2676695021
 40
1.5
100
AcDbArc
 50
258.4553772636
 51
260.4270326551
  0
ARC
  5
524
100
AcDbEntity
  8
0
100
AcDbCircle
 62
7
  6
CONTINUOUS
 10
-7.0623076573
 20
9.2676695021
 40
1.5
100
AcDbArc
 50
256.4565423272
 51
258.4270326551
  0
ARC
  5
525
100
AcDbEntity
  8
0
100
AcDbCircle
 62
7
  6
CONTINUOUS
 10
-7.0623076573
 20
9.2676695021
 40
1.5
100
AcDbArc
 50
254.4518968919
 51
256.4270326551
  0
ARC
  5
526
100
AcDbEntity
  8
0
100
AcDbCircle
 62
7
  6
CONTINUOUS
 10
-7.0623076573
 20
9.2676695021
 40
1.5
100
AcDbArc
 50
252.4593907395
 51
254.4270326551
  0
ARC
  5
527
100
AcDbEntity
  8
0
100
AcDbCircle
 62
7
  6
CONTINUOUS
 10
-7.0623076573
 20
9.2676695021
 40
1.5
100
AcDbArc
 50
250.4479138232
 51
252.4270326551
  0
ARC
  5
528
100
AcDbEntity
  8
0
100
AcDbCircle
 62
7
  6
CONTINUOUS
 10
-7.0623076573
 20
9.2676695021
 40
1.5
100
AcDbArc
 50
247.5729673449
 51
250.4270326551
  0
ARC
  5
529
100
AcDbEntity
  8
0
100
AcDbCircle
 62
7
  6
CONTINUOUS
 10
-7.0623076573
 20
9.2676695021
 40
1.5
100
AcDbArc
 50
246.4434034333
 51
247.5554400257
  0
ARC
  5
52A
100
AcDbEntity
  8
0
100
AcDbCircle
 62
7
  6
CONTINUOUS
 10
-7.0623076573
 20
9.2676695021
 40
1.5
100
AcDbArc
 50
243.5729673449
 51
246.4270326551
  0
ARC
  5
52B
100
AcDbEntity
  8
0
100
AcDbCircle
 62
7
  6
CONTINUOUS
 10
-7.0623076573
 20
9.2676695021
 40
1.5
100
AcDbArc
 50
241.5729673449
 51
243.5510564354
  0
ARC
  5
52C
100
AcDbEntity
  8
0
100
AcDbCircle
 62
7
  6
CONTINUOUS
 10
-7.0623076573
 20
9.2676695021
 40
1.5
100
AcDbArc
 50
239.5729673449
 51
241.5412573973
  0
ARC
  5
52D
100
AcDbEntity
  8
0
100
AcDbCircle
 62
7
  6
CONTINUOUS
 10
-7.0623076573
 20
9.2676695021
 40
1.5
100
AcDbArc
 50
237.5729673449
 51
239.547150363
  0
ARC
  5
52E
100
AcDbEntity
  8
0
100
AcDbCircle
 62
7
  6
CONTINUOUS
 10
-7.0623076573
 20
9.2676695021
 40
1.5
100
AcDbArc
 50
235.5729673449
 51
237.5442343716
  0
ARC
  5
52F
100
AcDbEntity
  8
0
100
AcDbCircle
 62
7
  6
CONTINUOUS
 10
-7.0623076573
 20
9.2676695021
 40
1.5
100
AcDbArc
 50
233.5729673449
 51
235.5438035806
  0
ARC
  5
530
100
AcDbEntity
  8
0
100
AcDbCircle
 62
7
  6
CONTINUOUS
 10
-7.0623076573
 20
9.2676695021
 40
1.5
100
AcDbArc
 50
231.5729673449
 51
233.5478967301
  0
ARC
  5
531
100
AcDbEntity
  8
0
100
AcDbCircle
 62
7
  6
CONTINUOUS
 10
-7.0623076573
 20
9.2676695021
 40
1.5
100
AcDbArc
 50
229.5729673449
 51
231.5410312721
  0
ARC
  5
532
100
AcDbEntity
  8
0
100
AcDbCircle
 62
7
  6
CONTINUOUS
 10
-7.0623076573
 20
9.2676695021
 40
1.5
100
AcDbArc
 50
222.4453872429
 51
225.5572043456
  0
ARC
  5
533
100
AcDbEntity
  8
0
100
AcDbCircle
 62
7
  6
CONTINUOUS
 10
-7.0623076573
 20
9.2676695021
 40
1.5
100
AcDbArc
 50
218.4500122629
 51
222.4270326551
  0
ARC
  5
534
100
AcDbEntity
  8
0
100
AcDbCircle
 62
7
  6
CONTINUOUS
 10
-7.0623076573
 20
9.2676695021
 40
1.5
100
AcDbArc
 50
216.4576075168
 51
218.4270326551
  0
ARC
  5
535
100
AcDbEntity
  8
0
100
AcDbCircle
 62
7
  6
CONTINUOUS
 10
-7.0623076573
 20
9.2676695021
 40
1.5
100
AcDbArc
 50
214.4539872205
 51
216.4270326551
  0
ARC
  5
536
100
AcDbEntity
  8
0
100
AcDbCircle
 62
7
  6
CONTINUOUS
 10
-7.0623076573
 20
9.2676695021
 40
1.5
100
AcDbArc
 50
212.4545568494
 51
214.4270326551
  0
ARC
  5
537
100
AcDbEntity
  8
0
100
AcDbCircle
 62
7
  6
CONTINUOUS
 10
-7.0623076573
 20
9.2676695021
 40
1.5
100
AcDbArc
 50
210.4573257544
 51
212.4270326551
  0
ARC
  5
538
100
AcDbEntity
  8
0
100
AcDbCircle
 62
7
  6
CONTINUOUS
 10
-7.0623076573
 20
9.2676695021
 40
1.5
100
AcDbArc
 50
208.450974955
 51
210.4270326551
  0
ARC
  5
539
100
AcDbEntity
  8
0
100
AcDbCircle
 62
7
  6
CONTINUOUS
 10
-7.0623076573
 20
9.2676695021
 40
1.5
100
AcDbArc
 50
204.4468547406
 51
208.4270326551
  0
ARC
  5
53A
100
AcDbEntity
  8
0
100
AcDbCircle
 62
7
  6
CONTINUOUS
 10
-7.0623076573
 20
9.2676695021
 40
1.5
100
AcDbArc
 50
201.5729673449
 51
204.4270326551
  0
ARC
  5
53B
100
AcDbEntity
  8
0
100
AcDbCircle
 62
7
  6
CONTINUOUS
 10
-7.0623076573
 20
9.2676695021
 40
1.5
100
AcDbArc
 50
200.4421861003
 51
201.5542923975
  0
ARC
  5
53C
100
AcDbEntity
  8
0
100
AcDbCircle
 62
7
  6
CONTINUOUS
 10
-7.0623076573
 20
9.2676695021
 40
1.5
100
AcDbArc
 50
197.5729673449
 51
200.4270326551
  0
ARC
  5
53D
100
AcDbEntity
  8
0
100
AcDbCircle
 62
7
  6
CONTINUOUS
 10
-7.0623076573
 20
9.2676695021
 40
1.5
100
AcDbArc
 50
195.5729673449
 51
197.5499925414
  0
ARC
  5
53E
100
AcDbEntity
  8
0
100
AcDbCircle
 62
7
  6
CONTINUOUS
 10
-7.0623076573
 20
9.2676695021
 40
1.5
100
AcDbArc
 50
193.5729673449
 51
195.5419153251
  0
ARC
  5
53F
100
AcDbEntity
  8
0
100
AcDbCircle
 62
7
  6
CONTINUOUS
 10
-7.0623076573
 20
9.2676695021
 40
1.5
100
AcDbArc
 50
191.5729673449
 51
193.5462613892
  0
ARC
  5
540
100
AcDbEntity
  8
0
100
AcDbCircle
 62
7
  6
CONTINUOUS
 10
-7.0623076573
 20
9.2676695021
 40
1.5
100
AcDbArc
 50
189.5729673449
 51
191.5451019193
  0
ARC
  5
541
100
AcDbEntity
  8
0
100
AcDbCircle
 62
7
  6
CONTINUOUS
 10
-7.0623076573
 20
9.2676695021
 40
1.5
100
AcDbArc
 50
187.5729673449
 51
189.5430844091
  0
ARC
  5
542
100
AcDbEntity
  8
0
100
AcDbCircle
 62
7
  6
CONTINUOUS
 10
-7.0623076573
 20
9.2676695021
 40
1.5
100
AcDbArc
 50
183.5729673449
 51
187.5489308986
  0
ARC
  5
543
100
AcDbEntity
  8
0
100
AcDbCircle
 62
7
  6
CONTINUOUS
 10
-7.0623076573
 20
9.2676695021
 40
1.5
100
AcDbArc
 50
180.4414648955
 51
183.5534127816
  0
ARC
  5
544
100
AcDbEntity
  8
0
100
AcDbCircle
 62
7
  6
CONTINUOUS
 10
-7.0623076573
 20
9.2676695021
 40
1.5
100
AcDbArc
 50
24.6312200651
 51
28.4270326551
  0
ARC
  5
545
100
AcDbEntity
  8
0
100
AcDbCircle
 62
7
  6
CONTINUOUS
 10
-7.0623076573
 20
9.2676695021
 40
1.5
100
AcDbArc
 50
28.450974955
 51
30.4270326551
  0
ARC
  5
546
100
AcDbEntity
  8
0
100
AcDbCircle
 62
7
  6
CONTINUOUS
 10
-7.0623076573
 20
9.2676695021
 40
1.5
100
AcDbArc
 50
30.4573257544
 51
32.4270326551
  0
ARC
  5
547
100
AcDbEntity
  8
0
100
AcDbCircle
 62
7
  6
CONTINUOUS
 10
-7.0623076573
 20
9.2676695021
 40
1.5
100
AcDbArc
 50
32.4545568494
 51
34.4270326551
  0
ARC
  5
548
100
AcDbEntity
  8
0
100
AcDbCircle
 62
7
  6
CONTINUOUS
 10
-7.0623076573
 20
9.2676695021
 40
1.5
100
AcDbArc
 50
34.4539872205
 51
36.4270326551
  0
ARC
  5
549
100
AcDbEntity
  8
0
100
AcDbCircle
 62
7
  6
CONTINUOUS
 10
-7.0623076573
 20
9.2676695021
 40
1.5
100
AcDbArc
 50
36.4576075168
 51
38.4270326551
  0
ARC
  5
54A
100
AcDbEntity
  8
0
100
AcDbCircle
 62
7
  6
CONTINUOUS
 10
-7.0623076573
 20
9.2676695021
 40
1.5
100
AcDbArc
 50
38.4500122629
 51
42.4270326551
  0
ARC
  5
54B
100
AcDbEntity
  8
0
100
AcDbCircle
 62
7
  6
CONTINUOUS
 10
-7.0623076573
 20
9.2676695021
 40
1.5
100
AcDbArc
 50
42.4453872429
 51
45.5572043456
  0
ARC
  5
54C
100
AcDbEntity
  8
0
100
AcDbCircle
 62
7
  6
CONTINUOUS
 10
-7.0623076573
 20
9.2676695021
 40
1.5
100
AcDbArc
 50
45.5729673449
 51
49.5522208719
  0
ARC
  5
54D
100
AcDbEntity
  8
0
100
AcDbCircle
 62
7
  6
CONTINUOUS
 10
-7.0623076573
 20
9.2676695021
 40
1.5
100
AcDbArc
 50
49.5729673449
 51
51.5410312721
  0
ARC
  5
54E
100
AcDbEntity
  8
0
100
AcDbCircle
 62
7
  6
CONTINUOUS
 10
-7.0623076573
 20
9.2676695021
 40
1.5
100
AcDbArc
 50
51.5729673449
 51
53.5478967301
  0
ARC
  5
54F
100
AcDbEntity
  8
0
100
AcDbCircle
 62
7
  6
CONTINUOUS
 10
-7.0623076573
 20
9.2676695021
 40
1.5
100
AcDbArc
 50
53.5729673449
 51
55.5438035806
  0
ARC
  5
550
100
AcDbEntity
  8
0
100
AcDbCircle
 62
7
  6
CONTINUOUS
 10
-7.0623076573
 20
9.2676695021
 40
1.5
100
AcDbArc
 50
55.5729673449
 51
57.5442343716
  0
ARC
  5
551
100
AcDbEntity
  8
0
100
AcDbCircle
 62
7
  6
CONTINUOUS
 10
-7.0623076573
 20
9.2676695021
 40
1.5
100
AcDbArc
 50
57.5729673449
 51
59.547150363
  0
ARC
  5
552
100
AcDbEntity
  8
0
100
AcDbCircle
 62
7
  6
CONTINUOUS
 10
-7.0623076573
 20
9.2676695021
 40
1.5
100
AcDbArc
 50
59.5729673449
 51
61.5412573973
  0
ARC
  5
553
100
AcDbEntity
  8
0
100
AcDbCircle
 62
7
  6
CONTINUOUS
 10
-7.0623076573
 20
9.2676695021
 40
1.5
100
AcDbArc
 50
61.5729673449
 51
63.5510564354
  0
ARC
  5
554
100
AcDbEntity
  8
0
100
AcDbCircle
 62
7
  6
CONTINUOUS
 10
-7.0623076573
 20
9.2676695021
 40
1.5
100
AcDbArc
 50
63.5729673449
 51
66.4270326551
  0
ARC
  5
555
100
AcDbEntity
  8
0
100
AcDbCircle
 62
7
  6
CONTINUOUS
 10
-7.0623076573
 20
9.2676695021
 40
1.5
100
AcDbArc
 50
66.4434034333
 51
67.5554400257
  0
ARC
  5
556
100
AcDbEntity
  8
0
100
AcDbCircle
 62
7
  6
CONTINUOUS
 10
-7.0623076573
 20
9.2676695021
 40
1.5
100
AcDbArc
 50
67.5729673449
 51
70.4270326551
  0
ARC
  5
557
100
AcDbEntity
  8
0
100
AcDbCircle
 62
7
  6
CONTINUOUS
 10
-7.0623076573
 20
9.2676695021
 40
1.5
100
AcDbArc
 50
70.4479138232
 51
72.4270326551
  0
ARC
  5
558
100
AcDbEntity
  8
0
100
AcDbCircle
 62
7
  6
CONTINUOUS
 10
-7.0623076573
 20
9.2676695021
 40
1.5
100
AcDbArc
 50
72.4593907395
 51
74.4270326551
  0
ARC
  5
559
100
AcDbEntity
  8
0
100
AcDbCircle
 62
7
  6
CONTINUOUS
 10
-7.0623076573
 20
9.2676695021
 40
1.5
100
AcDbArc
 50
74.4518968919
 51
76.4270326551
  0
ARC
  5
55A
100
AcDbEntity
  8
0
100
AcDbCircle
 62
7
  6
CONTINUOUS
 10
-7.0623076573
 20
9.2676695021
 40
1.5
100
AcDbArc
 50
76.4565423272
 51
78.4270326551
  0
ARC
  5
55B
100
AcDbEntity
  8
0
100
AcDbCircle
 62
7
  6
CONTINUOUS
 10
-7.0623076573
 20
9.2676695021
 40
1.5
100
AcDbArc
 50
78.4553772636
 51
80.4270326551
  0
ARC
  5
55C
100
AcDbEntity
  8
0
100
AcDbCircle
 62
7
  6
CONTINUOUS
 10
-7.0623076573
 20
9.2676695021
 40
1.5
100
AcDbArc
 50
80.4530712648
 51
82.4270326551
  0
ARC
  5
55D
100
AcDbEntity
  8
0
100
AcDbCircle
 62
7
  6
CONTINUOUS
 10
-7.0623076573
 20
9.2676695021
 40
1.5
100
AcDbArc
 50
82.4583407198
 51
84.4270326551
  0
ARC
  5
55E
100
AcDbEntity
  8
0
100
AcDbCircle
 62
7
  6
CONTINUOUS
 10
-7.0623076573
 20
9.2676695021
 40
1.5
100
AcDbArc
 50
84.4489366494
 51
88.4270326551
  0
ARC
  5
55F
100
AcDbEntity
  8
0
100
AcDbCircle
 62
7
  6
CONTINUOUS
 10
-7.0623076573
 20
9.2676695021
 40
1.5
100
AcDbArc
 50
88.4441106551
 51
91.5558893449
  0
ARC
  5
560
100
AcDbEntity
  8
0
100
AcDbCircle
 62
7
  6
CONTINUOUS
 10
-7.0623076573
 20
9.2676695021
 40
1.5
100
AcDbArc
 50
91.5729673449
 51
95.5510633506
  0
ARC
  5
561
100
AcDbEntity
  8
0
100
AcDbCircle
 62
7
  6
CONTINUOUS
 10
-7.0623076573
 20
9.2676695021
 40
1.5
100
AcDbArc
 50
95.5729673449
 51
97.5416592802
  0
ARC
  5
562
100
AcDbEntity
  8
0
100
AcDbCircle
 62
7
  6
CONTINUOUS
 10
-7.0623076573
 20
9.2676695021
 40
1.5
100
AcDbArc
 50
97.5729673449
 51
99.5469287352
  0
ARC
  5
563
100
AcDbEntity
  8
0
100
AcDbCircle
 62
7
  6
CONTINUOUS
 10
-7.0623076573
 20
9.2676695021
 40
1.5
100
AcDbArc
 50
99.5729673449
 51
101.5446227364
  0
ARC
  5
564
100
AcDbEntity
  8
0
100
AcDbCircle
 62
7
  6
CONTINUOUS
 10
-7.0623076573
 20
9.2676695021
 40
1.5
100
AcDbArc
 50
101.5729673449
 51
103.5434576728
  0
ARC
  5
565
100
AcDbEntity
  8
0
100
AcDbCircle
 62
7
  6
CONTINUOUS
 10
-7.0623076573
 20
9.2676695021
 40
1.5
100
AcDbArc
 50
103.5729673449
 51
105.5481031081
  0
ARC
  5
566
100
AcDbEntity
  8
0
100
AcDbCircle
 62
7
  6
CONTINUOUS
 10
-7.0623076573
 20
9.2676695021
 40
1.5
100
AcDbArc
 50
105.5729673449
 51
107.5406092605
  0
ARC
  5
567
100
AcDbEntity
  8
0
100
AcDbCircle
 62
7
  6
CONTINUOUS
 10
-7.0623076573
 20
9.2676695021
 40
1.5
100
AcDbArc
 50
107.5729673449
 51
109.5520861768
  0
ARC
  5
568
100
AcDbEntity
  8
0
100
AcDbCircle
 62
7
  6
CONTINUOUS
 10
-7.0623076573
 20
9.2676695021
 40
1.5
100
AcDbArc
 50
109.5729673449
 51
112.4270326551
  0
ARC
  5
569
100
AcDbEntity
  8
0
100
AcDbCircle
 62
7
  6
CONTINUOUS
 10
-7.0623076573
 20
9.2676695021
 40
1.5
100
AcDbArc
 50
112.4445599743
 51
113.5565965667
  0
ARC
  5
56A
100
AcDbEntity
  8
0
100
AcDbCircle
 62
7
  6
CONTINUOUS
 10
-7.0623076573
 20
9.2676695021
 40
1.5
100
AcDbArc
 50
113.5729673449
 51
116.4270326551
  0
ARC
  5
56B
100
AcDbEntity
  8
0
100
AcDbCircle
 62
7
  6
CONTINUOUS
 10
-7.0623076573
 20
9.2676695021
 40
1.5
100
AcDbArc
 50
116.4489435646
 51
118.4270326551
  0
ARC
  5
56C
100
AcDbEntity
  8
0
100
AcDbCircle
 62
7
  6
CONTINUOUS
 10
-7.0623076573
 20
9.2676695021
 40
1.5
100
AcDbArc
 50
118.4587426027
 51
120.4270326551
  0
ARC
  5
56D
100
AcDbEntity
  8
0
100
AcDbCircle
 62
7
  6
CONTINUOUS
 10
-7.0623076573
 20
9.2676695021
 40
1.5
100
AcDbArc
 50
120.452849637
 51
122.4270326551
  0
ARC
  5
56E
100
AcDbEntity
  8
0
100
AcDbCircle
 62
7
  6
CONTINUOUS
 10
-7.0623076573
 20
9.2676695021
 40
1.5
100
AcDbArc
 50
122.4557656284
 51
124.4270326551
  0
ARC
  5
56F
100
AcDbEntity
  8
0
100
AcDbCircle
 62
7
  6
CONTINUOUS
 10
-7.0623076573
 20
9.2676695021
 40
1.5
100
AcDbArc
 50
124.4561964194
 51
126.4270326551
  0
ARC
  5
570
100
AcDbEntity
  8
0
100
AcDbCircle
 62
7
  6
CONTINUOUS
 10
-7.0623076573
 20
9.2676695021
 40
1.5
100
AcDbArc
 50
126.4521032699
 51
128.4270326551
  0
ARC
  5
571
100
AcDbEntity
  8
0
100
AcDbCircle
 62
7
  6
CONTINUOUS
 10
-7.0623076573
 20
9.2676695021
 40
1.5
100
AcDbArc
 50
128.4589687279
 51
130.4270326551
  0
ARC
  5
572
100
AcDbEntity
  8
0
100
AcDbCircle
 62
7
  6
CONTINUOUS
 10
-7.0623076573
 20
9.2676695021
 40
1.5
100
AcDbArc
 50
130.4477791281
 51
134.4270326551
  0
ARC
  5
573
100
AcDbEntity
  8
0
100
AcDbCircle
 62
7
  6
CONTINUOUS
 10
-7.0623076573
 20
9.2676695021
 40
1.5
100
AcDbArc
 50
134.4427956544
 51
137.5546127571
  0
ARC
  5
574
100
AcDbEntity
  8
0
100
AcDbCircle
 62
7
  6
CONTINUOUS
 10
-7.0623076573
 20
9.2676695021
 40
1.5
100
AcDbArc
 50
137.5729673449
 51
141.5499877371
  0
ARC
  5
575
100
AcDbEntity
  8
0
100
AcDbCircle
 62
7
  6
CONTINUOUS
 10
-7.0623076573
 20
9.2676695021
 40
1.5
100
AcDbArc
 50
141.5729673449
 51
143.5423924832
  0
ARC
  5
576
100
AcDbEntity
  8
0
100
AcDbCircle
 62
7
  6
CONTINUOUS
 10
-7.0623076573
 20
9.2676695021
 40
1.5
100
AcDbArc
 50
143.5729673449
 51
145.5460127795
  0
ARC
  5
577
100
AcDbEntity
  8
0
100
AcDbCircle
 62
7
  6
CONTINUOUS
 10
-7.0623076573
 20
9.2676695021
 40
1.5
100
AcDbArc
 50
145.5729673449
 51
147.5454431506
  0
ARC
  5
578
100
AcDbEntity
  8
0
100
AcDbCircle
 62
7
  6
CONTINUOUS
 10
-7.0623076573
 20
9.2676695021
 40
1.5
100
AcDbArc
 50
147.5729673449
 51
149.5426742456
  0
ARC
  5
579
100
AcDbEntity
  8
0
100
AcDbCircle
 62
7
  6
CONTINUOUS
 10
-7.0623076573
 20
9.2676695021
 40
1.5
100
AcDbArc
 50
149.5729673449
 51
151.549025045
  0
ARC
  5
57A
100
AcDbEntity
  8
0
100
AcDbCircle
 62
7
  6
CONTINUOUS
 10
-7.0623076573
 20
9.2676695021
 40
1.5
100
AcDbArc
 50
151.5729673449
 51
155.5531452594
  0
ARC
  5
57B
100
AcDbEntity
  8
0
100
AcDbCircle
 62
7
  6
CONTINUOUS
 10
-7.0623076573
 20
9.2676695021
 40
1.5
100
AcDbArc
 50
155.5729673449
 51
158.4270326551
  0
ARC
  5
57C
100
AcDbEntity
  8
0
100
AcDbCircle
 62
7
  6
CONTINUOUS
 10
-7.0623076573
 20
9.2676695021
 40
1.5
100
AcDbArc
 50
158.4457076025
 51
159.5578138997
  0
ARC
  5
57D
100
AcDbEntity
  8
0
100
AcDbCircle
 62
7
  6
CONTINUOUS
 10
-7.0623076573
 20
9.2676695021
 40
1.5
100
AcDbArc
 50
159.5729673449
 51
162.4270326551
  0
ARC
  5
57E
100
AcDbEntity
  8
0
100
AcDbCircle
 62
7
  6
CONTINUOUS
 10
-7.0623076573
 20
9.2676695021
 40
1.5
100
AcDbArc
 50
162.4500074586
 51
164.4270326551
  0
ARC
  5
57F
100
AcDbEntity
  8
0
100
AcDbCircle
 62
7
  6
CONTINUOUS
 10
-7.0623076573
 20
9.2676695021
 40
1.5
100
AcDbArc
 50
164.4580846749
 51
166.4270326551
  0
ARC
  5
580
100
AcDbEntity
  8
0
100
AcDbCircle
 62
7
  6
CONTINUOUS
 10
-7.0623076573
 20
9.2676695021
 40
1.5
100
AcDbArc
 50
166.4537386108
 51
168.4270326551
  0
ARC
  5
581
100
AcDbEntity
  8
0
100
AcDbCircle
 62
7
  6
CONTINUOUS
 10
-7.0623076573
 20
9.2676695021
 40
1.5
100
AcDbArc
 50
168.4548980807
 51
170.4270326551
  0
ARC
  5
582
100
AcDbEntity
  8
0
100
AcDbCircle
 62
7
  6
CONTINUOUS
 10
-7.0623076573
 20
9.2676695021
 40
1.5
100
AcDbArc
 50
170.4569155909
 51
172.4270326551
  0
ARC
  5
583
100
AcDbEntity
  8
0
100
AcDbCircle
 62
7
  6
CONTINUOUS
 10
-7.0623076573
 20
9.2676695021
 40
1.5
100
AcDbArc
 50
172.4510691014
 51
176.4270326551
  0
ARC
  5
584
100
AcDbEntity
  8
0
100
AcDbCircle
 62
7
  6
CONTINUOUS
 10
-7.0623076573
 20
9.2676695021
 40
1.5
100
AcDbArc
 50
176.4465872184
 51
179.5585351045
  0
ARC
  5
585
100
AcDbEntity
  8
0
100
AcDbCircle
 62
7
  6
CONTINUOUS
 10
-7.0623076573
 20
9.2676695021
 40
1.5
100
AcDbArc
 50
225.5729673449
 51
229.5522208719
  0
ARC
  5
586
100
AcDbEntity
  8
0
100
AcDbCircle
 62
9
  6
CONTINUOUS
 10
-7.0623076573
 20
9.2676695021
 40
1.425
100
AcDbArc
 50
26.0196437384
 51
333.9803562616
  0
ARC
  5
587
100
AcDbEntity
  8
0
100
AcDbCircle
 62
9
  6
CONTINUOUS
 10
28.9376923427
 20
9.2676695021
 40
1.425
100
AcDbArc
 50
206.0196437384
 51
153.9803562616
  0
ARC
  5
588
100
AcDbEntity
  8
0
100
AcDbCircle
 62
9
  6
CONTINUOUS
 10
-7.0623076573
 20
9.2676695021
 40
1.3263986703
100
AcDbArc
 50
28.1332048827
 51
331.8667951174
  0
ARC
  5
589
100
AcDbEntity
  8
0
100
AcDbCircle
 62
9
  6
CONTINUOUS
 10
28.9376923427
 20
9.2676695021
 40
1.3263986703
100
AcDbArc
 50
208.1332048827
 51
151.8667951174
  0
ARC
  5
58A
100
AcDbEntity
  8
0
100
AcDbCircle
 62
9
  6
CONTINUOUS
 10
-7.0623076573
 20
9.2676695021
 40
1.3066784043
100
AcDbArc
 50
28.5980299063
 51
331.401970093
  0
ARC
  5
58B
100
AcDbEntity
  8
0
100
AcDbCircle
 62
9
  6
CONTINUOUS
 10
28.9376923427
 20
9.2676695021
 40
1.3066784043
100
AcDbArc
 50
208.5980299063
 51
151.401970093
  0
ARC
  5
58C
100
AcDbEntity
  8
0
100
AcDbCircle
 62
9
  6
CONTINUOUS
 10
-7.0623076573
 20
9.2676695021
 40
1.275
100
AcDbArc
 50
29.3736359958
 51
330.6263640042
  0
ARC
  5
58D
100
AcDbEntity
  8
0
100
AcDbCircle
 62
9
  6
CONTINUOUS
 10
28.9376923427
 20
9.2676695021
 40
1.275
100
AcDbArc
 50
209.3736359958
 51
150.6263640042
  0
ARC
  5
58E
100
AcDbEntity
  8
0
100
AcDbCircle
 62
9
  6
CONTINUOUS
 10
-7.0623076573
 20
9.2676695021
 40
1.1763986703
100
AcDbArc
 50
32.1054466645
 51
327.8945533355
  0
ARC
  5
58F
100
AcDbEntity
  8
0
100
AcDbCircle
 62
9
  6
CONTINUOUS
 10
28.9376923427
 20
9.2676695021
 40
1.1763986703
100
AcDbArc
 50
212.1054466645
 51
147.8945533355
  0
ARC
  5
590
100
AcDbEntity
  8
0
100
AcDbCircle
 62
9
  6
CONTINUOUS
 10
-7.0623076573
 20
9.2676695021
 40
1.1566784043
100
AcDbArc
 50
32.7296495227
 51
327.2703504773
  0
ARC
  5
591
100
AcDbEntity
  8
0
100
AcDbCircle
 62
9
  6
CONTINUOUS
 10
28.9376923427
 20
9.2676695021
 40
1.1566784043
100
AcDbArc
 50
212.7296495227
 51
147.2703504773
  0
ARC
  5
592
100
AcDbEntity
  8
0
100
AcDbCircle
 62
7
  6
CONTINUOUS
 10
-7.0623076573
 20
9.2676695021
 40
0.875
100
AcDbArc
 50
45.7334028339
 51
314.2665971598
  0
ARC
  5
593
100
AcDbEntity
  8
0
100
AcDbCircle
 62
7
  6
CONTINUOUS
 10
28.9376923427
 20
9.2676695021
 40
0.875
100
AcDbArc
 50
225.6347633303
 51
134.3652366667
  0
ARC
  5
594
100
AcDbEntity
  8
0
100
AcDbCircle
 62
9
  6
CONTINUOUS
 10
-7.0623076573
 20
9.2676695021
 40
0.815
100
AcDbArc
 50
50.1691154926
 51
309.8308844891
  0
ARC
  5
595
100
AcDbEntity
  8
0
100
AcDbCircle
 62
9
  6
CONTINUOUS
 10
28.9376923427
 20
9.2676695021
 40
0.815
100
AcDbArc
 50
230.1263723226
 51
129.8736276834
  0
SPLINE
  5
596
100
AcDbEntity
  8
0
100
AcDbSpline
 62
7
  6
CONTINUOUS
 70
0
 71
3
 72
29
 73
25
 74
0
 42
0.0000001
 43
0.0000001
 44
0.0000000001
 40
0.0
 40
0.0
 40
0.0
 40
0.0
 40
0.0624932797
 40
0.0937493877
 40
0.1250044716
 40
0.1874975796
 40
0.2499904002
 40
0.2812462873
 40
0.3125021868
 40
0.3437580818
 40
0.3750139525
 40
0.4375068688
 40
0.4999997823
 40
0.5624927298
 40
0.6249856785
 40
0.6874786516
 40
0.7187345467
 40
0.7499904298
 40
0.8124834241
 40
0.8749764513
 40
0.9062323302
 40
0.9374882212
 40
0.9687441276
 40
1.0
 40
1.0
 40
1.0
 40
1.0
 10
29.560469022
 20
9.2676695021
 30
0.0
 10
29.560469022
 20
9.2881291404
 30
0.0
 10
29.558957196
 20
9.318849701
 30
0.0
 10
29.5539367796
 20
9.3594775409
 30
0.0
 10
29.546926272
 20
9.3998130268
 30
0.0
 10
29.5344570792
 20
9.4495115675
 30
0.0
 10
29.5171665565
 20
9.4977460865
 30
0.0
 10
29.5005515911
 20
9.5351618825
 30
0.0
 10
29.4867234662
 20
9.5625838961
 30
0.0
 10
29.4715651088
 20
9.5892936576
 30
0.0
 10
29.4496342192
 20
9.6238626565
 30
0.0
 10
29.4190730013
 20
9.6649932844
 30
0.0
 10
29.3777443385
 20
9.7105025958
 30
0.0
 10
29.3321500555
 20
9.7517429649
 30
0.0
 10
29.2827360877
 20
9.7883136204
 30
0.0
 10
29.2387588952
 20
9.8146132733
 30
0.0
 10
29.2021735615
 20
9.8329855639
 30
0.0
 10
29.1647318899
 20
9.8495438692
 30
0.0
 10
29.1164749415
 20
9.8667688125
 30
0.0
 10
29.0667631654
 20
9.8791868464
 30
0.0
 10
29.0264237909
 20
9.8861670423
 30
0.0
 10
28.9959419307
 20
9.8899158208
 30
0.0
 10
28.965314615
 20
9.892168672
 30
0.0
 10
28.9448453428
 20
9.8926693994
 30
0.0
 10
28.9346125011
 20
9.8926693988
 30
0.0
  0
SPLINE
  5
597
100
AcDbEntity
  8
0
100
AcDbSpline
 62
7
  6
CONTINUOUS
 70
0
 71
3
 72
29
 73
25
 74
0
 42
0.0000001
 43
0.0000001
 44
0.0000000001
 40
0.0
 40
0.0
 40
0.0
 40
0.0
 40
0.0624932753
 40
0.0937493816
 40
0.1250044661
 40
0.1874975752
 40
0.249990395
 40
0.2812462832
 40
0.3125021822
 40
0.3437580764
 40
0.3750139477
 40
0.4375068641
 40
0.4999997777
 40
0.5624927254
 40
0.6249856739
 40
0.6874786475
 40
0.7187345422
 40
0.7499904251
 40
0.812483421
 40
0.8749764491
 40
0.9062323281
 40
0.9374882199
 40
0.9687441272
 40
1.0
 40
1.0
 40
1.0
 40
1.0
 10
-7.6850843366
 20
9.2676695021
 30
0.0
 10
-7.6850843366
 20
9.2472098653
 30
0.0
 10
-7.6835725107
 20
9.2164893068
 30
0.0
 10
-7.678552095
 20
9.1758614685
 30
0.0
 10
-7.6715415874
 20
9.1355259827
 30
0.0
 10
-7.6590723955
 20
9.0858274415
 30
0.0
 10
-7.6417818724
 20
9.0375929221
 30
0.0
 10
-7.6251669076
 20
9.0001771259
 30
0.0
 10
-7.6113387831
 20
8.9727551122
 30
0.0
 10
-7.5961804258
 20
8.9460453509
 30
0.0
 10
-7.5742495364
 20
8.9114763519
 30
0.0
 10
-7.5436883189
 20
8.8703457234
 30
0.0
 10
-7.5023596562
 20
8.8248364117
 30
0.0
 10
-7.4567653736
 20
8.7835960421
 30
0.0
 10
-7.4073514059
 20
8.7470253862
 30
0.0
 10
-7.3633742134
 20
8.7207257331
 30
0.0
 10
-7.32678888
 20
8.7023534421
 30
0.0
 10
-7.2893472081
 20
8.6857951367
 30
0.0
 10
-7.2410902592
 20
8.6685701927
 30
0.0
 10
-7.1913784823
 20
8.6561521584
 30
0.0
 10
-7.1510391072
 20
8.6491719622
 30
0.0
 10
-7.1205572464
 20
8.6454231837
 30
0.0
 10
-7.0899299301
 20
8.6431703322
 30
0.0
 10
-7.0694606575
 20
8.6426696049
 30
0.0
 10
-7.0592278156
 20
8.6426696055
 30
0.0
  0
SPLINE
  5
598
100
AcDbEntity
  8
0
100
AcDbSpline
 62
7
  6
CONTINUOUS
 70
0
 71
3
 72
29
 73
25
 74
0
 42
0.0000001
 43
0.0000001
 44
0.0000000001
 40
0.0
 40
0.0
 40
0.0
 40
0.0
 40
0.0312558728
 40
0.0625117801
 40
0.0937676719
 40
0.1250235509
 40
0.187516579
 40
0.2500095749
 40
0.2812654578
 40
0.3125213525
 40
0.3750143261
 40
0.4375072746
 40
0.5000002223
 40
0.5624931359
 40
0.6249860523
 40
0.6562419236
 40
0.6874978178
 40
0.7187537168
 40
0.750009605
 40
0.8125024248
 40
0.8749955339
 40
0.9062506184
 40
0.9375067247
 40
1.0
 40
1.0
 40
1.0
 40
1.0
 10
28.9346125011
 20
8.6426696055
 30
0.0
 10
28.944845343
 20
8.6426696049
 30
0.0
 10
28.9653146156
 20
8.6431703322
 30
0.0
 10
28.9959419319
 20
8.6454231837
 30
0.0
 10
29.0264237927
 20
8.6491719622
 30
0.0
 10
29.0667631677
 20
8.6561521584
 30
0.0
 10
29.1164749447
 20
8.6685701927
 30
0.0
 10
29.1647318936
 20
8.6857951367
 30
0.0
 10
29.2021735655
 20
8.7023534421
 30
0.0
 10
29.2387588989
 20
8.7207257331
 30
0.0
 10
29.2827360913
 20
8.7470253862
 30
0.0
 10
29.332150059
 20
8.7835960421
 30
0.0
 10
29.3777443417
 20
8.8248364117
 30
0.0
 10
29.4190730044
 20
8.8703457234
 30
0.0
 10
29.4496342219
 20
8.9114763519
 30
0.0
 10
29.4715651113
 20
8.9460453509
 30
0.0
 10
29.4867234685
 20
8.9727551122
 30
0.0
 10
29.500551593
 20
9.0001771259
 30
0.0
 10
29.5171665579
 20
9.0375929221
 30
0.0
 10
29.5344570809
 20
9.0858274415
 30
0.0
 10
29.5469262729
 20
9.1355259827
 30
0.0
 10
29.5539367805
 20
9.1758614685
 30
0.0
 10
29.5589571962
 20
9.2164893068
 30
0.0
 10
29.560469022
 20
9.2472098653
 30
0.0
 10
29.560469022
 20
9.2676695021
 30
0.0
  0
SPLINE
  5
599
100
AcDbEntity
  8
0
100
AcDbSpline
 62
7
  6
CONTINUOUS
 70
0
 71
3
 72
29
 73
25
 74
0
 42
0.0000001
 43
0.0000001
 44
0.0000000001
 40
0.0
 40
0.0
 40
0.0
 40
0.0
 40
0.0312558724
 40
0.0625117788
 40
0.0937676698
 40
0.1250235487
 40
0.1875165759
 40
0.2500095702
 40
0.2812654533
 40
0.3125213484
 40
0.3750143215
 40
0.4375072702
 40
0.5000002177
 40
0.5624931312
 40
0.6249860475
 40
0.6562419182
 40
0.6874978132
 40
0.7187537127
 40
0.7500095998
 40
0.8125024204
 40
0.8749955284
 40
0.9062506123
 40
0.9375067203
 40
1.0
 40
1.0
 40
1.0
 40
1.0
 10
-7.0592278156
 20
9.8926693988
 30
0.0
 10
-7.0694606574
 20
9.8926693994
 30
0.0
 10
-7.0899299295
 20
9.892168672
 30
0.0
 10
-7.1205572452
 20
9.8899158208
 30
0.0
 10
-7.1510391054
 20
9.8861670423
 30
0.0
 10
-7.1913784799
 20
9.8791868464
 30
0.0
 10
-7.241090256
 20
9.8667688125
 30
0.0
 10
-7.2893472044
 20
9.8495438692
 30
0.0
 10
-7.3267888761
 20
9.8329855639
 30
0.0
 10
-7.3633742097
 20
9.8146132733
 30
0.0
 10
-7.4073514023
 20
9.7883136204
 30
0.0
 10
-7.45676537
 20
9.7517429649
 30
0.0
 10
-7.502359653
 20
9.7105025958
 30
0.0
 10
-7.5436883158
 20
9.6649932844
 30
0.0
 10
-7.5742495337
 20
9.6238626565
 30
0.0
 10
-7.5961804233
 20
9.5892936576
 30
0.0
 10
-7.6113387807
 20
9.5625838961
 30
0.0
 10
-7.6251669056
 20
9.5351618825
 30
0.0
 10
-7.641781871
 20
9.4977460865
 30
0.0
 10
-7.6590723938
 20
9.4495115675
 30
0.0
 10
-7.6715415865
 20
9.3998130268
 30
0.0
 10
-7.6785520942
 20
9.3594775409
 30
0.0
 10
-7.6835725106
 20
9.318849701
 30
0.0
 10
-7.6850843366
 20
9.2881291404
 30
0.0
 10
-7.6850843366
 20
9.2676695021
 30
0.0
  0
ENDSEC
  0
SECTION
  2
OBJECTS
  0
DICTIONARY
  5
C
100
AcDbDictionary
280
0
281
1
  3
ACAD_GROUP
350
D
  3
ACAD_MLINESTYLE
350
17
  3
ACAD_LAYOUT
350
1A
  3
ACAD_PLOTSETTINGS
350
19
  3
ACAD_PLOTSTYLENAME
350
E
  0
DICTIONARY
  5
D
102
{ACAD_REACTORS
330
C
102
}
100
AcDbDictionary
280
0
281
1
  0
ACDBDICTIONARYWDFLT
  5
E
102
{ACAD_REACTORS
330
C
102
}
100
AcDbDictionary
281
1
  3
Normal
350
F
100
AcDbDictionaryWithDefault
340
F
  0
DICTIONARY
  5
17
102
{ACAD_REACTORS
330
C
102
}
100
AcDbDictionary
280
0
281
1
  3
Standard
350
18
  0
DICTIONARY
  5
19
102
{ACAD_REACTORS
330
C
102
}
100
AcDbDictionary
281
1
  0
DICTIONARY
  5
1A
102
{ACAD_REACTORS
330
C
102
}
100
AcDbDictionary
281
1
  3
Model
350
59A
  3
Layout1
350
59B
  0
ACDBPLACEHOLDER
  5
F
102
{ACAD_REACTORS
330
E
102
}
  0
MLINESTYLE
  5
18
102
{ACAD_REACTORS
330
17
102
}
100
AcDbMlineStyle
  2
STANDARD
 70
0
  3

 62
256
 51
90.0
 52
90.0
 71
2
 49
0.5
 62
256
  6
BYLAYER
 49
-0.5
 62
256
  6
BYLAYER
  0
LAYOUT
  5
59A
102
{ACAD_REACTORS
330
1A
102
}
100
AcDbPlotSettings
  1

  2
none_device
  4
ANSI_C_(22.00_x_17.00_Inches)
  6

 40
0.0
 41
0.0
 42
0.0
 43
0.0
 44
558.8
 45
431.8
 46
0.0
 47
0.0
 48
0.0
 49
0.0
140
0.0
141
0.0
142
1.0
143
1.0
 70
1024
 72
0
 73
0
 74
0
  7

 75
0
147
1.0
148
0.0
149
0.0
100
AcDbLayout
  1
Model
 70
0
 71
0
 10
0.0
 20
0.0
 11
22.0
 21
17.0
 12
0.0
 22
0.0
 32
0.0
 14
0.0
 24
0.0
 34
0.0
 15
0.0
 25
0.0
 35
0.0
146
0.0
 13
0.0
 23
0.0
 33
0.0
 16
1.0
 26
0.0
 36
0.0
 17
0.0
 27
1.0
 37
0.0
 76
0
330
205
345
0
346
0
  0
LAYOUT
  5
59B
102
{ACAD_REACTORS
330
1A
102
}
100
AcDbPlotSettings
  1

  2
none_device
  4
ANSI_C_(22.00_x_17.00_Inches)
  6

 40
0.0
 41
0.0
 42
0.0
 43
0.0
 44
558.8
 45
431.8
 46
0.0
 47
0.0
 48
0.0
 49
0.0
140
0.0
141
0.0
142
1.0
143
1.0
 70
0
 72
0
 73
0
 74
0
  7

 75
0
147
1.0
148
0.0
149
0.0
100
AcDbLayout
  1
Layout1
 70
0
 71
1
 10
0.0
 20
0.0
 11
22.0
 21
17.0
 12
0.0
 22
0.0
 32
0.0
 14
0.0
 24
0.0
 34
0.0
 15
0.0
 25
0.0
 35
0.0
146
0.0
 13
0.0
 23
0.0
 33
0.0
 16
1.0
 26
0.0
 36
0.0
 17
0.0
 27
1.0
 37
0.0
 76
0
330
206
345
0
346
0
  0
ENDSEC
  0
EOF
