999
DXF file: E:\BT Custom\CADOUTPUT\_RIGHT.dxf
999
Pro/ENGINEER 2018400 by Parametric Technology Corporation
  0
SECTION
  2
HEADER
  9
$ACADVER
  1
AC1018
  9
$DWGCODEPAGE
  3
ANSI_1252
  9
$EXTMAX
 10
22.0
 20
17.0
 30
0.0
  9
$EXTMIN
 10
0.0
 20
0.0
 30
0.0
  9
$LIMMIN
 10
0.0
 20
0.0
  9
$LIMMAX
 10
22.0
 20
17.0
  9
$VIEWCTR
 10
11.0
 20
8.5
  9
$VIEWSIZE
 40
17.0
  9
$CLAYER
  8
0
  9
$LTSCALE
 40
1.21
  9
$CELTYPE
  6
BYLAYER
  9
$DIMSCALE
 40
1.0
  9
$DIMASZ
 40
0.1
  9
$DIMEXO
 40
0.0625
  9
$DIMDLI
 40
0.836
  9
$DIMEXE
 40
0.125
  9
$DIMCEN
 40
0.198
  9
$DIMLFAC
 40
1.0
  9
$DIMBLK
  1
_FILLED
  9
$DIMALT
 70
1
  9
$DIMALTD
 70
2
  9
$DIMALTTD
 70
2
  9
$DIMALTF
 40
25.4
  9
$DIMTXT
 40
0.08
  9
$DIMTOL
 70
1
  9
$DIMLIM
 70
0
  9
$DIMTFAC
 40
1.0
  9
$DIMTP
 40
0.001
  9
$DIMTM
 40
0.001
  9
$DIMGAP
 40
0.09
  9
$DIMDSEP
 70
46
  9
$AUNITS
 70
0
  9
$PDMODE
 70
3
  9
$PDSIZE
 40
0.06
  9
$HANDSEED
  5
5C3
  9
$TILEMODE
 70
1
  9
$MEASUREMENT
 70
0
  9
$INSUNITS
 70
1
  0
ENDSEC
  0
SECTION
  2
CLASSES
  0
CLASS
  1
ACDBDICTIONARYWDFLT
  2
AcDbDictionaryWithDefault
  3
AutoCAD 2000
 90
0
 91
1
280
0
281
0
  0
CLASS
  1
ACDBPLACEHOLDER
  2
AcDbPlaceHolder
  3
AutoCAD 2000
 90
0
 91
1
280
0
281
0
  0
CLASS
  1
LAYOUT
  2
AcDbLayout
  3
AutoCAD 2000
 90
0
 91
0
280
0
281
0
  0
ENDSEC
  0
SECTION
  2
TABLES
  0
TABLE
  2
VPORT
  5
8
100
AcDbSymbolTable
 70
2
  0
VPORT
  5
1F4
100
AcDbSymbolTableRecord
100
AcDbViewportTableRecord
  2
*ACTIVE
 70
0
 10
0.0
 20
0.0
 11
1.0
 21
1.0
 12
11.0
 22
8.5
 13
0.0
 23
0.0
 14
1.0
 24
1.0
 15
0.0
 25
0.0
 16
0.0
 26
0.0
 36
1.0
 17
0.0
 27
0.0
 37
0.0
 40
17.0
 41
1.2941176471
 42
50.0
 43
0.0
 44
0.0
 50
0.0
 51
0.0
 71
0
 72
100
 73
1
 74
1
 75
0
 76
0
 77
0
 78
0
  0
ENDTAB
  0
TABLE
  2
LTYPE
  5
5
100
AcDbSymbolTable
 70
6
  0
LTYPE
  5
14
100
AcDbSymbolTableRecord
100
AcDbLinetypeTableRecord
  2
BYBLOCK
 70
0
  3

 72
65
 73
0
 40
0.0
  0
LTYPE
  5
15
100
AcDbSymbolTableRecord
100
AcDbLinetypeTableRecord
  2
BYLAYER
 70
0
  3

 72
65
 73
0
 40
0.0
  0
LTYPE
  5
16
100
AcDbSymbolTableRecord
100
AcDbLinetypeTableRecord
  2
CONTINUOUS
 70
64
  3
Solid line
 72
65
 73
0
 40
0.0
  0
LTYPE
  5
1F5
100
AcDbSymbolTableRecord
100
AcDbLinetypeTableRecord
  2
CENTER
 70
64
  3
____ _ ____ _ ____ _ ____ _ ____ _ ____ _ ____
 72
65
 73
4
 40
0.6
 49
0.375
 74
0
 49
-0.075
 74
0
 49
0.075
 74
0
 49
-0.075
 74
0
  0
LTYPE
  5
1F6
100
AcDbSymbolTableRecord
100
AcDbLinetypeTableRecord
  2
HIDDEN
 70
64
  3
- - - - - - - - - - - - - - - - - - - -
 72
65
 73
2
 40
0.2
 49
0.1
 74
0
 49
-0.1
 74
0
  0
LTYPE
  5
1F7
100
AcDbSymbolTableRecord
100
AcDbLinetypeTableRecord
  2
PHANTOM
 70
64
  3
_____ _ _ _____ _ _ _____ _ _ _____
 72
65
 73
6
 40
0.8
 49
0.45
 74
0
 49
-0.05
 74
0
 49
0.1
 74
0
 49
-0.05
 74
0
 49
0.1
 74
0
 49
-0.05
 74
0
  0
LTYPE
  5
1F8
100
AcDbSymbolTableRecord
100
AcDbLinetypeTableRecord
  2
DOT
 70
64
  3
. . . . . . . . . . . . . . . . . . . .
 72
65
 73
2
 40
0.2
 49
0.1
 74
0
 49
-0.1
 74
0
  0
LTYPE
  5
1F9
100
AcDbSymbolTableRecord
100
AcDbLinetypeTableRecord
  2
DASHED
 70
64
  3
- - - - - - - - - - - - - - - - - - - -
 72
65
 73
2
 40
0.2
 49
0.1
 74
0
 49
-0.1
 74
0
  0
ENDTAB
  0
TABLE
  2
LAYER
  5
2
100
AcDbSymbolTable
 70
36
  0
LAYER
  5
10
100
AcDbSymbolTableRecord
100
AcDbLayerTableRecord
  2
0
 70
0
 62
7
  6
CONTINUOUS
370
-3
390
F
  0
LAYER
  5
1FA
100
AcDbSymbolTableRecord
100
AcDbLayerTableRecord
  2
DEFAULT_1
 70
0
 62
7
  6
CENTER
370
-3
390
F
  0
LAYER
  5
1FB
100
AcDbSymbolTableRecord
100
AcDbLayerTableRecord
  2
DEFAULT_2
 70
0
 62
8
  6
HIDDEN
370
-3
390
F
  0
LAYER
  5
1FC
100
AcDbSymbolTableRecord
100
AcDbLayerTableRecord
  2
DEFAULT_3
 70
0
 62
7
  6
PHANTOM
370
-3
390
F
  0
LAYER
  5
1FD
100
AcDbSymbolTableRecord
100
AcDbLayerTableRecord
  2
ALL_FEATURES
 70
0
 62
7
  6
CONTINUOUS
370
-3
390
F
  0
LAYER
  5
1FE
100
AcDbSymbolTableRecord
100
AcDbLayerTableRecord
  2
AXES_FEATURES
 70
0
 62
7
  6
CONTINUOUS
370
-3
390
F
  0
LAYER
  5
1FF
100
AcDbSymbolTableRecord
100
AcDbLayerTableRecord
  2
DIMENSIONS
 70
0
 62
7
  6
CONTINUOUS
370
-3
390
F
  0
ENDTAB
  0
TABLE
  2
STYLE
  5
3
100
AcDbSymbolTable
 70
1
  0
STYLE
  5
11
100
AcDbSymbolTableRecord
100
AcDbTextStyleTableRecord
  2
STANDARD
 70
0
 40
0.0
 41
0.8
 50
0.0
 71
0
 42
0.2
  3
txt
  4

  0
STYLE
  5
200
100
AcDbSymbolTableRecord
100
AcDbTextStyleTableRecord
  2
TEXTSTYLE_1
 70
0
 40
0.0
 41
0.8
 50
0.0
 71
0
 42
0.2
  3
gdt
  4

  0
ENDTAB
  0
TABLE
  2
VIEW
  5
6
100
AcDbSymbolTable
 70
0
  0
ENDTAB
  0
TABLE
  2
UCS
  5
7
100
AcDbSymbolTable
 70
0
  0
ENDTAB
  0
TABLE
  2
APPID
  5
9
100
AcDbSymbolTable
 70
1
  0
APPID
  5
201
100
AcDbSymbolTableRecord
100
AcDbRegAppTableRecord
  2
ACAD
 70
0
  0
ENDTAB
  0
TABLE
  2
BLOCK_RECORD
  5
1
100
AcDbSymbolTable
 70
0
  0
BLOCK_RECORD
  5
202
100
AcDbSymbolTableRecord
100
AcDbBlockTableRecord
  2
*Model_Space
  0
BLOCK_RECORD
  5
203
100
AcDbSymbolTableRecord
100
AcDbBlockTableRecord
  2
*Paper_Space
  0
BLOCK_RECORD
  5
204
100
AcDbSymbolTableRecord
100
AcDbBlockTableRecord
  2
_FILLED
  0
ENDTAB
  0
TABLE
  2
DIMSTYLE
  5
A
100
AcDbSymbolTable
 70
1
100
AcDbDimStyleTable
 71
0
  0
DIMSTYLE
105
205
100
AcDbSymbolTableRecord
100
AcDbDimStyleTableRecord
  2
STANDARD
 70
0
  3

  4

 40
1.0
 41
0.1
 42
0.0625
 43
0.38
 44
0.125
 45
0.0
 46
0.0
 47
0.001
 48
0.001
140
0.08
141
0.09
142
0.0
143
25.4
144
1.0
145
0.0
146
1.0
147
0.09
 71
1.0
 72
0.0
 73
1
 74
1
 75
0
 76
0
 77
0
 78
4
 79
1
170
1
171
2
172
0
173
0
174
0
175
0
176
0
177
0
178
0
270
2
179
3
271
3
272
3
273
2
274
2
275
0
280
0
281
0
282
0
283
1
284
4
285
0
286
0
287
3
288
0
340
11
278
46
341
204
342
204
343
204
344
204
  0
ENDTAB
  0
ENDSEC
  0
SECTION
  2
BLOCKS
  0
BLOCK
  5
20
100
AcDbEntity
  8
0
100
AcDbBlockBegin
  2
*Model_Space
 70
0
 10
0.0
 20
0.0
 30
0.0
  3
*Model_Space
  1

  0
ENDBLK
  5
21
100
AcDbEntity
  8
0
100
AcDbBlockEnd
  0
BLOCK
  5
1C
100
AcDbEntity
  8
0
100
AcDbBlockBegin
  2
*Paper_Space
 70
0
 10
0.0
 20
0.0
 30
0.0
  3
*Paper_Space
  1

  0
ENDBLK
  5
1D
100
AcDbEntity
  8
0
100
AcDbBlockEnd
  0
BLOCK
  5
206
100
AcDbEntity
  8
0
100
AcDbBlockBegin
  2
_FILLED
 70
64
 10
0.0
 20
0.0
  3
_FILLED
  1

  0
SOLID
  5
207
100
AcDbEntity
  8
0
  6
BYBLOCK
 62
0
100
AcDbTrace
 10
0.0
 20
0.0
 11
-1.0
 21
0.2
 12
-1.0
 22
-0.2
 13
-1.0
 23
-0.2
  0
ENDBLK
  5
208
100
AcDbEntity
  8
0
  6
BYBLOCK
 62
0
100
AcDbBlockEnd
  0
ENDSEC
  0
SECTION
  2
ENTITIES
  0
LINE
  5
209
100
AcDbEntity
  8
0
100
AcDbLine
 62
9
  6
CONTINUOUS
 10
13.2634972687
 20
-1.6049743377
 11
13.8034972687
 21
-1.6049743377
  0
LINE
  5
20A
100
AcDbEntity
  8
0
100
AcDbLine
 62
7
  6
CONTINUOUS
 10
13.9270494626
 20
19.9174340925
 11
13.9270427144
 21
19.917428155
  0
LINE
  5
20B
100
AcDbEntity
  8
0
100
AcDbLine
 62
7
  6
CONTINUOUS
 10
13.1483019277
 20
18.8262676229
 11
13.1273260792
 21
18.8096080018
  0
LINE
  5
20C
100
AcDbEntity
  8
0
100
AcDbLine
 62
7
  6
CONTINUOUS
 10
13.1613716607
 20
17.4127940846
 11
13.2634972687
 21
17.4717563319
  0
LINE
  5
20D
100
AcDbEntity
  8
0
100
AcDbLine
 62
7
  6
CONTINUOUS
 10
13.9041178048
 20
19.8957976711
 11
13.9270403296
 21
19.9174260561
  0
LINE
  5
20E
100
AcDbEntity
  8
0
100
AcDbLine
 62
7
  6
CONTINUOUS
 10
13.1273684819
 20
18.8096430857
 11
13.1228007895
 21
18.8053649913
  0
LINE
  5
20F
100
AcDbEntity
  8
0
100
AcDbLine
 62
7
  6
CONTINUOUS
 10
13.1420673722
 20
18.8189407132
 11
13.141993648
 21
18.8188765564
  0
LINE
  5
210
100
AcDbEntity
  8
0
100
AcDbLine
 62
7
  6
CONTINUOUS
 10
13.9056228767
 20
16.80325724
 11
13.8034972687
 21
16.7442949927
  0
LINE
  5
211
100
AcDbEntity
  8
0
100
AcDbLine
 62
7
  6
CONTINUOUS
 10
6.0459972687
 20
9.041538337
 11
6.0459972687
 21
9.0661365671
  0
LINE
  5
212
100
AcDbEntity
  8
0
100
AcDbLine
 62
9
  6
CONTINUOUS
 10
6.5334972687
 20
9.041538337
 11
6.5334972687
 21
9.2684680275
  0
LINE
  5
213
100
AcDbEntity
  8
0
100
AcDbLine
 62
7
  6
CONTINUOUS
 10
13.1523992629
 20
18.8310870536
 11
13.1420882335
 21
18.8189588559
  0
LINE
  5
214
100
AcDbEntity
  8
0
100
AcDbLine
 62
7
  6
CONTINUOUS
 10
13.8641795117
 20
19.8496426892
 11
13.9041178048
 21
19.8957976711
  0
LINE
  5
215
100
AcDbEntity
  8
0
100
AcDbLine
 62
7
  6
CONTINUOUS
 10
13.0161280997
 20
14.6726381597
 11
12.9573187208
 21
14.6452148959
  0
LINE
  5
216
100
AcDbEntity
  8
0
100
AcDbLine
 62
7
  6
CONTINUOUS
 10
7.0209972687
 20
9.041538337
 11
7.0209972687
 21
9.0661375357
  0
LINE
  5
217
100
AcDbEntity
  8
0
100
AcDbLine
 62
7
  6
CONTINUOUS
 10
13.1560621901
 20
18.8366599991
 11
13.1520495303
 21
18.8306026381
  0
LINE
  5
218
100
AcDbEntity
  8
0
100
AcDbLine
 62
7
  6
CONTINUOUS
 10
13.8529425589
 20
19.833944011
 11
13.8640313535
 21
19.8494464529
  0
LINE
  5
219
100
AcDbEntity
  8
0
100
AcDbLine
 62
7
  6
CONTINUOUS
 10
13.8550506949
 20
19.8370125984
 11
13.8641676473
 21
19.8496234961
  0
LINE
  5
21A
100
AcDbEntity
  8
0
100
AcDbLine
 62
7
  6
CONTINUOUS
 10
13.8640313535
 20
19.8494464529
 11
13.8641786658
 21
19.8496415646
  0
LINE
  5
21B
100
AcDbEntity
  8
0
100
AcDbLine
 62
7
  6
CONTINUOUS
 10
13.1228007895
 20
18.8053649913
 11
13.1082549326
 21
18.7799083954
  0
LINE
  5
21C
100
AcDbEntity
  8
0
100
AcDbLine
 62
7
  6
CONTINUOUS
 10
13.8317750051
 20
19.7994236538
 11
13.8529425589
 21
19.833944011
  0
LINE
  5
21D
100
AcDbEntity
  8
0
100
AcDbLine
 62
7
  6
CONTINUOUS
 10
13.8353550117
 20
19.8057765301
 11
13.8550506949
 21
19.8370125984
  0
LWPOLYLINE
  5
21E
100
AcDbEntity
  8
0
100
AcDbPolyline
 62
7
  6
CONTINUOUS
 90
3
 70
0
 10
13.1800313135
 20
18.8898713147
 10
13.1564826967
 20
18.8373184873
 10
13.1523992629
 20
18.8310870536
  0
LINE
  5
21F
100
AcDbEntity
  8
0
100
AcDbLine
 62
7
  6
CONTINUOUS
 10
13.1793705048
 20
18.8879406884
 11
13.1560621901
 21
18.8366599991
  0
LINE
  5
220
100
AcDbEntity
  8
0
100
AcDbLine
 62
7
  6
CONTINUOUS
 10
13.8141784133
 20
19.7641568402
 11
13.8317750051
 21
19.7994236538
  0
LINE
  5
221
100
AcDbEntity
  8
0
100
AcDbLine
 62
7
  6
CONTINUOUS
 10
13.8138893877
 20
19.7635056894
 11
13.8353550117
 21
19.8057765301
  0
LINE
  5
222
100
AcDbEntity
  8
0
100
AcDbLine
 62
7
  6
CONTINUOUS
 10
13.8372261531
 20
17.9708491283
 11
13.9611573857
 21
18.1616864913
  0
LINE
  5
223
100
AcDbEntity
  8
0
100
AcDbLine
 62
7
  6
CONTINUOUS
 10
14.1689697096
 20
13.6297579458
 11
14.2858831391
 21
13.6972579458
  0
LINE
  5
224
100
AcDbEntity
  8
0
100
AcDbLine
 62
7
  6
CONTINUOUS
 10
13.8136793314
 20
19.7630342806
 11
13.8138893877
 21
19.7635056894
  0
LINE
  5
225
100
AcDbEntity
  8
0
100
AcDbLine
 62
7
  6
CONTINUOUS
 10
12.9634972687
 20
14.4980256623
 11
12.8959972687
 21
14.3811122328
  0
LINE
  5
226
100
AcDbEntity
  8
0
100
AcDbLine
 62
7
  6
CONTINUOUS
 10
12.1529854576
 20
12.3347579458
 11
12.2279854576
 21
12.4097579458
  0
LINE
  5
227
100
AcDbEntity
  8
0
100
AcDbLine
 62
7
  6
CONTINUOUS
 10
12.9029854576
 20
12.4847579458
 11
12.8279854576
 21
12.4097579458
  0
LINE
  5
228
100
AcDbEntity
  8
0
100
AcDbLine
 62
7
  6
CONTINUOUS
 10
14.7489697096
 20
12.4897579458
 11
14.6320562801
 21
12.4222579458
  0
LINE
  5
229
100
AcDbEntity
  8
0
100
AcDbLine
 62
7
  6
CONTINUOUS
 10
10.6199854576
 20
13.3222548086
 11
10.6199854576
 21
12.7972610829
  0
LINE
  5
22A
100
AcDbEntity
  8
0
100
AcDbLine
 62
9
  6
CONTINUOUS
 10
10.6499854576
 20
12.7972579458
 11
10.6499854576
 21
13.3222579458
  0
LINE
  5
22B
100
AcDbEntity
  8
0
100
AcDbLine
 62
7
  6
CONTINUOUS
 10
10.6699854576
 20
13.3722542111
 11
10.6699854576
 21
12.7472616805
  0
LINE
  5
22C
100
AcDbEntity
  8
0
100
AcDbLine
 62
7
  6
CONTINUOUS
 10
10.7449854576
 20
13.4597044952
 11
10.7449854576
 21
12.6598113963
  0
LINE
  5
22D
100
AcDbEntity
  8
0
100
AcDbLine
 62
9
  6
CONTINUOUS
 10
10.8193815296
 20
14.5597579458
 11
10.8193815296
 21
14.5164361805
  0
LINE
  5
22E
100
AcDbEntity
  8
0
100
AcDbLine
 62
9
  6
CONTINUOUS
 10
10.8193815296
 20
12.5664493357
 11
10.8193815296
 21
12.5102670911
  0
LINE
  5
22F
100
AcDbEntity
  8
0
100
AcDbLine
 62
9
  6
CONTINUOUS
 10
10.8193815296
 20
12.1092488004
 11
10.8193815296
 21
12.0892488004
  0
LINE
  5
230
100
AcDbEntity
  8
0
100
AcDbLine
 62
7
  6
CONTINUOUS
 10
10.7839173184
 20
12.6212123377
 11
10.7690680964
 21
12.4345909105
  0
LINE
  5
231
100
AcDbEntity
  8
0
100
AcDbLine
 62
7
  6
CONTINUOUS
 10
10.8149488118
 20
12.9799506648
 11
10.8149486305
 21
12.979948437
  0
LINE
  5
232
100
AcDbEntity
  8
0
100
AcDbLine
 62
7
  6
CONTINUOUS
 10
10.81469676
 20
12.9768625753
 11
10.7839173184
 21
12.6212123377
  0
LINE
  5
233
100
AcDbEntity
  8
0
100
AcDbLine
 62
7
  6
CONTINUOUS
 10
10.7690699384
 20
12.4345899453
 11
10.7797096284
 21
12.5352751109
  0
LWPOLYLINE
  5
234
100
AcDbEntity
  8
0
100
AcDbPolyline
 62
7
  6
CONTINUOUS
 90
5
 70
0
 10
10.8086173167
 20
13.5014776305
 10
10.8066182331
 20
13.4871587423
 10
10.7973561405
 20
13.4718974962
 10
10.782399741
 20
13.4621938233
 10
10.7686542981
 20
13.4597579392
  0
LINE
  5
235
100
AcDbEntity
  8
0
100
AcDbLine
 62
7
  6
CONTINUOUS
 10
13.2033494464
 20
18.9773418918
 11
13.1793705048
 21
18.8879406884
  0
LINE
  5
236
100
AcDbEntity
  8
0
100
AcDbLine
 62
7
  6
CONTINUOUS
 10
13.8034972687
 20
19.7339384669
 11
13.8137495178
 21
19.7631966678
  0
LINE
  5
237
100
AcDbEntity
  8
0
100
AcDbLine
 62
7
  6
CONTINUOUS
 10
15.2239697096
 20
14.1847579458
 11
15.2739697096
 21
14.2347579458
  0
LINE
  5
238
100
AcDbEntity
  8
0
100
AcDbLine
 62
7
  6
CONTINUOUS
 10
6.0459972687
 20
9.041538337
 11
7.0209972687
 21
9.041538337
  0
LINE
  5
239
100
AcDbEntity
  8
0
100
AcDbLine
 62
9
  6
CONTINUOUS
 10
7.0209972687
 20
9.0661366037
 11
6.0459972687
 21
9.0661365671
  0
LWPOLYLINE
  5
23A
100
AcDbEntity
  8
0
100
AcDbPolyline
 62
7
  6
CONTINUOUS
 90
3
 70
0
 10
10.7653724122
 20
14.5184141751
 10
10.7765828347
 20
14.2225527613
 10
10.8086174296
 20
13.5014749198
  0
LINE
  5
23B
100
AcDbEntity
  8
0
100
AcDbLine
 62
7
  6
CONTINUOUS
 10
11.1619911205
 20
12.5037621631
 11
11.153021098
 21
12.8734453844
  0
LINE
  5
23C
100
AcDbEntity
  8
0
100
AcDbLine
 62
7
  6
CONTINUOUS
 10
11.163918657
 20
12.3336650456
 11
11.1619911222
 21
12.5037620756
  0
LINE
  5
23D
100
AcDbEntity
  8
0
100
AcDbLine
 62
7
  6
CONTINUOUS
 10
11.1639205474
 20
12.3338385366
 11
11.1639210157
 21
12.3336651094
  0
LINE
  5
23E
100
AcDbEntity
  8
0
100
AcDbLine
 62
9
  6
CONTINUOUS
 10
11.1099018649
 20
12.0892488004
 11
11.1099018649
 21
12.1092488004
  0
LINE
  5
23F
100
AcDbEntity
  8
0
100
AcDbLine
 62
9
  6
CONTINUOUS
 10
11.1099018649
 20
12.5102670911
 11
11.1099018649
 21
12.5664493357
  0
LINE
  5
240
100
AcDbEntity
  8
0
100
AcDbLine
 62
9
  6
CONTINUOUS
 10
11.1099018649
 20
14.5164361805
 11
11.1099018649
 21
14.5597579458
  0
LINE
  5
241
100
AcDbEntity
  8
0
100
AcDbLine
 62
7
  6
CONTINUOUS
 10
11.2199854576
 20
12.6598113963
 11
11.2199854576
 21
13.4597044952
  0
LINE
  5
242
100
AcDbEntity
  8
0
100
AcDbLine
 62
9
  6
CONTINUOUS
 10
11.2399854576
 20
13.3722579458
 11
11.2399854576
 21
12.7472579458
  0
LINE
  5
243
100
AcDbEntity
  8
0
100
AcDbLine
 62
7
  6
CONTINUOUS
 10
11.3999539616
 20
13.4249445141
 11
11.3999539616
 21
13.3722579458
  0
LINE
  5
244
100
AcDbEntity
  8
0
100
AcDbLine
 62
7
  6
CONTINUOUS
 10
11.3999539616
 20
12.7472579458
 11
11.3999539616
 21
12.6945713774
  0
LINE
  5
245
100
AcDbEntity
  8
0
100
AcDbLine
 62
7
  6
CONTINUOUS
 10
11.4799539616
 20
13.5797444753
 11
11.4799539616
 21
13.3722579458
  0
LINE
  5
246
100
AcDbEntity
  8
0
100
AcDbLine
 62
7
  6
CONTINUOUS
 10
11.4799539616
 20
12.7472579458
 11
11.4799539616
 21
12.5397579458
  0
LINE
  5
247
100
AcDbEntity
  8
0
100
AcDbLine
 62
9
  6
CONTINUOUS
 10
11.5099539616
 20
13.6097579458
 11
11.5099539616
 21
13.3722542111
  0
LINE
  5
248
100
AcDbEntity
  8
0
100
AcDbLine
 62
9
  6
CONTINUOUS
 10
11.5099539616
 20
12.7472616805
 11
11.5099539616
 21
12.5097579458
  0
LINE
  5
249
100
AcDbEntity
  8
0
100
AcDbLine
 62
7
  6
CONTINUOUS
 10
11.5329854576
 20
12.7472616805
 11
11.5329854576
 21
13.3722542111
  0
LINE
  5
24A
100
AcDbEntity
  8
0
100
AcDbLine
 62
7
  6
CONTINUOUS
 10
11.5529854576
 20
13.4597579458
 11
11.5529854576
 21
12.6597579458
  0
LINE
  5
24B
100
AcDbEntity
  8
0
100
AcDbLine
 62
7
  6
CONTINUOUS
 10
11.6529854576
 20
13.6097579458
 11
11.6529854576
 21
12.5097579458
  0
LINE
  5
24C
100
AcDbEntity
  8
0
100
AcDbLine
 62
7
  6
CONTINUOUS
 10
11.1622384427
 20
14.2231455601
 11
11.1639237733
 21
14.5197024382
  0
LINE
  5
24D
100
AcDbEntity
  8
0
100
AcDbLine
 62
7
  6
CONTINUOUS
 10
11.1533897515
 20
13.5001850261
 11
11.1622384427
 21
14.2231455601
  0
LINE
  5
24E
100
AcDbEntity
  8
0
100
AcDbLine
 62
7
  6
CONTINUOUS
 10
12.6932038627
 20
19.6413843598
 11
12.7411822958
 21
20.0676566435
  0
LWPOLYLINE
  5
24F
100
AcDbEntity
  8
0
100
AcDbPolyline
 62
7
  6
CONTINUOUS
 90
4
 70
0
 10
13.2634972687
 20
19.2977340509
 10
13.2501860443
 20
19.2181468779
 10
13.2262478173
 20
19.0898296604
 10
13.2033494464
 20
18.9773418918
  0
LINE
  5
250
100
AcDbEntity
  8
0
100
AcDbLine
 62
7
  6
CONTINUOUS
 10
12.8899300117
 20
13.9034408865
 11
12.8656450271
 21
13.8049056162
  0
LINE
  5
251
100
AcDbEntity
  8
0
100
AcDbLine
 62
7
  6
CONTINUOUS
 10
14.1034972687
 20
13.9180256623
 11
14.169158601
 21
14.031754426
  0
LINE
  5
252
100
AcDbEntity
  8
0
100
AcDbLine
 62
9
  6
CONTINUOUS
 10
6.9540647713
 20
9.1595111879
 11
6.1129297661
 21
9.1595111879
  0
LINE
  5
253
100
AcDbEntity
  8
0
100
AcDbLine
 62
9
  6
CONTINUOUS
 10
6.5406672654
 20
9.2684193631
 11
6.5335258393
 21
9.2684677104
  0
LINE
  5
254
100
AcDbEntity
  8
0
100
AcDbLine
 62
7
  6
CONTINUOUS
 10
11.7029854576
 20
13.6847579458
 11
11.7029854576
 21
12.4347579458
  0
LINE
  5
255
100
AcDbEntity
  8
0
100
AcDbLine
 62
7
  6
CONTINUOUS
 10
11.8029854576
 20
13.7847579458
 11
11.8029854576
 21
12.3347579458
  0
LINE
  5
256
100
AcDbEntity
  8
0
100
AcDbLine
 62
7
  6
CONTINUOUS
 10
11.8529854576
 20
13.8597579458
 11
11.8529854576
 21
12.2597579458
  0
LINE
  5
257
100
AcDbEntity
  8
0
100
AcDbLine
 62
7
  6
CONTINUOUS
 10
12.0529854576
 20
12.2597579458
 11
12.0529854576
 21
13.8597579458
  0
LINE
  5
258
100
AcDbEntity
  8
0
100
AcDbLine
 62
7
  6
CONTINUOUS
 10
12.1529854576
 20
12.3347579458
 11
12.1529854576
 21
13.7847579458
  0
LINE
  5
259
100
AcDbEntity
  8
0
100
AcDbLine
 62
7
  6
CONTINUOUS
 10
12.2279854576
 20
13.7097579458
 11
12.2279854576
 21
12.4097579458
  0
LINE
  5
25A
100
AcDbEntity
  8
0
100
AcDbLine
 62
7
  6
CONTINUOUS
 10
12.4934972687
 20
19.0997579458
 11
12.4934972687
 21
19.1807823535
  0
LINE
  5
25B
100
AcDbEntity
  8
0
100
AcDbLine
 62
9
  6
CONTINUOUS
 10
12.9735546207
 20
20.9066460636
 11
12.9735364518
 21
20.906438208
  0
LINE
  5
25C
100
AcDbEntity
  8
0
100
AcDbLine
 62
9
  6
CONTINUOUS
 10
12.9934580855
 20
20.9082026583
 11
12.9934762544
 21
20.9084105139
  0
LINE
  5
25D
100
AcDbEntity
  8
0
100
AcDbLine
 62
9
  6
CONTINUOUS
 10
7.4112482642
 20
10.12417702
 11
12.9882725297
 21
11.2519093264
  0
LINE
  5
25E
100
AcDbEntity
  8
0
100
AcDbLine
 62
7
  6
CONTINUOUS
 10
7.5101092238
 20
9.8065284309
 11
13.04904035
 21
10.6838089374
  0
LINE
  5
25F
100
AcDbEntity
  8
0
100
AcDbLine
 62
7
  6
CONTINUOUS
 10
13.1181402428
 20
18.227662086
 11
13.1090219367
 21
18.7291689176
  0
LINE
  5
260
100
AcDbEntity
  8
0
100
AcDbLine
 62
7
  6
CONTINUOUS
 10
12.7084972687
 20
19.082392219
 11
12.7084972687
 21
19.0877579458
  0
LINE
  5
261
100
AcDbEntity
  8
0
100
AcDbLine
 62
7
  6
CONTINUOUS
 10
12.8279854576
 20
12.4097579458
 11
12.8279854576
 21
13.7097579458
  0
LINE
  5
262
100
AcDbEntity
  8
0
100
AcDbLine
 62
7
  6
CONTINUOUS
 10
12.8959972687
 20
14.3811122328
 11
12.8959972687
 21
14.0349390918
  0
LINE
  5
263
100
AcDbEntity
  8
0
100
AcDbLine
 62
7
  6
CONTINUOUS
 10
12.8960536772
 20
20.8219775089
 11
12.8960536772
 21
20.8170945557
  0
LINE
  5
264
100
AcDbEntity
  8
0
100
AcDbLine
 62
7
  6
CONTINUOUS
 10
12.9029854576
 20
12.4847612409
 11
12.9029854576
 21
13.6347546506
  0
LINE
  5
265
100
AcDbEntity
  8
0
100
AcDbLine
 62
7
  6
CONTINUOUS
 10
12.9033519394
 20
14.3811122328
 11
12.9033519394
 21
14.0349390918
  0
LINE
  5
266
100
AcDbEntity
  8
0
100
AcDbLine
 62
7
  6
CONTINUOUS
 10
12.9034972687
 20
19.0236382191
 11
12.9034972687
 21
19.0312264652
  0
LINE
  5
267
100
AcDbEntity
  8
0
100
AcDbLine
 62
7
  6
CONTINUOUS
 10
12.9399972687
 20
14.6180256623
 11
12.9399972687
 21
14.5030256623
  0
LINE
  5
268
100
AcDbEntity
  8
0
100
AcDbLine
 62
9
  6
CONTINUOUS
 10
12.9464800301
 20
12.5410900989
 11
12.9464808057
 21
13.5784259104
  0
LINE
  5
269
100
AcDbEntity
  8
0
100
AcDbLine
 62
7
  6
CONTINUOUS
 10
12.9634972687
 20
11.911902625
 11
12.9634972687
 21
11.8684193631
  0
LINE
  5
26A
100
AcDbEntity
  8
0
100
AcDbLine
 62
9
  6
CONTINUOUS
 10
12.9735364518
 20
20.906438208
 11
12.9735364518
 21
20.9015552548
  0
LINE
  5
26B
100
AcDbEntity
  8
0
100
AcDbLine
 62
9
  6
CONTINUOUS
 10
12.9934580855
 20
20.9033197051
 11
12.9934580855
 21
20.9082026583
  0
LINE
  5
26C
100
AcDbEntity
  8
0
100
AcDbLine
 62
7
  6
CONTINUOUS
 10
13.0784972687
 20
18.9684107588
 11
13.0784972687
 21
18.9759990049
  0
LINE
  5
26D
100
AcDbEntity
  8
0
100
AcDbLine
 62
7
  6
CONTINUOUS
 10
13.0834972687
 20
16.9381175207
 11
13.0834972687
 21
17.277910853
  0
LINE
  5
26E
100
AcDbEntity
  8
0
100
AcDbLine
 62
9
  6
CONTINUOUS
 10
13.0856422544
 20
20.831240873
 11
13.0856422544
 21
20.8263579198
  0
LINE
  5
26F
100
AcDbEntity
  8
0
100
AcDbLine
 62
7
  6
CONTINUOUS
 10
13.1348044183
 20
14.0349390918
 11
13.1348044183
 21
14.3811122328
  0
LINE
  5
270
100
AcDbEntity
  8
0
100
AcDbLine
 62
7
  6
CONTINUOUS
 10
13.2634972687
 20
20.3980256623
 11
13.2634972687
 21
-2.6423551111
  0
LINE
  5
271
100
AcDbEntity
  8
0
100
AcDbLine
 62
7
  6
CONTINUOUS
 10
13.1082549326
 20
18.7799083954
 11
13.1067923385
 21
18.7543266123
  0
LINE
  5
272
100
AcDbEntity
  8
0
100
AcDbLine
 62
7
  6
CONTINUOUS
 10
13.9569393121
 20
20.5520630206
 11
13.9813522829
 21
20.831240873
  0
LINE
  5
273
100
AcDbEntity
  8
0
100
AcDbLine
 62
9
  6
CONTINUOUS
 10
14.0660192264
 20
20.8129297058
 11
14.0215772959
 21
20.313596996
  0
LINE
  5
274
100
AcDbEntity
  8
0
100
AcDbLine
 62
9
  6
CONTINUOUS
 10
14.0414989297
 20
20.3118325457
 11
14.0859408602
 21
20.8111652555
  0
LINE
  5
275
100
AcDbEntity
  8
0
100
AcDbLine
 62
7
  6
CONTINUOUS
 10
14.1706078037
 20
20.8095956419
 11
14.1261658732
 21
20.3102629322
  0
LINE
  5
276
100
AcDbEntity
  8
0
100
AcDbLine
 62
7
  6
CONTINUOUS
 10
12.5589017663
 20
11.3776057714
 11
7.2938118913
 21
10.3541759738
  0
LWPOLYLINE
  5
277
100
AcDbEntity
  8
0
100
AcDbPolyline
 62
7
  6
CONTINUOUS
 90
3
 70
0
 10
13.1067923229
 20
18.7543267321
 10
13.1088599328
 20
18.7342029171
 10
13.1090219368
 20
18.7291689143
  0
LINE
  5
278
100
AcDbEntity
  8
0
100
AcDbLine
 62
7
  6
CONTINUOUS
 10
12.9408286641
 20
20.3102629322
 11
12.8963867336
 21
20.8095956419
  0
LINE
  5
279
100
AcDbEntity
  8
0
100
AcDbLine
 62
9
  6
CONTINUOUS
 10
13.0254956076
 20
20.3118325457
 11
12.9810536772
 21
20.8111652555
  0
LINE
  5
27A
100
AcDbEntity
  8
0
100
AcDbLine
 62
9
  6
CONTINUOUS
 10
13.0009753109
 20
20.8129297058
 11
13.0454172414
 21
20.313596996
  0
LINE
  5
27B
100
AcDbEntity
  8
0
100
AcDbLine
 62
7
  6
CONTINUOUS
 10
13.1100552252
 20
20.5520630206
 11
13.0856422544
 21
20.831240873
  0
LINE
  5
27C
100
AcDbEntity
  8
0
100
AcDbLine
 62
7
  6
CONTINUOUS
 10
12.8963867336
 20
20.8095956419
 11
12.8960536772
 21
20.8170945557
  0
LINE
  5
27D
100
AcDbEntity
  8
0
100
AcDbLine
 62
9
  6
CONTINUOUS
 10
13.0856406355
 20
20.8312773968
 11
13.0856422544
 21
20.831240873
  0
LINE
  5
27E
100
AcDbEntity
  8
0
100
AcDbLine
 62
7
  6
CONTINUOUS
 10
13.8034972687
 20
20.3980256623
 11
13.8034972687
 21
-2.6423551111
  0
LINE
  5
27F
100
AcDbEntity
  8
0
100
AcDbLine
 62
7
  6
CONTINUOUS
 10
13.932190119
 20
14.3811122328
 11
13.932190119
 21
14.0349390918
  0
LINE
  5
280
100
AcDbEntity
  8
0
100
AcDbLine
 62
9
  6
CONTINUOUS
 10
13.9813522829
 20
20.8263579198
 11
13.9813522829
 21
20.831240873
  0
LINE
  5
281
100
AcDbEntity
  8
0
100
AcDbLine
 62
7
  6
CONTINUOUS
 10
13.9834972687
 20
17.2779338039
 11
13.9834972687
 21
16.9381404717
  0
LINE
  5
282
100
AcDbEntity
  8
0
100
AcDbLine
 62
7
  6
CONTINUOUS
 10
13.9884972687
 20
18.9684107588
 11
13.9884972687
 21
18.9759990049
  0
LINE
  5
283
100
AcDbEntity
  8
0
100
AcDbLine
 62
9
  6
CONTINUOUS
 10
14.0735364518
 20
20.9082026583
 11
14.0735364518
 21
20.9033197051
  0
LINE
  5
284
100
AcDbEntity
  8
0
100
AcDbLine
 62
9
  6
CONTINUOUS
 10
14.0934580855
 20
20.9015552548
 11
14.0934580855
 21
20.906438208
  0
LINE
  5
285
100
AcDbEntity
  8
0
100
AcDbLine
 62
9
  6
CONTINUOUS
 10
14.1205145074
 20
13.5784257926
 11
14.1205137328
 21
12.5410899813
  0
LINE
  5
286
100
AcDbEntity
  8
0
100
AcDbLine
 62
7
  6
CONTINUOUS
 10
14.1269972687
 20
14.6180256623
 11
14.1269972687
 21
14.5030256623
  0
LINE
  5
287
100
AcDbEntity
  8
0
100
AcDbLine
 62
7
  6
CONTINUOUS
 10
14.1634972687
 20
19.0236382191
 11
14.1634972687
 21
19.0312264652
  0
LINE
  5
288
100
AcDbEntity
  8
0
100
AcDbLine
 62
7
  6
CONTINUOUS
 10
14.163642598
 20
14.0349390918
 11
14.163642598
 21
14.3811122328
  0
LINE
  5
289
100
AcDbEntity
  8
0
100
AcDbLine
 62
7
  6
CONTINUOUS
 10
14.1640090797
 20
12.5924620903
 11
14.1640090797
 21
13.5277623495
  0
LINE
  5
28A
100
AcDbEntity
  8
0
100
AcDbLine
 62
7
  6
CONTINUOUS
 10
14.1689697096
 20
13.6297546793
 11
14.1689697096
 21
12.4897612123
  0
LINE
  5
28B
100
AcDbEntity
  8
0
100
AcDbLine
 62
7
  6
CONTINUOUS
 10
14.1709408602
 20
20.8170945557
 11
14.1709408602
 21
20.8219775089
  0
LINE
  5
28C
100
AcDbEntity
  8
0
100
AcDbLine
 62
7
  6
CONTINUOUS
 10
14.1709972687
 20
14.3811122328
 11
14.1709972687
 21
14.0349390918
  0
LINE
  5
28D
100
AcDbEntity
  8
0
100
AcDbLine
 62
7
  6
CONTINUOUS
 10
13.9488542945
 20
18.227662086
 11
13.9579725984
 21
18.7291688005
  0
LINE
  5
28E
100
AcDbEntity
  8
0
100
AcDbLine
 62
7
  6
CONTINUOUS
 10
13.9602021955
 20
18.7543265385
 11
13.9606640872
 21
18.769625015
  0
LWPOLYLINE
  5
28F
100
AcDbEntity
  8
0
100
AcDbPolyline
 62
7
  6
CONTINUOUS
 90
3
 70
0
 10
13.9579725984
 20
18.7291687973
 10
13.9581348347
 20
18.7342078284
 10
13.9602022185
 20
18.754326654
  0
LINE
  5
290
100
AcDbEntity
  8
0
100
AcDbLine
 62
9
  6
CONTINUOUS
 10
13.9813522829
 20
20.831240873
 11
13.9813539019
 21
20.8312773968
  0
LINE
  5
291
100
AcDbEntity
  8
0
100
AcDbLine
 62
7
  6
CONTINUOUS
 10
14.1709408602
 20
20.8170945557
 11
14.1706078037
 21
20.8095956419
  0
LINE
  5
292
100
AcDbEntity
  8
0
100
AcDbLine
 62
7
  6
CONTINUOUS
 10
15.3739697096
 20
11.8847579458
 11
15.2739697096
 21
11.8847579458
  0
LINE
  5
293
100
AcDbEntity
  8
0
100
AcDbLine
 62
7
  6
CONTINUOUS
 10
14.9489697096
 20
11.8854915151
 11
15.0239697096
 21
11.8854915151
  0
LINE
  5
294
100
AcDbEntity
  8
0
100
AcDbLine
 62
7
  6
CONTINUOUS
 10
14.9489697096
 20
11.889273442
 11
15.0239697096
 21
11.889273442
  0
LINE
  5
295
100
AcDbEntity
  8
0
100
AcDbLine
 62
7
  6
CONTINUOUS
 10
15.0239697096
 20
11.8934545806
 11
14.9489697096
 21
11.8934545806
  0
LINE
  5
296
100
AcDbEntity
  8
0
100
AcDbLine
 62
7
  6
CONTINUOUS
 10
14.9489697096
 20
11.8962635856
 11
15.0239697096
 21
11.8962635856
  0
LINE
  5
297
100
AcDbEntity
  8
0
100
AcDbLine
 62
7
  6
CONTINUOUS
 10
15.0239697096
 20
11.9025209642
 11
14.9489697096
 21
11.9025209642
  0
LINE
  5
298
100
AcDbEntity
  8
0
100
AcDbLine
 62
7
  6
CONTINUOUS
 10
14.9489697096
 20
11.9064427864
 11
15.0239697096
 21
11.9064427864
  0
LINE
  5
299
100
AcDbEntity
  8
0
100
AcDbLine
 62
7
  6
CONTINUOUS
 10
15.0239697096
 20
11.914759254
 11
14.9489697096
 21
11.914759254
  0
LINE
  5
29A
100
AcDbEntity
  8
0
100
AcDbLine
 62
7
  6
CONTINUOUS
 10
14.9489697096
 20
11.9197831438
 11
15.0239697096
 21
11.9197831438
  0
LINE
  5
29B
100
AcDbEntity
  8
0
100
AcDbLine
 62
7
  6
CONTINUOUS
 10
15.0239697096
 20
11.9301359056
 11
14.9489697096
 21
11.9301359056
  0
LINE
  5
29C
100
AcDbEntity
  8
0
100
AcDbLine
 62
7
  6
CONTINUOUS
 10
15.2239697096
 20
11.9347579458
 11
15.0239697096
 21
11.9347579458
  0
LINE
  5
29D
100
AcDbEntity
  8
0
100
AcDbLine
 62
7
  6
CONTINUOUS
 10
14.9489697096
 20
11.9362480929
 11
15.0239697096
 21
11.9362480929
  0
LINE
  5
29E
100
AcDbEntity
  8
0
100
AcDbLine
 62
7
  6
CONTINUOUS
 10
15.0239697096
 20
11.9486087727
 11
14.9489697096
 21
11.9486087727
  0
LINE
  5
29F
100
AcDbEntity
  8
0
100
AcDbLine
 62
7
  6
CONTINUOUS
 10
14.9489697096
 20
11.9557925045
 11
15.0239697096
 21
11.9557925045
  0
LINE
  5
2A0
100
AcDbEntity
  8
0
100
AcDbLine
 62
7
  6
CONTINUOUS
 10
15.0239697096
 20
11.9701272225
 11
14.9489697096
 21
11.9701272225
  0
LINE
  5
2A1
100
AcDbEntity
  8
0
100
AcDbLine
 62
7
  6
CONTINUOUS
 10
14.9489697096
 20
11.9783628085
 11
15.0239697096
 21
11.9783628085
  0
LINE
  5
2A2
100
AcDbEntity
  8
0
100
AcDbLine
 62
7
  6
CONTINUOUS
 10
15.0239697096
 20
11.9946322743
 11
14.9489697096
 21
11.9946322743
  0
LINE
  5
2A3
100
AcDbEntity
  8
0
100
AcDbLine
 62
7
  6
CONTINUOUS
 10
14.9489697096
 20
12.0038971415
 11
15.0239697096
 21
12.0038971415
  0
LINE
  5
2A4
100
AcDbEntity
  8
0
100
AcDbLine
 62
7
  6
CONTINUOUS
 10
15.0239697096
 20
12.0220567615
 11
14.9489697096
 21
12.0220567615
  0
LINE
  5
2A5
100
AcDbEntity
  8
0
100
AcDbLine
 62
7
  6
CONTINUOUS
 10
14.9489697096
 20
12.0323255156
 11
15.0239697096
 21
12.0323255156
  0
LINE
  5
2A6
100
AcDbEntity
  8
0
100
AcDbLine
 62
7
  6
CONTINUOUS
 10
15.0239697096
 20
12.0523255156
 11
14.9489697096
 21
12.0523255156
  0
LINE
  5
2A7
100
AcDbEntity
  8
0
100
AcDbLine
 62
7
  6
CONTINUOUS
 10
14.9489697096
 20
12.0635700105
 11
15.0239697096
 21
12.0635700105
  0
LINE
  5
2A8
100
AcDbEntity
  8
0
100
AcDbLine
 62
7
  6
CONTINUOUS
 10
15.0239697096
 20
12.0853555719
 11
14.9489697096
 21
12.0853555719
  0
LINE
  5
2A9
100
AcDbEntity
  8
0
100
AcDbLine
 62
7
  6
CONTINUOUS
 10
10.8193815296
 20
12.0892488004
 11
11.1099018649
 21
12.0892488004
  0
LINE
  5
2AA
100
AcDbEntity
  8
0
100
AcDbLine
 62
7
  6
CONTINUOUS
 10
14.9489697096
 20
12.0975449873
 11
15.0239697096
 21
12.0975449873
  0
LINE
  5
2AB
100
AcDbEntity
  8
0
100
AcDbLine
 62
9
  6
CONTINUOUS
 10
10.8193817125
 20
12.1092488084
 11
11.1099017969
 21
12.1092488092
  0
LINE
  5
2AC
100
AcDbEntity
  8
0
100
AcDbLine
 62
7
  6
CONTINUOUS
 10
15.0239697096
 20
12.1210563974
 11
14.9489697096
 21
12.1210563974
  0
LINE
  5
2AD
100
AcDbEntity
  8
0
100
AcDbLine
 62
7
  6
CONTINUOUS
 10
14.9489697096
 20
12.134157323
 11
15.0239697096
 21
12.134157323
  0
LINE
  5
2AE
100
AcDbEntity
  8
0
100
AcDbLine
 62
7
  6
CONTINUOUS
 10
15.0239697096
 20
12.1593301386
 11
14.9489697096
 21
12.1593301386
  0
LINE
  5
2AF
100
AcDbEntity
  8
0
100
AcDbLine
 62
7
  6
CONTINUOUS
 10
14.9489697096
 20
12.1733066656
 11
15.0239697096
 21
12.1733066656
  0
LINE
  5
2B0
100
AcDbEntity
  8
0
100
AcDbLine
 62
7
  6
CONTINUOUS
 10
15.0239697096
 20
12.2000718899
 11
14.9489697096
 21
12.2000718899
  0
LINE
  5
2B1
100
AcDbEntity
  8
0
100
AcDbLine
 62
7
  6
CONTINUOUS
 10
14.9489697096
 20
12.2148857096
 11
15.0239697096
 21
12.2148857096
  0
LINE
  5
2B2
100
AcDbEntity
  8
0
100
AcDbLine
 62
7
  6
CONTINUOUS
 10
15.0239697096
 20
12.2431699808
 11
14.9489697096
 21
12.2431699808
  0
LINE
  5
2B3
100
AcDbEntity
  8
0
100
AcDbLine
 62
7
  6
CONTINUOUS
 10
14.9489697096
 20
12.2587804896
 11
15.0239697096
 21
12.2587804896
  0
LINE
  5
2B4
100
AcDbEntity
  8
0
100
AcDbLine
 62
7
  6
CONTINUOUS
 10
11.8529854576
 20
12.2597579458
 11
12.0529854576
 21
12.2597579458
  0
LINE
  5
2B5
100
AcDbEntity
  8
0
100
AcDbLine
 62
7
  6
CONTINUOUS
 10
14.0584972687
 20
12.2684193631
 11
13.8034972687
 21
12.2684193631
  0
LINE
  5
2B6
100
AcDbEntity
  8
0
100
AcDbLine
 62
7
  6
CONTINUOUS
 10
13.2606188447
 20
12.2684193631
 11
13.0084972687
 21
12.2684193631
  0
LINE
  5
2B7
100
AcDbEntity
  8
0
100
AcDbLine
 62
9
  6
CONTINUOUS
 10
14.0603061045
 20
12.2803353485
 11
13.8160681309
 21
12.2803353485
  0
LINE
  5
2B8
100
AcDbEntity
  8
0
100
AcDbLine
 62
9
  6
CONTINUOUS
 10
13.2509269788
 20
12.2803353485
 11
13.0066884328
 21
12.2803353485
  0
LINE
  5
2B9
100
AcDbEntity
  8
0
100
AcDbLine
 62
7
  6
CONTINUOUS
 10
15.0239697096
 20
12.2885062826
 11
14.9489697096
 21
12.2885062826
  0
LINE
  5
2BA
100
AcDbEntity
  8
0
100
AcDbLine
 62
7
  6
CONTINUOUS
 10
14.9489697096
 20
12.3048706932
 11
15.0239697096
 21
12.3048706932
  0
LINE
  5
2BB
100
AcDbEntity
  8
0
100
AcDbLine
 62
7
  6
CONTINUOUS
 10
15.0239697096
 20
12.3330000202
 11
14.9489697096
 21
12.3330000202
  0
LINE
  5
2BC
100
AcDbEntity
  8
0
100
AcDbLine
 62
7
  6
CONTINUOUS
 10
11.8029854576
 20
12.3347579458
 11
11.8529854576
 21
12.3347579458
  0
LINE
  5
2BD
100
AcDbEntity
  8
0
100
AcDbLine
 62
7
  6
CONTINUOUS
 10
12.0529854576
 20
12.3347579458
 11
12.1529854576
 21
12.3347579458
  0
LINE
  5
2BE
100
AcDbEntity
  8
0
100
AcDbLine
 62
7
  6
CONTINUOUS
 10
15.0239697096
 20
12.3359565316
 11
14.9489697096
 21
12.3359565316
  0
LINE
  5
2BF
100
AcDbEntity
  8
0
100
AcDbLine
 62
7
  6
CONTINUOUS
 10
14.9489697096
 20
12.3530299902
 11
15.0239697096
 21
12.3530299902
  0
LINE
  5
2C0
100
AcDbEntity
  8
0
100
AcDbLine
 62
7
  6
CONTINUOUS
 10
15.0239697096
 20
12.3809660352
 11
14.9489697096
 21
12.3809660352
  0
LINE
  5
2C1
100
AcDbEntity
  8
0
100
AcDbLine
 62
7
  6
CONTINUOUS
 10
15.0239697096
 20
12.38539067
 11
14.9489697096
 21
12.38539067
  0
LINE
  5
2C2
100
AcDbEntity
  8
0
100
AcDbLine
 62
7
  6
CONTINUOUS
 10
14.9489697096
 20
12.4031263795
 11
15.0239697096
 21
12.4031263795
  0
LINE
  5
2C3
100
AcDbEntity
  8
0
100
AcDbLine
 62
7
  6
CONTINUOUS
 10
12.2279854576
 20
12.4097579458
 11
12.8279854576
 21
12.4097579458
  0
LINE
  5
2C4
100
AcDbEntity
  8
0
100
AcDbLine
 62
7
  6
CONTINUOUS
 10
14.2858831391
 20
12.4222579458
 11
14.6320562801
 21
12.4222579458
  0
LINE
  5
2C5
100
AcDbEntity
  8
0
100
AcDbLine
 62
7
  6
CONTINUOUS
 10
14.2858831391
 20
12.4296126165
 11
14.6320562801
 21
12.4296126165
  0
LINE
  5
2C6
100
AcDbEntity
  8
0
100
AcDbLine
 62
7
  6
CONTINUOUS
 10
15.0239697096
 20
12.4307925716
 11
14.9489697096
 21
12.4307925716
  0
LINE
  5
2C7
100
AcDbEntity
  8
0
100
AcDbLine
 62
7
  6
CONTINUOUS
 10
15.0239697096
 20
12.4366732022
 11
14.9489697096
 21
12.4366732022
  0
LINE
  5
2C8
100
AcDbEntity
  8
0
100
AcDbLine
 62
7
  6
CONTINUOUS
 10
14.9489697096
 20
12.4550225502
 11
15.0239697096
 21
12.4550225502
  0
LINE
  5
2C9
100
AcDbEntity
  8
0
100
AcDbLine
 62
7
  6
CONTINUOUS
 10
15.0239697096
 20
12.4823430583
 11
14.9489697096
 21
12.4823430583
  0
LINE
  5
2CA
100
AcDbEntity
  8
0
100
AcDbLine
 62
7
  6
CONTINUOUS
 10
15.0239697096
 20
12.4896635664
 11
14.9489697096
 21
12.4896635664
  0
LINE
  5
2CB
100
AcDbEntity
  8
0
100
AcDbLine
 62
7
  6
CONTINUOUS
 10
14.9489697096
 20
12.5085762587
 11
15.0239697096
 21
12.5085762587
  0
LINE
  5
2CC
100
AcDbEntity
  8
0
100
AcDbLine
 62
7
  6
CONTINUOUS
 10
11.5099539616
 20
12.5097579458
 11
11.7029854576
 21
12.5097579458
  0
LINE
  5
2CD
100
AcDbEntity
  8
0
100
AcDbLine
 62
9
  6
CONTINUOUS
 10
11.1099019321
 20
12.510267083
 11
10.819381418
 21
12.5102670825
  0
LINE
  5
2CE
100
AcDbEntity
  8
0
100
AcDbLine
 62
7
  6
CONTINUOUS
 10
15.0239697096
 20
12.5354761992
 11
14.9489697096
 21
12.5354761992
  0
LWPOLYLINE
  5
2CF
100
AcDbEntity
  8
0
100
AcDbPolyline
 62
7
  6
CONTINUOUS
 90
3
 70
0
 10
11.1652712225
 20
13.4713066372
 10
11.1557667227
 20
13.4861682595
 10
11.1533898169
 20
13.5001913357
  0
LINE
  5
2D0
100
AcDbEntity
  8
0
100
AcDbLine
 62
7
  6
CONTINUOUS
 10
12.9775045809
 20
12.3512810914
 11
13.0066884328
 21
12.2803353485
  0
LINE
  5
2D1
100
AcDbEntity
  8
0
100
AcDbLine
 62
7
  6
CONTINUOUS
 10
14.2858831391
 20
13.6972579458
 11
14.2858831391
 21
13.6899032751
  0
LINE
  5
2D2
100
AcDbEntity
  8
0
100
AcDbLine
 62
7
  6
CONTINUOUS
 10
14.2858831391
 20
13.4584507962
 11
14.2858831391
 21
13.2912104247
  0
LINE
  5
2D3
100
AcDbEntity
  8
0
100
AcDbLine
 62
7
  6
CONTINUOUS
 10
14.2858831391
 20
12.8283054669
 11
14.2858831391
 21
12.6610650954
  0
LINE
  5
2D4
100
AcDbEntity
  8
0
100
AcDbLine
 62
7
  6
CONTINUOUS
 10
14.2858831391
 20
12.4296126165
 11
14.2858831391
 21
12.4222579458
  0
LINE
  5
2D5
100
AcDbEntity
  8
0
100
AcDbLine
 62
7
  6
CONTINUOUS
 10
14.3584972687
 20
19.082392219
 11
14.3584972687
 21
19.0877579458
  0
LINE
  5
2D6
100
AcDbEntity
  8
0
100
AcDbLine
 62
7
  6
CONTINUOUS
 10
14.5734972687
 20
19.0997579458
 11
14.5734972687
 21
19.1807823535
  0
LINE
  5
2D7
100
AcDbEntity
  8
0
100
AcDbLine
 62
7
  6
CONTINUOUS
 10
14.6320562801
 20
12.4222579458
 11
14.6320562801
 21
12.4296126165
  0
LINE
  5
2D8
100
AcDbEntity
  8
0
100
AcDbLine
 62
7
  6
CONTINUOUS
 10
14.6320562801
 20
12.6610650954
 11
14.6320562801
 21
12.8283054669
  0
LINE
  5
2D9
100
AcDbEntity
  8
0
100
AcDbLine
 62
7
  6
CONTINUOUS
 10
14.6320562801
 20
13.2912104247
 11
14.6320562801
 21
13.4584507962
  0
LINE
  5
2DA
100
AcDbEntity
  8
0
100
AcDbLine
 62
7
  6
CONTINUOUS
 10
14.6320562801
 20
13.6899032751
 11
14.6320562801
 21
13.6972579458
  0
LINE
  5
2DB
100
AcDbEntity
  8
0
100
AcDbLine
 62
7
  6
CONTINUOUS
 10
14.7489697096
 20
13.9096983717
 11
14.7489697096
 21
12.2098175198
  0
LINE
  5
2DC
100
AcDbEntity
  8
0
100
AcDbLine
 62
7
  6
CONTINUOUS
 10
14.8489697096
 20
14.0596928056
 11
14.8489697096
 21
12.0598230859
  0
LINE
  5
2DD
100
AcDbEntity
  8
0
100
AcDbLine
 62
7
  6
CONTINUOUS
 10
14.9489697096
 20
14.2340243764
 11
14.9489697096
 21
14.226061311
  0
LINE
  5
2DE
100
AcDbEntity
  8
0
100
AcDbLine
 62
7
  6
CONTINUOUS
 10
14.9489697096
 20
11.8854915151
 11
14.9489697096
 21
12.2870259983
  0
LINE
  5
2DF
100
AcDbEntity
  8
0
100
AcDbLine
 62
7
  6
CONTINUOUS
 10
14.9489697096
 20
12.2885062826
 11
14.9489697096
 21
12.3330000202
  0
LINE
  5
2E0
100
AcDbEntity
  8
0
100
AcDbLine
 62
7
  6
CONTINUOUS
 10
14.9489697096
 20
12.3359565316
 11
14.9489697096
 21
13.7835593599
  0
LINE
  5
2E1
100
AcDbEntity
  8
0
100
AcDbLine
 62
7
  6
CONTINUOUS
 10
14.9489697096
 20
13.7865158713
 11
14.9489697096
 21
13.8310096089
  0
LINE
  5
2E2
100
AcDbEntity
  8
0
100
AcDbLine
 62
7
  6
CONTINUOUS
 10
14.9489697096
 20
13.8324898933
 11
14.9489697096
 21
14.2242320568
  0
LINE
  5
2E3
100
AcDbEntity
  8
0
100
AcDbLine
 62
7
  6
CONTINUOUS
 10
15.0239697096
 20
11.8854915151
 11
15.0239697096
 21
11.8934545806
  0
LINE
  5
2E4
100
AcDbEntity
  8
0
100
AcDbLine
 62
7
  6
CONTINUOUS
 10
15.0239697096
 20
11.8952838347
 11
15.0239697096
 21
12.2870259983
  0
LINE
  5
2E5
100
AcDbEntity
  8
0
100
AcDbLine
 62
7
  6
CONTINUOUS
 10
15.0239697096
 20
12.2885062826
 11
15.0239697096
 21
12.3330000202
  0
LINE
  5
2E6
100
AcDbEntity
  8
0
100
AcDbLine
 62
7
  6
CONTINUOUS
 10
15.0239697096
 20
12.3359565316
 11
15.0239697096
 21
13.7835593599
  0
LINE
  5
2E7
100
AcDbEntity
  8
0
100
AcDbLine
 62
7
  6
CONTINUOUS
 10
15.0239697096
 20
13.7865158713
 11
15.0239697096
 21
13.8310096089
  0
LINE
  5
2E8
100
AcDbEntity
  8
0
100
AcDbLine
 62
7
  6
CONTINUOUS
 10
15.0239697096
 20
13.8324898933
 11
15.0239697096
 21
14.2340243764
  0
LINE
  5
2E9
100
AcDbEntity
  8
0
100
AcDbLine
 62
9
  6
CONTINUOUS
 10
11.1815724119
 20
13.0597584598
 11
11.1673608887
 21
13.0584587983
  0
LINE
  5
2EA
100
AcDbEntity
  8
0
100
AcDbLine
 62
7
  6
CONTINUOUS
 10
15.0239697096
 20
12.5442165196
 11
14.9489697096
 21
12.5442165196
  0
LINE
  5
2EB
100
AcDbEntity
  8
0
100
AcDbLine
 62
7
  6
CONTINUOUS
 10
14.9489697096
 20
12.5636407178
 11
15.0239697096
 21
12.5636407178
  0
LINE
  5
2EC
100
AcDbEntity
  8
0
100
AcDbLine
 62
9
  6
CONTINUOUS
 10
10.819401406
 20
12.5664493125
 11
11.109882011
 21
12.5664493588
  0
LINE
  5
2ED
100
AcDbEntity
  8
0
100
AcDbLine
 62
7
  6
CONTINUOUS
 10
15.0239697096
 20
12.5900463598
 11
14.9489697096
 21
12.5900463598
  0
LINE
  5
2EE
100
AcDbEntity
  8
0
100
AcDbLine
 62
7
  6
CONTINUOUS
 10
15.0239697096
 20
12.6001825361
 11
14.9489697096
 21
12.6001825361
  0
LINE
  5
2EF
100
AcDbEntity
  8
0
100
AcDbLine
 62
7
  6
CONTINUOUS
 10
14.9489697096
 20
12.6200649997
 11
15.0239697096
 21
12.6200649997
  0
LINE
  5
2F0
100
AcDbEntity
  8
0
100
AcDbLine
 62
7
  6
CONTINUOUS
 10
15.0239697096
 20
12.6459039673
 11
14.9489697096
 21
12.6459039673
  0
LINE
  5
2F1
100
AcDbEntity
  8
0
100
AcDbLine
 62
7
  6
CONTINUOUS
 10
14.1689697096
 20
12.6497579458
 11
14.1640090797
 21
12.6497579458
  0
LINE
  5
2F2
100
AcDbEntity
  8
0
100
AcDbLine
 62
7
  6
CONTINUOUS
 10
15.0239697096
 20
12.6574082168
 11
14.9489697096
 21
12.6574082168
  0
LINE
  5
2F3
100
AcDbEntity
  8
0
100
AcDbLine
 62
7
  6
CONTINUOUS
 10
10.7449854576
 20
12.6597579458
 11
10.7891416256
 21
12.6597579458
  0
LINE
  5
2F4
100
AcDbEntity
  8
0
100
AcDbLine
 62
7
  6
CONTINUOUS
 10
11.1583026959
 20
12.6597579458
 11
11.2199854576
 21
12.6597579458
  0
LINE
  5
2F5
100
AcDbEntity
  8
0
100
AcDbLine
 62
7
  6
CONTINUOUS
 10
11.5529854576
 20
12.6597579458
 11
11.6529854576
 21
12.6597579458
  0
LINE
  5
2F6
100
AcDbEntity
  8
0
100
AcDbLine
 62
7
  6
CONTINUOUS
 10
14.6320562801
 20
12.6610650954
 11
14.2858831391
 21
12.6610650954
  0
LINE
  5
2F7
100
AcDbEntity
  8
0
100
AcDbLine
 62
7
  6
CONTINUOUS
 10
14.9489697096
 20
12.6776944495
 11
15.0239697096
 21
12.6776944495
  0
LINE
  5
2F8
100
AcDbEntity
  8
0
100
AcDbLine
 62
9
  6
CONTINUOUS
 10
10.7864221293
 20
12.6981393097
 11
10.7921077155
 21
12.6981393097
  0
LINE
  5
2F9
100
AcDbEntity
  8
0
100
AcDbLine
 62
9
  6
CONTINUOUS
 10
11.1573951922
 20
12.6981393097
 11
11.1781458624
 21
12.6981393097
  0
LINE
  5
2FA
100
AcDbEntity
  8
0
100
AcDbLine
 62
7
  6
CONTINUOUS
 10
15.0239697096
 20
12.7028959197
 11
14.9489697096
 21
12.7028959197
  0
LINE
  5
2FB
100
AcDbEntity
  8
0
100
AcDbLine
 62
7
  6
CONTINUOUS
 10
15.0239697096
 20
12.7157367102
 11
14.9489697096
 21
12.7157367102
  0
LINE
  5
2FC
100
AcDbEntity
  8
0
100
AcDbLine
 62
7
  6
CONTINUOUS
 10
14.9489697096
 20
12.7363711088
 11
15.0239697096
 21
12.7363711088
  0
LINE
  5
2FD
100
AcDbEntity
  8
0
100
AcDbLine
 62
7
  6
CONTINUOUS
 10
11.2399854576
 20
12.7472579458
 11
11.5329854576
 21
12.7472579458
  0
LINE
  5
2FE
100
AcDbEntity
  8
0
100
AcDbLine
 62
7
  6
CONTINUOUS
 10
15.0239697096
 20
12.7608660062
 11
14.9489697096
 21
12.7608660062
  0
LINE
  5
2FF
100
AcDbEntity
  8
0
100
AcDbLine
 62
7
  6
CONTINUOUS
 10
15.0239697096
 20
12.7750081418
 11
14.9489697096
 21
12.7750081418
  0
LINE
  5
300
100
AcDbEntity
  8
0
100
AcDbLine
 62
7
  6
CONTINUOUS
 10
14.9489697096
 20
12.7959341488
 11
15.0239697096
 21
12.7959341488
  0
LINE
  5
301
100
AcDbEntity
  8
0
100
AcDbLine
 62
7
  6
CONTINUOUS
 10
10.6199854576
 20
12.7972579458
 11
10.6499854576
 21
12.7972579458
  0
LINE
  5
302
100
AcDbEntity
  8
0
100
AcDbLine
 62
7
  6
CONTINUOUS
 10
15.0239697096
 20
12.8196553347
 11
14.9489697096
 21
12.8196553347
  0
LINE
  5
303
100
AcDbEntity
  8
0
100
AcDbLine
 62
7
  6
CONTINUOUS
 10
14.2858831391
 20
12.8283054669
 11
14.6320562801
 21
12.8283054669
  0
LINE
  5
304
100
AcDbEntity
  8
0
100
AcDbLine
 62
7
  6
CONTINUOUS
 10
15.0239697096
 20
12.8350600529
 11
14.9489697096
 21
12.8350600529
  0
LINE
  5
305
100
AcDbEntity
  8
0
100
AcDbLine
 62
7
  6
CONTINUOUS
 10
14.9489697096
 20
12.8562203116
 11
15.0239697096
 21
12.8562203116
  0
LINE
  5
306
100
AcDbEntity
  8
0
100
AcDbLine
 62
7
  6
CONTINUOUS
 10
11.5329854576
 20
12.8597579458
 11
11.5529854576
 21
12.8597579458
  0
LINE
  5
307
100
AcDbEntity
  8
0
100
AcDbLine
 62
7
  6
CONTINUOUS
 10
15.0239697096
 20
12.8791027677
 11
14.9489697096
 21
12.8791027677
  0
LINE
  5
308
100
AcDbEntity
  8
0
100
AcDbLine
 62
7
  6
CONTINUOUS
 10
15.0239697096
 20
12.8957278452
 11
14.9489697096
 21
12.8957278452
  0
LINE
  5
309
100
AcDbEntity
  8
0
100
AcDbLine
 62
7
  6
CONTINUOUS
 10
14.9489697096
 20
12.9170643569
 11
15.0239697096
 21
12.9170643569
  0
LINE
  5
30A
100
AcDbEntity
  8
0
100
AcDbLine
 62
7
  6
CONTINUOUS
 10
15.0239697096
 20
12.9390453641
 11
14.9489697096
 21
12.9390453641
  0
LINE
  5
30B
100
AcDbEntity
  8
0
100
AcDbLine
 62
7
  6
CONTINUOUS
 10
15.0239697096
 20
12.9568452327
 11
14.9489697096
 21
12.9568452327
  0
LINE
  5
30C
100
AcDbEntity
  8
0
100
AcDbLine
 62
7
  6
CONTINUOUS
 10
14.9489697096
 20
12.9782995154
 11
15.0239697096
 21
12.9782995154
  0
LINE
  5
30D
100
AcDbEntity
  8
0
100
AcDbLine
 62
7
  6
CONTINUOUS
 10
15.0239697096
 20
12.9993188252
 11
14.9489697096
 21
12.9993188252
  0
LINE
  5
30E
100
AcDbEntity
  8
0
100
AcDbLine
 62
9
  6
CONTINUOUS
 10
11.108011081
 20
13.010228968
 11
10.854653348
 21
13.010228968
  0
LINE
  5
30F
100
AcDbEntity
  8
0
100
AcDbLine
 62
7
  6
CONTINUOUS
 10
15.0239697096
 20
13.0182446968
 11
14.9489697096
 21
13.0182446968
  0
LINE
  5
310
100
AcDbEntity
  8
0
100
AcDbLine
 62
7
  6
CONTINUOUS
 10
14.9489697096
 20
13.0397579458
 11
15.0239697096
 21
13.0397579458
  0
LINE
  5
311
100
AcDbEntity
  8
0
100
AcDbLine
 62
7
  6
CONTINUOUS
 10
15.0239697096
 20
13.0597579458
 11
14.9489697096
 21
13.0597579458
  0
LINE
  5
312
100
AcDbEntity
  8
0
100
AcDbLine
 62
7
  6
CONTINUOUS
 10
15.0239697096
 20
13.0797579458
 11
14.9489697096
 21
13.0797579458
  0
LINE
  5
313
100
AcDbEntity
  8
0
100
AcDbLine
 62
9
  6
CONTINUOUS
 10
11.1781449025
 20
13.0925008895
 11
10.786422761
 21
13.0925008895
  0
LINE
  5
314
100
AcDbEntity
  8
0
100
AcDbLine
 62
7
  6
CONTINUOUS
 10
14.9489697096
 20
13.1012711948
 11
15.0239697096
 21
13.1012711948
  0
LINE
  5
315
100
AcDbEntity
  8
0
100
AcDbLine
 62
7
  6
CONTINUOUS
 10
15.0239697096
 20
13.1201970663
 11
14.9489697096
 21
13.1201970663
  0
LINE
  5
316
100
AcDbEntity
  8
0
100
AcDbLine
 62
7
  6
CONTINUOUS
 10
15.0239697096
 20
13.1412163762
 11
14.9489697096
 21
13.1412163762
  0
LINE
  5
317
100
AcDbEntity
  8
0
100
AcDbLine
 62
7
  6
CONTINUOUS
 10
14.9489697096
 20
13.1626706588
 11
15.0239697096
 21
13.1626706588
  0
LINE
  5
318
100
AcDbEntity
  8
0
100
AcDbLine
 62
7
  6
CONTINUOUS
 10
15.0239697096
 20
13.1804705275
 11
14.9489697096
 21
13.1804705275
  0
LINE
  5
319
100
AcDbEntity
  8
0
100
AcDbLine
 62
7
  6
CONTINUOUS
 10
15.0239697096
 20
13.2024515347
 11
14.9489697096
 21
13.2024515347
  0
LINE
  5
31A
100
AcDbEntity
  8
0
100
AcDbLine
 62
7
  6
CONTINUOUS
 10
14.9489697096
 20
13.2237880463
 11
15.0239697096
 21
13.2237880463
  0
LINE
  5
31B
100
AcDbEntity
  8
0
100
AcDbLine
 62
7
  6
CONTINUOUS
 10
15.0239697096
 20
13.2404131238
 11
14.9489697096
 21
13.2404131238
  0
LINE
  5
31C
100
AcDbEntity
  8
0
100
AcDbLine
 62
7
  6
CONTINUOUS
 10
11.5329854576
 20
13.2597579458
 11
11.5529854576
 21
13.2597579458
  0
LINE
  5
31D
100
AcDbEntity
  8
0
100
AcDbLine
 62
7
  6
CONTINUOUS
 10
15.0239697096
 20
13.2632955799
 11
14.9489697096
 21
13.2632955799
  0
LINE
  5
31E
100
AcDbEntity
  8
0
100
AcDbLine
 62
7
  6
CONTINUOUS
 10
14.9489697096
 20
13.2844558387
 11
15.0239697096
 21
13.2844558387
  0
LINE
  5
31F
100
AcDbEntity
  8
0
100
AcDbLine
 62
7
  6
CONTINUOUS
 10
14.6320562801
 20
13.2912104247
 11
14.2858831391
 21
13.2912104247
  0
LINE
  5
320
100
AcDbEntity
  8
0
100
AcDbLine
 62
7
  6
CONTINUOUS
 10
15.0239697096
 20
13.2998605569
 11
14.9489697096
 21
13.2998605569
  0
LINE
  5
321
100
AcDbEntity
  8
0
100
AcDbLine
 62
7
  6
CONTINUOUS
 10
10.6199854576
 20
13.3222579458
 11
10.6499854576
 21
13.3222579458
  0
LINE
  5
322
100
AcDbEntity
  8
0
100
AcDbLine
 62
7
  6
CONTINUOUS
 10
15.0239697096
 20
13.3235817427
 11
14.9489697096
 21
13.3235817427
  0
LINE
  5
323
100
AcDbEntity
  8
0
100
AcDbLine
 62
7
  6
CONTINUOUS
 10
14.9489697096
 20
13.3445077497
 11
15.0239697096
 21
13.3445077497
  0
LINE
  5
324
100
AcDbEntity
  8
0
100
AcDbLine
 62
7
  6
CONTINUOUS
 10
15.0239697096
 20
13.3586498854
 11
14.9489697096
 21
13.3586498854
  0
LINE
  5
325
100
AcDbEntity
  8
0
100
AcDbLine
 62
7
  6
CONTINUOUS
 10
11.2399854576
 20
13.3722579458
 11
11.5329854576
 21
13.3722579458
  0
LINE
  5
326
100
AcDbEntity
  8
0
100
AcDbLine
 62
7
  6
CONTINUOUS
 10
15.0239697096
 20
13.3831447828
 11
14.9489697096
 21
13.3831447828
  0
LINE
  5
327
100
AcDbEntity
  8
0
100
AcDbLine
 62
9
  6
CONTINUOUS
 10
10.7864213306
 20
13.3886352427
 11
11.1781467019
 21
13.3886352427
  0
LINE
  5
328
100
AcDbEntity
  8
0
100
AcDbLine
 62
9
  6
CONTINUOUS
 10
10.7823733979
 20
13.0597585323
 11
10.7967743611
 21
13.0582091401
  0
LINE
  5
329
100
AcDbEntity
  8
0
100
AcDbLine
 62
9
  6
CONTINUOUS
 10
14.0735182829
 20
20.9084105139
 11
14.0735364518
 21
20.9082026583
  0
LINE
  5
32A
100
AcDbEntity
  8
0
100
AcDbLine
 62
9
  6
CONTINUOUS
 10
14.0934580855
 20
20.906438208
 11
14.0934399167
 21
20.9066460636
  0
LINE
  5
32B
100
AcDbEntity
  8
0
100
AcDbLine
 62
7
  6
CONTINUOUS
 10
15.2239697096
 20
11.9347579458
 11
15.2239697096
 21
14.1847579458
  0
LINE
  5
32C
100
AcDbEntity
  8
0
100
AcDbLine
 62
7
  6
CONTINUOUS
 10
15.2739697096
 20
14.2347579458
 11
15.2739697096
 21
11.8847579458
  0
LINE
  5
32D
100
AcDbEntity
  8
0
100
AcDbLine
 62
7
  6
CONTINUOUS
 10
15.3739697096
 20
11.8847615122
 11
15.3739697096
 21
14.2347543794
  0
LINE
  5
32E
100
AcDbEntity
  8
0
100
AcDbLine
 62
7
  6
CONTINUOUS
 10
14.9489697096
 20
13.4037791814
 11
15.0239697096
 21
13.4037791814
  0
LINE
  5
32F
100
AcDbEntity
  8
0
100
AcDbLine
 62
7
  6
CONTINUOUS
 10
15.0239697096
 20
13.4166199718
 11
14.9489697096
 21
13.4166199718
  0
LINE
  5
330
100
AcDbEntity
  8
0
100
AcDbLine
 62
7
  6
CONTINUOUS
 10
15.0239697096
 20
13.441821442
 11
14.9489697096
 21
13.441821442
  0
LINE
  5
331
100
AcDbEntity
  8
0
100
AcDbLine
 62
7
  6
CONTINUOUS
 10
14.2858831391
 20
13.4584507962
 11
14.6320562801
 21
13.4584507962
  0
LINE
  5
332
100
AcDbEntity
  8
0
100
AcDbLine
 62
7
  6
CONTINUOUS
 10
10.7449854576
 20
13.4597579458
 11
10.7686542982
 21
13.4597579458
  0
LINE
  5
333
100
AcDbEntity
  8
0
100
AcDbLine
 62
7
  6
CONTINUOUS
 10
11.1933874711
 20
13.4597579458
 11
11.2199854576
 21
13.4597579458
  0
LINE
  5
334
100
AcDbEntity
  8
0
100
AcDbLine
 62
7
  6
CONTINUOUS
 10
11.5529854576
 20
13.4597579458
 11
11.6529854576
 21
13.4597579458
  0
LINE
  5
335
100
AcDbEntity
  8
0
100
AcDbLine
 62
7
  6
CONTINUOUS
 10
14.9489697096
 20
13.4621076747
 11
15.0239697096
 21
13.4621076747
  0
LINE
  5
336
100
AcDbEntity
  8
0
100
AcDbLine
 62
7
  6
CONTINUOUS
 10
14.1689697096
 20
13.4697579458
 11
14.1640090797
 21
13.4697579458
  0
LINE
  5
337
100
AcDbEntity
  8
0
100
AcDbLine
 62
7
  6
CONTINUOUS
 10
15.0239697096
 20
13.4736119243
 11
14.9489697096
 21
13.4736119243
  0
LINE
  5
338
100
AcDbEntity
  8
0
100
AcDbLine
 62
9
  6
CONTINUOUS
 10
10.8546533602
 20
13.4791588252
 11
11.1080110927
 21
13.4791588252
  0
LINE
  5
339
100
AcDbEntity
  8
0
100
AcDbLine
 62
7
  6
CONTINUOUS
 10
15.0239697096
 20
13.4994508918
 11
14.9489697096
 21
13.4994508918
  0
LINE
  5
33A
100
AcDbEntity
  8
0
100
AcDbLine
 62
7
  6
CONTINUOUS
 10
14.9489697096
 20
13.5193333555
 11
15.0239697096
 21
13.5193333555
  0
LINE
  5
33B
100
AcDbEntity
  8
0
100
AcDbLine
 62
7
  6
CONTINUOUS
 10
15.0239697096
 20
13.5294695317
 11
14.9489697096
 21
13.5294695317
  0
LINE
  5
33C
100
AcDbEntity
  8
0
100
AcDbLine
 62
7
  6
CONTINUOUS
 10
15.0239697096
 20
13.5558751738
 11
14.9489697096
 21
13.5558751738
  0
LINE
  5
33D
100
AcDbEntity
  8
0
100
AcDbLine
 62
7
  6
CONTINUOUS
 10
14.9489697096
 20
13.5752993719
 11
15.0239697096
 21
13.5752993719
  0
LINE
  5
33E
100
AcDbEntity
  8
0
100
AcDbLine
 62
7
  6
CONTINUOUS
 10
15.0239697096
 20
13.5840396924
 11
14.9489697096
 21
13.5840396924
  0
LINE
  5
33F
100
AcDbEntity
  8
0
100
AcDbLine
 62
7
  6
CONTINUOUS
 10
11.5099539616
 20
13.6097579458
 11
11.7029854576
 21
13.6097579458
  0
LINE
  5
340
100
AcDbEntity
  8
0
100
AcDbLine
 62
7
  6
CONTINUOUS
 10
15.0239697096
 20
13.6109396329
 11
14.9489697096
 21
13.6109396329
  0
LINE
  5
341
100
AcDbEntity
  8
0
100
AcDbLine
 62
7
  6
CONTINUOUS
 10
14.9489697096
 20
13.6298523252
 11
15.0239697096
 21
13.6298523252
  0
LINE
  5
342
100
AcDbEntity
  8
0
100
AcDbLine
 62
7
  6
CONTINUOUS
 10
15.0239697096
 20
13.6371728332
 11
14.9489697096
 21
13.6371728332
  0
LINE
  5
343
100
AcDbEntity
  8
0
100
AcDbLine
 62
7
  6
CONTINUOUS
 10
15.0239697096
 20
13.6644933413
 11
14.9489697096
 21
13.6644933413
  0
LINE
  5
344
100
AcDbEntity
  8
0
100
AcDbLine
 62
7
  6
CONTINUOUS
 10
14.9489697096
 20
13.6828426893
 11
15.0239697096
 21
13.6828426893
  0
LINE
  5
345
100
AcDbEntity
  8
0
100
AcDbLine
 62
7
  6
CONTINUOUS
 10
15.0239697096
 20
13.68872332
 11
14.9489697096
 21
13.68872332
  0
LINE
  5
346
100
AcDbEntity
  8
0
100
AcDbLine
 62
7
  6
CONTINUOUS
 10
14.6320562801
 20
13.6899032751
 11
14.2858831391
 21
13.6899032751
  0
LINE
  5
347
100
AcDbEntity
  8
0
100
AcDbLine
 62
7
  6
CONTINUOUS
 10
14.2858831391
 20
13.6972579458
 11
14.6320562801
 21
13.6972579458
  0
LINE
  5
348
100
AcDbEntity
  8
0
100
AcDbLine
 62
7
  6
CONTINUOUS
 10
12.2279854576
 20
13.7097579458
 11
12.8279854576
 21
13.7097579458
  0
LINE
  5
349
100
AcDbEntity
  8
0
100
AcDbLine
 62
7
  6
CONTINUOUS
 10
15.0239697096
 20
13.716389512
 11
14.9489697096
 21
13.716389512
  0
LINE
  5
34A
100
AcDbEntity
  8
0
100
AcDbLine
 62
7
  6
CONTINUOUS
 10
14.9489697096
 20
13.7341252215
 11
15.0239697096
 21
13.7341252215
  0
LINE
  5
34B
100
AcDbEntity
  8
0
100
AcDbLine
 62
7
  6
CONTINUOUS
 10
15.0239697096
 20
13.7385498564
 11
14.9489697096
 21
13.7385498564
  0
LINE
  5
34C
100
AcDbEntity
  8
0
100
AcDbLine
 62
7
  6
CONTINUOUS
 10
15.0239697096
 20
13.7664859013
 11
14.9489697096
 21
13.7664859013
  0
LINE
  5
34D
100
AcDbEntity
  8
0
100
AcDbLine
 62
7
  6
CONTINUOUS
 10
14.9489697096
 20
13.7835593599
 11
15.0239697096
 21
13.7835593599
  0
LINE
  5
34E
100
AcDbEntity
  8
0
100
AcDbLine
 62
7
  6
CONTINUOUS
 10
11.8029854576
 20
13.7847579458
 11
11.8529854576
 21
13.7847579458
  0
LINE
  5
34F
100
AcDbEntity
  8
0
100
AcDbLine
 62
7
  6
CONTINUOUS
 10
12.0529854576
 20
13.7847579458
 11
12.1529854576
 21
13.7847579458
  0
LINE
  5
350
100
AcDbEntity
  8
0
100
AcDbLine
 62
7
  6
CONTINUOUS
 10
15.0239697096
 20
13.7865158713
 11
14.9489697096
 21
13.7865158713
  0
LINE
  5
351
100
AcDbEntity
  8
0
100
AcDbLine
 62
7
  6
CONTINUOUS
 10
15.0239697096
 20
13.8146451984
 11
14.9489697096
 21
13.8146451984
  0
LINE
  5
352
100
AcDbEntity
  8
0
100
AcDbLine
 62
7
  6
CONTINUOUS
 10
14.9489697096
 20
13.8310096089
 11
15.0239697096
 21
13.8310096089
  0
LINE
  5
353
100
AcDbEntity
  8
0
100
AcDbLine
 62
7
  6
CONTINUOUS
 10
11.8529854576
 20
13.8597579458
 11
12.0529854576
 21
13.8597579458
  0
LINE
  5
354
100
AcDbEntity
  8
0
100
AcDbLine
 62
7
  6
CONTINUOUS
 10
15.0239697096
 20
13.8607354019
 11
14.9489697096
 21
13.8607354019
  0
LINE
  5
355
100
AcDbEntity
  8
0
100
AcDbLine
 62
7
  6
CONTINUOUS
 10
14.9489697096
 20
13.8763459107
 11
15.0239697096
 21
13.8763459107
  0
LINE
  5
356
100
AcDbEntity
  8
0
100
AcDbLine
 62
9
  6
CONTINUOUS
 10
12.8899300117
 20
13.9034408865
 11
13.2634972687
 21
13.9034408865
  0
LINE
  5
357
100
AcDbEntity
  8
0
100
AcDbLine
 62
9
  6
CONTINUOUS
 10
13.8034972687
 20
13.9034408865
 11
14.1770645256
 21
13.9034408865
  0
LINE
  5
358
100
AcDbEntity
  8
0
100
AcDbLine
 62
7
  6
CONTINUOUS
 10
15.0239697096
 20
13.904630182
 11
14.9489697096
 21
13.904630182
  0
LINE
  5
359
100
AcDbEntity
  8
0
100
AcDbLine
 62
7
  6
CONTINUOUS
 10
14.1580487536
 20
13.9180256623
 11
13.8034972687
 21
13.9180256623
  0
LINE
  5
35A
100
AcDbEntity
  8
0
100
AcDbLine
 62
7
  6
CONTINUOUS
 10
13.2634972687
 20
13.9180256623
 11
12.9089457837
 21
13.9180256623
  0
LINE
  5
35B
100
AcDbEntity
  8
0
100
AcDbLine
 62
7
  6
CONTINUOUS
 10
14.9489697096
 20
13.9194440017
 11
15.0239697096
 21
13.9194440017
  0
LINE
  5
35C
100
AcDbEntity
  8
0
100
AcDbLine
 62
7
  6
CONTINUOUS
 10
15.0239697096
 20
13.9462092259
 11
14.9489697096
 21
13.9462092259
  0
LINE
  5
35D
100
AcDbEntity
  8
0
100
AcDbLine
 62
7
  6
CONTINUOUS
 10
14.9489697096
 20
13.9601857529
 11
15.0239697096
 21
13.9601857529
  0
LINE
  5
35E
100
AcDbEntity
  8
0
100
AcDbLine
 62
7
  6
CONTINUOUS
 10
15.0239697096
 20
13.9853585686
 11
14.9489697096
 21
13.9853585686
  0
LINE
  5
35F
100
AcDbEntity
  8
0
100
AcDbLine
 62
7
  6
CONTINUOUS
 10
14.9489697096
 20
13.9984594941
 11
15.0239697096
 21
13.9984594941
  0
LINE
  5
360
100
AcDbEntity
  8
0
100
AcDbLine
 62
7
  6
CONTINUOUS
 10
15.0239697096
 20
14.0219709042
 11
14.9489697096
 21
14.0219709042
  0
LINE
  5
361
100
AcDbEntity
  8
0
100
AcDbLine
 62
7
  6
CONTINUOUS
 10
14.9489697096
 20
14.0341603196
 11
15.0239697096
 21
14.0341603196
  0
LINE
  5
362
100
AcDbEntity
  8
0
100
AcDbLine
 62
7
  6
CONTINUOUS
 10
12.8959972687
 20
14.0349390918
 11
12.9033519394
 21
14.0349390918
  0
LINE
  5
363
100
AcDbEntity
  8
0
100
AcDbLine
 62
7
  6
CONTINUOUS
 10
13.1348044183
 20
14.0349390918
 11
13.2634972687
 21
14.0349390918
  0
LINE
  5
364
100
AcDbEntity
  8
0
100
AcDbLine
 62
7
  6
CONTINUOUS
 10
13.8034972687
 20
14.0349390918
 11
13.932190119
 21
14.0349390918
  0
LINE
  5
365
100
AcDbEntity
  8
0
100
AcDbLine
 62
7
  6
CONTINUOUS
 10
14.163642598
 20
14.0349390918
 11
14.1709972687
 21
14.0349390918
  0
LINE
  5
366
100
AcDbEntity
  8
0
100
AcDbLine
 62
7
  6
CONTINUOUS
 10
15.0239697096
 20
14.055945881
 11
14.9489697096
 21
14.055945881
  0
LINE
  5
367
100
AcDbEntity
  8
0
100
AcDbLine
 62
7
  6
CONTINUOUS
 10
14.9489697096
 20
14.067190376
 11
15.0239697096
 21
14.067190376
  0
LINE
  5
368
100
AcDbEntity
  8
0
100
AcDbLine
 62
7
  6
CONTINUOUS
 10
15.0239697096
 20
14.087190376
 11
14.9489697096
 21
14.087190376
  0
LINE
  5
369
100
AcDbEntity
  8
0
100
AcDbLine
 62
7
  6
CONTINUOUS
 10
14.9489697096
 20
14.09745913
 11
15.0239697096
 21
14.09745913
  0
LINE
  5
36A
100
AcDbEntity
  8
0
100
AcDbLine
 62
7
  6
CONTINUOUS
 10
15.0239697096
 20
14.11561875
 11
14.9489697096
 21
14.11561875
  0
LINE
  5
36B
100
AcDbEntity
  8
0
100
AcDbLine
 62
7
  6
CONTINUOUS
 10
14.9489697096
 20
14.1248836173
 11
15.0239697096
 21
14.1248836173
  0
LINE
  5
36C
100
AcDbEntity
  8
0
100
AcDbLine
 62
7
  6
CONTINUOUS
 10
15.0239697096
 20
14.141153083
 11
14.9489697096
 21
14.141153083
  0
LINE
  5
36D
100
AcDbEntity
  8
0
100
AcDbLine
 62
7
  6
CONTINUOUS
 10
14.9489697096
 20
14.1493886691
 11
15.0239697096
 21
14.1493886691
  0
LINE
  5
36E
100
AcDbEntity
  8
0
100
AcDbLine
 62
7
  6
CONTINUOUS
 10
15.0239697096
 20
14.1637233871
 11
14.9489697096
 21
14.1637233871
  0
LINE
  5
36F
100
AcDbEntity
  8
0
100
AcDbLine
 62
7
  6
CONTINUOUS
 10
14.9489697096
 20
14.1709071188
 11
15.0239697096
 21
14.1709071188
  0
LINE
  5
370
100
AcDbEntity
  8
0
100
AcDbLine
 62
7
  6
CONTINUOUS
 10
15.0239697096
 20
14.1832677986
 11
14.9489697096
 21
14.1832677986
  0
LINE
  5
371
100
AcDbEntity
  8
0
100
AcDbLine
 62
7
  6
CONTINUOUS
 10
15.2239697096
 20
14.1847579458
 11
15.0239697096
 21
14.1847579458
  0
LINE
  5
372
100
AcDbEntity
  8
0
100
AcDbLine
 62
7
  6
CONTINUOUS
 10
14.9489697096
 20
14.1893799859
 11
15.0239697096
 21
14.1893799859
  0
LINE
  5
373
100
AcDbEntity
  8
0
100
AcDbLine
 62
7
  6
CONTINUOUS
 10
15.0239697096
 20
14.1997327478
 11
14.9489697096
 21
14.1997327478
  0
LINE
  5
374
100
AcDbEntity
  8
0
100
AcDbLine
 62
7
  6
CONTINUOUS
 10
14.9489697096
 20
14.2047566376
 11
15.0239697096
 21
14.2047566376
  0
LINE
  5
375
100
AcDbEntity
  8
0
100
AcDbLine
 62
7
  6
CONTINUOUS
 10
15.0239697096
 20
14.2130731052
 11
14.9489697096
 21
14.2130731052
  0
LINE
  5
376
100
AcDbEntity
  8
0
100
AcDbLine
 62
7
  6
CONTINUOUS
 10
14.9489697096
 20
14.2169949273
 11
15.0239697096
 21
14.2169949273
  0
LINE
  5
377
100
AcDbEntity
  8
0
100
AcDbLine
 62
7
  6
CONTINUOUS
 10
15.0239697096
 20
14.2232523059
 11
14.9489697096
 21
14.2232523059
  0
LINE
  5
378
100
AcDbEntity
  8
0
100
AcDbLine
 62
7
  6
CONTINUOUS
 10
14.9489697096
 20
14.226061311
 11
15.0239697096
 21
14.226061311
  0
LINE
  5
379
100
AcDbEntity
  8
0
100
AcDbLine
 62
7
  6
CONTINUOUS
 10
15.0239697096
 20
14.2302424495
 11
14.9489697096
 21
14.2302424495
  0
LINE
  5
37A
100
AcDbEntity
  8
0
100
AcDbLine
 62
7
  6
CONTINUOUS
 10
15.0239697096
 20
14.2340243764
 11
14.9489697096
 21
14.2340243764
  0
LINE
  5
37B
100
AcDbEntity
  8
0
100
AcDbLine
 62
7
  6
CONTINUOUS
 10
15.3739697096
 20
14.2347579458
 11
15.2739697096
 21
14.2347579458
  0
LWPOLYLINE
  5
37C
100
AcDbEntity
  8
0
100
AcDbPolyline
 62
7
  6
CONTINUOUS
 90
3
 70
0
 10
11.1933874712
 20
13.4597579394
 10
11.1802229062
 20
13.4619863332
 10
11.1652712225
 20
13.4713066372
  0
LINE
  5
37D
100
AcDbEntity
  8
0
100
AcDbLine
 62
7
  6
CONTINUOUS
 10
14.1689697096
 20
12.4897579458
 11
14.2826984733
 21
12.4240966134
  0
LINE
  5
37E
100
AcDbEntity
  8
0
100
AcDbLine
 62
7
  6
CONTINUOUS
 10
12.1529854576
 20
13.7847579458
 11
12.2279854576
 21
13.7097579458
  0
LINE
  5
37F
100
AcDbEntity
  8
0
100
AcDbLine
 62
7
  6
CONTINUOUS
 10
12.9029854576
 20
13.6347579458
 11
12.8279854576
 21
13.7097579458
  0
LINE
  5
380
100
AcDbEntity
  8
0
100
AcDbLine
 62
7
  6
CONTINUOUS
 10
12.9634972687
 20
13.9180256623
 11
12.8959972687
 21
14.0349390918
  0
LINE
  5
381
100
AcDbEntity
  8
0
100
AcDbLine
 62
7
  6
CONTINUOUS
 10
14.3737906746
 20
19.6413843598
 11
14.3258122416
 21
20.0676566435
  0
LINE
  5
382
100
AcDbEntity
  8
0
100
AcDbLine
 62
9
  6
CONTINUOUS
 10
11.1639261396
 20
14.5197024402
 11
11.1496059573
 21
14.5193943112
  0
LINE
  5
383
100
AcDbEntity
  8
0
100
AcDbLine
 62
7
  6
CONTINUOUS
 10
14.1709972687
 20
14.3811122328
 11
14.163642598
 21
14.3811122328
  0
LINE
  5
384
100
AcDbEntity
  8
0
100
AcDbLine
 62
7
  6
CONTINUOUS
 10
13.932190119
 20
14.3811122328
 11
13.8034972687
 21
14.3811122328
  0
LINE
  5
385
100
AcDbEntity
  8
0
100
AcDbLine
 62
7
  6
CONTINUOUS
 10
13.2634972687
 20
14.3811122328
 11
13.1348044183
 21
14.3811122328
  0
LINE
  5
386
100
AcDbEntity
  8
0
100
AcDbLine
 62
7
  6
CONTINUOUS
 10
12.9033519394
 20
14.3811122328
 11
12.8959972687
 21
14.3811122328
  0
LINE
  5
387
100
AcDbEntity
  8
0
100
AcDbLine
 62
7
  6
CONTINUOUS
 10
14.1034940022
 20
14.4980256623
 11
13.8034972687
 21
14.4980256623
  0
LINE
  5
388
100
AcDbEntity
  8
0
100
AcDbLine
 62
7
  6
CONTINUOUS
 10
13.2634972687
 20
14.4980256623
 11
12.9635005352
 21
14.4980256623
  0
LINE
  5
389
100
AcDbEntity
  8
0
100
AcDbLine
 62
7
  6
CONTINUOUS
 10
12.9400006698
 20
14.5030256623
 11
13.2634972687
 21
14.5030256623
  0
LINE
  5
38A
100
AcDbEntity
  8
0
100
AcDbLine
 62
7
  6
CONTINUOUS
 10
13.8034972687
 20
14.5030256623
 11
14.1269938675
 21
14.5030256623
  0
LINE
  5
38B
100
AcDbEntity
  8
0
100
AcDbLine
 62
9
  6
CONTINUOUS
 10
11.1098820961
 20
14.5164361257
 11
10.8194014919
 21
14.5164362352
  0
LINE
  5
38C
100
AcDbEntity
  8
0
100
AcDbLine
 62
7
  6
CONTINUOUS
 10
10.8053496529
 20
14.5597579458
 11
11.1239240874
 21
14.5597579458
  0
LINE
  5
38D
100
AcDbEntity
  8
0
100
AcDbLine
 62
9
  6
CONTINUOUS
 10
14.1269972687
 20
14.6180256623
 11
13.8034972687
 21
14.6180256623
  0
LINE
  5
38E
100
AcDbEntity
  8
0
100
AcDbLine
 62
9
  6
CONTINUOUS
 10
13.2634972687
 20
14.6180256623
 11
12.9399972687
 21
14.6180256623
  0
LINE
  5
38F
100
AcDbEntity
  8
0
100
AcDbLine
 62
9
  6
CONTINUOUS
 10
12.9573187208
 20
14.6452148959
 11
13.2634972687
 21
14.6452148959
  0
LINE
  5
390
100
AcDbEntity
  8
0
100
AcDbLine
 62
9
  6
CONTINUOUS
 10
13.8034972687
 20
14.6452148959
 11
14.1096758165
 21
14.6452148959
  0
LINE
  5
391
100
AcDbEntity
  8
0
100
AcDbLine
 62
9
  6
CONTINUOUS
 10
14.0508664376
 20
14.6726381597
 11
13.8034972687
 21
14.6726381597
  0
LINE
  5
392
100
AcDbEntity
  8
0
100
AcDbLine
 62
9
  6
CONTINUOUS
 10
13.2634972687
 20
14.6726381597
 11
13.0161280997
 21
14.6726381597
  0
LINE
  5
393
100
AcDbEntity
  8
0
100
AcDbLine
 62
9
  6
CONTINUOUS
 10
13.9741249955
 20
14.7659204183
 11
13.8034972687
 21
14.7659204183
  0
LINE
  5
394
100
AcDbEntity
  8
0
100
AcDbLine
 62
9
  6
CONTINUOUS
 10
13.0928695418
 20
14.7659204183
 11
13.2634972687
 21
14.7659204183
  0
LINE
  5
395
100
AcDbEntity
  8
0
100
AcDbLine
 62
9
  6
CONTINUOUS
 10
10.7797096056
 20
14.518117111
 11
10.7653700487
 21
14.5184141705
  0
LINE
  5
396
100
AcDbEntity
  8
0
100
AcDbLine
 62
7
  6
CONTINUOUS
 10
14.7489697096
 20
13.6297579458
 11
14.6352409459
 21
13.6954192781
  0
LINE
  5
397
100
AcDbEntity
  8
0
100
AcDbLine
 62
7
  6
CONTINUOUS
 10
15.2239697096
 20
11.9347579458
 11
15.2739697096
 21
11.8847579458
  0
LINE
  5
398
100
AcDbEntity
  8
0
100
AcDbLine
 62
7
  6
CONTINUOUS
 10
14.1034972687
 20
14.4980256623
 11
14.169158601
 21
14.3842968986
  0
LINE
  5
399
100
AcDbEntity
  8
0
100
AcDbLine
 62
7
  6
CONTINUOUS
 10
13.2532580337
 20
19.7631674464
 11
13.2634972687
 21
19.7341033152
  0
LINE
  5
39A
100
AcDbEntity
  8
0
100
AcDbLine
 62
9
  6
CONTINUOUS
 10
13.9824409306
 20
15.4651348809
 11
13.8034972687
 21
15.4651348809
  0
LINE
  5
39B
100
AcDbEntity
  8
0
100
AcDbLine
 62
9
  6
CONTINUOUS
 10
13.0845536067
 20
15.4651348809
 11
13.2634972687
 21
15.4651348809
  0
LINE
  5
39C
100
AcDbEntity
  8
0
100
AcDbLine
 62
9
  6
CONTINUOUS
 10
13.9654577608
 20
15.5005383254
 11
13.8034972687
 21
15.5005383254
  0
LINE
  5
39D
100
AcDbEntity
  8
0
100
AcDbLine
 62
9
  6
CONTINUOUS
 10
13.1015367766
 20
15.5005383254
 11
13.2634972687
 21
15.5005383254
  0
LINE
  5
39E
100
AcDbEntity
  8
0
100
AcDbLine
 62
9
  6
CONTINUOUS
 10
13.9374445502
 20
15.5605719837
 11
13.8034972687
 21
15.5605719837
  0
LINE
  5
39F
100
AcDbEntity
  8
0
100
AcDbLine
 62
9
  6
CONTINUOUS
 10
13.2634972687
 20
15.5605719837
 11
13.1295499871
 21
15.5605719837
  0
LINE
  5
3A0
100
AcDbEntity
  8
0
100
AcDbLine
 62
7
  6
CONTINUOUS
 10
14.0508664376
 20
14.6726381597
 11
14.1096758165
 21
14.6452148959
  0
LINE
  5
3A1
100
AcDbEntity
  8
0
100
AcDbLine
 62
7
  6
CONTINUOUS
 10
13.2533025601
 20
19.7630627082
 11
13.2528731755
 21
19.7640247557
  0
LINE
  5
3A2
100
AcDbEntity
  8
0
100
AcDbLine
 62
9
  6
CONTINUOUS
 10
13.1313544115
 20
16.1337725959
 11
13.2634972687
 21
16.1337725959
  0
LINE
  5
3A3
100
AcDbEntity
  8
0
100
AcDbLine
 62
9
  6
CONTINUOUS
 10
13.8034972687
 20
16.1337725959
 11
13.9356401258
 21
16.1337725959
  0
LINE
  5
3A4
100
AcDbEntity
  8
0
100
AcDbLine
 62
9
  6
CONTINUOUS
 10
13.9565741917
 20
16.190385911
 11
13.8034972687
 21
16.190385911
  0
LINE
  5
3A5
100
AcDbEntity
  8
0
100
AcDbLine
 62
9
  6
CONTINUOUS
 10
13.1104203456
 20
16.190385911
 11
13.2634972687
 21
16.190385911
  0
LINE
  5
3A6
100
AcDbEntity
  8
0
100
AcDbLine
 62
9
  6
CONTINUOUS
 10
13.9563304622
 20
16.2158178896
 11
13.8034972687
 21
16.2158178896
  0
LINE
  5
3A7
100
AcDbEntity
  8
0
100
AcDbLine
 62
9
  6
CONTINUOUS
 10
13.1106640752
 20
16.2158178896
 11
13.2634972687
 21
16.2158178896
  0
LINE
  5
3A8
100
AcDbEntity
  8
0
100
AcDbLine
 62
9
  6
CONTINUOUS
 10
13.9403725697
 20
16.5631839558
 11
13.8034972687
 21
16.5631666499
  0
LINE
  5
3A9
100
AcDbEntity
  8
0
100
AcDbLine
 62
9
  6
CONTINUOUS
 10
13.2634972687
 20
16.5631664226
 11
13.1266184613
 21
16.5631865704
  0
LINE
  5
3AA
100
AcDbEntity
  8
0
100
AcDbLine
 62
7
  6
CONTINUOUS
 10
13.2297683842
 20
17.9708491283
 11
13.1058371516
 21
18.1616864913
  0
LWPOLYLINE
  5
3AB
100
AcDbEntity
  8
0
100
AcDbPolyline
 62
7
  6
CONTINUOUS
 90
3
 70
0
 10
13.2140860327
 20
19.8338901009
 10
13.2352718378
 20
19.7993247261
 10
13.2528733154
 20
19.7640244331
  0
LINE
  5
3AC
100
AcDbEntity
  8
0
100
AcDbLine
 62
7
  6
CONTINUOUS
 10
13.2315924143
 20
19.8058628178
 11
13.2530476975
 21
19.7636390942
  0
LINE
  5
3AD
100
AcDbEntity
  8
0
100
AcDbLine
 62
9
  6
CONTINUOUS
 10
13.8034972687
 20
17.1080256623
 11
13.2634972687
 21
17.1080256623
  0
LINE
  5
3AE
100
AcDbEntity
  8
0
100
AcDbLine
 62
7
  6
CONTINUOUS
 10
13.2634972687
 20
16.7442949927
 11
13.1613723778
 21
16.8032568259
  0
LINE
  5
3AF
100
AcDbEntity
  8
0
100
AcDbLine
 62
7
  6
CONTINUOUS
 10
13.2028154566
 20
19.8496421195
 11
13.202812294
 21
19.849646306
  0
LINE
  5
3B0
100
AcDbEntity
  8
0
100
AcDbLine
 62
7
  6
CONTINUOUS
 10
13.2028157612
 20
19.8496417107
 11
13.2119170933
 21
19.8370549294
  0
LINE
  5
3B1
100
AcDbEntity
  8
0
100
AcDbLine
 62
7
  6
CONTINUOUS
 10
13.2029749182
 20
19.8494274098
 11
13.2140860327
 21
19.8338901009
  0
LINE
  5
3B2
100
AcDbEntity
  8
0
100
AcDbLine
 62
7
  6
CONTINUOUS
 10
13.2119170933
 20
19.8370549294
 11
13.2315924143
 21
19.8058628178
  0
LINE
  5
3B3
100
AcDbEntity
  8
0
100
AcDbLine
 62
7
  6
CONTINUOUS
 10
12.8721388207
 20
19.0495770153
 11
12.8713551147
 21
19.0494036089
  0
LINE
  5
3B4
100
AcDbEntity
  8
0
100
AcDbLine
 62
7
  6
CONTINUOUS
 10
13.0774984021
 20
18.9903851185
 11
13.0790506026
 21
18.9906901979
  0
LINE
  5
3B5
100
AcDbEntity
  8
0
100
AcDbLine
 62
7
  6
CONTINUOUS
 10
12.8261388207
 20
19.0573680997
 11
12.8269225267
 21
19.05751465
  0
LINE
  5
3B6
100
AcDbEntity
  8
0
100
AcDbLine
 62
7
  6
CONTINUOUS
 10
12.94291827
 20
19.0499783653
 11
12.9398368544
 21
19.0494036089
  0
LINE
  5
3B7
100
AcDbEntity
  8
0
100
AcDbLine
 62
7
  6
CONTINUOUS
 10
13.8700874908
 20
18.9391409239
 11
13.9802337504
 21
18.9585626813
  0
LINE
  5
3B8
100
AcDbEntity
  8
0
100
AcDbLine
 62
7
  6
CONTINUOUS
 10
13.9967607869
 20
18.9858470824
 11
14.0119690837
 21
18.9885287155
  0
LINE
  5
3B9
100
AcDbEntity
  8
0
100
AcDbLine
 62
7
  6
CONTINUOUS
 10
14.0574766109
 20
18.9965529203
 11
14.1552337504
 21
19.0137901416
  0
LINE
  5
3BA
100
AcDbEntity
  8
0
100
AcDbLine
 62
7
  6
CONTINUOUS
 10
14.1717607869
 20
19.0410745427
 11
14.2189972687
 21
19.0494036089
  0
LINE
  5
3BB
100
AcDbEntity
  8
0
100
AcDbLine
 62
7
  6
CONTINUOUS
 10
14.2649972687
 20
19.05751465
 11
14.3502337504
 21
19.0725441415
  0
LINE
  5
3BC
100
AcDbEntity
  8
0
100
AcDbLine
 62
7
  6
CONTINUOUS
 10
13.0330506026
 20
18.9982246019
 11
13.0346028032
 21
18.9984961596
  0
LINE
  5
3BD
100
AcDbEntity
  8
0
100
AcDbLine
 62
9
  6
CONTINUOUS
 10
13.1670479845
 20
17.6808387501
 11
13.2634972687
 21
17.6808605869
  0
LINE
  5
3BE
100
AcDbEntity
  8
0
100
AcDbLine
 62
9
  6
CONTINUOUS
 10
13.8034972687
 20
17.6808629562
 11
13.8999068838
 21
17.6808642032
  0
LINE
  5
3BF
100
AcDbEntity
  8
0
100
AcDbLine
 62
9
  6
CONTINUOUS
 10
13.2297683842
 20
17.9708491283
 11
13.2634972687
 21
17.9708491283
  0
LINE
  5
3C0
100
AcDbEntity
  8
0
100
AcDbLine
 62
9
  6
CONTINUOUS
 10
13.8034972687
 20
17.9708491283
 11
13.8372261531
 21
17.9708491283
  0
LINE
  5
3C1
100
AcDbEntity
  8
0
100
AcDbLine
 62
9
  6
CONTINUOUS
 10
13.9611573857
 20
18.1616864913
 11
13.8034972687
 21
18.1616864913
  0
LINE
  5
3C2
100
AcDbEntity
  8
0
100
AcDbLine
 62
9
  6
CONTINUOUS
 10
13.2634972687
 20
18.1616864913
 11
13.1058371516
 21
18.1616864913
  0
LINE
  5
3C3
100
AcDbEntity
  8
0
100
AcDbLine
 62
7
  6
CONTINUOUS
 10
13.935943484
 20
18.2080256623
 11
13.8034972687
 21
18.2080256623
  0
LINE
  5
3C4
100
AcDbEntity
  8
0
100
AcDbLine
 62
7
  6
CONTINUOUS
 10
13.2634972687
 20
18.2080256623
 11
13.1310510533
 21
18.2080256623
  0
LINE
  5
3C5
100
AcDbEntity
  8
0
100
AcDbLine
 62
9
  6
CONTINUOUS
 10
13.1181402428
 20
18.227662086
 11
13.2634972687
 21
18.227662086
  0
LINE
  5
3C6
100
AcDbEntity
  8
0
100
AcDbLine
 62
9
  6
CONTINUOUS
 10
13.8034972687
 20
18.227662086
 11
13.9488542945
 21
18.227662086
  0
LINE
  5
3C7
100
AcDbEntity
  8
0
100
AcDbLine
 62
7
  6
CONTINUOUS
 10
13.8034972687
 20
17.4717563319
 11
13.9056221595
 21
17.4127944987
  0
LINE
  5
3C8
100
AcDbEntity
  8
0
100
AcDbLine
 62
7
  6
CONTINUOUS
 10
13.1611818398
 20
19.8975023963
 11
13.202812294
 21
19.849646306
  0
LWPOLYLINE
  5
3C9
100
AcDbEntity
  8
0
100
AcDbPolyline
 62
7
  6
CONTINUOUS
 90
7
 70
0
 10
13.9247402464
 20
18.8191037999
 10
13.9149424354
 20
18.8305931415
 10
13.8929938995
 20
18.8733625457
 10
13.8689128921
 20
18.9545802527
 10
13.8446438665
 20
19.0695796854
 10
13.818867061
 20
19.2068850652
 10
13.8034972687
 20
19.298125495
  0
LINE
  5
3CA
100
AcDbEntity
  8
0
100
AcDbLine
 62
9
  6
CONTINUOUS
 10
13.9802337504
 20
18.9585626813
 11
13.8680111149
 21
18.9585626813
  0
LINE
  5
3CB
100
AcDbEntity
  8
0
100
AcDbLine
 62
9
  6
CONTINUOUS
 10
13.1983432358
 20
18.9585626813
 11
13.0867860279
 21
18.9585626813
  0
LINE
  5
3CC
100
AcDbEntity
  8
0
100
AcDbLine
 62
9
  6
CONTINUOUS
 10
13.0785229765
 20
18.9684107588
 11
13.2009685618
 21
18.9684107588
  0
LINE
  5
3CD
100
AcDbEntity
  8
0
100
AcDbLine
 62
9
  6
CONTINUOUS
 10
13.8659330584
 20
18.9684107588
 11
13.9884972687
 21
18.9684107588
  0
LINE
  5
3CE
100
AcDbEntity
  8
0
100
AcDbLine
 62
9
  6
CONTINUOUS
 10
13.9884972687
 20
18.9759990049
 11
13.8643318521
 21
18.9759990049
  0
LINE
  5
3CF
100
AcDbEntity
  8
0
100
AcDbLine
 62
9
  6
CONTINUOUS
 10
13.2029914561
 20
18.9759990049
 11
13.0784972687
 21
18.9759990049
  0
LINE
  5
3D0
100
AcDbEntity
  8
0
100
AcDbLine
 62
9
  6
CONTINUOUS
 10
13.0702337504
 20
18.9858470824
 11
13.2050807902
 21
18.9858470824
  0
LINE
  5
3D1
100
AcDbEntity
  8
0
100
AcDbLine
 62
9
  6
CONTINUOUS
 10
13.8622537956
 20
18.9858470824
 11
13.9967483197
 21
18.9858470824
  0
LINE
  5
3D2
100
AcDbEntity
  8
0
100
AcDbLine
 62
9
  6
CONTINUOUS
 10
14.1552337504
 20
19.0137901416
 11
13.858670997
 21
19.0137901416
  0
LINE
  5
3D3
100
AcDbEntity
  8
0
100
AcDbLine
 62
9
  6
CONTINUOUS
 10
13.210768969
 20
19.0137901416
 11
12.9117762561
 21
19.0137901416
  0
LINE
  5
3D4
100
AcDbEntity
  8
0
100
AcDbLine
 62
9
  6
CONTINUOUS
 10
12.9035129435
 20
19.0236382191
 11
13.2127736752
 21
19.0236382191
  0
LINE
  5
3D5
100
AcDbEntity
  8
0
100
AcDbLine
 62
9
  6
CONTINUOUS
 10
13.8542794356
 20
19.0236382191
 11
14.1634972687
 21
19.0236382191
  0
LINE
  5
3D6
100
AcDbEntity
  8
0
100
AcDbLine
 62
9
  6
CONTINUOUS
 10
14.1634972687
 20
19.0312264652
 11
13.8528372998
 21
19.0312264652
  0
LINE
  5
3D7
100
AcDbEntity
  8
0
100
AcDbLine
 62
9
  6
CONTINUOUS
 10
13.214318363
 20
19.0312264652
 11
12.9034972687
 21
19.0312264652
  0
LINE
  5
3D8
100
AcDbEntity
  8
0
100
AcDbLine
 62
9
  6
CONTINUOUS
 10
12.8952337504
 20
19.0410745427
 11
13.2163230692
 21
19.0410745427
  0
LINE
  5
3D9
100
AcDbEntity
  8
0
100
AcDbLine
 62
9
  6
CONTINUOUS
 10
13.8506109022
 20
19.0410745427
 11
14.1717512353
 21
19.0410745427
  0
LINE
  5
3DA
100
AcDbEntity
  8
0
100
AcDbLine
 62
9
  6
CONTINUOUS
 10
14.3502337504
 20
19.0725441415
 11
13.8439964879
 21
19.0725441415
  0
LINE
  5
3DB
100
AcDbEntity
  8
0
100
AcDbLine
 62
9
  6
CONTINUOUS
 10
13.2227291217
 20
19.0725441415
 11
12.7167720869
 21
19.0725441415
  0
LINE
  5
3DC
100
AcDbEntity
  8
0
100
AcDbLine
 62
9
  6
CONTINUOUS
 10
12.708508683
 20
19.082392219
 11
13.2247338279
 21
19.082392219
  0
LINE
  5
3DD
100
AcDbEntity
  8
0
100
AcDbLine
 62
9
  6
CONTINUOUS
 10
13.8421483547
 20
19.082392219
 11
14.3584972687
 21
19.082392219
  0
LINE
  5
3DE
100
AcDbEntity
  8
0
100
AcDbLine
 62
9
  6
CONTINUOUS
 10
14.3584972687
 20
19.0877579458
 11
13.8411413989
 21
19.0877579458
  0
LINE
  5
3DF
100
AcDbEntity
  8
0
100
AcDbLine
 62
9
  6
CONTINUOUS
 10
13.2258260925
 20
19.0877579458
 11
12.7084972687
 21
19.0877579458
  0
LINE
  5
3E0
100
AcDbEntity
  8
0
100
AcDbLine
 62
7
  6
CONTINUOUS
 10
12.4935676929
 20
19.0997579458
 11
13.2280999893
 21
19.0997579458
  0
LINE
  5
3E1
100
AcDbEntity
  8
0
100
AcDbLine
 62
7
  6
CONTINUOUS
 10
13.8388894265
 20
19.0997579458
 11
14.5734268445
 21
19.0997579458
  0
LINE
  5
3E2
100
AcDbEntity
  8
0
100
AcDbLine
 62
9
  6
CONTINUOUS
 10
14.5734972687
 20
19.1807823535
 11
13.8236840324
 21
19.1807823535
  0
LINE
  5
3E3
100
AcDbEntity
  8
0
100
AcDbLine
 62
9
  6
CONTINUOUS
 10
13.243215503
 20
19.1807823535
 11
12.4934972687
 21
19.1807823535
  0
LINE
  5
3E4
100
AcDbEntity
  8
0
100
AcDbLine
 62
9
  6
CONTINUOUS
 10
14.5612865902
 20
19.2135232634
 11
13.8176360495
 21
19.2135232634
  0
LINE
  5
3E5
100
AcDbEntity
  8
0
100
AcDbLine
 62
9
  6
CONTINUOUS
 10
13.2493234856
 20
19.2135232634
 11
12.5057079471
 21
19.2135232634
  0
LINE
  5
3E6
100
AcDbEntity
  8
0
100
AcDbLine
 62
7
  6
CONTINUOUS
 10
13.1933337011
 20
18.9397710011
 11
13.0867607869
 21
18.9585626813
  0
LINE
  5
3E7
100
AcDbEntity
  8
0
100
AcDbLine
 62
7
  6
CONTINUOUS
 10
13.0702337504
 20
18.9858470824
 11
12.9117607869
 21
19.0137901416
  0
LINE
  5
3E8
100
AcDbEntity
  8
0
100
AcDbLine
 62
7
  6
CONTINUOUS
 10
12.8952337504
 20
19.0410745427
 11
12.8479972687
 21
19.0494036089
  0
LINE
  5
3E9
100
AcDbEntity
  8
0
100
AcDbLine
 62
7
  6
CONTINUOUS
 10
12.8019972687
 20
19.05751465
 11
12.7167607869
 21
19.0725441415
  0
LINE
  5
3EA
100
AcDbEntity
  8
0
100
AcDbLine
 62
7
  6
CONTINUOUS
 10
13.9396634872
 20
18.8096121944
 11
13.9187173546
 21
18.8261665063
  0
LINE
  5
3EB
100
AcDbEntity
  8
0
100
AcDbLine
 62
7
  6
CONTINUOUS
 10
13.1399510357
 20
19.9174288476
 11
13.1399450355
 21
19.917434127
  0
LINE
  5
3EC
100
AcDbEntity
  8
0
100
AcDbLine
 62
7
  6
CONTINUOUS
 10
13.1399534395
 20
19.9174267338
 11
13.162890533
 21
19.8957825472
  0
LINE
  5
3ED
100
AcDbEntity
  8
0
100
AcDbLine
 62
9
  6
CONTINUOUS
 10
12.6932038627
 20
19.6413843598
 11
13.2634972687
 21
19.6413843598
  0
LINE
  5
3EE
100
AcDbEntity
  8
0
100
AcDbLine
 62
9
  6
CONTINUOUS
 10
13.8034972687
 20
19.6413843598
 11
14.3737747046
 21
19.6413843598
  0
LINE
  5
3EF
100
AcDbEntity
  8
0
100
AcDbLine
 62
9
  6
CONTINUOUS
 10
14.3258122416
 20
20.0676566435
 11
14.0439398198
 21
20.0676566435
  0
LINE
  5
3F0
100
AcDbEntity
  8
0
100
AcDbLine
 62
9
  6
CONTINUOUS
 10
13.0230528961
 20
20.0676566435
 11
12.7411822958
 21
20.0676566435
  0
LINE
  5
3F1
100
AcDbEntity
  8
0
100
AcDbLine
 62
7
  6
CONTINUOUS
 10
13.9867220881
 20
18.9978765388
 11
13.9830485937
 21
18.9984961596
  0
LINE
  5
3F2
100
AcDbEntity
  8
0
100
AcDbLine
 62
7
  6
CONTINUOUS
 10
14.127157683
 20
19.0494036089
 11
14.1240762672
 21
19.0499635029
  0
LINE
  5
3F3
100
AcDbEntity
  8
0
100
AcDbLine
 62
7
  6
CONTINUOUS
 10
13.9443955826
 20
18.9903851185
 11
13.9407220881
 21
18.9910566195
  0
LINE
  5
3F4
100
AcDbEntity
  8
0
100
AcDbLine
 62
7
  6
CONTINUOUS
 10
14.0576224812
 20
18.9983980723
 11
14.0571339653
 21
18.9984961596
  0
LINE
  5
3F5
100
AcDbEntity
  8
0
100
AcDbLine
 62
7
  6
CONTINUOUS
 10
14.2400720106
 20
19.05751465
 11
14.2408557166
 21
19.0573542405
  0
LINE
  5
3F6
100
AcDbEntity
  8
0
100
AcDbLine
 62
7
  6
CONTINUOUS
 10
14.1956394226
 20
19.0494036089
 11
14.1948557166
 21
19.049564135
  0
LINE
  5
3F7
100
AcDbEntity
  8
0
100
AcDbLine
 62
7
  6
CONTINUOUS
 10
14.012110997
 20
18.9903851185
 11
14.0116224812
 21
18.990494396
  0
LINE
  5
3F8
100
AcDbEntity
  8
0
100
AcDbLine
 62
9
  6
CONTINUOUS
 10
13.0009753109
 20
20.8129297058
 11
12.9810536772
 21
20.8111652555
  0
LINE
  5
3F9
100
AcDbEntity
  8
0
100
AcDbLine
 62
9
  6
CONTINUOUS
 10
12.9735364518
 20
20.9015552548
 11
12.9934580855
 21
20.9033197051
  0
LINE
  5
3FA
100
AcDbEntity
  8
0
100
AcDbLine
 62
9
  6
CONTINUOUS
 10
12.9934580855
 20
20.9082026583
 11
12.9735364518
 21
20.906438208
  0
LINE
  5
3FB
100
AcDbEntity
  8
0
100
AcDbLine
 62
7
  6
CONTINUOUS
 10
12.9934762544
 20
20.9084105139
 11
12.9735546207
 21
20.9066460636
  0
LINE
  5
3FC
100
AcDbEntity
  8
0
100
AcDbLine
 62
7
  6
CONTINUOUS
 10
13.3477980806
 20
20.7730256623
 11
13.7191934823
 21
20.7730256623
  0
LINE
  5
3FD
100
AcDbEntity
  8
0
100
AcDbLine
 62
9
  6
CONTINUOUS
 10
14.0859408602
 20
20.8111652555
 11
14.0660192264
 21
20.8129297058
  0
LINE
  5
3FE
100
AcDbEntity
  8
0
100
AcDbLine
 62
9
  6
CONTINUOUS
 10
14.0735364518
 20
20.9033197051
 11
14.0934580855
 21
20.9015552548
  0
LINE
  5
3FF
100
AcDbEntity
  8
0
100
AcDbLine
 62
9
  6
CONTINUOUS
 10
14.0934580855
 20
20.906438208
 11
14.0735364518
 21
20.9082026583
  0
LINE
  5
400
100
AcDbEntity
  8
0
100
AcDbLine
 62
7
  6
CONTINUOUS
 10
14.0934399167
 20
20.9066460636
 11
14.0735182829
 21
20.9084105139
  0
ARC
  5
401
100
AcDbEntity
  8
0
100
AcDbCircle
 62
9
  6
CONTINUOUS
 10
-380.3367945419
 20
14.6212782584
 40
391.4864148841
100
AcDbArc
 50
359.8332812072
 51
359.985088858
  0
ARC
  5
402
100
AcDbEntity
  8
0
100
AcDbCircle
 62
9
  6
CONTINUOUS
 10
-212.5261346834
 20
14.4011823903
 40
223.6360464783
100
AcDbArc
 50
359.7637759682
 51
0.029528124
  0
ARC
  5
403
100
AcDbEntity
  8
0
100
AcDbCircle
 62
9
  6
CONTINUOUS
 10
-29.8218684974
 20
12.6157789813
 40
40.9317802336
100
AcDbArc
 50
359.9309490122
 51
0.5521545644
  0
ARC
  5
404
100
AcDbEntity
  8
0
100
AcDbCircle
 62
9
  6
CONTINUOUS
 10
-18.9144986063
 20
12.5908123953
 40
30.064158178
100
AcDbArc
 50
359.8929377662
 51
0.2559980746
  0
ARC
  5
405
100
AcDbEntity
  8
0
100
AcDbCircle
 62
7
  6
CONTINUOUS
 10
7.5616008908
 20
8.9779477311
 40
1.4020396301
100
AcDbArc
 50
101.0111250739
 51
116.1939332303
  0
ARC
  5
406
100
AcDbEntity
  8
0
100
AcDbCircle
 62
7
  6
CONTINUOUS
 10
7.5609535295
 20
8.9798933434
 40
1.3999987061
100
AcDbArc
 50
116.2050583041
 51
167.7275758417
  0
ARC
  5
407
100
AcDbEntity
  8
0
100
AcDbCircle
 62
9
  6
CONTINUOUS
 10
7.6352505257
 20
9.0163807894
 40
1.1302193563
100
AcDbArc
 50
101.4313762069
 51
167.1118475276
  0
ARC
  5
408
100
AcDbEntity
  8
0
100
AcDbCircle
 62
7
  6
CONTINUOUS
 10
7.6352585851
 20
9.0163771695
 40
0.79999589
100
AcDbArc
 50
99.0001199729
 51
159.6674447478
  0
ARC
  5
409
100
AcDbEntity
  8
0
100
AcDbCircle
 62
7
  6
CONTINUOUS
 10
6.9790980238
 20
9.2596232445
 40
0.1001970444
100
AcDbArc
 50
159.721587631
 51
215.9888606936
  0
ARC
  5
40A
100
AcDbEntity
  8
0
100
AcDbCircle
 62
7
  6
CONTINUOUS
 10
6.2908045582
 20
9.2561983746
 40
0.1001546476
100
AcDbArc
 50
167.7320884093
 51
176.7400623386
  0
ARC
  5
40B
100
AcDbEntity
  8
0
100
AcDbCircle
 62
9
  6
CONTINUOUS
 10
6.8013815866
 20
12.6186659272
 40
4.402338395
100
AcDbArc
 50
5.7503883455
 51
6.1788604495
  0
ARC
  5
40C
100
AcDbEntity
  8
0
100
AcDbCircle
 62
9
  6
CONTINUOUS
 10
9.0271129032
 20
11.8678159629
 40
4.2986146253
100
AcDbArc
 50
24.0129951822
 51
25.2638080588
  0
ARC
  5
40D
100
AcDbEntity
  8
0
100
AcDbCircle
 62
9
  6
CONTINUOUS
 10
9.0544224989
 20
11.8857381586
 40
4.2663785007
100
AcDbArc
 50
23.5263952954
 51
23.9423874675
  0
ARC
  5
40E
100
AcDbEntity
  8
0
100
AcDbCircle
 62
9
  6
CONTINUOUS
 10
9.1837620469
 20
13.4871418146
 40
1.9642073703
100
AcDbArc
 50
359.606407588
 51
359.8539782557
  0
ARC
  5
40F
100
AcDbEntity
  8
0
100
AcDbCircle
 62
7
  6
CONTINUOUS
 10
9.6807727699
 20
12.3300063737
 40
1.4831601602
100
AcDbArc
 50
352.0037648245
 51
357.3488061899
  0
ARC
  5
410
100
AcDbEntity
  8
0
100
AcDbCircle
 62
7
  6
CONTINUOUS
 10
9.6850755536
 20
12.3297641588
 40
1.4788507789
100
AcDbArc
 50
357.3504693707
 51
0.1578550992
  0
ARC
  5
411
100
AcDbEntity
  8
0
100
AcDbCircle
 62
7
  6
CONTINUOUS
 10
9.6873099457
 20
12.3294813173
 40
1.4766172596
100
AcDbArc
 50
0.1690691311
 51
7.9862957409
  0
ARC
  5
412
100
AcDbEntity
  8
0
100
AcDbCircle
 62
7
  6
CONTINUOUS
 10
9.6944447808
 20
12.3299275317
 40
1.4694862976
100
AcDbArc
 50
351.9932283558
 51
357.3272133994
  0
ARC
  5
413
100
AcDbEntity
  8
0
100
AcDbCircle
 62
7
  6
CONTINUOUS
 10
9.6962026944
 20
12.3297855759
 40
1.4677236778
100
AcDbArc
 50
357.3295488506
 51
0.1514460204
  0
ARC
  5
414
100
AcDbEntity
  8
0
100
AcDbCircle
 62
9
  6
CONTINUOUS
 10
9.6773222845
 20
12.310398275
 40
1.4466323538
100
AcDbArc
 50
352.0073129126
 51
352.7230178262
  0
ARC
  5
415
100
AcDbEntity
  8
0
100
AcDbCircle
 62
9
  6
CONTINUOUS
 10
9.6836669477
 20
12.3097682741
 40
1.4402590056
100
AcDbArc
 50
352.7159077705
 51
8.0021491137
  0
ARC
  5
416
100
AcDbEntity
  8
0
100
AcDbCircle
 62
9
  6
CONTINUOUS
 10
10.0327387413
 20
12.8584945696
 40
1.1606357384
100
AcDbArc
 50
359.4167028336
 51
0.7192286396
  0
ARC
  5
417
100
AcDbEntity
  8
0
100
AcDbCircle
 62
9
  6
CONTINUOUS
 10
10.085972204
 20
13.483090448
 40
1.022099885
100
AcDbArc
 50
359.4396287133
 51
359.7796044369
  0
ARC
  5
418
100
AcDbEntity
  8
0
100
AcDbCircle
 62
9
  6
CONTINUOUS
 10
10.7010151486
 20
12.9739356266
 40
0.4469562357
100
AcDbArc
 50
0.350144109
 51
0.8422238251
  0
ARC
  5
419
100
AcDbEntity
  8
0
100
AcDbCircle
 62
9
  6
CONTINUOUS
 10
10.8570311908
 20
13.0078413433
 40
0.2510446919
100
AcDbArc
 50
0.5449442504
 51
1.1737483447
  0
ARC
  5
41A
100
AcDbEntity
  8
0
100
AcDbCircle
 62
9
  6
CONTINUOUS
 10
10.9899892188
 20
12.5550850138
 40
0.2488056087
100
AcDbArc
 50
143.0128113261
 51
144.9026873866
  0
ARC
  5
41B
100
AcDbEntity
  8
0
100
AcDbCircle
 62
9
  6
CONTINUOUS
 10
10.8975283297
 20
12.9416520002
 40
0.1540686583
100
AcDbArc
 50
124.0927484871
 51
130.8405410396
  0
ARC
  5
41C
100
AcDbEntity
  8
0
100
AcDbCircle
 62
9
  6
CONTINUOUS
 10
10.8439919116
 20
12.5552846178
 40
0.1540186527
100
AcDbArc
 50
109.6162614944
 51
111.9492151941
  0
ARC
  5
41D
100
AcDbEntity
  8
0
100
AcDbCircle
 62
9
  6
CONTINUOUS
 10
11.125162284
 20
12.5678882547
 40
0.1405230505
100
AcDbArc
 50
75.4600663683
 51
76.8225776528
  0
ARC
  5
41E
100
AcDbEntity
  8
0
100
AcDbCircle
 62
7
  6
CONTINUOUS
 10
10.6699854576
 20
12.6722579458
 40
0.075
100
AcDbArc
 50
0.0
 51
90.0
  0
ARC
  5
41F
100
AcDbEntity
  8
0
100
AcDbCircle
 62
7
  6
CONTINUOUS
 10
10.6699854576
 20
13.4472579458
 40
0.075
100
AcDbArc
 50
270.0
 51
360.0
  0
ARC
  5
420
100
AcDbEntity
  8
0
100
AcDbCircle
 62
7
  6
CONTINUOUS
 10
11.1239261598
 20
14.5197575643
 40
0.0400000179
100
AcDbArc
 50
359.9210405187
 51
90.0
  0
ARC
  5
421
100
AcDbEntity
  8
0
100
AcDbCircle
 62
7
  6
CONTINUOUS
 10
10.8053474992
 20
14.5197575866
 40
0.0400000164
100
AcDbArc
 50
90.0
 51
181.9246629857
  0
ARC
  5
422
100
AcDbEntity
  8
0
100
AcDbCircle
 62
7
  6
CONTINUOUS
 10
10.8193815296
 20
12.1292488004
 40
0.04
100
AcDbArc
 50
187.5729881158
 51
270.0
  0
ARC
  5
423
100
AcDbEntity
  8
0
100
AcDbCircle
 62
7
  6
CONTINUOUS
 10
11.1099018649
 20
12.1292488004
 40
0.04
100
AcDbArc
 50
270.0
 51
352.0077414407
  0
ARC
  5
424
100
AcDbEntity
  8
0
100
AcDbCircle
 62
9
  6
CONTINUOUS
 10
13.2720042432
 20
-12.3015612978
 40
24.2202453433
100
AcDbArc
 50
88.0675691066
 51
88.5629662062
  0
ARC
  5
425
100
AcDbEntity
  8
0
100
AcDbCircle
 62
7
  6
CONTINUOUS
 10
13.5334972687
 20
-2.6499743377
 40
0.27
100
AcDbArc
 50
180.0
 51
360.0
  0
ARC
  5
426
100
AcDbEntity
  8
0
100
AcDbCircle
 62
7
  6
CONTINUOUS
 10
11.7029854576
 20
12.3347579458
 40
0.1
100
AcDbArc
 50
0.0
 51
90.0
  0
ARC
  5
427
100
AcDbEntity
  8
0
100
AcDbCircle
 62
7
  6
CONTINUOUS
 10
11.3999539616
 20
12.6147579458
 40
0.08
100
AcDbArc
 50
0.0
 51
90.0
  0
ARC
  5
428
100
AcDbEntity
  8
0
100
AcDbCircle
 62
7
  6
CONTINUOUS
 10
11.5099539616
 20
12.5397579458
 40
0.03
100
AcDbArc
 50
180.0
 51
270.0
  0
ARC
  5
429
100
AcDbEntity
  8
0
100
AcDbCircle
 62
7
  6
CONTINUOUS
 10
11.2399854576
 20
12.7272579458
 40
0.02
100
AcDbArc
 50
90.0
 51
180.0
  0
ARC
  5
42A
100
AcDbEntity
  8
0
100
AcDbCircle
 62
7
  6
CONTINUOUS
 10
11.3802689222
 20
12.7250729064
 40
0.0196850394
100
AcDbArc
 50
0.0
 51
90.0
  0
ARC
  5
42B
100
AcDbEntity
  8
0
100
AcDbCircle
 62
7
  6
CONTINUOUS
 10
11.7791249236
 20
13.2601848616
 40
2.4827188018
100
AcDbArc
 50
9.2965967709
 51
15.0162737825
  0
ARC
  5
42C
100
AcDbEntity
  8
0
100
AcDbCircle
 62
7
  6
CONTINUOUS
 10
11.7791249236
 20
13.2601848616
 40
2.4827188018
100
AcDbArc
 50
336.7547341089
 51
344.3390810972
  0
ARC
  5
42D
100
AcDbEntity
  8
0
100
AcDbCircle
 62
9
  6
CONTINUOUS
 10
11.8755636688
 20
13.5290616225
 40
1.0221825707
100
AcDbArc
 50
182.7982836712
 51
183.0369600302
  0
ARC
  5
42E
100
AcDbEntity
  8
0
100
AcDbCircle
 62
7
  6
CONTINUOUS
 10
11.7029854576
 20
13.7847579458
 40
0.1
100
AcDbArc
 50
270.0
 51
360.0
  0
ARC
  5
42F
100
AcDbEntity
  8
0
100
AcDbCircle
 62
7
  6
CONTINUOUS
 10
11.3999539616
 20
13.5047579458
 40
0.08
100
AcDbArc
 50
270.0
 51
360.0
  0
ARC
  5
430
100
AcDbEntity
  8
0
100
AcDbCircle
 62
7
  6
CONTINUOUS
 10
11.5099539616
 20
13.5797579458
 40
0.03
100
AcDbArc
 50
90.0
 51
180.0
  0
ARC
  5
431
100
AcDbEntity
  8
0
100
AcDbCircle
 62
7
  6
CONTINUOUS
 10
11.2399854576
 20
13.3922579458
 40
0.02
100
AcDbArc
 50
180.0
 51
270.0
  0
ARC
  5
432
100
AcDbEntity
  8
0
100
AcDbCircle
 62
7
  6
CONTINUOUS
 10
11.3802689222
 20
13.3944429851
 40
0.0196850394
100
AcDbArc
 50
270.0
 51
360.0
  0
ARC
  5
433
100
AcDbEntity
  8
0
100
AcDbCircle
 62
9
  6
CONTINUOUS
 10
12.6837850507
 20
12.8210597061
 40
1.9160965286
100
AcDbArc
 50
175.2278867434
 51
176.2185993008
  0
ARC
  5
434
100
AcDbEntity
  8
0
100
AcDbCircle
 62
7
  6
CONTINUOUS
 10
12.2426960034
 20
12.330057711
 40
1.4773229873
100
AcDbArc
 50
175.9430305124
 51
187.9771419683
  0
ARC
  5
435
100
AcDbEntity
  8
0
100
AcDbCircle
 62
9
  6
CONTINUOUS
 10
12.2510212571
 20
12.3104066208
 40
1.4457026842
100
AcDbArc
 50
187.2282309133
 51
187.9981945145
  0
ARC
  5
436
100
AcDbEntity
  8
0
100
AcDbCircle
 62
9
  6
CONTINUOUS
 10
12.244593073
 20
12.3097696647
 40
1.4392454537
100
AcDbArc
 50
171.9922345363
 51
187.2352737592
  0
ARC
  5
437
100
AcDbEntity
  8
0
100
AcDbCircle
 62
7
  6
CONTINUOUS
 10
12.8529763787
 20
11.9197827464
 40
1.2514281191
100
AcDbArc
 50
279.0137900908
 51
289.2044457875
  0
ARC
  5
438
100
AcDbEntity
  8
0
100
AcDbCircle
 62
7
  6
CONTINUOUS
 10
12.8534878115
 20
11.9184228483
 40
1.25
100
AcDbArc
 50
319.4790737315
 51
359.7503849747
  0
ARC
  5
439
100
AcDbEntity
  8
0
100
AcDbCircle
 62
9
  6
CONTINUOUS
 10
12.8531783404
 20
11.91890922
 40
0.680582767
100
AcDbArc
 50
281.4409571471
 51
307.3242347711
  0
ARC
  5
43A
100
AcDbEntity
  8
0
100
AcDbCircle
 62
7
  6
CONTINUOUS
 10
12.4634899468
 20
11.8684253988
 40
0.5
100
AcDbArc
 50
281.000691627
 51
359.999308373
  0
ARC
  5
43B
100
AcDbEntity
  8
0
100
AcDbCircle
 62
7
  6
CONTINUOUS
 10
12.7132569232
 20
11.9118193266
 40
0.2502375487
100
AcDbArc
 50
0.0190722509
 51
38.1059407734
  0
ARC
  5
43C
100
AcDbEntity
  8
0
100
AcDbCircle
 62
7
  6
CONTINUOUS
 10
12.7448632648
 20
12.2597471209
 40
0.2500001629
100
AcDbArc
 50
21.4774286002
 51
55.7395362425
  0
ARC
  5
43D
100
AcDbEntity
  8
0
100
AcDbCircle
 62
7
  6
CONTINUOUS
 10
13.0084972687
 20
12.1434193631
 40
0.125
100
AcDbArc
 50
90.0
 51
218.124911622
  0
ARC
  5
43E
100
AcDbEntity
  8
0
100
AcDbCircle
 62
7
  6
CONTINUOUS
 10
12.95416656
 20
12.5916907165
 40
0.0511811024
100
AcDbArc
 50
180.0
 51
261.3638693749
  0
ARC
  5
43F
100
AcDbEntity
  8
0
100
AcDbCircle
 62
7
  6
CONTINUOUS
 10
13.0247755159
 20
12.2881044025
 40
0.0196850394
100
AcDbArc
 50
203.2452658911
 51
270.0
  0
ARC
  5
440
100
AcDbEntity
  8
0
100
AcDbCircle
 62
9
  6
CONTINUOUS
 10
12.775241817
 20
13.5489110406
 40
1.9616898794
100
AcDbArc
 50
181.9881716638
 51
182.1621067484
  0
ARC
  5
441
100
AcDbEntity
  8
0
100
AcDbCircle
 62
7
  6
CONTINUOUS
 10
12.6216844739
 20
13.8597836078
 40
0.2500569833
100
AcDbArc
 50
322.5750131973
 51
347.3225496777
  0
ARC
  5
442
100
AcDbEntity
  8
0
100
AcDbCircle
 62
7
  6
CONTINUOUS
 10
12.95416656
 20
13.527825175
 40
0.0511811024
100
AcDbArc
 50
98.6361306251
 51
180.0
  0
ARC
  5
443
100
AcDbEntity
  8
0
100
AcDbCircle
 62
7
  6
CONTINUOUS
 10
12.9089428517
 20
13.8983406229
 40
0.0196850394
100
AcDbArc
 50
90.0
 51
164.9837262175
  0
ARC
  5
444
100
AcDbEntity
  8
0
100
AcDbCircle
 62
7
  6
CONTINUOUS
 10
13.5334972687
 20
9.7134492692
 40
3.9093008025
100
AcDbArc
 50
93.9722188191
 51
98.6361306251
  0
ARC
  5
445
100
AcDbEntity
  8
0
100
AcDbCircle
 62
7
  6
CONTINUOUS
 10
13.5334972687
 20
9.7134492692
 40
3.9093008025
100
AcDbArc
 50
81.3638693749
 51
86.0277837167
  0
ARC
  5
446
100
AcDbEntity
  8
0
100
AcDbCircle
 62
9
  6
CONTINUOUS
 10
14.214678198
 20
12.6525286116
 40
3.4563732692
100
AcDbArc
 50
172.6868048177
 51
173.2337144865
  0
ARC
  5
447
100
AcDbEntity
  8
0
100
AcDbCircle
 62
9
  6
CONTINUOUS
 10
13.1106988122
 20
12.7832962436
 40
2.3446729844
100
AcDbArc
 50
173.3146088166
 51
175.1761693519
  0
ARC
  5
448
100
AcDbEntity
  8
0
100
AcDbCircle
 62
7
  6
CONTINUOUS
 10
14.3537201366
 20
11.9118018698
 40
0.2502347194
100
AcDbArc
 50
141.8902043593
 51
179.7317050573
  0
ARC
  5
449
100
AcDbEntity
  8
0
100
AcDbCircle
 62
7
  6
CONTINUOUS
 10
14.0584972687
 20
12.1434193631
 40
0.125
100
AcDbArc
 50
321.8715656423
 51
90.0
  0
ARC
  5
44A
100
AcDbEntity
  8
0
100
AcDbCircle
 62
7
  6
CONTINUOUS
 10
14.8489697096
 20
11.9597579458
 40
0.1
100
AcDbArc
 50
10.5224581529
 51
90.0
  0
ARC
  5
44B
100
AcDbEntity
  8
0
100
AcDbCircle
 62
7
  6
CONTINUOUS
 10
14.7489697096
 20
12.1097579458
 40
0.1
100
AcDbArc
 50
0.0
 51
90.0
  0
ARC
  5
44C
100
AcDbEntity
  8
0
100
AcDbCircle
 62
7
  6
CONTINUOUS
 10
14.7489697096
 20
14.0097579458
 40
0.1
100
AcDbArc
 50
270.0
 51
360.0
  0
ARC
  5
44D
100
AcDbEntity
  8
0
100
AcDbCircle
 62
7
  6
CONTINUOUS
 10
14.1128279773
 20
13.527825175
 40
0.0511811024
100
AcDbArc
 50
0.0
 51
81.3638693749
  0
ARC
  5
44E
100
AcDbEntity
  8
0
100
AcDbCircle
 62
7
  6
CONTINUOUS
 10
14.1128279773
 20
12.5916907165
 40
0.0511811024
100
AcDbArc
 50
278.6361306251
 51
360.0
  0
ARC
  5
44F
100
AcDbEntity
  8
0
100
AcDbCircle
 62
7
  6
CONTINUOUS
 10
14.1580516856
 20
13.8983406229
 40
0.0196850394
100
AcDbArc
 50
15.0162737825
 51
90.0
  0
ARC
  5
450
100
AcDbEntity
  8
0
100
AcDbCircle
 62
7
  6
CONTINUOUS
 10
14.0422190214
 20
12.2881044025
 40
0.0196850394
100
AcDbArc
 50
270.0
 51
336.7547341089
  0
ARC
  5
451
100
AcDbEntity
  8
0
100
AcDbCircle
 62
7
  6
CONTINUOUS
 10
12.0392102222
 20
14.5911290736
 40
4.5310526434
100
AcDbArc
 50
80.0126059352
 51
80.1612984979
  0
ARC
  5
452
100
AcDbEntity
  8
0
100
AcDbCircle
 62
7
  6
CONTINUOUS
 10
12.1434669735
 20
15.1829116903
 40
3.9301556628
100
AcDbArc
 50
79.7178753018
 51
79.8428517929
  0
ARC
  5
453
100
AcDbEntity
  8
0
100
AcDbCircle
 62
7
  6
CONTINUOUS
 10
11.7434972687
 20
15.0995286744
 40
1.39
100
AcDbArc
 50
346.1131090765
 51
15.2496931708
  0
ARC
  5
454
100
AcDbEntity
  8
0
100
AcDbCircle
 62
7
  6
CONTINUOUS
 10
12.9784972687
 20
15.8441563826
 40
1.0
100
AcDbArc
 50
343.5257501351
 51
16.8349806732
  0
ARC
  5
455
100
AcDbEntity
  8
0
100
AcDbCircle
 62
7
  6
CONTINUOUS
 10
13.0010016587
 20
16.3949053281
 40
0.2099956099
100
AcDbArc
 50
301.4808058443
 51
53.250856315
  0
ARC
  5
456
100
AcDbEntity
  8
0
100
AcDbCircle
 62
7
  6
CONTINUOUS
 10
12.9569615431
 20
14.7995212499
 40
0.14
100
AcDbArc
 50
295.0
 51
346.1131090765
  0
ARC
  5
457
100
AcDbEntity
  8
0
100
AcDbCircle
 62
7
  6
CONTINUOUS
 10
13.0834972687
 20
16.1482534066
 40
0.05
100
AcDbArc
 50
343.1650193268
 51
57.4210296069
  0
ARC
  5
458
100
AcDbEntity
  8
0
100
AcDbCircle
 62
7
  6
CONTINUOUS
 10
13.0816026231
 20
15.5463927638
 40
0.05
100
AcDbArc
 50
293.4958766063
 51
16.4742498649
  0
ARC
  5
459
100
AcDbEntity
  8
0
100
AcDbCircle
 62
7
  6
CONTINUOUS
 10
13.1134972687
 20
15.4730256623
 40
0.03
100
AcDbArc
 50
113.4958766065
 51
195.2496931702
  0
ARC
  5
45A
100
AcDbEntity
  8
0
100
AcDbCircle
 62
7
  6
CONTINUOUS
 10
12.9699972687
 20
14.6180256623
 40
0.03
100
AcDbArc
 50
115.0
 51
180.0
  0
ARC
  5
45B
100
AcDbEntity
  8
0
100
AcDbCircle
 62
7
  6
CONTINUOUS
 10
13.1184972687
 20
16.2030256623
 40
0.015
100
AcDbArc
 50
121.4808058442
 51
237.421029607
  0
ARC
  5
45C
100
AcDbEntity
  8
0
100
AcDbCircle
 62
7
  6
CONTINUOUS
 10
13.5334952294
 20
17.1080233156
 40
0.6799977713
100
AcDbArc
 50
306.7493995836
 51
57.3950422926
  0
ARC
  5
45D
100
AcDbEntity
  8
0
100
AcDbCircle
 62
7
  6
CONTINUOUS
 10
13.533492956
 20
17.1080293729
 40
0.6799916359
100
AcDbArc
 50
122.6047642146
 51
233.2513443263
  0
ARC
  5
45E
100
AcDbEntity
  8
0
100
AcDbCircle
 62
9
  6
CONTINUOUS
 10
13.3923317694
 20
18.766666611
 40
0.285782486
100
AcDbArc
 50
187.7138949815
 51
191.6677487078
  0
ARC
  5
45F
100
AcDbEntity
  8
0
100
AcDbCircle
 62
7
  6
CONTINUOUS
 10
13.0544288796
 20
17.8569823226
 40
0.2090683891
100
AcDbArc
 50
302.6049200261
 51
32.9999999999
  0
ARC
  5
460
100
AcDbEntity
  8
0
100
AcDbCircle
 62
7
  6
CONTINUOUS
 10
13.1309972687
 20
18.1780256623
 40
0.03
100
AcDbArc
 50
90.0
 51
212.9999999993
  0
ARC
  5
461
100
AcDbEntity
  8
0
100
AcDbCircle
 62
7
  6
CONTINUOUS
 10
13.1381369378
 20
18.2280256623
 40
0.02
100
AcDbArc
 50
181.041626676
 51
270.0
  0
ARC
  5
462
100
AcDbEntity
  8
0
100
AcDbCircle
 62
7
  6
CONTINUOUS
 10
14.9838816691
 20
14.8423284317
 40
4.2760458896
100
AcDbArc
 50
99.8343329046
 51
99.9916017438
  0
ARC
  5
463
100
AcDbEntity
  8
0
100
AcDbCircle
 62
7
  6
CONTINUOUS
 10
13.5334972687
 20
16.4060666223
 40
3.9093008025
100
AcDbArc
 50
261.3638693749
 51
266.0277811809
  0
ARC
  5
464
100
AcDbEntity
  8
0
100
AcDbCircle
 62
7
  6
CONTINUOUS
 10
13.5334972687
 20
16.4060666223
 40
3.9093008025
100
AcDbArc
 50
273.9722162833
 51
278.6361306251
  0
ARC
  5
465
100
AcDbEntity
  8
0
100
AcDbCircle
 62
7
  6
CONTINUOUS
 10
15.3234972687
 20
15.0995286744
 40
1.39
100
AcDbArc
 50
164.7503068292
 51
193.8868909235
  0
ARC
  5
466
100
AcDbEntity
  8
0
100
AcDbCircle
 62
7
  6
CONTINUOUS
 10
14.0884972687
 20
15.8441563826
 40
1.0
100
AcDbArc
 50
163.1650193268
 51
196.4742498649
  0
ARC
  5
467
100
AcDbEntity
  8
0
100
AcDbCircle
 62
7
  6
CONTINUOUS
 10
14.0659928786
 20
16.3949053281
 40
0.2099956099
100
AcDbArc
 50
126.749143685
 51
238.5191941557
  0
ARC
  5
468
100
AcDbEntity
  8
0
100
AcDbCircle
 62
7
  6
CONTINUOUS
 10
14.1100329943
 20
14.7995212499
 40
0.14
100
AcDbArc
 50
193.8868909235
 51
245.0
  0
ARC
  5
469
100
AcDbEntity
  8
0
100
AcDbCircle
 62
7
  6
CONTINUOUS
 10
14.8489697096
 20
14.1597579458
 40
0.1
100
AcDbArc
 50
270.0
 51
347.6288652562
  0
ARC
  5
46A
100
AcDbEntity
  8
0
100
AcDbCircle
 62
7
  6
CONTINUOUS
 10
13.9834972687
 20
16.1482534066
 40
0.05
100
AcDbArc
 50
122.5789703931
 51
196.8349806732
  0
ARC
  5
46B
100
AcDbEntity
  8
0
100
AcDbCircle
 62
7
  6
CONTINUOUS
 10
13.9853919143
 20
15.5463927638
 40
0.05
100
AcDbArc
 50
163.5257501351
 51
246.5041233937
  0
ARC
  5
46C
100
AcDbEntity
  8
0
100
AcDbCircle
 62
7
  6
CONTINUOUS
 10
13.9534972687
 20
15.4730256623
 40
0.03
100
AcDbArc
 50
344.7503068298
 51
66.5041233935
  0
ARC
  5
46D
100
AcDbEntity
  8
0
100
AcDbCircle
 62
7
  6
CONTINUOUS
 10
14.0969972687
 20
14.6180256623
 40
0.03
100
AcDbArc
 50
0.0
 51
65.0
  0
ARC
  5
46E
100
AcDbEntity
  8
0
100
AcDbCircle
 62
7
  6
CONTINUOUS
 10
13.9484972687
 20
16.2030256623
 40
0.015
100
AcDbArc
 50
302.578970393
 51
58.5191941558
  0
ARC
  5
46F
100
AcDbEntity
  8
0
100
AcDbCircle
 62
7
  6
CONTINUOUS
 10
13.5334972687
 20
17.1080256623
 40
0.5172452508
100
AcDbArc
 50
121.5123473494
 51
238.5471831359
  0
ARC
  5
470
100
AcDbEntity
  8
0
100
AcDbCircle
 62
7
  6
CONTINUOUS
 10
13.5334972687
 20
17.1080256623
 40
0.5172452508
100
AcDbArc
 50
301.5722587803
 51
58.5382233702
  0
ARC
  5
471
100
AcDbEntity
  8
0
100
AcDbCircle
 62
7
  6
CONTINUOUS
 10
13.5334972687
 20
17.1080256623
 40
0.5
100
AcDbArc
 50
303.0595487442
 51
56.9404512558
  0
ARC
  5
472
100
AcDbEntity
  8
0
100
AcDbCircle
 62
7
  6
CONTINUOUS
 10
13.5334972687
 20
17.1080256623
 40
0.5
100
AcDbArc
 50
123.0595487442
 51
236.9404512558
  0
ARC
  5
473
100
AcDbEntity
  8
0
100
AcDbCircle
 62
7
  6
CONTINUOUS
 10
13.5334972687
 20
17.1080256623
 40
0.481
100
AcDbArc
 50
140.6826645581
 51
159.3173354419
  0
ARC
  5
474
100
AcDbEntity
  8
0
100
AcDbCircle
 62
7
  6
CONTINUOUS
 10
13.5334972687
 20
17.1080256623
 40
0.481
100
AcDbArc
 50
200.6826645581
 51
219.317335442
  0
ARC
  5
475
100
AcDbEntity
  8
0
100
AcDbCircle
 62
7
  6
CONTINUOUS
 10
13.5334972687
 20
17.1080256623
 40
0.481
100
AcDbArc
 50
320.6826645581
 51
339.3173354419
  0
ARC
  5
476
100
AcDbEntity
  8
0
100
AcDbCircle
 62
7
  6
CONTINUOUS
 10
13.5334972687
 20
17.1080256623
 40
0.481
100
AcDbArc
 50
20.6826645581
 51
39.317335442
  0
ARC
  5
477
100
AcDbEntity
  8
0
100
AcDbCircle
 62
7
  6
CONTINUOUS
 10
13.5334972687
 20
17.1080256623
 40
0.4165551275
100
AcDbArc
 50
310.9199922387
 51
49.0943347758
  0
ARC
  5
478
100
AcDbEntity
  8
0
100
AcDbCircle
 62
7
  6
CONTINUOUS
 10
13.5334972687
 20
17.1080256623
 40
0.4165551275
100
AcDbArc
 50
130.9199922388
 51
229.0943347759
  0
ARC
  5
479
100
AcDbEntity
  8
0
100
AcDbCircle
 62
7
  6
CONTINUOUS
 10
13.5334972687
 20
17.1080256623
 40
0.3
100
AcDbArc
 50
335.5552320955
 51
24.4970793227
  0
ARC
  5
47A
100
AcDbEntity
  8
0
100
AcDbCircle
 62
7
  6
CONTINUOUS
 10
13.5334972687
 20
17.1080256623
 40
0.3
100
AcDbArc
 50
155.5552320955
 51
204.4970793227
  0
ARC
  5
47B
100
AcDbEntity
  8
0
100
AcDbCircle
 62
7
  6
CONTINUOUS
 10
14.0125656577
 20
17.8569823226
 40
0.2090683891
100
AcDbArc
 50
147.0000000001
 51
237.3950799739
  0
ARC
  5
47C
100
AcDbEntity
  8
0
100
AcDbCircle
 62
7
  6
CONTINUOUS
 10
13.9359972687
 20
18.1780256623
 40
0.03
100
AcDbArc
 50
327.0000000007
 51
90.0
  0
ARC
  5
47D
100
AcDbEntity
  8
0
100
AcDbCircle
 62
7
  6
CONTINUOUS
 10
13.9288575995
 20
18.2280256623
 40
0.02
100
AcDbArc
 50
270.0
 51
358.958373324
  0
ARC
  5
47E
100
AcDbEntity
  8
0
100
AcDbCircle
 62
9
  6
CONTINUOUS
 10
52.2275574325
 20
9.5004440823
 40
41.5215097701
100
AcDbArc
 50
175.2008799276
 51
175.7653468199
  0
ARC
  5
47F
100
AcDbEntity
  8
0
100
AcDbCircle
 62
9
  6
CONTINUOUS
 10
12.7055346887
 20
19.5444555532
 40
0.6369202465
100
AcDbArc
 50
28.7646472103
 51
30.2757690482
  0
ARC
  5
480
100
AcDbEntity
  8
0
100
AcDbCircle
 62
7
  6
CONTINUOUS
 10
12.5434972687
 20
19.1807823535
 40
0.05
100
AcDbArc
 50
139.0941338576
 51
180.0
  0
ARC
  5
481
100
AcDbEntity
  8
0
100
AcDbCircle
 62
7
  6
CONTINUOUS
 10
12.6984972687
 20
19.0877579458
 40
0.01
100
AcDbArc
 50
0.0
 51
90.0
  0
ARC
  5
482
100
AcDbEntity
  8
0
100
AcDbCircle
 62
7
  6
CONTINUOUS
 10
12.7184972687
 20
19.082392219
 40
0.01
100
AcDbArc
 50
180.0
 51
260.0000000007
  0
ARC
  5
483
100
AcDbEntity
  8
0
100
AcDbCircle
 62
7
  6
CONTINUOUS
 10
11.9101482399
 20
19.7295200028
 40
0.788
100
AcDbArc
 50
319.0941338575
 51
353.5781868592
  0
ARC
  5
484
100
AcDbEntity
  8
0
100
AcDbCircle
 62
7
  6
CONTINUOUS
 10
12.7980359062
 20
19.5585758578
 40
0.4991063632
100
AcDbArc
 50
28.3295916236
 51
33.9036127988
  0
ARC
  5
485
100
AcDbEntity
  8
0
100
AcDbCircle
 62
7
  6
CONTINUOUS
 10
12.8082580413
 20
19.5638564479
 40
0.4875679355
100
AcDbArc
 50
24.2375504129
 51
28.3834419656
  0
ARC
  5
486
100
AcDbEntity
  8
0
100
AcDbCircle
 62
7
  6
CONTINUOUS
 10
12.8098206311
 20
19.5648909406
 40
0.4857362903
100
AcDbArc
 50
24.1520173437
 51
28.333556965
  0
ARC
  5
487
100
AcDbEntity
  8
0
100
AcDbCircle
 62
7
  6
CONTINUOUS
 10
12.821906019
 20
19.5620655458
 40
0.477136225
100
AcDbArc
 50
35.1559412646
 51
37.0518411523
  0
ARC
  5
488
100
AcDbEntity
  8
0
100
AcDbCircle
 62
7
  6
CONTINUOUS
 10
12.8196571412
 20
19.5690002178
 40
0.4750619528
100
AcDbArc
 50
22.061489644
 51
24.109194823
  0
ARC
  5
489
100
AcDbEntity
  8
0
100
AcDbCircle
 62
7
  6
CONTINUOUS
 10
12.8237385249
 20
19.5633258207
 40
0.47491232
100
AcDbArc
 50
31.8871643094
 51
35.1589306439
  0
ARC
  5
48A
100
AcDbEntity
  8
0
100
AcDbCircle
 62
7
  6
CONTINUOUS
 10
12.8224366767
 20
19.5701811031
 40
0.4720423918
100
AcDbArc
 50
20.0929893148
 51
24.0782681527
  0
ARC
  5
48B
100
AcDbEntity
  8
0
100
AcDbCircle
 62
7
  6
CONTINUOUS
 10
12.8277241816
 20
19.5657942828
 40
0.4702241782
100
AcDbArc
 50
29.280611731
 51
31.8883180984
  0
ARC
  5
48C
100
AcDbEntity
  8
0
100
AcDbCircle
 62
7
  6
CONTINUOUS
 10
12.8371434553
 20
19.5709536974
 40
0.4594849677
100
AcDbArc
 50
24.8797139228
 51
29.2939075667
  0
ARC
  5
48D
100
AcDbEntity
  8
0
100
AcDbCircle
 62
7
  6
CONTINUOUS
 10
12.8424826703
 20
19.5735671753
 40
0.4535417578
100
AcDbArc
 50
20.3612240307
 51
24.8639678091
  0
ARC
  5
48E
100
AcDbEntity
  8
0
100
AcDbCircle
 62
9
  6
CONTINUOUS
 10
12.7785693388
 20
18.9689987793
 40
0.4409089206
100
AcDbArc
 50
336.8229312123
 51
338.8027025528
  0
ARC
  5
48F
100
AcDbEntity
  8
0
100
AcDbCircle
 62
7
  6
CONTINUOUS
 10
13.0684972687
 20
18.9759990049
 40
0.01
100
AcDbArc
 50
0.0
 51
79.9999999997
  0
ARC
  5
490
100
AcDbEntity
  8
0
100
AcDbCircle
 62
7
  6
CONTINUOUS
 10
13.0884972687
 20
18.9684107588
 40
0.01
100
AcDbArc
 50
180.0
 51
259.9999999997
  0
ARC
  5
491
100
AcDbEntity
  8
0
100
AcDbCircle
 62
7
  6
CONTINUOUS
 10
12.9134972687
 20
19.0236382191
 40
0.01
100
AcDbArc
 50
180.0
 51
259.9999999997
  0
ARC
  5
492
100
AcDbEntity
  8
0
100
AcDbCircle
 62
7
  6
CONTINUOUS
 10
12.8934972687
 20
19.0312264652
 40
0.01
100
AcDbArc
 50
0.0
 51
79.9999999997
  0
ARC
  5
493
100
AcDbEntity
  8
0
100
AcDbCircle
 62
7
  6
CONTINUOUS
 10
13.5043634104
 20
19.9817579458
 40
0.768
100
AcDbArc
 50
139.3333712227
 51
173.5781868591
  0
ARC
  5
494
100
AcDbEntity
  8
0
100
AcDbCircle
 62
7
  6
CONTINUOUS
 10
13.5327373041
 20
20.3635696961
 40
0.5944052161
100
AcDbArc
 50
228.2555818938
 51
228.6385471534
  0
ARC
  5
495
100
AcDbEntity
  8
0
100
AcDbCircle
 62
7
  6
CONTINUOUS
 10
13.5316788344
 20
20.3628904977
 40
0.5931866134
100
AcDbArc
 50
185.0934830459
 51
228.2881835969
  0
ARC
  5
496
100
AcDbEntity
  8
0
100
AcDbCircle
 62
9
  6
CONTINUOUS
 10
13.4242465215
 20
20.3797016052
 40
0.5410931058
100
AcDbArc
 50
251.8381194132
 51
252.6962797546
  0
ARC
  5
497
100
AcDbEntity
  8
0
100
AcDbCircle
 62
7
  6
CONTINUOUS
 10
13.5334972687
 20
20.3997579458
 40
0.54
100
AcDbArc
 50
35.7111617546
 51
144.3574311451
  0
ARC
  5
498
100
AcDbEntity
  8
0
100
AcDbCircle
 62
9
  6
CONTINUOUS
 10
13.5317959394
 20
20.3570208926
 40
0.5083142278
100
AcDbArc
 50
185.1002521625
 51
237.7914438727
  0
ARC
  5
499
100
AcDbEntity
  8
0
100
AcDbCircle
 62
9
  6
CONTINUOUS
 10
13.5320570039
 20
20.3571051897
 40
0.4885885679
100
AcDbArc
 50
185.1089650487
 51
236.3611559165
  0
ARC
  5
49A
100
AcDbEntity
  8
0
100
AcDbCircle
 62
7
  6
CONTINUOUS
 10
13.5334972687
 20
20.3997579458
 40
0.45
100
AcDbArc
 50
19.7362337178
 51
160.2637662822
  0
ARC
  5
49B
100
AcDbEntity
  8
0
100
AcDbCircle
 62
7
  6
CONTINUOUS
 10
13.5334972687
 20
20.3980256623
 40
0.45
100
AcDbArc
 50
307.2240652511
 51
232.7816773979
  0
ARC
  5
49C
100
AcDbEntity
  8
0
100
AcDbCircle
 62
7
  6
CONTINUOUS
 10
13.5334972687
 20
20.3980256623
 40
0.4290186125
100
AcDbArc
 50
309.4716690467
 51
230.5345767392
  0
ARC
  5
49D
100
AcDbEntity
  8
0
100
AcDbCircle
 62
7
  6
CONTINUOUS
 10
13.5334972687
 20
20.3980256623
 40
0.4262436548
100
AcDbArc
 50
309.7787508711
 51
230.2132620092
  0
ARC
  5
49E
100
AcDbEntity
  8
0
100
AcDbCircle
 62
7
  6
CONTINUOUS
 10
13.5334972687
 20
20.3980256623
 40
0.4184602369
100
AcDbArc
 50
63.6555586134
 51
116.3444413866
  0
ARC
  5
49F
100
AcDbEntity
  8
0
100
AcDbCircle
 62
9
  6
CONTINUOUS
 10
13.5334972687
 20
20.3980256623
 40
0.4106539279
100
AcDbArc
 50
114.0520586402
 51
228.8046021794
  0
ARC
  5
4A0
100
AcDbEntity
  8
0
100
AcDbCircle
 62
9
  6
CONTINUOUS
 10
13.5334972687
 20
20.3980256623
 40
0.4106539279
100
AcDbArc
 50
311.1953908491
 51
65.9483211179
  0
ARC
  5
4A1
100
AcDbEntity
  8
0
100
AcDbCircle
 62
9
  6
CONTINUOUS
 10
13.5334972687
 20
20.3980256623
 40
0.3906653701
100
AcDbArc
 50
314.2019388065
 51
73.7195078379
  0
ARC
  5
4A2
100
AcDbEntity
  8
0
100
AcDbCircle
 62
9
  6
CONTINUOUS
 10
13.5334972687
 20
20.3980256623
 40
0.3906653701
100
AcDbArc
 50
106.2804921621
 51
225.7982183496
  0
ARC
  5
4A3
100
AcDbEntity
  8
0
100
AcDbCircle
 62
7
  6
CONTINUOUS
 10
13.5334972687
 20
20.3980256623
 40
0.27
100
AcDbArc
 50
0.0
 51
180.0
  0
ARC
  5
4A4
100
AcDbEntity
  8
0
100
AcDbCircle
 62
7
  6
CONTINUOUS
 10
13.5626311269
 20
19.9817579458
 40
0.768
100
AcDbArc
 50
6.4218131409
 51
40.6666287675
  0
ARC
  5
4A5
100
AcDbEntity
  8
0
100
AcDbCircle
 62
7
  6
CONTINUOUS
 10
13.5342547686
 20
20.3635723933
 40
0.5944088588
100
AcDbArc
 50
311.3614521545
 51
311.7444232086
  0
ARC
  5
4A6
100
AcDbEntity
  8
0
100
AcDbCircle
 62
7
  6
CONTINUOUS
 10
13.5352328711
 20
20.3629328326
 40
0.5932769295
100
AcDbArc
 50
311.7150685438
 51
354.9031548094
  0
ARC
  5
4A7
100
AcDbEntity
  8
0
100
AcDbCircle
 62
9
  6
CONTINUOUS
 10
13.6427536082
 20
20.3796858677
 40
0.5410764093
100
AcDbArc
 50
287.3037908966
 51
288.1618373801
  0
ARC
  5
4A8
100
AcDbEntity
  8
0
100
AcDbCircle
 62
9
  6
CONTINUOUS
 10
13.5352042712
 20
20.3570178309
 40
0.5083079749
100
AcDbArc
 50
302.2085301478
 51
354.9000347335
  0
ARC
  5
4A9
100
AcDbEntity
  8
0
100
AcDbCircle
 62
9
  6
CONTINUOUS
 10
13.5349437557
 20
20.3571014295
 40
0.4885815728
100
AcDbArc
 50
303.6385357308
 51
354.8914091849
  0
ARC
  5
4AA
100
AcDbEntity
  8
0
100
AcDbCircle
 62
9
  6
CONTINUOUS
 10
0.9152239489
 20
21.9837788327
 40
13.2028142495
100
AcDbArc
 50
354.9122243463
 51
355.0549952705
  0
ARC
  5
4AB
100
AcDbEntity
  8
0
100
AcDbCircle
 62
9
  6
CONTINUOUS
 10
12.8781584801
 20
21.9714700106
 40
1.1648581658
100
AcDbArc
 50
273.4695299525
 51
275.0677022161
  0
ARC
  5
4AC
100
AcDbEntity
  8
0
100
AcDbCircle
 62
9
  6
CONTINUOUS
 10
13.4557273776
 20
20.5323298545
 40
0.6956990605
100
AcDbArc
 50
248.5339725681
 51
249.6682549929
  0
ARC
  5
4AD
100
AcDbEntity
  8
0
100
AcDbCircle
 62
7
  6
CONTINUOUS
 10
13.0009753437
 20
20.8237420079
 40
0.0849999543
100
AcDbArc
 50
5.107164715
 51
95.0614793737
  0
ARC
  5
4AE
100
AcDbEntity
  8
0
100
AcDbCircle
 62
7
  6
CONTINUOUS
 10
12.9810448097
 20
20.8219799288
 40
0.0849911326
100
AcDbArc
 50
95.0644465066
 51
180.0016313596
  0
ARC
  5
4AF
100
AcDbEntity
  8
0
100
AcDbCircle
 62
9
  6
CONTINUOUS
 10
13.0010536481
 20
20.8187123973
 40
0.084940704
100
AcDbArc
 50
5.1646329295
 51
95.1299370546
  0
ARC
  5
4B0
100
AcDbEntity
  8
0
100
AcDbCircle
 62
7
  6
CONTINUOUS
 10
12.9809104248
 20
20.817009831
 40
0.0848587779
100
AcDbArc
 50
94.9846702855
 51
179.9427934305
  0
ARC
  5
4B1
100
AcDbEntity
  8
0
100
AcDbCircle
 62
9
  6
CONTINUOUS
 10
13.0012493713
 20
20.8237078972
 40
0.0847284158
100
AcDbArc
 50
5.1007487092
 51
95.0703170005
  0
ARC
  5
4B2
100
AcDbEntity
  8
0
100
AcDbCircle
 62
9
  6
CONTINUOUS
 10
12.9806704452
 20
20.8219921525
 40
0.0846115284
100
AcDbArc
 50
95.0470330977
 51
180.0099196875
  0
ARC
  5
4B3
100
AcDbEntity
  8
0
100
AcDbCircle
 62
7
  6
CONTINUOUS
 10
15.1568462975
 20
19.7295200028
 40
0.788
100
AcDbArc
 50
186.4218131409
 51
220.9058661425
  0
ARC
  5
4B4
100
AcDbEntity
  8
0
100
AcDbCircle
 62
9
  6
CONTINUOUS
 10
14.3611816994
 20
19.5446231132
 40
0.6365964431
100
AcDbArc
 50
149.7247666837
 51
151.2365306736
  0
ARC
  5
4B5
100
AcDbEntity
  8
0
100
AcDbCircle
 62
7
  6
CONTINUOUS
 10
14.2721111448
 20
19.5566786645
 40
0.5027484862
100
AcDbArc
 50
146.1147274013
 51
151.6153399596
  0
ARC
  5
4B6
100
AcDbEntity
  8
0
100
AcDbCircle
 62
7
  6
CONTINUOUS
 10
14.2587793588
 20
19.5638317671
 40
0.4876190004
100
AcDbArc
 50
151.610093173
 51
155.7449272793
  0
ARC
  5
4B7
100
AcDbEntity
  8
0
100
AcDbCircle
 62
7
  6
CONTINUOUS
 10
14.2571364568
 20
19.5649133264
 40
0.4856910647
100
AcDbArc
 50
151.6731780864
 51
155.8657171851
  0
ARC
  5
4B8
100
AcDbEntity
  8
0
100
AcDbCircle
 62
7
  6
CONTINUOUS
 10
14.2451067238
 20
19.5620619302
 40
0.4771509171
100
AcDbArc
 50
142.9516795465
 51
144.8405131845
  0
ARC
  5
4B9
100
AcDbEntity
  8
0
100
AcDbCircle
 62
7
  6
CONTINUOUS
 10
14.2481389419
 20
19.5690500914
 40
0.4757886057
100
AcDbArc
 50
155.9394610388
 51
156.5220923472
  0
ARC
  5
4BA
100
AcDbEntity
  8
0
100
AcDbCircle
 62
7
  6
CONTINUOUS
 10
14.2435071814
 20
19.5631660645
 40
0.475205761
100
AcDbArc
 50
144.840020402
 51
148.1117618609
  0
ARC
  5
4BB
100
AcDbEntity
  8
0
100
AcDbCircle
 62
7
  6
CONTINUOUS
 10
14.2455899428
 20
19.5702243918
 40
0.4729841174
100
AcDbArc
 50
158.0034220093
 51
159.5906230744
  0
ARC
  5
4BC
100
AcDbEntity
  8
0
100
AcDbCircle
 62
7
  6
CONTINUOUS
 10
14.2443627696
 20
19.5702616004
 40
0.4718334331
100
AcDbArc
 50
155.8653668392
 51
159.5429751299
  0
ARC
  5
4BD
100
AcDbEntity
  8
0
100
AcDbCircle
 62
7
  6
CONTINUOUS
 10
14.2396067593
 20
19.5655822269
 40
0.4706176184
100
AcDbArc
 50
148.1106737891
 51
150.679362314
  0
ARC
  5
4BE
100
AcDbEntity
  8
0
100
AcDbCircle
 62
7
  6
CONTINUOUS
 10
14.2300736658
 20
19.570805695
 40
0.4597478814
100
AcDbArc
 50
150.6651529044
 51
155.1761357996
  0
ARC
  5
4BF
100
AcDbEntity
  8
0
100
AcDbCircle
 62
7
  6
CONTINUOUS
 10
14.2243915183
 20
19.5735696027
 40
0.4534303939
100
AcDbArc
 50
155.1916773138
 51
159.6330622996
  0
ARC
  5
4C0
100
AcDbEntity
  8
0
100
AcDbCircle
 62
7
  6
CONTINUOUS
 10
14.1731435767
 20
18.9100624077
 40
0.1476455354
100
AcDbArc
 50
94.1898565827
 51
95.6782228071
  0
ARC
  5
4C1
100
AcDbEntity
  8
0
100
AcDbCircle
 62
7
  6
CONTINUOUS
 10
14.5234972687
 20
19.1807823535
 40
0.05
100
AcDbArc
 50
0.0
 51
40.9058661424
  0
ARC
  5
4C2
100
AcDbEntity
  8
0
100
AcDbCircle
 62
7
  6
CONTINUOUS
 10
13.9784972687
 20
18.9684107588
 40
0.01
100
AcDbArc
 50
280.0000000003
 51
360.0
  0
ARC
  5
4C3
100
AcDbEntity
  8
0
100
AcDbCircle
 62
7
  6
CONTINUOUS
 10
13.9984972687
 20
18.9759990049
 40
0.01
100
AcDbArc
 50
100.0000000003
 51
180.0
  0
ARC
  5
4C4
100
AcDbEntity
  8
0
100
AcDbCircle
 62
7
  6
CONTINUOUS
 10
14.1734972687
 20
19.0312264652
 40
0.01
100
AcDbArc
 50
100.0000000003
 51
180.0
  0
ARC
  5
4C5
100
AcDbEntity
  8
0
100
AcDbCircle
 62
7
  6
CONTINUOUS
 10
14.1534972687
 20
19.0236382191
 40
0.01
100
AcDbArc
 50
280.0000000003
 51
360.0
  0
ARC
  5
4C6
100
AcDbEntity
  8
0
100
AcDbCircle
 62
7
  6
CONTINUOUS
 10
14.3484972687
 20
19.082392219
 40
0.01
100
AcDbArc
 50
279.9999999993
 51
360.0
  0
ARC
  5
4C7
100
AcDbEntity
  8
0
100
AcDbCircle
 62
7
  6
CONTINUOUS
 10
14.3684972687
 20
19.0877579458
 40
0.01
100
AcDbArc
 50
90.0
 51
180.0
  0
ARC
  5
4C8
100
AcDbEntity
  8
0
100
AcDbCircle
 62
9
  6
CONTINUOUS
 10
26.4684331689
 20
22.0115744997
 40
13.5206941574
100
AcDbArc
 50
184.9466830469
 51
185.0860973364
  0
ARC
  5
4C9
100
AcDbEntity
  8
0
100
AcDbCircle
 62
9
  6
CONTINUOUS
 10
14.1855220129
 20
21.9270693634
 40
1.1203385132
100
AcDbArc
 50
264.900541772
 51
266.5622260593
  0
ARC
  5
4CA
100
AcDbEntity
  8
0
100
AcDbCircle
 62
7
  6
CONTINUOUS
 10
14.0660188359
 20
20.823742307
 40
0.0849995802
100
AcDbArc
 50
84.9420219747
 51
174.9141359166
  0
ARC
  5
4CB
100
AcDbEntity
  8
0
100
AcDbCircle
 62
7
  6
CONTINUOUS
 10
14.085945261
 20
20.8219808941
 40
0.0849944962
100
AcDbArc
 50
0.0180078366
 51
84.9384640276
  0
ARC
  5
4CC
100
AcDbEntity
  8
0
100
AcDbCircle
 62
9
  6
CONTINUOUS
 10
14.06594089
 20
20.8187123979
 40
0.084940704
100
AcDbArc
 50
84.8700634299
 51
174.8353675541
  0
ARC
  5
4CD
100
AcDbEntity
  8
0
100
AcDbCircle
 62
7
  6
CONTINUOUS
 10
14.0860841172
 20
20.8170098332
 40
0.0848587836
100
AcDbArc
 50
0.0572051226
 51
85.0153327688
  0
ARC
  5
4CE
100
AcDbEntity
  8
0
100
AcDbCircle
 62
9
  6
CONTINUOUS
 10
14.0861524309
 20
20.8219034645
 40
0.0848000659
100
AcDbArc
 50
0.0548941881
 51
84.9533493989
  0
ARC
  5
4CF
100
AcDbEntity
  8
0
100
AcDbCircle
 62
9
  6
CONTINUOUS
 10
14.0657450745
 20
20.8237083687
 40
0.0847282827
100
AcDbArc
 50
84.9308284033
 51
174.8995633486
  0
ARC
  5
4D0
100
AcDbEntity
  8
0
100
AcDbCircle
 62
9
  6
CONTINUOUS
 10
13.9085697225
 20
49.9982430389
 40
37.933203812
100
AcDbArc
 50
269.8417461502
 51
270.0066564253
  0
ARC
  5
4D1
100
AcDbEntity
  8
0
100
AcDbCircle
 62
9
  6
CONTINUOUS
 10
13.8546071578
 20
40.3233288054
 40
28.412265601
100
AcDbArc
 50
269.8997850065
 51
270.0500119384
  0
ARC
  5
4D2
100
AcDbEntity
  8
0
100
AcDbCircle
 62
9
  6
CONTINUOUS
 10
262.1561972667
 20
22.4869131055
 40
251.5027650301
100
AcDbArc
 50
181.8157048828
 51
182.0521425808
  0
ARC
  5
4D3
100
AcDbEntity
  8
0
100
AcDbCircle
 62
9
  6
CONTINUOUS
 10
235.842255176
 20
21.6445992413
 40
225.1357265917
100
AcDbArc
 50
181.8143807258
 51
182.0785146445
  0
SPLINE
  5
4D4
100
AcDbEntity
  8
0
100
AcDbSpline
 62
7
  6
CONTINUOUS
 70
0
 71
3
 72
13
 73
9
 74
0
 42
0.0000001
 43
0.0000001
 44
0.0000000001
 40
0.0
 40
0.0
 40
0.0
 40
0.0
 40
0.058227183
 40
0.1440567364
 40
0.254017368
 40
0.3840009704
 40
0.6837873762
 40
1.0
 40
1.0
 40
1.0
 40
1.0
 10
14.1956383672
 20
19.0499631486
 30
0.0
 10
14.1961606077
 20
19.0501467684
 30
0.0
 10
14.1974807526
 20
19.0505175604
 30
0.0
 10
14.19982539
 20
19.0510944766
 30
0.0
 10
14.2028503504
 20
19.0517618341
 30
0.0
 10
14.2078777106
 20
19.0527897096
 30
0.0
 10
14.2148523618
 20
19.0540795533
 30
0.0
 10
14.2206299122
 20
19.0550397267
 30
0.0
 10
14.2236002771
 20
19.0555032452
 30
0.0
  0
LINE
  5
4D5
100
AcDbEntity
  8
0
100
AcDbLine
 62
7
  6
CONTINUOUS
 10
14.2236002771
 20
19.0555032452
 11
14.2340857087
 21
19.0569834831
  0
LINE
  5
4D6
100
AcDbEntity
  8
0
100
AcDbLine
 62
7
  6
CONTINUOUS
 10
14.2340857087
 20
19.0569834831
 11
14.2400720106
 21
19.05751465
  0
SPLINE
  5
4D7
100
AcDbEntity
  8
0
100
AcDbSpline
 62
7
  6
CONTINUOUS
 70
0
 71
3
 72
14
 73
10
 74
0
 42
0.0000001
 43
0.0000001
 44
0.0000000001
 40
0.0
 40
0.0
 40
0.0
 40
0.0
 40
0.0300634672
 40
0.0872431721
 40
0.1739215581
 40
0.2894707647
 40
0.4324897801
 40
0.6004774474
 40
1.0
 40
1.0
 40
1.0
 40
1.0
 10
14.1240762603
 20
19.04996352
 30
0.0
 10
14.1240740336
 20
19.0500830554
 30
0.0
 10
14.1243575583
 20
19.0503696178
 30
0.0
 10
14.1249440432
 20
19.0506782883
 30
0.0
 10
14.125911443
 20
19.0510800401
 30
0.0
 10
14.1272105105
 20
19.0515079318
 30
0.0
 10
14.1288432202
 20
19.0519769484
 30
0.0
 10
14.1315806537
 20
19.0526747107
 30
0.0
 10
14.1337862676
 20
19.0531582188
 30
0.0
 10
14.1353427274
 20
19.0534772395
 30
0.0
  0
LINE
  5
4D8
100
AcDbEntity
  8
0
100
AcDbLine
 62
7
  6
CONTINUOUS
 10
14.1353427274
 20
19.0534772395
 11
14.1468609126
 21
19.0555032452
  0
LINE
  5
4D9
100
AcDbEntity
  8
0
100
AcDbLine
 62
7
  6
CONTINUOUS
 10
14.1468609126
 20
19.0555032452
 11
14.1585353003
 21
19.0569834831
  0
LINE
  5
4DA
100
AcDbEntity
  8
0
100
AcDbLine
 62
7
  6
CONTINUOUS
 10
14.1623563524
 20
19.0573133498
 11
14.1669948515
 21
19.05751465
  0
SPLINE
  5
4DB
100
AcDbEntity
  8
0
100
AcDbSpline
 62
7
  6
CONTINUOUS
 70
0
 71
3
 72
16
 73
12
 74
0
 42
0.0000001
 43
0.0000001
 44
0.0000000001
 40
0.0
 40
0.0
 40
0.0
 40
0.0
 40
0.0128661494
 40
0.0326389647
 40
0.0610113248
 40
0.0981551943
 40
0.19729442
 40
0.3262375224
 40
0.4788652747
 40
0.6476131846
 40
1.0
 40
1.0
 40
1.0
 40
1.0
 10
14.0114834215
 20
19.0506248712
 30
0.0
 10
14.0114838028
 20
19.0507533548
 30
0.0
 10
14.01165781
 20
19.0510627466
 30
0.0
 10
14.012145404
 20
19.0514271151
 30
0.0
 10
14.012898976
 20
19.051832179
 30
0.0
 10
14.0144209802
 20
19.052456463
 30
0.0
 10
14.0169580613
 20
19.0532330016
 30
0.0
 10
14.0206553584
 20
19.0541209729
 30
0.0
 10
14.0250699005
 20
19.0549853974
 30
0.0
 10
14.0317124673
 20
19.0560597183
 30
0.0
 10
14.0368843698
 20
19.0566721425
 30
0.0
 10
14.040389583
 20
19.0569834831
 30
0.0
  0
SPLINE
  5
4DC
100
AcDbEntity
  8
0
100
AcDbSpline
 62
7
  6
CONTINUOUS
 70
0
 71
3
 72
9
 73
5
 74
0
 42
0.0000001
 43
0.0000001
 44
0.0000000001
 40
0.0
 40
0.0
 40
0.0
 40
0.0
 40
0.5393348848
 40
1.0
 40
1.0
 40
1.0
 40
1.0
 10
14.040389583
 20
19.0569834831
 30
0.0
 10
14.0422469686
 20
19.0571484602
 30
0.0
 10
14.0456959922
 20
19.0573974265
 30
0.0
 10
14.0491531742
 20
19.05751465
 30
0.0
 10
14.0507458791
 20
19.05751465
 30
0.0
  0
SPLINE
  5
4DD
100
AcDbEntity
  8
0
100
AcDbSpline
 62
7
  6
CONTINUOUS
 70
0
 71
3
 72
14
 73
10
 74
0
 42
0.0000001
 43
0.0000001
 44
0.0000000001
 40
0.0
 40
0.0
 40
0.0
 40
0.0
 40
0.0355907544
 40
0.0633224632
 40
0.098624549
 40
0.1922636345
 40
0.3148921208
 40
0.6295976918
 40
1.0
 40
1.0
 40
1.0
 40
1.0
 10
13.8647472798
 20
19.0514813458
 30
0.0
 10
13.864747878
 20
19.0517663191
 30
0.0
 10
13.8651342057
 20
19.052211794
 30
0.0
 10
13.8657747552
 20
19.0526374416
 30
0.0
 10
13.86690308
 20
19.0532124435
 30
0.0
 10
13.8688031108
 20
19.0538804626
 30
0.0
 10
13.8729160873
 20
19.0549753562
 30
0.0
 10
13.8792923951
 20
19.0561040945
 30
0.0
 10
13.8847450516
 20
19.0567299342
 30
0.0
 10
13.8876999922
 20
19.0569834831
 30
0.0
  0
SPLINE
  5
4DE
100
AcDbEntity
  8
0
100
AcDbSpline
 62
7
  6
CONTINUOUS
 70
0
 71
3
 72
9
 73
5
 74
0
 42
0.0000001
 43
0.0000001
 44
0.0000000001
 40
0.0
 40
0.0
 40
0.0
 40
0.0
 40
0.2618046051
 40
1.0
 40
1.0
 40
1.0
 40
1.0
 10
13.8876999922
 20
19.0569834831
 30
0.0
 10
13.8887052319
 20
19.0570697378
 30
0.0
 10
13.892547975
 20
19.0573596862
 30
0.0
 10
13.896402437
 20
19.05751465
 30
0.0
 10
13.8992472687
 20
19.05751465
 30
0.0
  0
SPLINE
  5
4DF
100
AcDbEntity
  8
0
100
AcDbSpline
 62
7
  6
CONTINUOUS
 70
0
 71
3
 72
10
 73
6
 74
0
 42
0.0000001
 43
0.0000001
 44
0.0000000001
 40
0.0
 40
0.0
 40
0.0
 40
0.0
 40
0.322092705
 40
0.6124374927
 40
1.0
 40
1.0
 40
1.0
 40
1.0
 10
13.1562471929
 20
19.0555356911
 30
0.0
 10
13.1562465167
 20
19.0559114828
 30
0.0
 10
13.1570180914
 20
19.0564119644
 30
0.0
 10
13.1580660971
 20
19.0567363629
 30
0.0
 10
13.1588594348
 20
19.0569069498
 30
0.0
 10
13.1593050882
 20
19.0569834831
 30
0.0
  0
SPLINE
  5
4E0
100
AcDbEntity
  8
0
100
AcDbSpline
 62
7
  6
CONTINUOUS
 70
0
 71
3
 72
9
 73
5
 74
0
 42
0.0000001
 43
0.0000001
 44
0.0000000001
 40
0.0
 40
0.0
 40
0.0
 40
0.0
 40
0.4373160514
 40
1.0
 40
1.0
 40
1.0
 40
1.0
 10
13.1593050882
 20
19.0569834831
 30
0.0
 10
13.1605212849
 20
19.057192344
 30
0.0
 10
13.1633382898
 20
19.0574457416
 30
0.0
 10
13.1661595102
 20
19.05751465
 30
0.0
 10
13.1677472687
 20
19.05751465
 30
0.0
  0
SPLINE
  5
4E1
100
AcDbEntity
  8
0
100
AcDbSpline
 62
7
  6
CONTINUOUS
 70
0
 71
3
 72
10
 73
6
 74
0
 42
0.0000001
 43
0.0000001
 44
0.0000000001
 40
0.0
 40
0.0
 40
0.0
 40
0.0
 40
0.3394264065
 40
0.6228325244
 40
1.0
 40
1.0
 40
1.0
 40
1.0
 10
13.0095132531
 20
19.0563591046
 30
0.0
 10
13.0095126895
 20
19.0565421705
 30
0.0
 10
13.0098208651
 20
19.056818917
 30
0.0
 10
13.0103080947
 20
19.0570000492
 30
0.0
 10
13.0106583484
 20
19.057092898
 30
0.0
 10
13.0108572295
 20
19.0571356397
 30
0.0
  0
SPLINE
  5
4E2
100
AcDbEntity
  8
0
100
AcDbSpline
 62
7
  6
CONTINUOUS
 70
0
 71
3
 72
9
 73
5
 74
0
 42
0.0000001
 43
0.0000001
 44
0.0000000001
 40
0.0
 40
0.0
 40
0.0
 40
0.0
 40
0.4169036636
 40
1.0
 40
1.0
 40
1.0
 40
1.0
 10
13.0108572295
 20
19.0571356397
 30
0.0
 10
13.0115923516
 20
19.0572936255
 30
0.0
 10
13.013394803
 20
19.0574704459
 30
0.0
 10
13.0151970143
 20
19.05751465
 30
0.0
 10
13.0162486582
 20
19.05751465
 30
0.0
  0
SPLINE
  5
4E3
100
AcDbEntity
  8
0
100
AcDbSpline
 62
7
  6
CONTINUOUS
 70
0
 71
3
 72
10
 73
6
 74
0
 42
0.0000001
 43
0.0000001
 44
0.0000000001
 40
0.0
 40
0.0
 40
0.0
 40
0.0
 40
0.3018821841
 40
0.5987452165
 40
1.0
 40
1.0
 40
1.0
 40
1.0
 10
12.8969183492
 20
19.0569875307
 30
0.0
 10
12.8969215586
 20
19.0571484851
 30
0.0
 10
12.8973271017
 20
19.0573089566
 30
0.0
 10
12.897803975
 20
19.0574008887
 30
0.0
 10
12.8981878165
 20
19.0574439101
 30
0.0
 10
12.8984011066
 20
19.0574610719
 30
0.0
  0
LINE
  5
4E4
100
AcDbEntity
  8
0
100
AcDbLine
 62
7
  6
CONTINUOUS
 10
12.8984011066
 20
19.0574610719
 11
12.8999996858
 21
19.05751465
  0
SPLINE
  5
4E5
100
AcDbEntity
  8
0
100
AcDbSpline
 62
7
  6
CONTINUOUS
 70
0
 71
3
 72
13
 73
9
 74
0
 42
0.0000001
 43
0.0000001
 44
0.0000000001
 40
0.0
 40
0.0
 40
0.0
 40
0.0
 40
0.1198509726
 40
0.2440494053
 40
0.4979249678
 40
0.7529648761
 40
0.8784517232
 40
1.0
 40
1.0
 40
1.0
 40
1.0
 10
6.1129297661
 20
9.1595111879
 30
0.0
 10
6.118079573
 20
9.1612575694
 30
0.0
 10
6.1283038501
 20
9.1656390054
 30
0.0
 10
6.1476498407
 20
9.177398427
 30
0.0
 10
6.1688856266
 20
9.1974620128
 30
0.0
 10
6.1826769599
 20
9.2232864081
 30
0.0
 10
6.1889713401
 20
9.2452304689
 30
0.0
 10
6.1904990362
 20
9.2563877768
 30
0.0
 10
6.190811974
 20
9.2618937644
 30
0.0
  0
SPLINE
  5
4E6
100
AcDbEntity
  8
0
100
AcDbSpline
 62
7
  6
CONTINUOUS
 70
0
 71
3
 72
13
 73
9
 74
0
 42
0.0000001
 43
0.0000001
 44
0.0000000001
 40
0.0
 40
0.0
 40
0.0
 40
0.0
 40
0.1203095902
 40
0.2451725844
 40
0.4999994363
 40
0.7548266078
 40
0.8796899517
 40
1.0
 40
1.0
 40
1.0
 40
1.0
 10
7.0209972687
 20
9.0661375366
 30
0.0
 10
7.0209972378
 20
9.0710396813
 30
0.0
 10
7.0201652066
 20
9.0810460755
 30
0.0
 10
7.0154831656
 20
9.1009209761
 30
0.0
 10
7.003996393
 20
9.1246270698
 30
0.0
 10
6.9852349615
 20
9.1431185354
 30
0.0
 10
6.9679164326
 20
9.1539353568
 30
0.0
 10
6.9587072553
 20
9.1579368476
 30
0.0
 10
6.9540647713
 20
9.1595111879
 30
0.0
  0
SPLINE
  5
4E7
100
AcDbEntity
  8
0
100
AcDbSpline
 62
7
  6
CONTINUOUS
 70
0
 71
3
 72
13
 73
9
 74
0
 42
0.0000001
 43
0.0000001
 44
0.0000000001
 40
0.0
 40
0.0
 40
0.0
 40
0.0
 40
0.1203095263
 40
0.2451725279
 40
0.4999994468
 40
0.7548266793
 40
0.8796900242
 40
1.0
 40
1.0
 40
1.0
 40
1.0
 10
6.0459972687
 20
9.0661365671
 30
0.0
 10
6.0459972513
 20
9.0710387475
 30
0.0
 10
6.0468291981
 20
9.0810452263
 30
0.0
 10
6.0515111168
 20
9.1009203211
 30
0.0
 10
6.0629978316
 20
9.1246266879
 30
0.0
 10
6.0817593587
 20
9.1431183704
 30
0.0
 10
6.0990780039
 20
9.1539353079
 30
0.0
 10
6.1082872485
 20
9.1579368362
 30
0.0
 10
6.1129297661
 20
9.1595111879
 30
0.0
  0
SPLINE
  5
4E8
100
AcDbEntity
  8
0
100
AcDbSpline
 62
7
  6
CONTINUOUS
 70
0
 71
3
 72
10
 73
6
 74
0
 42
0.0000001
 43
0.0000001
 44
0.0000000001
 40
0.0
 40
0.0
 40
0.0
 40
0.0
 40
0.2402468822
 40
0.4892400791
 40
1.0
 40
1.0
 40
1.0
 40
1.0
 10
6.9540647713
 20
9.1595111879
 30
0.0
 10
6.9487206549
 20
9.1613234629
 30
0.0
 10
6.9381167584
 20
9.1659002465
 30
0.0
 10
6.9181049058
 20
9.1782794461
 30
0.0
 10
6.9050809206
 20
9.1910416601
 30
0.0
 10
6.8980206161
 20
9.2007411386
 30
0.0
  0
LINE
  5
4E9
100
AcDbEntity
  8
0
100
AcDbLine
 62
7
  6
CONTINUOUS
 10
14.011632443
 20
18.9904770583
 11
14.012770766
 21
18.9909521363
  0
LINE
  5
4EA
100
AcDbEntity
  8
0
100
AcDbLine
 62
7
  6
CONTINUOUS
 10
14.012770766
 20
18.9909521363
 11
14.0192370297
 21
18.9924728818
  0
LINE
  5
4EB
100
AcDbEntity
  8
0
100
AcDbLine
 62
7
  6
CONTINUOUS
 10
14.0192370297
 20
18.9924728818
 11
14.0296105421
 21
18.9944782423
  0
SPLINE
  5
4EC
100
AcDbEntity
  8
0
100
AcDbSpline
 62
7
  6
CONTINUOUS
 70
0
 71
3
 72
9
 73
5
 74
0
 42
0.0000001
 43
0.0000001
 44
0.0000000001
 40
0.0
 40
0.0
 40
0.0
 40
0.0
 40
0.5423388752
 40
1.0
 40
1.0
 40
1.0
 40
1.0
 10
14.0296105421
 20
18.9944782423
 30
0.0
 10
14.0335925963
 20
18.9951973506
 30
0.0
 10
14.0409502811
 20
18.9964377671
 30
0.0
 10
14.0483310752
 20
18.9975383606
 30
0.0
 10
14.0517184055
 20
18.9979696124
 30
0.0
  0
LINE
  5
4ED
100
AcDbEntity
  8
0
100
AcDbLine
 62
7
  6
CONTINUOUS
 10
14.0517184055
 20
18.9979696124
 11
14.0571339653
 21
18.9984961596
  0
SPLINE
  5
4EE
100
AcDbEntity
  8
0
100
AcDbSpline
 62
7
  6
CONTINUOUS
 70
0
 71
3
 72
15
 73
11
 74
0
 42
0.0000001
 43
0.0000001
 44
0.0000000001
 40
0.0
 40
0.0
 40
0.0
 40
0.0
 40
0.0113390156
 40
0.0294201056
 40
0.0898599177
 40
0.1828413112
 40
0.305599907
 40
0.4538483928
 40
0.6229778136
 40
1.0
 40
1.0
 40
1.0
 40
1.0
 10
13.9407208755
 20
18.9910600247
 30
0.0
 10
13.9407204542
 20
18.991145061
 30
0.0
 10
13.9408466178
 20
18.9913516554
 30
0.0
 10
13.9413885806
 20
18.9917454839
 30
0.0
 10
13.9425812123
 20
18.992267348
 30
0.0
 10
13.9445438095
 20
18.9929135529
 30
0.0
 10
13.9471833189
 20
18.9936232346
 30
0.0
 10
13.9503988341
 20
18.9943668779
 30
0.0
 10
13.955504127
 20
18.9953986528
 30
0.0
 10
13.959544625
 20
18.9960775953
 30
0.0
 10
13.9623406022
 20
18.9964985599
 30
0.0
  0
LINE
  5
4EF
100
AcDbEntity
  8
0
100
AcDbLine
 62
7
  6
CONTINUOUS
 10
13.9623406022
 20
18.9964985599
 11
13.9741686548
 21
18.9979696124
  0
LINE
  5
4F0
100
AcDbEntity
  8
0
100
AcDbLine
 62
7
  6
CONTINUOUS
 10
13.9741686548
 20
18.9979696124
 11
13.9830485937
 21
18.9984961596
  0
SPLINE
  5
4F1
100
AcDbEntity
  8
0
100
AcDbSpline
 62
7
  6
CONTINUOUS
 70
0
 71
3
 72
10
 73
6
 74
0
 42
0.0000001
 43
0.0000001
 44
0.0000000001
 40
0.0
 40
0.0
 40
0.0
 40
0.0
 40
0.3315883057
 40
0.6178598421
 40
1.0
 40
1.0
 40
1.0
 40
1.0
 10
13.1310258721
 20
18.9974863064
 30
0.0
 10
13.131024872
 20
18.9976608325
 30
0.0
 10
13.1313413732
 20
18.9979175455
 30
0.0
 10
13.1318192358
 20
18.9980762996
 30
0.0
 10
13.1321680589
 20
18.9981597663
 30
0.0
 10
13.132365618
 20
18.9981975324
 30
0.0
  0
LINE
  5
4F2
100
AcDbEntity
  8
0
100
AcDbLine
 62
7
  6
CONTINUOUS
 10
13.132365618
 20
18.9981975324
 11
13.136978698
 21
18.9984961596
  0
SPLINE
  5
4F3
100
AcDbEntity
  8
0
100
AcDbSpline
 62
7
  6
CONTINUOUS
 70
0
 71
3
 72
15
 73
11
 74
0
 42
0.0000001
 43
0.0000001
 44
0.0000000001
 40
0.0
 40
0.0
 40
0.0
 40
0.0
 40
0.0124705677
 40
0.0321809795
 40
0.0981096155
 40
0.1983182948
 40
0.3284111247
 40
0.4819839326
 40
0.6509579212
 40
1.0
 40
1.0
 40
1.0
 40
1.0
 10
13.1770257983
 20
18.9914772866
 30
0.0
 10
13.1770251569
 20
18.9916056233
 30
0.0
 10
13.1768360634
 20
18.9919154591
 30
0.0
 10
13.1760146406
 20
18.9924959329
 30
0.0
 10
13.1742226119
 20
18.9932282863
 30
0.0
 10
13.1713103228
 20
18.9941056175
 30
0.0
 10
13.1674599106
 20
18.9950134437
 30
0.0
 10
13.1628872352
 20
18.9959002973
 30
0.0
 10
13.1560626339
 20
18.9970003059
 30
0.0
 10
13.1507658014
 20
18.9976336265
 30
0.0
 10
13.1471882092
 20
18.9979561073
 30
0.0
  0
SPLINE
  5
4F4
100
AcDbEntity
  8
0
100
AcDbSpline
 62
7
  6
CONTINUOUS
 70
0
 71
3
 72
9
 73
5
 74
0
 42
0.0000001
 43
0.0000001
 44
0.0000000001
 40
0.0
 40
0.0
 40
0.0
 40
0.0
 40
0.5440115951
 40
1.0
 40
1.0
 40
1.0
 40
1.0
 10
13.1471882092
 20
18.9979561073
 30
0.0
 10
13.1453413268
 20
18.9981225835
 30
0.0
 10
13.1419413945
 20
18.998373966
 30
0.0
 10
13.1385330239
 20
18.9984961596
 30
0.0
 10
13.136978698
 20
18.9984961596
 30
0.0
  0
SPLINE
  5
4F5
100
AcDbEntity
  8
0
100
AcDbSpline
 62
7
  6
CONTINUOUS
 70
0
 71
3
 72
18
 73
14
 74
0
 42
0.0000001
 43
0.0000001
 44
0.0000000001
 40
0.0
 40
0.0
 40
0.0
 40
0.0
 40
0.0083973784
 40
0.0253895903
 40
0.0518324895
 40
0.0874407301
 40
0.1317663366
 40
0.1843180206
 40
0.3118199293
 40
0.4640742876
 40
0.6345351095
 40
0.8158890941
 40
1.0
 40
1.0
 40
1.0
 40
1.0
 10
13.0790403803
 20
18.9906730984
 30
0.0
 10
13.0790428376
 20
18.9907484447
 30
0.0
 10
13.0788456191
 20
18.9909310857
 30
0.0
 10
13.0784507538
 20
18.9911280661
 30
0.0
 10
13.0777801717
 20
18.9913976162
 30
0.0
 10
13.0768769825
 20
18.9916927305
 30
0.0
 10
13.0757333454
 20
18.9920266383
 30
0.0
 10
13.0737863809
 20
18.9925406152
 30
0.0
 10
13.0708802035
 20
18.9932188783
 30
0.0
 10
13.0669241992
 20
18.9940470787
 30
0.0
 10
13.0624782915
 20
18.9948922032
 30
0.0
 10
13.0577381471
 20
18.9957168087
 30
0.0
 10
13.0544981244
 20
18.9962340364
 30
0.0
 10
13.0528640939
 20
18.9964826203
 30
0.0
  0
LINE
  5
4F6
100
AcDbEntity
  8
0
100
AcDbLine
 62
7
  6
CONTINUOUS
 10
13.0528640939
 20
18.9964826203
 11
13.0417977731
 21
18.9979561073
  0
LINE
  5
4F7
100
AcDbEntity
  8
0
100
AcDbLine
 62
7
  6
CONTINUOUS
 10
13.0417977731
 20
18.9979561073
 11
13.0346028032
 21
18.9984961596
  0
LINE
  5
4F8
100
AcDbEntity
  8
0
100
AcDbLine
 62
7
  6
CONTINUOUS
 10
10.8147328862
 20
12.9773048148
 11
10.8149484529
 21
12.9799484896
  0
SPLINE
  5
4F9
100
AcDbEntity
  8
0
100
AcDbSpline
 62
7
  6
CONTINUOUS
 70
0
 71
3
 72
9
 73
5
 74
0
 42
0.0000001
 43
0.0000001
 44
0.0000000001
 40
0.0
 40
0.0
 40
0.0
 40
0.0
 40
0.2527116959
 40
1.0
 40
1.0
 40
1.0
 40
1.0
 10
13.8642928154
 20
19.8495553878
 30
0.0
 10
13.8689906174
 20
19.855778415
 30
0.0
 10
13.8881797416
 20
19.8799438343
 30
0.0
 10
13.9097288331
 20
19.9022448326
 30
0.0
 10
13.9269774767
 20
19.9175451064
 30
0.0
  0
SPLINE
  5
4FA
100
AcDbEntity
  8
0
100
AcDbSpline
 62
7
  6
CONTINUOUS
 70
0
 71
3
 72
9
 73
5
 74
0
 42
0.0000001
 43
0.0000001
 44
0.0000000001
 40
0.0
 40
0.0
 40
0.0
 40
0.0
 40
0.2528651839
 40
1.0
 40
1.0
 40
1.0
 40
1.0
 10
13.2027008241
 20
19.8495621435
 30
0.0
 10
13.1980005214
 20
19.8557877965
 30
0.0
 10
13.1788124198
 20
19.8799483445
 30
0.0
 10
13.157265355
 20
19.9022447389
 30
0.0
 10
13.1400229672
 20
19.9175398826
 30
0.0
  0
LINE
  5
4FB
100
AcDbEntity
  8
0
100
AcDbLine
 62
7
  6
CONTINUOUS
 10
10.8147328964
 20
12.9773052142
 11
10.7920858353
 21
12.6976763952
  0
LINE
  5
4FC
100
AcDbEntity
  8
0
100
AcDbLine
 62
7
  6
CONTINUOUS
 10
10.7920858353
 20
12.6976763952
 11
10.7910629846
 21
12.6846756652
  0
LINE
  5
4FD
100
AcDbEntity
  8
0
100
AcDbLine
 62
7
  6
CONTINUOUS
 10
10.7910629846
 20
12.6846756652
 11
10.7822225091
 21
12.5693297096
  0
LINE
  5
4FE
100
AcDbEntity
  8
0
100
AcDbLine
 62
7
  6
CONTINUOUS
 10
10.7822225091
 20
12.5693297096
 11
10.7797084884
 21
12.5352730191
  0
SPLINE
  5
4FF
100
AcDbEntity
  8
0
100
AcDbSpline
 62
7
  6
CONTINUOUS
 70
0
 71
3
 72
9
 73
5
 74
0
 42
0.0000001
 43
0.0000001
 44
0.0000000001
 40
0.0
 40
0.0
 40
0.0
 40
0.0
 40
0.2420090434
 40
1.0
 40
1.0
 40
1.0
 40
1.0
 10
11.1530202716
 20
12.8734164901
 30
0.0
 10
11.1528444453
 20
12.8817479571
 30
0.0
 10
11.1518629602
 20
12.9161688192
 30
0.0
 10
11.1499764619
 20
12.9505601152
 30
0.0
 10
11.1481931387
 20
12.9765997277
 30
0.0
  0
LINE
  5
500
100
AcDbEntity
  8
0
100
AcDbLine
 62
7
  6
CONTINUOUS
 10
11.1481931387
 20
12.9765997277
 11
11.1479229204
 21
12.9805054469
  0
LINE
  5
501
100
AcDbEntity
  8
0
100
AcDbLine
 62
7
  6
CONTINUOUS
 10
14.1669948515
 20
19.05751465
 11
14.1687205234
 21
19.0574486586
  0
SPLINE
  5
502
100
AcDbEntity
  8
0
100
AcDbSpline
 62
7
  6
CONTINUOUS
 70
0
 71
3
 72
10
 73
6
 74
0
 42
0.0000001
 43
0.0000001
 44
0.0000000001
 40
0.0
 40
0.0
 40
0.0
 40
0.0
 40
0.3967176128
 40
0.6913668361
 40
1.0
 40
1.0
 40
1.0
 40
1.0
 10
14.1687205234
 20
19.0574486586
 30
0.0
 10
14.1689133963
 20
19.057430485
 30
0.0
 10
14.1692593078
 20
19.0573864361
 30
0.0
 10
14.1696999069
 20
19.0572928966
 30
0.0
 10
14.1700589844
 20
19.0571361342
 30
0.0
 10
14.1700673099
 20
19.0569856509
 30
0.0
  0
SPLINE
  5
503
100
AcDbEntity
  8
0
100
AcDbSpline
 62
7
  6
CONTINUOUS
 70
0
 71
3
 72
11
 73
7
 74
0
 42
0.0000001
 43
0.0000001
 44
0.0000000001
 40
0.0
 40
0.0
 40
0.0
 40
0.0
 40
0.3515684569
 40
0.6391974081
 40
0.8567133136
 40
1.0
 40
1.0
 40
1.0
 40
1.0
 10
14.0507458791
 20
19.05751465
 30
0.0
 10
14.0515067951
 20
19.05751465
 30
0.0
 10
14.0528896873
 20
19.0574900356
 30
0.0
 10
14.0547436365
 20
19.0573647444
 30
0.0
 10
14.0561272532
 20
19.057157699
 30
0.0
 10
14.0568929746
 20
19.0569422942
 30
0.0
 10
14.0571606812
 20
19.056785741
 30
0.0
  0
SPLINE
  5
504
100
AcDbEntity
  8
0
100
AcDbSpline
 62
7
  6
CONTINUOUS
 70
0
 71
3
 72
10
 73
6
 74
0
 42
0.0000001
 43
0.0000001
 44
0.0000000001
 40
0.0
 40
0.0
 40
0.0
 40
0.0
 40
0.5798157268
 40
0.8132214311
 40
1.0
 40
1.0
 40
1.0
 40
1.0
 10
13.8992472687
 20
19.05751465
 30
0.0
 10
13.9010748783
 20
19.05751465
 30
0.0
 10
13.9036412293
 20
19.0574487663
 30
0.0
 10
13.9067787058
 20
19.0571390299
 30
0.0
 10
13.9080876673
 20
19.0569213559
 30
0.0
 10
13.9086605709
 20
19.056785741
 30
0.0
  0
SPLINE
  5
505
100
AcDbEntity
  8
0
100
AcDbSpline
 62
7
  6
CONTINUOUS
 70
0
 71
3
 72
10
 73
6
 74
0
 42
0.0000001
 43
0.0000001
 44
0.0000000001
 40
0.0
 40
0.0
 40
0.0
 40
0.0
 40
0.3748573643
 40
0.6584225154
 40
1.0
 40
1.0
 40
1.0
 40
1.0
 10
13.9086605709
 20
19.056785741
 30
0.0
 10
13.9089680723
 20
19.0567129509
 30
0.0
 10
13.9095107598
 20
19.0565567429
 30
0.0
 10
13.9102641978
 20
19.0562542488
 30
0.0
 10
13.9107456447
 20
19.0558230737
 30
0.0
 10
13.9107465012
 20
19.0555351302
 30
0.0
  0
SPLINE
  5
506
100
AcDbEntity
  8
0
100
AcDbSpline
 62
7
  6
CONTINUOUS
 70
0
 71
3
 72
15
 73
11
 74
0
 42
0.0000001
 43
0.0000001
 44
0.0000000001
 40
0.0
 40
0.0
 40
0.0
 40
0.0
 40
0.2984045456
 40
0.4553954469
 40
0.6052616155
 40
0.7406295599
 40
0.8545195073
 40
0.9420172029
 40
0.9748271132
 40
1.0
 40
1.0
 40
1.0
 40
1.0
 10
13.1677472687
 20
19.05751465
 30
0.0
 10
13.1711876443
 20
19.05751465
 30
0.0
 10
13.1764388226
 20
19.0572639952
 30
0.0
 10
13.1833867354
 20
19.0566089976
 30
0.0
 10
13.188442577
 20
19.0559416628
 30
0.0
 10
13.1929795718
 20
19.0551603989
 30
0.0
 10
13.1967652811
 20
19.0542957368
 30
0.0
 10
13.1993535281
 20
19.0535001393
 30
0.0
 10
13.2008890949
 20
19.0528230293
 30
0.0
 10
13.2014685814
 20
19.0524812715
 30
0.0
 10
13.2016976566
 20
19.0523030734
 30
0.0
  0
SPLINE
  5
507
100
AcDbEntity
  8
0
100
AcDbSpline
 62
7
  6
CONTINUOUS
 70
0
 71
3
 72
9
 73
5
 74
0
 42
0.0000001
 43
0.0000001
 44
0.0000000001
 40
0.0
 40
0.0
 40
0.0
 40
0.0
 40
0.3191592707
 40
1.0
 40
1.0
 40
1.0
 40
1.0
 10
13.2016976566
 20
19.0523030734
 30
0.0
 10
13.2017818943
 20
19.0522375446
 30
0.0
 10
13.2020317439
 20
19.0520247898
 30
0.0
 10
13.2022458728
 20
19.0517090298
 30
0.0
 10
13.2022452021
 20
19.0514813636
 30
0.0
  0
SPLINE
  5
508
100
AcDbEntity
  8
0
100
AcDbSpline
 62
7
  6
CONTINUOUS
 70
0
 71
3
 72
13
 73
9
 74
0
 42
0.0000001
 43
0.0000001
 44
0.0000000001
 40
0.0
 40
0.0
 40
0.0
 40
0.0
 40
0.1142056311
 40
0.2474031284
 40
0.5370357099
 40
0.8057674362
 40
0.914984312
 40
1.0
 40
1.0
 40
1.0
 40
1.0
 10
13.0162486582
 20
19.05751465
 30
0.0
 10
13.0176622451
 20
19.05751465
 30
0.0
 10
13.0207243557
 20
19.0574195474
 30
0.0
 10
13.0273577515
 20
19.0569776551
 30
0.0
 10
13.0358668398
 20
19.0560098621
 30
0.0
 10
13.0440249213
 20
19.0546484427
 30
0.0
 10
13.0496056998
 20
19.053344272
 30
0.0
 10
13.0519158952
 20
19.0526651047
 30
0.0
 10
13.052903944
 20
19.0523030734
 30
0.0
  0
SPLINE
  5
509
100
AcDbEntity
  8
0
100
AcDbSpline
 62
7
  6
CONTINUOUS
 70
0
 71
3
 72
10
 73
6
 74
0
 42
0.0000001
 43
0.0000001
 44
0.0000000001
 40
0.0
 40
0.0
 40
0.0
 40
0.0
 40
0.6697076991
 40
0.8714197837
 40
1.0
 40
1.0
 40
1.0
 40
1.0
 10
13.052903944
 20
19.0523030734
 30
0.0
 10
13.0535732973
 20
19.0520578154
 30
0.0
 10
13.0544475753
 20
19.0517038725
 30
0.0
 10
13.0553124447
 20
19.051090601
 30
0.0
 10
13.0555127617
 20
19.0507617374
 30
0.0
 10
13.0555138354
 20
19.0506248742
 30
0.0
  0
SPLINE
  5
50A
100
AcDbEntity
  8
0
100
AcDbSpline
 62
7
  6
CONTINUOUS
 70
0
 71
3
 72
20
 73
16
 74
0
 42
0.0000001
 43
0.0000001
 44
0.0000000001
 40
0.0
 40
0.0
 40
0.0
 40
0.0
 40
0.1093124325
 40
0.2563219264
 40
0.424349517
 40
0.5955993233
 40
0.676958338
 40
0.7528154088
 40
0.8212294715
 40
0.8802923481
 40
0.9285319167
 40
0.964898133
 40
0.988523224
 40
0.9955434585
 40
1.0
 40
1.0
 40
1.0
 40
1.0
 10
12.8999996858
 20
19.05751465
 30
0.0
 10
12.9015982878
 20
19.05751465
 30
0.0
 10
12.9053444788
 20
19.0572942658
 30
0.0
 10
12.9115208199
 20
19.0566929006
 30
0.0
 10
12.918573393
 20
19.0557670979
 30
0.0
 10
12.9246496102
 20
19.0548029516
 30
0.0
 10
12.9293746489
 20
19.0539367599
 30
0.0
 10
12.9326097413
 20
19.0532866842
 30
0.0
 10
12.935513266
 20
19.0526428419
 30
0.0
 10
12.9380063688
 20
19.0520211199
 30
0.0
 10
12.940027683
 20
19.0514391652
 30
0.0
 10
12.9415191368
 20
19.0509182709
 30
0.0
 10
12.9424195253
 20
19.0505060094
 30
0.0
 10
12.9428268108
 20
19.0501941966
 30
0.0
 10
12.9429117859
 20
19.0500309037
 30
0.0
 10
12.9429082984
 20
19.0499658239
 30
0.0
  0
SPLINE
  5
50B
100
AcDbEntity
  8
0
100
AcDbSpline
 62
7
  6
CONTINUOUS
 70
0
 71
3
 72
15
 73
11
 74
0
 42
0.0000001
 43
0.0000001
 44
0.0000000001
 40
0.0
 40
0.0
 40
0.0
 40
0.0
 40
0.0274230813
 40
0.0670006355
 40
0.1774930169
 40
0.3201929325
 40
0.4805789246
 40
0.793479573
 40
0.916265441
 40
1.0
 40
1.0
 40
1.0
 40
1.0
 10
12.8269225267
 20
19.05751465
 30
0.0
 10
12.8273280187
 20
19.05751465
 30
0.0
 10
12.8283181235
 20
19.0574596261
 30
0.0
 10
12.8309323493
 20
19.0572302575
 30
0.0
 10
12.8352308547
 20
19.056706498
 30
0.0
 10
12.8412852967
 20
19.0558450703
 30
0.0
 10
12.8502802881
 20
19.0544124679
 30
0.0
 10
12.8589590336
 20
19.0528577164
 30
0.0
 10
12.8664708415
 20
19.051262015
 30
0.0
 10
12.8694432481
 20
19.0505505857
 30
0.0
 10
12.870629611
 20
19.0501962686
 30
0.0
  0
LINE
  5
50C
100
AcDbEntity
  8
0
100
AcDbLine
 62
7
  6
CONTINUOUS
 10
12.870629611
 20
19.0501962686
 11
12.8721178141
 21
19.0495503499
  0
LINE
  5
50D
100
AcDbEntity
  8
0
100
AcDbLine
 62
7
  6
CONTINUOUS
 10
14.2535332583
 20
19.055540941
 11
14.2619433945
 21
19.0569919399
  0
LINE
  5
50E
100
AcDbEntity
  8
0
100
AcDbLine
 62
7
  6
CONTINUOUS
 10
14.2619433945
 20
19.0569919399
 11
14.2649972687
 21
19.05751465
  0
LINE
  5
50F
100
AcDbEntity
  8
0
100
AcDbLine
 62
7
  6
CONTINUOUS
 10
14.2189972687
 20
19.0494036089
 11
14.2304665978
 21
19.0514760024
  0
LINE
  5
510
100
AcDbEntity
  8
0
100
AcDbLine
 62
7
  6
CONTINUOUS
 10
14.2304665978
 20
19.0514760024
 11
14.2375515088
 21
19.0527388396
  0
LINE
  5
511
100
AcDbEntity
  8
0
100
AcDbLine
 62
7
  6
CONTINUOUS
 10
14.2375515088
 20
19.0527388396
 11
14.2419713496
 21
19.0535203684
  0
LINE
  5
512
100
AcDbEntity
  8
0
100
AcDbLine
 62
7
  6
CONTINUOUS
 10
12.8250374828
 20
19.0535178479
 11
12.8294434596
 21
19.0527387617
  0
LINE
  5
513
100
AcDbEntity
  8
0
100
AcDbLine
 62
7
  6
CONTINUOUS
 10
12.8294434596
 20
19.0527387617
 11
12.8365444466
 21
19.0514730703
  0
LINE
  5
514
100
AcDbEntity
  8
0
100
AcDbLine
 62
7
  6
CONTINUOUS
 10
12.8449810955
 20
19.0499520923
 11
12.8479972687
 21
19.0494036089
  0
LINE
  5
515
100
AcDbEntity
  8
0
100
AcDbLine
 62
7
  6
CONTINUOUS
 10
12.8019972687
 20
19.05751465
 11
12.8050493121
 21
19.0569922523
  0
LINE
  5
516
100
AcDbEntity
  8
0
100
AcDbLine
 62
7
  6
CONTINUOUS
 10
12.8050493121
 20
19.0569922523
 11
12.8134541707
 21
19.0555421778
  0
SPLINE
  5
517
100
AcDbEntity
  8
0
100
AcDbSpline
 62
7
  6
CONTINUOUS
 70
0
 71
3
 72
12
 73
8
 74
0
 42
0.0000001
 43
0.0000001
 44
0.0000000001
 40
0.0
 40
0.0
 40
0.0
 40
0.0
 40
0.2499271706
 40
0.3750434751
 40
0.5000942891
 40
0.7500809291
 40
1.0
 40
1.0
 40
1.0
 40
1.0
 10
14.7074004902
 20
13.0597579458
 30
0.0
 10
14.7074004902
 20
13.0802978667
 30
0.0
 10
14.7045609418
 20
13.1111993308
 30
0.0
 10
14.6956614737
 20
13.151352889
 30
0.0
 10
14.6836069603
 20
13.1906922185
 30
0.0
 10
14.6633619266
 20
13.2380611633
 30
0.0
 10
14.6429900725
 20
13.2738232688
 30
0.0
 10
14.6320562801
 20
13.2912104247
 30
0.0
  0
SPLINE
  5
518
100
AcDbEntity
  8
0
100
AcDbSpline
 62
7
  6
CONTINUOUS
 70
0
 71
3
 72
21
 73
17
 74
0
 42
0.0000001
 43
0.0000001
 44
0.0000000001
 40
0.0
 40
0.0
 40
0.0
 40
0.0
 40
0.1418036009
 40
0.2085172763
 40
0.2721412473
 40
0.3326751245
 40
0.3903572991
 40
0.4458028798
 40
0.5000001819
 40
0.5541975235
 40
0.609643127
 40
0.6673252278
 40
0.7278589383
 40
0.7914828058
 40
0.8581963922
 40
1.0
 40
1.0
 40
1.0
 40
1.0
 10
14.6320562801
 20
13.4584507962
 30
0.0
 10
14.6426125168
 20
13.4668441754
 30
0.0
 10
14.6576182048
 20
13.4799047917
 30
0.0
 10
14.675228324
 20
13.4989046322
 30
0.0
 10
14.6863755643
 20
13.513268434
 30
0.0
 10
14.6954707394
 20
13.5280253753
 30
0.0
 10
14.702245458
 20
13.5431500003
 30
0.0
 10
14.7064472568
 20
13.558575001
 30
0.0
 10
14.7078686557
 20
13.5741770909
 30
0.0
 10
14.7064472647
 20
13.5897791906
 30
0.0
 10
14.7022453767
 20
13.6052041625
 30
0.0
 10
14.6954707349
 20
13.620328797
 30
0.0
 10
14.6863755164
 20
13.6350856776
 30
0.0
 10
14.6752283062
 20
13.6494494552
 30
0.0
 10
14.6576182003
 20
13.6684492859
 30
0.0
 10
14.6426125173
 20
13.6815098954
 30
0.0
 10
14.6320562801
 20
13.6899032751
 30
0.0
  0
SPLINE
  5
519
100
AcDbEntity
  8
0
100
AcDbSpline
 62
7
  6
CONTINUOUS
 70
0
 71
3
 72
12
 73
8
 74
0
 42
0.0000001
 43
0.0000001
 44
0.0000000001
 40
0.0
 40
0.0
 40
0.0
 40
0.0
 40
0.2499310118
 40
0.4999300144
 40
0.6249844355
 40
0.7500868315
 40
1.0
 40
1.0
 40
1.0
 40
1.0
 10
14.2858831391
 20
12.8283054669
 30
0.0
 10
14.2749488239
 20
12.8456934541
 30
0.0
 10
14.2545761961
 20
12.8814574962
 30
0.0
 10
14.2343324288
 20
12.9288295032
 30
0.0
 10
14.2222776818
 20
12.968168778
 30
0.0
 10
14.2133734755
 20
13.0083193692
 30
0.0
 10
14.210538929
 20
13.0392191749
 30
0.0
 10
14.210538929
 20
13.0597579458
 30
0.0
  0
SPLINE
  5
51A
100
AcDbEntity
  8
0
100
AcDbSpline
 62
7
  6
CONTINUOUS
 70
0
 71
3
 72
12
 73
8
 74
0
 42
0.0000001
 43
0.0000001
 44
0.0000000001
 40
0.0
 40
0.0
 40
0.0
 40
0.0
 40
0.2499231803
 40
0.3750351158
 40
0.5000868537
 40
0.7500774912
 40
1.0
 40
1.0
 40
1.0
 40
1.0
 10
14.210538929
 20
13.0597579458
 30
0.0
 10
14.210538929
 20
13.0802975318
 30
0.0
 10
14.2133767023
 20
13.1111985172
 30
0.0
 10
14.222277811
 20
13.1513511295
 30
0.0
 10
14.2343330616
 20
13.1906902193
 30
0.0
 10
14.2545777597
 20
13.2380599703
 30
0.0
 10
14.2749492
 20
13.2738230355
 30
0.0
 10
14.2858831391
 20
13.2912104247
 30
0.0
  0
SPLINE
  5
51B
100
AcDbEntity
  8
0
100
AcDbSpline
 62
7
  6
CONTINUOUS
 70
0
 71
3
 72
21
 73
17
 74
0
 42
0.0000001
 43
0.0000001
 44
0.0000000001
 40
0.0
 40
0.0
 40
0.0
 40
0.0
 40
0.1418036009
 40
0.2085172763
 40
0.2721412473
 40
0.3326751245
 40
0.3903572991
 40
0.4458028798
 40
0.5000001819
 40
0.5541975235
 40
0.609643127
 40
0.6673252278
 40
0.7278589383
 40
0.7914828058
 40
0.8581963922
 40
1.0
 40
1.0
 40
1.0
 40
1.0
 10
14.2858831391
 20
13.6899032751
 30
0.0
 10
14.2753269024
 20
13.6815098958
 30
0.0
 10
14.2603212144
 20
13.6684492795
 30
0.0
 10
14.2427110952
 20
13.6494494391
 30
0.0
 10
14.2315638549
 20
13.6350856373
 30
0.0
 10
14.2224686798
 20
13.620328696
 30
0.0
 10
14.2156939612
 20
13.605204071
 30
0.0
 10
14.2114921624
 20
13.5897790703
 30
0.0
 10
14.2100707635
 20
13.5741769804
 30
0.0
 10
14.2114921545
 20
13.5585748806
 30
0.0
 10
14.2156940425
 20
13.5431499087
 30
0.0
 10
14.2224686843
 20
13.5280252743
 30
0.0
 10
14.2315639028
 20
13.5132683937
 30
0.0
 10
14.242711113
 20
13.498904616
 30
0.0
 10
14.2603212189
 20
13.4799047853
 30
0.0
 10
14.2753269019
 20
13.4668441758
 30
0.0
 10
14.2858831391
 20
13.4584507962
 30
0.0
  0
SPLINE
  5
51C
100
AcDbEntity
  8
0
100
AcDbSpline
 62
7
  6
CONTINUOUS
 70
0
 71
3
 72
14
 73
10
 74
0
 42
0.0000001
 43
0.0000001
 44
0.0000000001
 40
0.0
 40
0.0
 40
0.0
 40
0.0
 40
0.1162675031
 40
0.2548229704
 40
0.5573432541
 40
0.7013532628
 40
0.8282166675
 40
0.9297424156
 40
1.0
 40
1.0
 40
1.0
 40
1.0
 10
13.1710718835
 20
18.9903851185
 30
0.0
 10
13.1695416785
 20
18.9903851185
 30
0.0
 10
13.1661882278
 20
18.9905147041
 30
0.0
 10
13.1588755028
 20
18.9910983936
 30
0.0
 10
13.1512334898
 20
18.9920973987
 30
0.0
 10
13.1437993392
 20
18.9933940545
 30
0.0
 10
13.1389986034
 20
18.9943961629
 30
0.0
 10
13.1351971618
 20
18.995386211
 30
0.0
 10
13.1330420813
 20
18.9961022236
 30
0.0
 10
13.1322066633
 20
18.9964985599
 30
0.0
  0
SPLINE
  5
51D
100
AcDbEntity
  8
0
100
AcDbSpline
 62
7
  6
CONTINUOUS
 70
0
 71
3
 72
9
 73
5
 74
0
 42
0.0000001
 43
0.0000001
 44
0.0000000001
 40
0.0
 40
0.0
 40
0.0
 40
0.0
 40
0.6513928778
 40
1.0
 40
1.0
 40
1.0
 40
1.0
 10
13.1322066633
 20
18.9964985599
 30
0.0
 10
13.1318973181
 20
18.9966453186
 30
0.0
 10
13.1314492895
 20
18.9968663407
 30
0.0
 10
13.1310269222
 20
18.9973030706
 30
0.0
 10
13.1310258721
 20
18.9974863064
 30
0.0
  0
SPLINE
  5
51E
100
AcDbEntity
  8
0
100
AcDbSpline
 62
7
  6
CONTINUOUS
 70
0
 71
3
 72
9
 73
5
 74
0
 42
0.0000001
 43
0.0000001
 44
0.0000000001
 40
0.0
 40
0.0
 40
0.0
 40
0.0
 40
0.5724030103
 40
1.0
 40
1.0
 40
1.0
 40
1.0
 10
14.1376742021
 20
19.0501962686
 30
0.0
 10
14.1356746719
 20
19.0499646036
 30
0.0
 10
14.1321757179
 20
19.0496158616
 30
0.0
 10
14.1286613656
 20
19.0494036089
 30
0.0
 10
14.127157683
 20
19.0494036089
 30
0.0
  0
SPLINE
  5
51F
100
AcDbEntity
  8
0
100
AcDbSpline
 62
9
  6
CONTINUOUS
 70
0
 71
3
 72
13
 73
9
 74
0
 42
0.0000001
 43
0.0000001
 44
0.0000000001
 40
0.0
 40
0.0
 40
0.0
 40
0.0
 40
0.2888022306
 40
0.5630444762
 40
0.6914372465
 40
0.8096554015
 40
0.913622328
 40
1.0
 40
1.0
 40
1.0
 40
1.0
 10
10.796773715
 20
13.0582088649
 30
0.0
 10
10.7990079912
 20
13.0507781516
 30
0.0
 10
10.8033486456
 20
13.0362869279
 30
0.0
 10
10.8083748393
 20
13.0183996652
 30
0.0
 10
10.8117832883
 20
13.004826451
 30
0.0
 10
10.8137446989
 20
12.9956083774
 30
0.0
 10
10.8149506289
 20
12.9874031275
 30
0.0
 10
10.8151374954
 20
12.9822636642
 30
0.0
 10
10.8149487763
 20
12.9799506116
 30
0.0
  0
SPLINE
  5
520
100
AcDbEntity
  8
0
100
AcDbSpline
 62
9
  6
CONTINUOUS
 70
0
 71
3
 72
31
 73
27
 74
0
 42
0.0000001
 43
0.0000001
 44
0.0000000001
 40
0.0
 40
0.0
 40
0.0
 40
0.0
 40
0.0002746386
 40
0.0006172149
 40
0.0010962959
 40
0.0024629722
 40
0.0043726683
 40
0.0068233853
 40
0.0098131249
 40
0.0133398888
 40
0.0174016792
 40
0.0271223506
 40
0.038959165
 40
0.0528961542
 40
0.0689173566
 40
0.0870068168
 40
0.107148586
 40
0.1535251921
 40
0.2078699761
 40
0.2698741729
 40
0.3392077418
 40
0.4155410237
 40
0.4985447794
 40
0.587889647
 40
0.7839724381
 40
1.0
 40
1.0
 40
1.0
 40
1.0
 10
12.9634973717
 20
11.911903836
 30
0.0
 10
12.9635226238
 20
11.9119144518
 30
0.0
 10
12.9635874934
 20
11.9118939829
 30
0.0
 10
12.96369504
 20
11.9118994838
 30
0.0
 10
12.9639141512
 20
11.9118863175
 30
0.0
 10
12.9642877584
 20
11.9118770305
 30
0.0
 10
12.9648589865
 20
11.9118551146
 30
0.0
 10
12.9655915242
 20
11.9118305221
 30
0.0
 10
12.9664854539
 20
11.9117997488
 30
0.0
 10
12.967539931
 20
11.9117643462
 30
0.0
 10
12.9692654299
 20
11.9117070407
 30
0.0
 10
12.9718193784
 20
11.9116242228
 30
0.0
 10
12.9753578867
 20
11.9115128155
 30
0.0
 10
12.9795246287
 20
11.9113856799
 30
0.0
 10
12.9843148681
 20
11.911244204
 30
0.0
 10
12.9897238644
 20
11.9110897949
 30
0.0
 10
12.998159547
 20
11.910857423
 30
0.0
 10
13.0102105151
 20
11.9105442353
 30
0.0
 10
13.0264363353
 20
11.9101566531
 30
0.0
 10
13.0449523648
 20
11.9097630578
 30
0.0
 10
13.0656622794
 20
11.9093842376
 30
0.0
 10
13.0884676142
 20
11.9090416235
 30
0.0
 10
13.1132698402
 20
11.9087559551
 30
0.0
 10
13.1500166084
 20
11.9084732197
 30
0.0
 10
13.2000326295
 20
11.9083771614
 30
0.0
 10
13.2411368862
 20
11.9085262811
 30
0.0
 10
13.2626833499
 20
11.9086525123
 30
0.0
  0
SPLINE
  5
521
100
AcDbEntity
  8
0
100
AcDbSpline
 62
9
  6
CONTINUOUS
 70
0
 71
3
 72
22
 73
18
 74
0
 42
0.0000001
 43
0.0000001
 44
0.0000000001
 40
0.0
 40
0.0
 40
0.0
 40
0.0
 40
0.0026056388
 40
0.0100050118
 40
0.0216888868
 40
0.0371500949
 40
0.0558840797
 40
0.0773895791
 40
0.1268288584
 40
0.1829905688
 40
0.2444067634
 40
0.3096757801
 40
0.3775719917
 40
0.5200309636
 40
0.6713185185
 40
0.831347839
 40
1.0
 40
1.0
 40
1.0
 40
1.0
 10
13.1067923296
 20
18.7543267298
 30
0.0
 10
13.1068079723
 20
18.7543062115
 30
0.0
 10
13.1068079116
 20
18.7541989852
 30
0.0
 10
13.1068794823
 20
18.754000201
 30
0.0
 10
13.1069523941
 20
18.7536633278
 30
0.0
 10
13.1070740092
 20
18.7532265272
 30
0.0
 10
13.1072219073
 20
18.7526948386
 30
0.0
 10
13.1074767819
 20
18.7518442842
 30
0.0
 10
13.1078721351
 20
18.7506489502
 30
0.0
 10
13.1084540813
 20
18.7491004718
 30
0.0
 10
13.1091586436
 20
18.7474320762
 30
0.0
 10
13.1099858765
 20
18.7456911053
 30
0.0
 10
13.1112806422
 20
18.7432873726
 30
0.0
 10
13.1132217171
 20
18.7402701912
 30
0.0
 10
13.1160220583
 20
18.736746945
 30
0.0
 10
13.1193371596
 20
18.7333311743
 30
0.0
 10
13.1218244427
 20
18.7312228226
 30
0.0
 10
13.1231479949
 20
18.730204447
 30
0.0
  0
SPLINE
  5
522
100
AcDbEntity
  8
0
100
AcDbSpline
 62
9
  6
CONTINUOUS
 70
0
 71
3
 72
9
 73
5
 74
0
 42
0.0000001
 43
0.0000001
 44
0.0000000001
 40
0.0
 40
0.0
 40
0.0
 40
0.0
 40
0.233683828
 40
1.0
 40
1.0
 40
1.0
 40
1.0
 10
13.1231479949
 20
18.730204447
 30
0.0
 10
13.124032054
 20
18.7295242288
 30
0.0
 10
13.1279070014
 20
18.7267328777
 30
0.0
 10
13.1321381348
 20
18.724451797
 30
0.0
 10
13.1354762551
 20
18.7229560212
 30
0.0
  0
SPLINE
  5
523
100
AcDbEntity
  8
0
100
AcDbSpline
 62
9
  6
CONTINUOUS
 70
0
 71
3
 72
9
 73
5
 74
0
 42
0.0000001
 43
0.0000001
 44
0.0000000001
 40
0.0
 40
0.0
 40
0.0
 40
0.0
 40
0.2535949354
 40
1.0
 40
1.0
 40
1.0
 40
1.0
 10
11.1781443874
 20
13.0925014463
 30
0.0
 10
11.1759850432
 20
13.0906181654
 30
0.0
 10
11.1675477572
 20
13.0831024175
 30
0.0
 10
11.159336943
 20
13.0753391889
 30
0.0
 10
11.153158721
 20
13.0695991067
 30
0.0
  0
LINE
  5
524
100
AcDbEntity
  8
0
100
AcDbLine
 62
9
  6
CONTINUOUS
 10
10.8545999516
 20
13.010229013
 11
10.8548166846
 21
13.0121271811
  0
SPLINE
  5
525
100
AcDbEntity
  8
0
100
AcDbSpline
 62
9
  6
CONTINUOUS
 70
0
 71
3
 72
15
 73
11
 74
0
 42
0.0000001
 43
0.0000001
 44
0.0000000001
 40
0.0
 40
0.0
 40
0.0
 40
0.0
 40
0.0799752411
 40
0.1273272924
 40
0.1793956712
 40
0.295455492
 40
0.4237509621
 40
0.5605624247
 40
0.7032775126
 40
1.0
 40
1.0
 40
1.0
 40
1.0
 10
10.8548167535
 20
13.0121271877
 30
0.0
 10
10.8550394276
 20
13.01406691
 30
0.0
 10
10.8544837263
 20
13.0172428218
 30
0.0
 10
10.8528810573
 20
13.0213084143
 30
0.0
 10
10.8504494609
 20
13.0259877504
 30
0.0
 10
10.8463869596
 20
13.0319957068
 30
0.0
 10
10.8405470426
 20
13.0392475929
 30
0.0
 10
10.8338918854
 20
13.0466572811
 30
0.0
 10
10.8241284094
 20
13.0567881294
 30
0.0
 10
10.8164154886
 20
13.0642487802
 30
0.0
 10
10.8111670216
 20
13.0692416632
 30
0.0
  0
SPLINE
  5
526
100
AcDbEntity
  8
0
100
AcDbSpline
 62
9
  6
CONTINUOUS
 70
0
 71
3
 72
9
 73
5
 74
0
 42
0.0000001
 43
0.0000001
 44
0.0000000001
 40
0.0
 40
0.0
 40
0.0
 40
0.0
 40
0.2468703235
 40
1.0
 40
1.0
 40
1.0
 40
1.0
 10
10.8111679178
 20
13.0692425079
 30
0.0
 10
10.8091439266
 20
13.0711694511
 30
0.0
 10
10.8009646671
 20
13.078994675
 30
0.0
 10
10.7927605354
 20
13.0867982677
 30
0.0
 10
10.7864243885
 20
13.0925023297
 30
0.0
  0
LINE
  5
527
100
AcDbEntity
  8
0
100
AcDbLine
 62
9
  6
CONTINUOUS
 10
11.1673608887
 20
13.0584587983
 11
11.1781448998
 21
13.0925007854
  0
SPLINE
  5
528
100
AcDbEntity
  8
0
100
AcDbSpline
 62
9
  6
CONTINUOUS
 70
0
 71
3
 72
13
 73
9
 74
0
 42
0.0000001
 43
0.0000001
 44
0.0000000001
 40
0.0
 40
0.0
 40
0.0
 40
0.0
 40
0.0881419586
 40
0.1931958287
 40
0.311836239
 40
0.4401196796
 40
0.7131305721
 40
1.0
 40
1.0
 40
1.0
 40
1.0
 10
11.1479229437
 20
12.9805054032
 30
0.0
 10
11.1478356539
 20
12.9828708686
 30
0.0
 10
11.1481879869
 20
12.9880707801
 30
0.0
 10
11.149586357
 20
12.9963308271
 30
0.0
 10
11.1517123392
 20
13.0055456996
 30
0.0
 10
11.155312882
 20
13.0190371877
 30
0.0
 10
11.1605476979
 20
13.0367638154
 30
0.0
 10
11.1650464682
 20
13.0511106581
 30
0.0
 10
11.1673618208
 20
13.05845845
 30
0.0
  0
SPLINE
  5
529
100
AcDbEntity
  8
0
100
AcDbSpline
 62
9
  6
CONTINUOUS
 70
0
 71
3
 72
10
 73
6
 74
0
 42
0.0000001
 43
0.0000001
 44
0.0000000001
 40
0.0
 40
0.0
 40
0.0
 40
0.0
 40
0.546719189
 40
0.7884594532
 40
1.0
 40
1.0
 40
1.0
 40
1.0
 10
11.178145779
 20
12.6981400044
 30
0.0
 10
11.1745987216
 20
12.7029364594
 30
0.0
 10
11.1692828926
 20
12.7097165388
 30
0.0
 10
11.1619623504
 20
12.717811698
 30
0.0
 10
11.1584245742
 20
12.7212777436
 30
0.0
 10
11.1566907993
 20
12.7228015346
 30
0.0
  0
LINE
  5
52A
100
AcDbEntity
  8
0
100
AcDbLine
 62
9
  6
CONTINUOUS
 10
13.2633761146
 20
11.8645562312
 11
12.9634972687
 21
11.8684193631
  0
SPLINE
  5
52B
100
AcDbEntity
  8
0
100
AcDbSpline
 62
9
  6
CONTINUOUS
 70
0
 71
3
 72
15
 73
11
 74
0
 42
0.0000001
 43
0.0000001
 44
0.0000000001
 40
0.0
 40
0.0
 40
0.0
 40
0.0
 40
0.0830944471
 40
0.1838613574
 40
0.2997759492
 40
0.4281831451
 40
0.5651567151
 40
0.7068932017
 40
0.8521126998
 40
1.0
 40
1.0
 40
1.0
 40
1.0
 10
11.1080231199
 20
13.0129838386
 30
0.0
 10
11.1082836981
 20
13.0150022457
 30
0.0
 10
11.1094942129
 20
13.0193833378
 30
0.0
 10
11.1126539445
 20
13.026040391
 30
0.0
 10
11.1174372991
 20
13.0330425699
 30
0.0
 10
11.1234841525
 20
13.0401685592
 30
0.0
 10
11.130312438
 20
13.047436936
 30
0.0
 10
11.1375821184
 20
13.0548511536
 30
0.0
 10
11.1452154176
 20
13.0622795699
 30
0.0
 10
11.1504756312
 20
13.067165923
 30
0.0
 10
11.1531587763
 20
13.0695990556
 30
0.0
  0
SPLINE
  5
52C
100
AcDbEntity
  8
0
100
AcDbSpline
 62
9
  6
CONTINUOUS
 70
0
 71
3
 72
9
 73
5
 74
0
 42
0.0000001
 43
0.0000001
 44
0.0000000001
 40
0.0
 40
0.0
 40
0.0
 40
0.0
 40
0.2605960134
 40
1.0
 40
1.0
 40
1.0
 40
1.0
 10
11.153157472
 20
13.0695978014
 30
0.0
 10
11.1544454319
 20
13.0687027824
 30
0.0
 10
11.1593317014
 20
13.0651884142
 30
0.0
 10
11.1640262956
 20
13.0614063297
 30
0.0
 10
11.1673612113
 20
13.0584598068
 30
0.0
  0
SPLINE
  5
52D
100
AcDbEntity
  8
0
100
AcDbSpline
 62
9
  6
CONTINUOUS
 70
0
 71
3
 72
12
 73
8
 74
0
 42
0.0000001
 43
0.0000001
 44
0.0000000001
 40
0.0
 40
0.0
 40
0.0
 40
0.0
 40
0.1267594393
 40
0.2595458417
 40
0.3939571715
 40
0.5264219103
 40
1.0
 40
1.0
 40
1.0
 40
1.0
 10
11.1080231203
 20
13.0129838085
 30
0.0
 10
11.1103761692
 20
13.0129916993
 30
0.0
 10
11.1152021183
 20
13.0125678689
 30
0.0
 10
11.1223256463
 20
13.0108123447
 30
0.0
 10
11.1292037213
 20
13.0079123788
 30
0.0
 10
11.140761531
 20
13.0004785136
 30
0.0
 10
11.147218159
 20
12.9892683214
 30
0.0
 10
11.147923109
 20
12.9805055016
 30
0.0
  0
SPLINE
  5
52E
100
AcDbEntity
  8
0
100
AcDbSpline
 62
7
  6
CONTINUOUS
 70
0
 71
3
 72
13
 73
9
 74
0
 42
0.0000001
 43
0.0000001
 44
0.0000000001
 40
0.0
 40
0.0
 40
0.0
 40
0.0
 40
0.096542605
 40
0.1812987072
 40
0.2935887608
 40
0.4328791431
 40
0.5980112011
 40
1.0
 40
1.0
 40
1.0
 40
1.0
 10
13.0555138354
 20
19.0506248742
 30
0.0
 10
13.0555156145
 20
19.0503981036
 30
0.0
 10
13.0550849661
 20
19.0500732353
 30
0.0
 10
13.0544583125
 20
19.0498766528
 30
0.0
 10
13.0536748474
 20
19.0497009031
 30
0.0
 10
13.0527080286
 20
19.0495719938
 30
0.0
 10
13.0510522675
 20
19.0494322438
 30
0.0
 10
13.0497198381
 20
19.0494036089
 30
0.0
 10
13.0487755702
 20
19.0494036089
 30
0.0
  0
SPLINE
  5
52F
100
AcDbEntity
  8
0
100
AcDbSpline
 62
9
  6
CONTINUOUS
 70
0
 71
3
 72
16
 73
12
 74
0
 42
0.0000001
 43
0.0000001
 44
0.0000000001
 40
0.0
 40
0.0
 40
0.0
 40
0.0
 40
0.1747304758
 40
0.3082572365
 40
0.5157967133
 40
0.6733094912
 40
0.794394884
 40
0.8851570128
 40
0.9488536417
 40
0.987140527
 40
1.0
 40
1.0
 40
1.0
 40
1.0
 10
6.9952724723
 20
9.9479458407
 30
0.0
 10
6.9711476386
 20
9.9501622859
 30
0.0
 10
6.9286467959
 20
9.9547127651
 30
0.0
 10
6.8576075857
 20
9.962940958
 30
0.0
 10
6.7889189448
 20
9.9707438117
 30
0.0
 10
6.7217930616
 20
9.9769302187
 30
0.0
 10
6.6706727887
 20
9.9801409274
 30
0.0
 10
6.6324775363
 20
9.9812463452
 30
0.0
 10
6.6057465174
 20
9.9810863389
 30
0.0
 10
6.5898367454
 20
9.9803991964
 30
0.0
 10
6.5827598088
 20
9.9799171166
 30
0.0
 10
6.5809858173
 20
9.9797384092
 30
0.0
  0
SPLINE
  5
530
100
AcDbEntity
  8
0
100
AcDbSpline
 62
7
  6
CONTINUOUS
 70
0
 71
3
 72
13
 73
9
 74
0
 42
0.0000001
 43
0.0000001
 44
0.0000000001
 40
0.0
 40
0.0
 40
0.0
 40
0.0
 40
0.0968999662
 40
0.2205862894
 40
0.5109686251
 40
0.7945578967
 40
0.9108535087
 40
1.0
 40
1.0
 40
1.0
 40
1.0
 10
13.9443955826
 20
18.9903851185
 30
0.0
 10
13.9456931903
 20
18.9903851185
 30
0.0
 10
13.9486462213
 20
18.9905260468
 30
0.0
 10
13.9554628324
 20
18.9911265721
 30
0.0
 10
13.9647244271
 20
18.9923868266
 30
0.0
 10
13.9738324829
 20
18.9939874313
 30
0.0
 10
13.9802247504
 20
18.9954117638
 30
0.0
 10
13.9828861055
 20
18.9961185605
 30
0.0
 10
13.9840230177
 20
18.9964826203
 30
0.0
  0
SPLINE
  5
531
100
AcDbEntity
  8
0
100
AcDbSpline
 62
7
  6
CONTINUOUS
 70
0
 71
3
 72
11
 73
7
 74
0
 42
0.0000001
 43
0.0000001
 44
0.0000000001
 40
0.0
 40
0.0
 40
0.0
 40
0.0
 40
0.3972537066
 40
0.6950478902
 40
0.8925598422
 40
1.0
 40
1.0
 40
1.0
 40
1.0
 10
13.9840230177
 20
18.9964826203
 30
0.0
 10
13.9844143389
 20
18.9966079285
 30
0.0
 10
13.9850928727
 20
18.9968368478
 30
0.0
 10
13.9859521329
 20
18.9972058986
 30
0.0
 10
13.9864808889
 20
18.9974953647
 30
0.0
 10
13.9867241706
 20
18.9977630115
 30
0.0
 10
13.9867232525
 20
18.9978741371
 30
0.0
  0
SPLINE
  5
532
100
AcDbEntity
  8
0
100
AcDbSpline
 62
7
  6
CONTINUOUS
 70
0
 71
3
 72
13
 73
9
 74
0
 42
0.0000001
 43
0.0000001
 44
0.0000000001
 40
0.0
 40
0.0
 40
0.0
 40
0.0
 40
0.4045631038
 40
0.5697871037
 40
0.7085649324
 40
0.8199055745
 40
0.9035024166
 40
1.0
 40
1.0
 40
1.0
 40
1.0
 10
13.1710718835
 20
18.9903851185
 30
0.0
 10
13.171912977
 20
18.9903851185
 30
0.0
 10
13.1730978955
 20
18.9904099428
 30
0.0
 10
13.1745676785
 20
18.9905340414
 30
0.0
 10
13.1754208091
 20
18.9906487332
 30
0.0
 10
13.1761074488
 20
18.9908052153
 30
0.0
 10
13.176659302
 20
18.9909832019
 30
0.0
 10
13.1770268011
 20
18.991276669
 30
0.0
 10
13.1770257983
 20
18.9914772866
 30
0.0
  0
LINE
  5
533
100
AcDbEntity
  8
0
100
AcDbLine
 62
9
  6
CONTINUOUS
 10
11.1493594852
 20
12.7251388861
 11
11.1488353625
 21
12.8314041113
  0
LINE
  5
534
100
AcDbEntity
  8
0
100
AcDbLine
 62
9
  6
CONTINUOUS
 10
11.1488353625
 20
12.8314041113
 11
11.1485900974
 21
12.8733692212
  0
LINE
  5
535
100
AcDbEntity
  8
0
100
AcDbLine
 62
9
  6
CONTINUOUS
 10
11.1485900974
 20
12.8733692212
 11
11.147963008
 21
12.9766674259
  0
SPLINE
  5
536
100
AcDbEntity
  8
0
100
AcDbSpline
 62
9
  6
CONTINUOUS
 70
0
 71
3
 72
26
 73
22
 74
0
 42
0.0000001
 43
0.0000001
 44
0.0000000001
 40
0.0
 40
0.0
 40
0.0
 40
0.0
 40
0.1554004966
 40
0.2197793713
 40
0.2787219301
 40
0.4790129459
 40
0.5633139801
 40
0.6390163186
 40
0.7069619968
 40
0.7675590847
 40
0.8210731651
 40
0.8676353981
 40
0.9073219329
 40
0.9401274163
 40
0.9539374546
 40
0.9659939052
 40
0.9762701461
 40
0.984739315
 40
0.9913743169
 40
0.99614783
 40
1.0
 40
1.0
 40
1.0
 40
1.0
 10
7.4112482642
 20
10.12417702
 30
0.0
 10
7.3867475876
 20
10.1289495723
 30
0.0
 10
7.3523228024
 20
10.1368526168
 30
0.0
 10
7.3089048929
 20
10.1477643613
 30
0.0
 10
7.2586141673
 20
10.1609133476
 30
0.0
 10
7.2053706612
 20
10.1754053471
 30
0.0
 10
7.1494353173
 20
10.1902532255
 30
0.0
 10
7.1139868992
 20
10.1994206998
 30
0.0
 10
7.0821503471
 20
10.2073427075
 30
0.0
 10
7.0537022144
 20
10.2141159315
 30
0.0
 10
7.028529542
 20
10.2198113155
 30
0.0
 10
7.0065772665
 20
10.2245088258
 30
0.0
 10
6.9878271675
 20
10.2282798027
 30
0.0
 10
6.9742083628
 20
10.2308421067
 30
0.0
 10
6.9649209553
 20
10.2324895354
 30
0.0
 10
6.9592174189
 20
10.2334640644
 30
0.0
 10
6.9542786899
 20
10.2342730283
 30
0.0
 10
6.9504096559
 20
10.2348876171
 30
0.0
 10
6.9468437929
 20
10.2354193066
 30
0.0
 10
6.9454148489
 20
10.2356413794
 30
0.0
 10
6.9421117656
 20
10.2360845371
 30
0.0
 10
6.9427253943
 20
10.2360050605
 30
0.0
  0
SPLINE
  5
537
100
AcDbEntity
  8
0
100
AcDbSpline
 62
9
  6
CONTINUOUS
 70
0
 71
3
 72
11
 73
7
 74
0
 42
0.0000001
 43
0.0000001
 44
0.0000000001
 40
0.0
 40
0.0
 40
0.0
 40
0.0
 40
0.2331952356
 40
0.4821962897
 40
0.7404282376
 40
1.0
 40
1.0
 40
1.0
 40
1.0
 10
13.9129687644
 20
12.0650458367
 30
0.0
 10
13.907539612
 20
12.053960341
 30
0.0
 10
13.8979116682
 20
12.0302367642
 30
0.0
 10
13.8874601503
 20
11.9923810777
 30
0.0
 10
13.8810678663
 20
11.9522227978
 30
0.0
 10
13.8794944908
 20
11.9248060051
 30
0.0
 10
13.8794094394
 20
11.9110665184
 30
0.0
  0
LINE
  5
538
100
AcDbEntity
  8
0
100
AcDbLine
 62
9
  6
CONTINUOUS
 10
6.1929369648
 20
9.2774795516
 11
6.2154895508
 21
9.2773474329
  0
SPLINE
  5
539
100
AcDbEntity
  8
0
100
AcDbSpline
 62
9
  6
CONTINUOUS
 70
0
 71
3
 72
25
 73
21
 74
0
 42
0.0000001
 43
0.0000001
 44
0.0000000001
 40
0.0
 40
0.0
 40
0.0
 40
0.0
 40
0.1030764764
 40
0.1763822997
 40
0.268141279
 40
0.3224288109
 40
0.3836659693
 40
0.4531233328
 40
0.5325452515
 40
0.6244748076
 40
0.6760467
 40
0.7319573712
 40
0.7927293474
 40
0.8249332205
 40
0.8582886669
 40
0.8926529296
 40
0.9278645737
 40
0.9457436811
 40
0.9637825625
 40
1.0
 40
1.0
 40
1.0
 40
1.0
 10
6.2154895508
 20
9.2773474329
 30
0.0
 10
6.2264268873
 20
9.2772983838
 30
0.0
 10
6.2451427138
 20
9.2772343276
 30
0.0
 10
6.2735950634
 20
9.27715031
 30
0.0
 10
6.2968704105
 20
9.2770711007
 30
0.0
 10
6.3188650775
 20
9.276974028
 30
0.0
 10
6.3384931258
 20
9.2768462224
 30
0.0
 10
6.3607877875
 20
9.276655732
 30
0.0
 10
6.3863381629
 20
9.2763354334
 30
0.0
 10
6.4099879958
 20
9.275857292
 30
0.0
 10
6.431140289
 20
9.2752934721
 30
0.0
 10
6.4489817213
 20
9.274626315
 30
0.0
 10
6.4647621524
 20
9.273869927
 30
0.0
 10
6.4781484258
 20
9.2731607076
 30
0.0
 10
6.4887343685
 20
9.2725621786
 30
0.0
 10
6.4996341309
 20
9.2718558518
 30
0.0
 10
6.5088839603
 20
9.2711177305
 30
0.0
 10
6.5164062497
 20
9.2704789913
 30
0.0
 10
6.5240284644
 20
9.2698659116
 30
0.0
 10
6.5297979615
 20
9.2693580978
 30
0.0
 10
6.5335364086
 20
9.2684676404
 30
0.0
  0
LINE
  5
53A
100
AcDbEntity
  8
0
100
AcDbLine
 62
9
  6
CONTINUOUS
 10
6.190811974
 20
9.2618937644
 11
6.2541210024
 21
9.2621055536
  0
SPLINE
  5
53B
100
AcDbEntity
  8
0
100
AcDbSpline
 62
9
  6
CONTINUOUS
 70
0
 71
3
 72
14
 73
10
 74
0
 42
0.0000001
 43
0.0000001
 44
0.0000000001
 40
0.0
 40
0.0
 40
0.0
 40
0.0
 40
0.134299772
 40
0.3199467781
 40
0.4409280016
 40
0.5891532296
 40
0.775166861
 40
0.8841797888
 40
1.0
 40
1.0
 40
1.0
 40
1.0
 10
6.2541210024
 20
9.2621055536
 30
0.0
 10
6.2666339655
 20
9.2621350636
 30
0.0
 10
6.2964440172
 20
9.262202339
 30
0.0
 10
6.3375259811
 20
9.2623538852
 30
0.0
 10
6.3799046699
 20
9.2626732311
 30
0.0
 10
6.4223143053
 20
9.2632776599
 30
0.0
 10
6.4636023469
 20
9.2643471844
 30
0.0
 10
6.5018419618
 20
9.2661239867
 30
0.0
 10
6.522745466
 20
9.2675440208
 30
0.0
 10
6.5334972687
 20
9.2684654955
 30
0.0
  0
SPLINE
  5
53C
100
AcDbEntity
  8
0
100
AcDbSpline
 62
9
  6
CONTINUOUS
 70
0
 71
3
 72
14
 73
10
 74
0
 42
0.0000001
 43
0.0000001
 44
0.0000000001
 40
0.0
 40
0.0
 40
0.0
 40
0.0
 40
0.1114435464
 40
0.2301816288
 40
0.4801926556
 40
0.6108995774
 40
0.7435053885
 40
0.8746200059
 40
1.0
 40
1.0
 40
1.0
 40
1.0
 10
10.8149484529
 20
12.9799484896
 30
0.0
 10
10.8151175842
 20
12.9820278172
 30
0.0
 10
10.8159778884
 20
12.9862915504
 30
0.0
 10
10.8194439238
 20
12.9946209706
 30
0.0
 10
10.8255269642
 20
13.0021267094
 30
0.0
 10
10.8336741478
 20
13.0073235432
 30
0.0
 10
10.8405379918
 20
13.0101405321
 30
0.0
 10
10.8476551903
 20
13.0118113949
 30
0.0
 10
10.8524700329
 20
13.0121684356
 30
0.0
 10
10.8548167516
 20
13.0121271622
 30
0.0
  0
SPLINE
  5
53D
100
AcDbEntity
  8
0
100
AcDbSpline
 62
9
  6
CONTINUOUS
 70
0
 71
3
 72
12
 73
8
 74
0
 42
0.0000001
 43
0.0000001
 44
0.0000000001
 40
0.0
 40
0.0
 40
0.0
 40
0.0
 40
0.478364488
 40
0.6100998984
 40
0.7432661945
 40
0.8746036344
 40
1.0
 40
1.0
 40
1.0
 40
1.0
 10
10.8147328964
 20
12.9773052139
 30
0.0
 10
10.8154625063
 20
12.9862282584
 30
0.0
 10
10.8218257083
 20
12.9976831489
 30
0.0
 10
10.8334939961
 20
13.0052742967
 30
0.0
 10
10.8403699492
 20
13.0081731921
 30
0.0
 10
10.8474883154
 20
13.0098911586
 30
0.0
 10
10.8523067302
 20
13.0102657789
 30
0.0
 10
10.8546532823
 20
13.0102281434
 30
0.0
  0
LINE
  5
53E
100
AcDbEntity
  8
0
100
AcDbLine
 62
9
  6
CONTINUOUS
 10
10.8516160872
 20
12.9742390356
 11
10.854653348
 21
13.010228968
  0
SPLINE
  5
53F
100
AcDbEntity
  8
0
100
AcDbSpline
 62
9
  6
CONTINUOUS
 70
0
 71
3
 72
14
 73
10
 74
0
 42
0.0000001
 43
0.0000001
 44
0.0000000001
 40
0.0
 40
0.0
 40
0.0
 40
0.0
 40
0.2498364546
 40
0.3804700837
 40
0.5104617025
 40
0.6381348028
 40
0.7631745963
 40
0.8844494569
 40
1.0
 40
1.0
 40
1.0
 40
1.0
 10
11.1080110815
 20
13.0102288737
 30
0.0
 10
11.1124743143
 20
13.010239457
 30
0.0
 10
11.1193145798
 20
13.0090757657
 30
0.0
 10
11.1277946386
 20
13.0056725446
 30
0.0
 10
11.1337713062
 20
13.0020715454
 30
0.0
 10
11.1388640968
 20
12.9974438148
 30
0.0
 10
11.1428871762
 20
12.9920628942
 30
0.0
 10
11.1458206316
 20
12.9862692813
 30
0.0
 10
11.1470609402
 20
12.9821957776
 30
0.0
 10
11.1474685475
 20
12.9801721483
 30
0.0
  0
LINE
  5
540
100
AcDbEntity
  8
0
100
AcDbLine
 62
9
  6
CONTINUOUS
 10
11.1474685475
 20
12.9801721483
 11
11.147963008
 21
12.9766674254
  0
SPLINE
  5
541
100
AcDbEntity
  8
0
100
AcDbSpline
 62
9
  6
CONTINUOUS
 70
0
 71
3
 72
22
 73
18
 74
0
 42
0.0000001
 43
0.0000001
 44
0.0000000001
 40
0.0
 40
0.0
 40
0.0
 40
0.0
 40
0.0439335277
 40
0.0648157273
 40
0.0849569286
 40
0.1281978881
 40
0.1756997001
 40
0.2266368857
 40
0.2812715967
 40
0.3403959114
 40
0.4036647782
 40
0.5401040883
 40
0.6124546156
 40
0.6870385426
 40
0.7636208837
 40
0.8418645905
 40
1.0
 40
1.0
 40
1.0
 40
1.0
 10
11.1496067815
 20
12.5346370573
 30
0.0
 10
11.1496200147
 20
12.5339059312
 30
0.0
 10
11.1495768285
 20
12.5328205996
 30
0.0
 10
11.1492820951
 20
12.5314336535
 30
0.0
 10
11.1488132865
 20
12.5301092723
 30
0.0
 10
11.1480073405
 20
12.5284428849
 30
0.0
 10
11.1467166528
 20
12.5264613145
 30
0.0
 10
11.1450458112
 20
12.5245277287
 30
0.0
 10
11.1430154895
 20
12.5226799666
 30
0.0
 10
11.1406992401
 20
12.5208553906
 30
0.0
 10
11.1371339992
 20
12.5184313761
 30
0.0
 10
11.1331042543
 20
12.516321563
 30
0.0
 10
11.1287081349
 20
12.5146038962
 30
0.0
 10
11.1251501598
 20
12.5135067231
 30
0.0
 10
11.1214432608
 20
12.512585802
 30
0.0
 10
11.1163767428
 20
12.5113893935
 30
0.0
 10
11.1125194553
 20
12.5105427215
 30
0.0
 10
11.1099018649
 20
12.5102670739
 30
0.0
  0
SPLINE
  5
542
100
AcDbEntity
  8
0
100
AcDbSpline
 62
9
  6
CONTINUOUS
 70
0
 71
3
 72
13
 73
9
 74
0
 42
0.0000001
 43
0.0000001
 44
0.0000000001
 40
0.0
 40
0.0
 40
0.0
 40
0.0
 40
0.2596870771
 40
0.3885602627
 40
0.5151378437
 40
0.6394749242
 40
0.761923724
 40
1.0
 40
1.0
 40
1.0
 40
1.0
 10
11.1099018649
 20
12.5664493588
 30
0.0
 10
11.1146876534
 20
12.5664484374
 30
0.0
 10
11.1219168193
 20
12.5652316579
 30
0.0
 10
11.1306463187
 20
12.5614213457
 30
0.0
 10
11.1365132243
 20
12.5575363494
 30
0.0
 10
11.141520403
 20
12.5527562869
 30
0.0
 10
11.1467354025
 20
12.545458123
 30
0.0
 10
11.1490198632
 20
12.538985146
 30
0.0
 10
11.1496067815
 20
12.5346370573
 30
0.0
  0
SPLINE
  5
543
100
AcDbEntity
  8
0
100
AcDbSpline
 62
9
  6
CONTINUOUS
 70
0
 71
3
 72
14
 73
10
 74
0
 42
0.0000001
 43
0.0000001
 44
0.0000000001
 40
0.0
 40
0.0
 40
0.0
 40
0.0
 40
0.1374002182
 40
0.2728806552
 40
0.405937531
 40
0.5361038362
 40
0.6617496198
 40
0.7814488699
 40
1.0
 40
1.0
 40
1.0
 40
1.0
 10
11.1099018649
 20
12.1092488092
 30
0.0
 10
11.1112344016
 20
12.1091084891
 30
0.0
 10
11.1138790381
 20
12.1088159887
 30
0.0
 10
11.1178303156
 20
12.1085237684
 30
0.0
 10
11.1217244646
 20
12.1086201154
 30
0.0
 10
11.1254937003
 20
12.1090637723
 30
0.0
 10
11.1291044052
 20
12.1096840231
 30
0.0
 10
11.1335211692
 20
12.1106608637
 30
0.0
 10
11.1366897915
 20
12.1116299104
 30
0.0
 10
11.1386609258
 20
12.1124404424
 30
0.0
  0
SPLINE
  5
544
100
AcDbEntity
  8
0
100
AcDbSpline
 62
9
  6
CONTINUOUS
 70
0
 71
3
 72
10
 73
6
 74
0
 42
0.0000001
 43
0.0000001
 44
0.0000000001
 40
0.0
 40
0.0
 40
0.0
 40
0.0
 40
0.2815027848
 40
0.6655448489
 40
1.0
 40
1.0
 40
1.0
 40
1.0
 10
11.1386609258
 20
12.1124404424
 30
0.0
 10
11.1397107606
 20
12.1128721353
 30
0.0
 10
11.1421479745
 20
12.1140181445
 30
0.0
 10
11.1454323838
 20
12.1164086293
 30
0.0
 10
11.1473663444
 20
12.1186227348
 30
0.0
 10
11.1480643222
 20
12.1197767214
 30
0.0
  0
SPLINE
  5
545
100
AcDbEntity
  8
0
100
AcDbSpline
 62
9
  6
CONTINUOUS
 70
0
 71
3
 72
9
 73
5
 74
0
 42
0.0000001
 43
0.0000001
 44
0.0000000001
 40
0.0
 40
0.0
 40
0.0
 40
0.0
 40
0.518327548
 40
1.0
 40
1.0
 40
1.0
 40
1.0
 10
11.1480643222
 20
12.1197767214
 30
0.0
 10
11.1484535879
 20
12.1204203053
 30
0.0
 10
11.1490691016
 20
12.1217457635
 30
0.0
 10
11.1494389158
 20
12.1231597827
 30
0.0
 10
11.1495359781
 20
12.123851969
 30
0.0
  0
SPLINE
  5
546
100
AcDbEntity
  8
0
100
AcDbSpline
 62
9
  6
CONTINUOUS
 70
0
 71
3
 72
36
 73
32
 74
0
 42
0.0000001
 43
0.0000001
 44
0.0000000001
 40
0.0
 40
0.0
 40
0.0
 40
0.0
 40
0.0928640599
 40
0.1378025325
 40
0.1810045153
 40
0.2614234237
 40
0.2985873003
 40
0.3336921315
 40
0.3982295575
 40
0.4561533125
 40
0.5560120642
 40
0.6394066077
 40
0.7099980178
 40
0.7702466938
 40
0.8216887206
 40
0.8654648624
 40
0.9023204502
 40
0.932815648
 40
0.945822837
 40
0.9573957939
 40
0.9675446326
 40
0.9762762211
 40
0.9835974437
 40
0.9895213662
 40
0.9940830058
 40
0.9958654294
 40
0.9973222446
 40
0.9984584846
 40
0.9992793001
 40
0.9997902737
 40
1.0
 40
1.0
 40
1.0
 40
1.0
 10
6.5406672654
 20
9.2684193631
 30
0.0
 10
6.5512545057
 20
9.2644896619
 30
0.0
 10
6.5669512479
 20
9.2586178217
 30
0.0
 10
6.5877635717
 20
9.251444175
 30
0.0
 10
6.6073463484
 20
9.2453736391
 30
0.0
 10
6.6263089893
 20
9.2405520805
 30
0.0
 10
6.6444525589
 20
9.2366039554
 30
0.0
 10
6.6607633476
 20
9.2333230802
 30
0.0
 10
6.6796294942
 20
9.2299593047
 30
0.0
 10
6.7063462428
 20
9.2258072805
 30
0.0
 10
6.7354207468
 20
9.2219389957
 30
0.0
 10
6.7660350881
 20
9.2179805638
 30
0.0
 10
6.7918787867
 20
9.21468678
 30
0.0
 10
6.8138730648
 20
9.2119253327
 30
0.0
 10
6.8326277888
 20
9.2095381135
 30
0.0
 10
6.848553878
 20
9.2074587744
 30
0.0
 10
6.8619493373
 20
9.205673227
 30
0.0
 10
6.87163347
 20
9.2043643763
 30
0.0
 10
6.8782693988
 20
9.2034575268
 30
0.0
 10
6.8824533796
 20
9.2028824169
 30
0.0
 10
6.8861221326
 20
9.2023771514
 30
0.0
 10
6.8892788565
 20
9.2019439276
 30
0.0
 10
6.8919272237
 20
9.2015848145
 30
0.0
 10
6.8940739109
 20
9.2013014483
 30
0.0
 10
6.8955537848
 20
9.2011099646
 30
0.0
 10
6.8964938302
 20
9.2009861939
 30
0.0
 10
6.8970223696
 20
9.2009164565
 30
0.0
 10
6.8974304456
 20
9.2008559755
 30
0.0
 10
6.8977340681
 20
9.2008162668
 30
0.0
 10
6.8979055044
 20
9.2007710449
 30
0.0
 10
6.8980056065
 20
9.2007617587
 30
0.0
 10
6.8980206161
 20
9.2007411386
 30
0.0
  0
SPLINE
  5
547
100
AcDbEntity
  8
0
100
AcDbSpline
 62
9
  6
CONTINUOUS
 70
0
 71
3
 72
14
 73
10
 74
0
 42
0.0000001
 43
0.0000001
 44
0.0000000001
 40
0.0
 40
0.0
 40
0.0
 40
0.0
 40
0.1245059942
 40
0.2493918226
 40
0.3745734939
 40
0.4997095333
 40
0.6246986272
 40
0.7496703866
 40
1.0
 40
1.0
 40
1.0
 40
1.0
 10
13.8160681309
 20
12.2803353485
 30
0.0
 10
13.82646321
 20
12.2886311946
 30
0.0
 10
13.846560441
 20
12.3061712397
 30
0.0
 10
13.8746950743
 20
12.3346596155
 30
0.0
 10
13.9010809986
 20
12.3648533189
 30
0.0
 10
13.9260200936
 20
12.3962572942
 30
0.0
 10
13.9495647148
 20
12.4286940396
 30
0.0
 10
13.9790476476
 20
12.4732797403
 30
0.0
 10
13.998984624
 20
12.5081331356
 30
0.0
 10
14.0112856325
 20
12.5318756592
 30
0.0
  0
SPLINE
  5
548
100
AcDbEntity
  8
0
100
AcDbSpline
 62
9
  6
CONTINUOUS
 70
0
 71
3
 72
13
 73
9
 74
0
 42
0.0000001
 43
0.0000001
 44
0.0000000001
 40
0.0
 40
0.0
 40
0.0
 40
0.0
 40
0.2488885373
 40
0.4979770484
 40
0.6227861788
 40
0.7479339957
 40
0.8736254436
 40
1.0
 40
1.0
 40
1.0
 40
1.0
 10
14.0221566783
 20
13.5871415838
 30
0.0
 10
14.0092316459
 20
13.613277921
 30
0.0
 10
13.9810235782
 20
13.6644529252
 30
0.0
 10
13.9394574905
 20
13.7246047267
 30
0.0
 10
13.9021212507
 20
13.7696337125
 30
0.0
 10
13.8720248582
 20
13.8017814043
 30
0.0
 10
13.8398459486
 20
13.8321059245
 30
0.0
 10
13.8171036486
 20
13.8509883123
 30
0.0
 10
13.8053424232
 20
13.8599804992
 30
0.0
  0
SPLINE
  5
549
100
AcDbEntity
  8
0
100
AcDbSpline
 62
9
  6
CONTINUOUS
 70
0
 71
3
 72
9
 73
5
 74
0
 42
0.0000001
 43
0.0000001
 44
0.0000000001
 40
0.0
 40
0.0
 40
0.0
 40
0.0
 40
0.5435432759
 40
1.0
 40
1.0
 40
1.0
 40
1.0
 10
10.7798566802
 20
12.1232502186
 30
0.0
 10
10.7799969168
 20
12.1224994834
 30
0.0
 10
10.7803522065
 20
12.121120218
 30
0.0
 10
10.7810957387
 20
12.1199118709
 30
0.0
 10
10.7814632282
 20
12.1193862371
 30
0.0
  0
SPLINE
  5
54A
100
AcDbEntity
  8
0
100
AcDbSpline
 62
9
  6
CONTINUOUS
 70
0
 71
3
 72
14
 73
10
 74
0
 42
0.0000001
 43
0.0000001
 44
0.0000000001
 40
0.0
 40
0.0
 40
0.0
 40
0.0
 40
0.0879759132
 40
0.1872228265
 40
0.2969396109
 40
0.4190941069
 40
0.5535932193
 40
0.6972765164
 40
1.0
 40
1.0
 40
1.0
 40
1.0
 10
10.7814632282
 20
12.1193862371
 30
0.0
 10
10.7821501489
 20
12.118403709
 30
0.0
 10
10.7838209966
 20
12.1164474011
 30
0.0
 10
10.7870984583
 20
12.1140181805
 30
0.0
 10
10.7912062212
 20
12.112099474
 30
0.0
 10
10.7959790573
 20
12.1106095944
 30
0.0
 10
10.8012988615
 20
12.1093800203
 30
0.0
 10
10.8091590715
 20
12.1083091286
 30
0.0
 10
10.8152944992
 20
12.1086889685
 30
0.0
 10
10.8193815296
 20
12.109248785
 30
0.0
  0
SPLINE
  5
54B
100
AcDbEntity
  8
0
100
AcDbSpline
 62
9
  6
CONTINUOUS
 70
0
 71
3
 72
23
 73
19
 74
0
 42
0.0000001
 43
0.0000001
 44
0.0000000001
 40
0.0
 40
0.0
 40
0.0
 40
0.0
 40
0.1625100953
 40
0.3213891795
 40
0.4718880996
 40
0.5432408967
 40
0.61146602
 40
0.676016156
 40
0.7361557178
 40
0.7916742307
 40
0.8432699577
 40
0.8915545017
 40
0.9138141871
 40
0.9344446849
 40
0.9549498923
 40
0.9767197605
 40
0.9946230614
 40
1.0
 40
1.0
 40
1.0
 40
1.0
 10
10.8193815296
 20
12.5102670825
 30
0.0
 10
10.8167397822
 20
12.5106808814
 30
0.0
 10
10.8115524893
 20
12.5117226399
 30
0.0
 10
10.8039797139
 20
12.5134499979
 30
0.0
 10
10.7980357221
 20
12.5155005408
 30
0.0
 10
10.7937400518
 20
12.5175920444
 30
0.0
 10
10.7908412572
 20
12.519295605
 30
0.0
 10
10.7882366215
 20
12.5211148859
 30
0.0
 10
10.7859258568
 20
12.5229766594
 30
0.0
 10
10.7839251348
 20
12.5248725836
 30
0.0
 10
10.7822838508
 20
12.5268431825
 30
0.0
 10
10.7812394543
 20
12.5285712582
 30
0.0
 10
10.7805861193
 20
12.5299175862
 30
0.0
 10
10.7801782406
 20
12.5308907711
 30
0.0
 10
10.7798841751
 20
12.5318416273
 30
0.0
 10
10.7797139614
 20
12.5329832151
 30
0.0
 10
10.7796779323
 20
12.5333230832
 30
0.0
 10
10.7795903576
 20
12.5341421677
 30
0.0
 10
10.7795673681
 20
12.534056734
 30
0.0
  0
SPLINE
  5
54C
100
AcDbEntity
  8
0
100
AcDbSpline
 62
9
  6
CONTINUOUS
 70
0
 71
3
 72
13
 73
9
 74
0
 42
0.0000001
 43
0.0000001
 44
0.0000000001
 40
0.0
 40
0.0
 40
0.0
 40
0.0
 40
0.1224723386
 40
0.2415615966
 40
0.3623824955
 40
0.4857898303
 40
0.7393860475
 40
1.0
 40
1.0
 40
1.0
 40
1.0
 10
10.7795673681
 20
12.534056734
 30
0.0
 10
10.7797946299
 20
12.5363375738
 30
0.0
 10
10.7806848611
 20
12.5408101782
 30
0.0
 10
10.7834198298
 20
12.5470676025
 30
0.0
 10
10.7873443492
 20
12.5526732508
 30
0.0
 10
10.7940544896
 20
12.5592057813
 30
0.0
 10
10.8047889795
 20
12.565006222
 30
0.0
 10
10.8145041816
 20
12.5664911223
 30
0.0
 10
10.8193815296
 20
12.5664493894
 30
0.0
  0
LINE
  5
54D
100
AcDbEntity
  8
0
100
AcDbLine
 62
9
  6
CONTINUOUS
 10
10.7967741274
 20
13.0582099537
 11
10.7864231043
 21
13.0925008696
  0
LINE
  5
54E
100
AcDbEntity
  8
0
100
AcDbLine
 62
9
  6
CONTINUOUS
 10
13.8160637816
 20
12.280336011
 11
13.8034972306
 21
12.2797045132
  0
SPLINE
  5
54F
100
AcDbEntity
  8
0
100
AcDbSpline
 62
9
  6
CONTINUOUS
 70
0
 71
3
 72
11
 73
7
 74
0
 42
0.0000001
 43
0.0000001
 44
0.0000000001
 40
0.0
 40
0.0
 40
0.0
 40
0.0
 40
0.3048981213
 40
0.5709086834
 40
0.8059103436
 40
1.0
 40
1.0
 40
1.0
 40
1.0
 10
13.9315182853
 20
18.7229560243
 30
0.0
 10
13.9353372887
 20
18.7246673365
 30
0.0
 10
13.9422492776
 20
18.7284938278
 30
0.0
 10
13.9505983259
 20
18.7358800226
 30
0.0
 10
13.9562591753
 20
18.7436577127
 30
0.0
 10
13.9586253969
 20
18.74910028
 30
0.0
 10
13.9594455321
 20
18.7516348847
 30
0.0
  0
LINE
  5
550
100
AcDbEntity
  8
0
100
AcDbLine
 62
9
  6
CONTINUOUS
 10
13.9594455321
 20
18.7516348847
 11
13.960202219
 21
18.7543266544
  0
SPLINE
  5
551
100
AcDbEntity
  8
0
100
AcDbSpline
 62
9
  6
CONTINUOUS
 70
0
 71
3
 72
12
 73
8
 74
0
 42
0.0000001
 43
0.0000001
 44
0.0000000001
 40
0.0
 40
0.0
 40
0.0
 40
0.0
 40
0.2305809724
 40
0.475907896
 40
0.6039734576
 40
0.7348317923
 40
1.0
 40
1.0
 40
1.0
 40
1.0
 10
13.1354762551
 20
18.7229560212
 30
0.0
 10
13.1434716707
 20
18.7153785173
 30
0.0
 10
13.1576635142
 20
18.6971860804
 30
0.0
 10
13.1689775421
 20
18.670275959
 30
0.0
 10
13.1738539138
 20
18.6466260622
 30
0.0
 10
13.1759989131
 20
18.6216402772
 30
0.0
 10
13.1745407935
 20
18.6025924524
 30
0.0
 10
13.172289579
 20
18.5901260489
 30
0.0
  0
SPLINE
  5
552
100
AcDbEntity
  8
0
100
AcDbSpline
 62
9
  6
CONTINUOUS
 70
0
 71
3
 72
11
 73
7
 74
0
 42
0.0000001
 43
0.0000001
 44
0.0000000001
 40
0.0
 40
0.0
 40
0.0
 40
0.0
 40
0.241384102
 40
0.4912720166
 40
0.7461987645
 40
1.0
 40
1.0
 40
1.0
 40
1.0
 10
13.9315182886
 20
18.7229560231
 30
0.0
 10
13.9231524263
 20
18.7150274402
 30
0.0
 10
13.908642939
 20
18.6961061557
 30
0.0
 10
13.8951279699
 20
18.6627075061
 30
0.0
 10
13.8905392726
 20
18.6264368516
 30
0.0
 10
13.8925512955
 20
18.6020521222
 30
0.0
 10
13.8947049376
 20
18.5901260399
 30
0.0
  0
SPLINE
  5
553
100
AcDbEntity
  8
0
100
AcDbSpline
 62
9
  6
CONTINUOUS
 70
0
 71
3
 72
10
 73
6
 74
0
 42
0.0000001
 43
0.0000001
 44
0.0000000001
 40
0.0
 40
0.0
 40
0.0
 40
0.0
 40
0.2848050292
 40
0.5477208654
 40
1.0
 40
1.0
 40
1.0
 40
1.0
 10
13.8045880313
 20
18.6524752696
 30
0.0
 10
13.8172905002
 20
18.6578797232
 30
0.0
 10
13.8414131913
 20
18.6690140096
 30
0.0
 10
13.8841727208
 20
18.6918777701
 30
0.0
 10
13.9134995196
 20
18.7104705037
 30
0.0
 10
13.9315182886
 20
18.7229560231
 30
0.0
  0
SPLINE
  5
554
100
AcDbEntity
  8
0
100
AcDbSpline
 62
9
  6
CONTINUOUS
 70
0
 71
3
 72
27
 73
23
 74
0
 42
0.0000001
 43
0.0000001
 44
0.0000000001
 40
0.0
 40
0.0
 40
0.0
 40
0.0
 40
0.1448914527
 40
0.2881060664
 40
0.4296279423
 40
0.4997031394
 40
0.56924109
 40
0.6380881461
 40
0.7057434804
 40
0.7716006159
 40
0.8350344583
 40
0.8655594116
 40
0.8947264236
 40
0.9219403817
 40
0.946603359
 40
0.9679941577
 40
0.9770937163
 40
0.9849084464
 40
0.9912724788
 40
0.9960198233
 40
0.9989843886
 40
1.0
 40
1.0
 40
1.0
 40
1.0
 10
13.8947049454
 20
18.5901260048
 30
0.0
 10
13.8999292944
 20
18.595507733
 30
0.0
 10
13.9096891134
 20
18.6068364932
 30
0.0
 10
13.9223163422
 20
18.6251876751
 30
0.0
 10
13.9312197897
 20
18.6412862926
 30
0.0
 10
13.9373830509
 20
18.6544740974
 30
0.0
 10
13.9415226584
 20
18.6644435174
 30
0.0
 10
13.9451953635
 20
18.6744602078
 30
0.0
 10
13.948414684
 20
18.6844312808
 30
0.0
 10
13.9511846663
 20
18.6942452011
 30
0.0
 10
13.9531426758
 20
18.7022852204
 30
0.0
 10
13.9544797922
 20
18.7085174532
 30
0.0
 10
13.9553539074
 20
18.712930488
 30
0.0
 10
13.9561106145
 20
18.7170577399
 30
0.0
 10
13.9567452943
 20
18.7207952061
 30
0.0
 10
13.9571871731
 20
18.7236210126
 30
0.0
 10
13.9574770055
 20
18.7255741056
 30
0.0
 10
13.9576493377
 20
18.7267863792
 30
0.0
 10
13.9577801207
 20
18.7277033682
 30
0.0
 10
13.9578872241
 20
18.7285535247
 30
0.0
 10
13.9579285126
 20
18.7287661252
 30
0.0
 10
13.9579737188
 20
18.7292213313
 30
0.0
 10
13.9579725979
 20
18.729168769
 30
0.0
  0
SPLINE
  5
555
100
AcDbEntity
  8
0
100
AcDbSpline
 62
9
  6
CONTINUOUS
 70
0
 71
3
 72
9
 73
5
 74
0
 42
0.0000001
 43
0.0000001
 44
0.0000000001
 40
0.0
 40
0.0
 40
0.0
 40
0.0
 40
0.2716943012
 40
1.0
 40
1.0
 40
1.0
 40
1.0
 10
13.804181948
 20
18.5121706594
 30
0.0
 10
13.8130311496
 20
18.5184119161
 30
0.0
 10
13.8449501711
 20
18.5423050731
 30
0.0
 10
13.8744862085
 20
18.5692980549
 30
0.0
 10
13.8947049353
 20
18.590126038
 30
0.0
  0
SPLINE
  5
556
100
AcDbEntity
  8
0
100
AcDbSpline
 62
9
  6
CONTINUOUS
 70
0
 71
3
 72
10
 73
6
 74
0
 42
0.0000001
 43
0.0000001
 44
0.0000000001
 40
0.0
 40
0.0
 40
0.0
 40
0.0
 40
0.2335311059
 40
0.4840263211
 40
1.0
 40
1.0
 40
1.0
 40
1.0
 10
13.1124544633
 20
18.7088710849
 30
0.0
 10
13.1145563664
 20
18.6986221868
 30
0.0
 10
13.1201343216
 20
18.6775999791
 30
0.0
 10
13.1366717446
 20
18.6359196716
 30
0.0
 10
13.1561888003
 20
18.6067120918
 30
0.0
 10
13.1722895764
 20
18.5901259844
 30
0.0
  0
SPLINE
  5
557
100
AcDbEntity
  8
0
100
AcDbSpline
 62
9
  6
CONTINUOUS
 70
0
 71
3
 72
9
 73
5
 74
0
 42
0.0000001
 43
0.0000001
 44
0.0000000001
 40
0.0
 40
0.0
 40
0.0
 40
0.0
 40
0.2265312741
 40
1.0
 40
1.0
 40
1.0
 40
1.0
 10
13.1722896023
 20
18.5901260394
 30
0.0
 10
13.1785771019
 20
18.5836490769
 30
0.0
 10
13.2068567215
 20
18.5555789155
 30
0.0
 10
13.2376212305
 20
18.5299382532
 30
0.0
 10
13.2628080333
 20
18.5121738763
 30
0.0
  0
LINE
  5
558
100
AcDbEntity
  8
0
100
AcDbLine
 62
9
  6
CONTINUOUS
 10
10.7686552498
 20
13.4597579391
 11
10.773695497
 21
13.4413141747
  0
SPLINE
  5
559
100
AcDbEntity
  8
0
100
AcDbSpline
 62
9
  6
CONTINUOUS
 70
0
 71
3
 72
9
 73
5
 74
0
 42
0.0000001
 43
0.0000001
 44
0.0000000001
 40
0.0
 40
0.0
 40
0.0
 40
0.0
 40
0.1926495538
 40
1.0
 40
1.0
 40
1.0
 40
1.0
 10
10.773695497
 20
13.4413141747
 30
0.0
 10
10.7745767526
 20
13.4379472903
 30
0.0
 10
10.7790708258
 20
13.4204495935
 30
0.0
 10
10.7832268546
 20
13.4028654997
 30
0.0
 10
10.7864224858
 20
13.3886347227
 30
0.0
  0
LINE
  5
55A
100
AcDbEntity
  8
0
100
AcDbLine
 62
9
  6
CONTINUOUS
 10
10.8086212797
 20
13.5014785535
 11
10.8149484881
 21
13.4749025111
  0
SPLINE
  5
55B
100
AcDbEntity
  8
0
100
AcDbSpline
 62
9
  6
CONTINUOUS
 70
0
 71
3
 72
9
 73
5
 74
0
 42
0.0000001
 43
0.0000001
 44
0.0000000001
 40
0.0
 40
0.0
 40
0.0
 40
0.0
 40
0.5063731247
 40
1.0
 40
1.0
 40
1.0
 40
1.0
 10
13.9441463009
 20
12.5248158084
 30
0.0
 10
13.9246619302
 20
12.4980707894
 30
0.0
 10
13.8821575778
 20
12.4480394537
 30
0.0
 10
13.8318421584
 20
12.405740926
 30
0.0
 10
13.8053431471
 20
12.3873477161
 30
0.0
  0
SPLINE
  5
55C
100
AcDbEntity
  8
0
100
AcDbSpline
 62
9
  6
CONTINUOUS
 70
0
 71
3
 72
9
 73
5
 74
0
 42
0.0000001
 43
0.0000001
 44
0.0000000001
 40
0.0
 40
0.0
 40
0.0
 40
0.0
 40
0.493527613
 40
1.0
 40
1.0
 40
1.0
 40
1.0
 10
13.2624093833
 20
12.3868266239
 30
0.0
 10
13.2354883534
 20
12.405452867
 30
0.0
 10
13.1844201629
 20
12.4484141617
 30
0.0
 10
13.1413722272
 20
12.499287187
 30
0.0
 10
13.1216591359
 20
12.5264906496
 30
0.0
  0
SPLINE
  5
55D
100
AcDbEntity
  8
0
100
AcDbSpline
 62
9
  6
CONTINUOUS
 70
0
 71
3
 72
34
 73
30
 74
0
 42
0.0000001
 43
0.0000001
 44
0.0000000001
 40
0.0
 40
0.0
 40
0.0
 40
0.0
 40
0.0000415398
 40
0.0001683878
 40
0.0003807762
 40
0.0006789232
 40
0.0015333591
 40
0.0027334258
 40
0.0042808514
 40
0.006177364
 40
0.0084246915
 40
0.0110245615
 40
0.0172888403
 40
0.0249840231
 40
0.0341239324
 40
0.0447223916
 40
0.056802571
 40
0.0704250271
 40
0.1025763922
 40
0.1417357729
 40
0.1884625113
 40
0.2434571554
 40
0.3079848897
 40
0.3836473871
 40
0.4728278867
 40
0.5783133791
 40
0.7030912339
 40
0.8462193129
 40
1.0
 40
1.0
 40
1.0
 40
1.0
 10
6.8851057134
 20
9.2943521083
 30
0.0
 10
6.885108167
 20
9.2943562159
 30
0.0
 10
6.8850709607
 20
9.2943454494
 30
0.0
 10
6.8850445596
 20
9.2943528874
 30
0.0
 10
6.8849613422
 20
9.2943433052
 30
0.0
 10
6.8848104403
 20
9.2943377309
 30
0.0
 10
6.8845353955
 20
9.2943193561
 30
0.0
 10
6.8841234388
 20
9.2942960333
 30
0.0
 10
6.8835886254
 20
9.2942637053
 30
0.0
 10
6.8829345777
 20
9.2942247375
 30
0.0
 10
6.8821591087
 20
9.2941782427
 30
0.0
 10
6.8808816067
 20
9.2941017508
 30
0.0
 10
6.8789776529
 20
9.2939878197
 30
0.0
 10
6.8763217639
 20
9.2938293884
 30
0.0
 10
6.8731674851
 20
9.2936419279
 30
0.0
 10
6.8695089756
 20
9.2934254309
 30
0.0
 10
6.8653349903
 20
9.2931795957
 30
0.0
 10
6.8586826273
 20
9.292790781
 30
0.0
 10
6.8489160466
 20
9.2922286531
 30
0.0
 10
6.8353417181
 20
9.2914657519
 30
0.0
 10
6.8191391297
 20
9.2905782597
 30
0.0
 10
6.8000174889
 20
9.289557926
 30
0.0
 10
6.7775662372
 20
9.2883880753
 30
0.0
 10
6.7511815715
 20
9.2870359862
 30
0.0
 10
6.7200896485
 20
9.2853622517
 30
0.0
 10
6.6833577501
 20
9.2832226457
 30
0.0
 10
6.6404514117
 20
9.2802343162
 30
0.0
 10
6.5921086626
 20
9.2754105107
 30
0.0
 10
6.558227739
 20
9.2707366177
 30
0.0
 10
6.5406672283
 20
9.2684196451
 30
0.0
  0
SPLINE
  5
55E
100
AcDbEntity
  8
0
100
AcDbSpline
 62
9
  6
CONTINUOUS
 70
0
 71
3
 72
9
 73
5
 74
0
 42
0.0000001
 43
0.0000001
 44
0.0000000001
 40
0.0
 40
0.0
 40
0.0
 40
0.0
 40
0.2450302552
 40
1.0
 40
1.0
 40
1.0
 40
1.0
 10
11.1604412586
 20
12.703910759
 30
0.0
 10
11.1619140333
 20
12.703528932
 30
0.0
 10
11.1678996596
 20
12.7018754332
 30
0.0
 10
11.1737818694
 20
12.6998514768
 30
0.0
 10
11.1781458401
 20
12.6981393097
 30
0.0
  0
SPLINE
  5
55F
100
AcDbEntity
  8
0
100
AcDbSpline
 62
9
  6
CONTINUOUS
 70
0
 71
3
 72
33
 73
29
 74
0
 42
0.0000001
 43
0.0000001
 44
0.0000000001
 40
0.0
 40
0.0
 40
0.0
 40
0.0
 40
0.2211963212
 40
0.3232192026
 40
0.4191296657
 40
0.5086310156
 40
0.5914265378
 40
0.6672195005
 40
0.7357131555
 40
0.796639512
 40
0.8498456093
 40
0.8952072277
 40
0.914907537
 40
0.9326001412
 40
0.9482695111
 40
0.9619001169
 40
0.9734764286
 40
0.9829829157
 40
0.9869551217
 40
0.9904040475
 40
0.9933277517
 40
0.9957242928
 40
0.9975917295
 40
0.9989281202
 40
0.9993965667
 40
0.9997315237
 40
0.9999327487
 40
1.0
 40
1.0
 40
1.0
 40
1.0
 10
13.8794067662
 20
11.9110779838
 30
0.0
 10
13.8959290275
 20
11.9111518624
 30
0.0
 10
13.9200718034
 20
11.9112804823
 30
0.0
 10
13.9513783349
 20
11.9114865138
 30
0.0
 10
13.9728479084
 20
11.9116443999
 30
0.0
 10
13.9928812052
 20
11.9118063504
 30
0.0
 10
14.0114117518
 20
11.9119688587
 30
0.0
 10
14.0283730746
 20
11.9121284149
 30
0.0
 10
14.0437008488
 20
11.9122815477
 30
0.0
 10
14.0573414918
 20
11.9124248676
 30
0.0
 10
14.0692543004
 20
11.9125560374
 30
0.0
 10
14.078087836
 20
11.9126576505
 30
0.0
 10
14.0842688122
 20
11.9127310793
 30
0.0
 10
14.0882320489
 20
11.9127790997
 30
0.0
 10
14.0917419271
 20
11.9128224378
 30
0.0
 10
14.0947949727
 20
11.9128608252
 30
0.0
 10
14.0973876999
 20
11.9128939765
 30
0.0
 10
14.0992590562
 20
11.9129183065
 30
0.0
 10
14.1005233493
 20
11.9129348877
 30
0.0
 10
14.1012960419
 20
11.9129451654
 30
0.0
 10
14.1019508727
 20
11.9129536774
 30
0.0
 10
14.1024880782
 20
11.9129613607
 30
0.0
 10
14.1029054294
 20
11.9129655879
 30
0.0
 10
14.1031816515
 20
11.9129720375
 30
0.0
 10
14.1033388556
 20
11.912970342
 30
0.0
 10
14.1034181985
 20
11.91297752
 30
0.0
 10
14.1034556506
 20
11.9129670566
 30
0.0
 10
14.1034836077
 20
11.9129786816
 30
0.0
 10
14.1034853801
 20
11.9129739813
 30
0.0
  0
SPLINE
  5
560
100
AcDbEntity
  8
0
100
AcDbSpline
 62
9
  6
CONTINUOUS
 70
0
 71
3
 72
9
 73
5
 74
0
 42
0.0000001
 43
0.0000001
 44
0.0000000001
 40
0.0
 40
0.0
 40
0.0
 40
0.0
 40
0.2794955575
 40
1.0
 40
1.0
 40
1.0
 40
1.0
 10
13.1420181421
 20
18.8188841555
 30
0.0
 10
13.1414753333
 20
18.8184115044
 30
0.0
 10
13.1395105409
 20
18.8167468416
 30
0.0
 10
13.1374582574
 20
18.8151841007
 30
0.0
 10
13.1359285304
 20
18.8141340817
 30
0.0
  0
SPLINE
  5
561
100
AcDbEntity
  8
0
100
AcDbSpline
 62
9
  6
CONTINUOUS
 70
0
 71
3
 72
18
 73
14
 74
0
 42
0.0000001
 43
0.0000001
 44
0.0000000001
 40
0.0
 40
0.0
 40
0.0
 40
0.0
 40
0.2352951944
 40
0.4382193503
 40
0.6094341862
 40
0.7494173394
 40
0.8584587162
 40
0.9014176012
 40
0.9366633454
 40
0.9641789146
 40
0.9839355681
 40
0.9958930098
 40
1.0
 40
1.0
 40
1.0
 40
1.0
 10
13.1359285304
 20
18.8141340817
 30
0.0
 10
13.1353012935
 20
18.8137035404
 30
0.0
 10
13.1341165315
 20
18.8129254055
 30
0.0
 10
13.1324228156
 20
18.8119171398
 30
0.0
 10
13.1309575403
 20
18.8111309113
 30
0.0
 10
13.1297325863
 20
18.8105419545
 30
0.0
 10
13.1288640068
 20
18.8101710354
 30
0.0
 10
13.1282995111
 20
18.8099523254
 30
0.0
 10
13.1279773901
 20
18.8098372278
 30
0.0
 10
13.1277261962
 20
18.8097490162
 30
0.0
 10
13.1275398236
 20
18.8096980639
 30
0.0
 10
13.1274352526
 20
18.8096537364
 30
0.0
 10
13.1273783306
 20
18.8096520039
 30
0.0
 10
13.1273684873
 20
18.8096430907
 30
0.0
  0
LINE
  5
562
100
AcDbEntity
  8
0
100
AcDbLine
 62
9
  6
CONTINUOUS
 10
14.1034184293
 20
11.9043804107
 11
14.088732417
 21
11.9049097292
  0
SPLINE
  5
563
100
AcDbEntity
  8
0
100
AcDbSpline
 62
9
  6
CONTINUOUS
 70
0
 71
3
 72
17
 73
13
 74
0
 42
0.0000001
 43
0.0000001
 44
0.0000000001
 40
0.0
 40
0.0
 40
0.0
 40
0.0
 40
0.2392593501
 40
0.4439517814
 40
0.6154227462
 40
0.7544627729
 40
0.8617090821
 40
0.9377520554
 40
0.9642677406
 40
0.9832369549
 40
0.9948556997
 40
1.0
 40
1.0
 40
1.0
 40
1.0
 10
13.9248507786
 20
18.8191234167
 30
0.0
 10
13.9259102598
 20
18.8181944195
 30
0.0
 10
13.9279161061
 20
18.816515448
 30
0.0
 10
13.9307978713
 20
18.8143156453
 30
0.0
 10
13.933273262
 20
18.8125603336
 30
0.0
 10
13.9353341041
 20
18.8112137248
 30
0.0
 10
13.9369651234
 20
18.8102450494
 30
0.0
 10
13.9380655941
 20
18.8096720168
 30
0.0
 10
13.9387151055
 20
18.8093838154
 30
0.0
 10
13.9390429363
 20
18.8092725298
 30
0.0
 10
13.9392280143
 20
18.809219134
 30
0.0
 10
13.939354171
 20
18.8092295895
 30
0.0
 10
13.9393658785
 20
18.8092575328
 30
0.0
  0
SPLINE
  5
564
100
AcDbEntity
  8
0
100
AcDbSpline
 62
9
  6
CONTINUOUS
 70
0
 71
3
 72
24
 73
20
 74
0
 42
0.0000001
 43
0.0000001
 44
0.0000000001
 40
0.0
 40
0.0
 40
0.0
 40
0.0
 40
0.0007955919
 40
0.0038290266
 40
0.0091162155
 40
0.0166359103
 40
0.0263639609
 40
0.0382754984
 40
0.0523453941
 40
0.0685484043
 40
0.1072525352
 40
0.1541660481
 40
0.2089632525
 40
0.2712835433
 40
0.340766305
 40
0.4170509561
 40
0.5886372942
 40
0.7836679073
 40
1.0
 40
1.0
 40
1.0
 40
1.0
 10
12.8656450246
 20
13.8049056051
 30
0.0
 10
12.8656516419
 20
13.8049349922
 30
0.0
 10
12.8658081952
 20
13.8047001879
 30
0.0
 10
12.8658923445
 20
13.8045235692
 30
0.0
 10
12.8662182919
 20
13.8039147549
 30
0.0
 10
12.8665764277
 20
13.8031857471
 30
0.0
 10
12.8670708757
 20
13.802180597
 30
0.0
 10
12.8676564052
 20
13.8009684142
 30
0.0
 10
12.8683488425
 20
13.7995269034
 30
0.0
 10
12.8694742141
 20
13.7971711341
 30
0.0
 10
12.8711299064
 20
13.7936890519
 30
0.0
 10
12.8734091601
 20
13.7888862419
 30
0.0
 10
12.8760712299
 20
13.7832750508
 30
0.0
 10
12.8791013618
 20
13.776892771
 30
0.0
 10
12.8824845867
 20
13.7697774996
 30
0.0
 10
12.8876524288
 20
13.7589298945
 30
0.0
 10
12.8948911343
 20
13.7438034922
 30
0.0
 10
12.9044084944
 20
13.7238891568
 30
0.0
 10
12.9110822388
 20
13.7098162728
 30
0.0
 10
12.9145750029
 20
13.7024075034
 30
0.0
  0
LINE
  5
565
100
AcDbEntity
  8
0
100
AcDbLine
 62
9
  6
CONTINUOUS
 10
12.9661637453
 20
13.5887548739
 11
12.9691252912
 21
13.5819486332
  0
SPLINE
  5
566
100
AcDbEntity
  8
0
100
AcDbSpline
 62
9
  6
CONTINUOUS
 70
0
 71
3
 72
13
 73
9
 74
0
 42
0.0000001
 43
0.0000001
 44
0.0000000001
 40
0.0
 40
0.0
 40
0.0
 40
0.0
 40
0.1335235762
 40
0.2676186077
 40
0.3984510283
 40
0.5256928711
 40
0.7698710041
 40
1.0
 40
1.0
 40
1.0
 40
1.0
 10
10.8149484901
 20
13.474902556
 30
0.0
 10
10.8151808977
 20
13.4708224811
 30
0.0
 10
10.8147999276
 20
13.4625900362
 30
0.0
 10
10.8125189241
 20
13.4505875495
 30
0.0
 10
10.8091481882
 20
13.4390523069
 30
0.0
 10
10.8037922282
 20
13.4246360435
 30
0.0
 10
10.7963276882
 20
13.4077881716
 30
0.0
 10
10.7897109137
 20
13.3948628036
 30
0.0
 10
10.7864216664
 20
13.3886345673
 30
0.0
  0
SPLINE
  5
567
100
AcDbEntity
  8
0
100
AcDbSpline
 62
7
  6
CONTINUOUS
 70
0
 71
3
 72
15
 73
11
 74
0
 42
0.0000001
 43
0.0000001
 44
0.0000000001
 40
0.0
 40
0.0
 40
0.0
 40
0.0
 40
0.0126088944
 40
0.0319266405
 40
0.0955371043
 40
0.192820974
 40
0.3196130955
 40
0.470404157
 40
0.6392079969
 40
1.0
 40
1.0
 40
1.0
 40
1.0
 10
14.0574844558
 20
19.0563587162
 30
0.0
 10
14.0574836377
 20
19.0562424383
 30
0.0
 10
14.0573258231
 20
19.055963615
 30
0.0
 10
14.0566219569
 20
19.0554348741
 30
0.0
 10
14.0550780738
 20
19.0547686832
 30
0.0
 10
14.0525529189
 20
19.0539722913
 30
0.0
 10
14.0491955881
 20
19.0531298776
 30
0.0
 10
14.0451662518
 20
19.0522874875
 30
0.0
 10
14.0389850445
 20
19.0512028373
 30
0.0
 10
14.0341418488
 20
19.0505502818
 30
0.0
 10
14.0308334672
 20
19.0501962686
 30
0.0
  0
SPLINE
  5
568
100
AcDbEntity
  8
0
100
AcDbSpline
 62
7
  6
CONTINUOUS
 70
0
 71
3
 72
9
 73
5
 74
0
 42
0.0000001
 43
0.0000001
 44
0.0000000001
 40
0.0
 40
0.0
 40
0.0
 40
0.0
 40
0.5419953583
 40
1.0
 40
1.0
 40
1.0
 40
1.0
 10
14.0308334672
 20
19.0501962686
 30
0.0
 10
14.0285622298
 20
19.049953235
 30
0.0
 10
14.0243629041
 20
19.049587262
 30
0.0
 10
14.0201491972
 20
19.0494036089
 30
0.0
 10
14.0182189672
 20
19.0494036089
 30
0.0
  0
SPLINE
  5
569
100
AcDbEntity
  8
0
100
AcDbSpline
 62
9
  6
CONTINUOUS
 70
0
 71
3
 72
13
 73
9
 74
0
 42
0.0000001
 43
0.0000001
 44
0.0000000001
 40
0.0
 40
0.0
 40
0.0
 40
0.0
 40
0.1351068609
 40
0.2683678459
 40
0.3985004901
 40
0.5253043852
 40
0.7691419823
 40
1.0
 40
1.0
 40
1.0
 40
1.0
 10
10.8548166804
 20
13.4749062508
 30
0.0
 10
10.8550917367
 20
13.4697173922
 30
0.0
 10
10.8538972022
 20
13.459274971
 30
0.0
 10
10.8482064844
 20
13.4449209077
 30
0.0
 10
10.8401084786
 20
13.432206034
 30
0.0
 10
10.8275424253
 20
13.4175511106
 30
0.0
 10
10.8097849066
 20
13.4025163763
 30
0.0
 10
10.7942449755
 20
13.3928331123
 30
0.0
 10
10.7864213598
 20
13.3886352427
 30
0.0
  0
SPLINE
  5
56A
100
AcDbEntity
  8
0
100
AcDbSpline
 62
9
  6
CONTINUOUS
 70
0
 71
3
 72
18
 73
14
 74
0
 42
0.0000001
 43
0.0000001
 44
0.0000000001
 40
0.0
 40
0.0
 40
0.0
 40
0.0
 40
0.1761006137
 40
0.3557842717
 40
0.5281903386
 40
0.6824633946
 40
0.8092934294
 40
0.8613320767
 40
0.9055154698
 40
0.9416447132
 40
0.9695292907
 40
0.9890026394
 40
1.0
 40
1.0
 40
1.0
 40
1.0
 10
10.8548166851
 20
13.4749062601
 30
0.0
 10
10.8524755417
 20
13.4748176964
 30
0.0
 10
10.8477448627
 20
13.4746584083
 30
0.0
 10
10.8407202897
 20
13.4744727898
 30
0.0
 10
10.8339847634
 20
13.4743479783
 30
0.0
 10
10.827951483
 20
13.4742962249
 30
0.0
 10
10.8235190891
 20
13.4743264698
 30
0.0
 10
10.820552627
 20
13.4743993818
 30
0.0
 10
10.8187926953
 20
13.4744671627
 30
0.0
 10
10.8173566314
 20
13.4745514796
 30
0.0
 10
10.8162470166
 20
13.4746434839
 30
0.0
 10
10.8154830691
 20
13.4747527886
 30
0.0
 10
10.8150780021
 20
13.4748344392
 30
0.0
 10
10.8149484848
 20
13.4749024915
 30
0.0
  0
SPLINE
  5
56B
100
AcDbEntity
  8
0
100
AcDbSpline
 62
9
  6
CONTINUOUS
 70
0
 71
3
 72
13
 73
9
 74
0
 42
0.0000001
 43
0.0000001
 44
0.0000000001
 40
0.0
 40
0.0
 40
0.0
 40
0.0
 40
0.1262778853
 40
0.2518805898
 40
0.3769906403
 40
0.5017973619
 40
0.7509397609
 40
1.0
 40
1.0
 40
1.0
 40
1.0
 10
13.2620073187
 20
13.860115781
 30
0.0
 10
13.2502406779
 20
13.8511403252
 30
0.0
 10
13.2274593534
 20
13.8323232452
 30
0.0
 10
13.1952327378
 20
13.8020621552
 30
0.0
 10
13.1650980155
 20
13.7699478943
 30
0.0
 10
13.1277161234
 20
13.7249277783
 30
0.0
 10
13.0860465922
 20
13.6647754841
 30
0.0
 10
13.057963535
 20
13.6134703209
 30
0.0
 10
13.0450921872
 20
13.5872730577
 30
0.0
  0
SPLINE
  5
56C
100
AcDbEntity
  8
0
100
AcDbSpline
 62
7
  6
CONTINUOUS
 70
0
 71
3
 72
14
 73
10
 74
0
 42
0.0000001
 43
0.0000001
 44
0.0000000001
 40
0.0
 40
0.0
 40
0.0
 40
0.0
 40
0.0353979325
 40
0.0628994179
 40
0.0979120539
 40
0.1902384562
 40
0.3107009342
 40
0.6237277235
 40
1.0
 40
1.0
 40
1.0
 40
1.0
 10
13.9107465012
 20
19.0555351302
 30
0.0
 10
13.9107472629
 20
19.0552790815
 30
0.0
 10
13.9104143727
 20
19.0548717734
 30
0.0
 10
13.9098436745
 20
19.0544813221
 30
0.0
 10
13.9088450475
 20
19.0539528398
 30
0.0
 10
13.9071654666
 20
19.0533267936
 30
0.0
 10
13.903506308
 20
19.052274224
 30
0.0
 10
13.8977501194
 20
19.051150193
 30
0.0
 10
13.8928066474
 20
19.0504835055
 30
0.0
 10
13.8901000923
 20
19.0501962686
 30
0.0
  0
SPLINE
  5
56D
100
AcDbEntity
  8
0
100
AcDbSpline
 62
7
  6
CONTINUOUS
 70
0
 71
3
 72
9
 73
5
 74
0
 42
0.0000001
 43
0.0000001
 44
0.0000000001
 40
0.0
 40
0.0
 40
0.0
 40
0.0
 40
0.5189799289
 40
1.0
 40
1.0
 40
1.0
 40
1.0
 10
13.8901000923
 20
19.0501962686
 30
0.0
 10
13.8877123698
 20
19.0499428683
 30
0.0
 10
13.8830993508
 20
19.0495672424
 30
0.0
 10
13.8784727734
 20
19.0494036089
 30
0.0
 10
13.8762472687
 20
19.0494036089
 30
0.0
  0
SPLINE
  5
56E
100
AcDbEntity
  8
0
100
AcDbSpline
 62
9
  6
CONTINUOUS
 70
0
 71
3
 72
13
 73
9
 74
0
 42
0.0000001
 43
0.0000001
 44
0.0000000001
 40
0.0
 40
0.0
 40
0.0
 40
0.0
 40
0.2312655058
 40
0.4754862874
 40
0.6024197018
 40
0.7328200663
 40
0.8664923639
 40
1.0
 40
1.0
 40
1.0
 40
1.0
 10
11.1781464111
 20
13.3886345756
 30
0.0
 10
11.1747367646
 20
13.394778267
 30
0.0
 10
11.1678898958
 20
13.4075033948
 30
0.0
 10
11.160130492
 20
13.4240980334
 30
0.0
 10
11.1545331275
 20
13.4382784871
 30
0.0
 10
11.1509523824
 20
13.4496202654
 30
0.0
 10
11.1484104598
 20
13.461450858
 30
0.0
 10
11.1478145648
 20
13.4695940091
 30
0.0
 10
11.1479230701
 20
13.4736488532
 30
0.0
  0
LINE
  5
56F
100
AcDbEntity
  8
0
100
AcDbLine
 62
9
  6
CONTINUOUS
 10
11.1479230693
 20
13.4736488307
 11
11.1533859033
 21
13.5001926513
  0
SPLINE
  5
570
100
AcDbEntity
  8
0
100
AcDbSpline
 62
9
  6
CONTINUOUS
 70
0
 71
3
 72
13
 73
9
 74
0
 42
0.0000001
 43
0.0000001
 44
0.0000000001
 40
0.0
 40
0.0
 40
0.0
 40
0.0
 40
0.1349424966
 40
0.267848879
 40
0.3976639977
 40
0.5242841899
 40
0.7682577315
 40
1.0
 40
1.0
 40
1.0
 40
1.0
 10
11.1080232
 20
13.473094139
 30
0.0
 10
11.1079726739
 20
13.467933959
 30
0.0
 10
11.1095707861
 20
13.4576357506
 30
0.0
 10
11.1156570609
 20
13.4435849349
 30
0.0
 10
11.1239986377
 20
13.4311757774
 30
0.0
 10
11.136774923
 20
13.4168723706
 30
0.0
 10
11.1546875853
 20
13.4021895702
 30
0.0
 10
11.17029258
 20
13.3927402547
 30
0.0
 10
11.1781467314
 20
13.3886352427
 30
0.0
  0
SPLINE
  5
571
100
AcDbEntity
  8
0
100
AcDbSpline
 62
9
  6
CONTINUOUS
 70
0
 71
3
 72
18
 73
14
 74
0
 42
0.0000001
 43
0.0000001
 44
0.0000000001
 40
0.0
 40
0.0
 40
0.0
 40
0.0
 40
0.0126244868
 40
0.0330554177
 40
0.0615651704
 40
0.0981008185
 40
0.1425218843
 40
0.1946557747
 40
0.321302978
 40
0.4749823518
 40
0.6465030796
 40
0.825103428
 40
1.0
 40
1.0
 40
1.0
 40
1.0
 10
11.1479630075
 20
13.4821358837
 30
0.0
 10
11.147852537
 20
13.4820075686
 30
0.0
 10
11.14744953
 20
13.4817876576
 30
0.0
 10
11.1466767458
 20
13.4815142539
 30
0.0
 10
11.145560481
 20
13.4812345566
 30
0.0
 10
11.1441199852
 20
13.480955654
 30
0.0
 10
11.1423550464
 20
13.4806834888
 30
0.0
 10
11.1393845183
 20
13.4803121985
 30
0.0
 10
11.1349416357
 20
13.4799176562
 30
0.0
 10
11.1288909153
 20
13.4795721017
 30
0.0
 10
11.1221381857
 20
13.4793240583
 30
0.0
 10
11.1150979725
 20
13.4791793765
 30
0.0
 10
11.1103567702
 20
13.4791523394
 30
0.0
 10
11.1080110931
 20
13.4791589735
 30
0.0
  0
LINE
  5
572
100
AcDbEntity
  8
0
100
AcDbLine
 62
9
  6
CONTINUOUS
 10
13.8515338125
 20
11.1658085359
 11
13.8075449792
 21
11.1768361677
  0
SPLINE
  5
573
100
AcDbEntity
  8
0
100
AcDbSpline
 62
9
  6
CONTINUOUS
 70
0
 71
3
 72
9
 73
5
 74
0
 42
0.0000001
 43
0.0000001
 44
0.0000000001
 40
0.0
 40
0.0
 40
0.0
 40
0.0
 40
0.4942911763
 40
1.0
 40
1.0
 40
1.0
 40
1.0
 10
13.263646857
 20
11.2876563083
 30
0.0
 10
13.2447051943
 20
11.2908423808
 30
0.0
 10
13.2063548824
 20
11.2971134932
 30
0.0
 10
13.1679371641
 20
11.302965314
 30
0.0
 10
13.1484834653
 20
11.3057460168
 30
0.0
  0
SPLINE
  5
574
100
AcDbEntity
  8
0
100
AcDbSpline
 62
9
  6
CONTINUOUS
 70
0
 71
3
 72
10
 73
6
 74
0
 42
0.0000001
 43
0.0000001
 44
0.0000000001
 40
0.0
 40
0.0
 40
0.0
 40
0.0
 40
0.4917280003
 40
0.7432172519
 40
1.0
 40
1.0
 40
1.0
 40
1.0
 10
13.2636572051
 20
11.1847790736
 30
0.0
 10
13.2188641432
 20
11.1971422038
 30
0.0
 10
13.1509350647
 20
11.2150328835
 30
0.0
 10
13.0590099448
 20
11.2369500816
 30
0.0
 10
13.0120678572
 20
11.2471543772
 30
0.0
 10
12.9882725297
 20
11.2519093264
 30
0.0
  0
SPLINE
  5
575
100
AcDbEntity
  8
0
100
AcDbSpline
 62
9
  6
CONTINUOUS
 70
0
 71
3
 72
11
 73
7
 74
0
 42
0.0000001
 43
0.0000001
 44
0.0000000001
 40
0.0
 40
0.0
 40
0.0
 40
0.0
 40
0.1842800199
 40
0.4106675975
 40
0.6812470385
 40
1.0
 40
1.0
 40
1.0
 40
1.0
 10
13.9270411865
 20
19.9174286975
 30
0.0
 10
13.9238306813
 20
19.9146078559
 30
0.0
 10
13.9161059986
 20
19.9089750048
 30
0.0
 10
13.9024132723
 20
19.9010643626
 30
0.0
 10
13.8853595412
 20
19.8928432496
 30
0.0
 10
13.8727331345
 20
19.8875975229
 30
0.0
 10
13.8658555866
 20
19.8848872685
 30
0.0
  0
SPLINE
  5
576
100
AcDbEntity
  8
0
100
AcDbSpline
 62
9
  6
CONTINUOUS
 70
0
 71
3
 72
9
 73
5
 74
0
 42
0.0000001
 43
0.0000001
 44
0.0000000001
 40
0.0
 40
0.0
 40
0.0
 40
0.0
 40
0.2339758346
 40
1.0
 40
1.0
 40
1.0
 40
1.0
 10
13.8658555866
 20
19.8848872685
 30
0.0
 10
13.8638884581
 20
19.8841120767
 30
0.0
 10
13.8554631852
 20
19.8808443048
 30
0.0
 10
13.8469734739
 20
19.8777442233
 30
0.0
 10
13.8404478049
 20
19.8754347082
 30
0.0
  0
LINE
  5
577
100
AcDbEntity
  8
0
100
AcDbLine
 62
9
  6
CONTINUOUS
 10
13.8404478049
 20
19.8754347082
 11
13.8114082765
 21
19.8655658861
  0
SPLINE
  5
578
100
AcDbEntity
  8
0
100
AcDbSpline
 62
9
  6
CONTINUOUS
 70
0
 71
3
 72
38
 73
34
 74
0
 42
0.0000001
 43
0.0000001
 44
0.0000000001
 40
0.0
 40
0.0
 40
0.0
 40
0.0
 40
0.1179200373
 40
0.2274955527
 40
0.4270004448
 40
0.5170281863
 40
0.6002741859
 40
0.6764508949
 40
0.7452022304
 40
0.8061816765
 40
0.8591555281
 40
0.8825754379
 40
0.9039140145
 40
0.9231429132
 40
0.9402337009
 40
0.9551628178
 40
0.9679264332
 40
0.9734965284
 40
0.9785256782
 40
0.9830140438
 40
0.9869618083
 40
0.9903691942
 40
0.9932364962
 40
0.9955641532
 40
0.9973529287
 40
0.9980457236
 40
0.9986046021
 40
0.9990303559
 40
0.9993248425
 40
0.9994942753
 40
0.9995792236
 40
0.9997283664
 40
1.0
 40
1.0
 40
1.0
 40
1.0
 10
12.9882725297
 20
11.2519093264
 30
0.0
 10
12.9651306571
 20
11.2565336976
 30
0.0
 10
12.9205018665
 20
11.2655427917
 30
0.0
 10
12.8365961721
 20
11.281750064
 30
0.0
 10
12.7579570323
 20
11.2957751059
 30
0.0
 10
12.6843181465
 20
11.3077442933
 30
0.0
 10
12.6349691132
 20
11.3152950325
 30
0.0
 10
12.5897700116
 20
11.3218022471
 30
0.0
 10
12.5489354789
 20
11.3273432733
 30
0.0
 10
12.5126677035
 20
11.3319963357
 30
0.0
 10
12.4853759262
 20
11.3353144793
 30
0.0
 10
12.4659493542
 20
11.3375886592
 30
0.0
 10
12.4532266719
 20
11.3390456296
 30
0.0
 10
12.4417596918
 20
11.3403344344
 30
0.0
 10
12.431565661
 20
11.3414642319
 30
0.0
 10
12.4226569217
 20
11.3424448277
 30
0.0
 10
12.4160400883
 20
11.3431741408
 30
0.0
 10
12.4113932862
 20
11.3436924628
 30
0.0
 10
12.4083928917
 20
11.344031514
 30
0.0
 10
12.4057157834
 20
11.3443399573
 30
0.0
 10
12.4033620095
 20
11.344618893
 30
0.0
 10
12.4013315367
 20
11.344869373
 30
0.0
 10
12.3996245131
 20
11.3450923735
 30
0.0
 10
12.3982404404
 20
11.3452887195
 30
0.0
 10
12.3972905509
 20
11.3454411263
 30
0.0
 10
12.3966916175
 20
11.345553429
 30
0.0
 10
12.3963654416
 20
11.3456257434
 30
0.0
 10
12.3961127192
 20
11.3456874917
 30
0.0
 10
12.3959547513
 20
11.3457518996
 30
0.0
 10
12.395838044
 20
11.3457924273
 30
0.0
 10
12.3958273103
 20
11.3458886229
 30
0.0
 10
12.3959461041
 20
11.3459232375
 30
0.0
 10
12.3960185104
 20
11.3459444737
 30
0.0
 10
12.3960718737
 20
11.3459548465
 30
0.0
  0
SPLINE
  5
579
100
AcDbEntity
  8
0
100
AcDbSpline
 62
9
  6
CONTINUOUS
 70
0
 71
3
 72
11
 73
7
 74
0
 42
0.0000001
 43
0.0000001
 44
0.0000000001
 40
0.0
 40
0.0
 40
0.0
 40
0.0
 40
0.2488270158
 40
0.4992077872
 40
0.7492539819
 40
1.0
 40
1.0
 40
1.0
 40
1.0
 10
11.1099018649
 20
14.5597579458
 30
0.0
 10
11.1140037346
 20
14.559757959
 30
0.0
 10
11.12228459
 20
14.5584313982
 30
0.0
 10
11.1334823207
 20
14.5527654152
 30
0.0
 10
11.1423793706
 20
14.5438729134
 30
0.0
 10
11.1462504348
 20
14.5364064697
 30
0.0
 10
11.1475579673
 20
14.5324852179
 30
0.0
  0
SPLINE
  5
57A
100
AcDbEntity
  8
0
100
AcDbSpline
 62
9
  6
CONTINUOUS
 70
0
 71
3
 72
10
 73
6
 74
0
 42
0.0000001
 43
0.0000001
 44
0.0000000001
 40
0.0
 40
0.0
 40
0.0
 40
0.0
 40
0.5002388183
 40
0.7502823704
 40
1.0
 40
1.0
 40
1.0
 40
1.0
 10
11.1475579673
 20
14.5324852179
 30
0.0
 10
11.1482597914
 20
14.5303804681
 30
0.0
 10
11.1490633768
 20
14.5271315139
 30
0.0
 10
11.1495787927
 20
14.5227212074
 30
0.0
 10
11.1496167908
 20
14.5205018151
 30
0.0
 10
11.1496067855
 20
14.5193943036
 30
0.0
  0
SPLINE
  5
57B
100
AcDbEntity
  8
0
100
AcDbSpline
 62
9
  6
CONTINUOUS
 70
0
 71
3
 72
16
 73
12
 74
0
 42
0.0000001
 43
0.0000001
 44
0.0000000001
 40
0.0
 40
0.0
 40
0.0
 40
0.0
 40
0.0167796354
 40
0.0410809459
 40
0.1119599165
 40
0.2111204025
 40
0.3357795509
 40
0.4819772256
 40
0.6454571263
 40
0.8204091362
 40
1.0
 40
1.0
 40
1.0
 40
1.0
 10
11.1496067855
 20
14.5193943036
 30
0.0
 10
11.1494221362
 20
14.5192684892
 30
0.0
 10
11.1489164768
 20
14.5190451194
 30
0.0
 10
11.1474918114
 20
14.5186091654
 30
0.0
 10
11.1449397245
 20
14.5181353923
 30
0.0
 10
11.1410460336
 20
14.5176549659
 30
0.0
 10
11.1361329199
 20
14.5172592443
 30
0.0
 10
11.1303586428
 20
14.5169313316
 30
0.0
 10
11.1239102509
 20
14.5166696298
 30
0.0
 10
11.1170144515
 20
14.5164876572
 30
0.0
 10
11.1122933022
 20
14.5164384225
 30
0.0
 10
11.1099018649
 20
14.5164361422
 30
0.0
  0
SPLINE
  5
57C
100
AcDbEntity
  8
0
100
AcDbSpline
 62
9
  6
CONTINUOUS
 70
0
 71
3
 72
16
 73
12
 74
0
 42
0.0000001
 43
0.0000001
 44
0.0000000001
 40
0.0
 40
0.0
 40
0.0
 40
0.0
 40
0.112925818
 40
0.2188412494
 40
0.413860067
 40
0.5855436736
 40
0.7310792429
 40
0.8472941238
 40
0.9318579551
 40
0.9829333662
 40
1.0
 40
1.0
 40
1.0
 40
1.0
 10
13.148483468
 20
11.3057460165
 30
0.0
 10
13.1263485652
 20
11.3089101394
 30
0.0
 10
13.083464959
 20
11.3151262474
 30
0.0
 10
13.0023182185
 20
11.3265486796
 30
0.0
 10
12.9095552403
 20
11.3389074374
 30
0.0
 10
12.8088856261
 20
11.3512827427
 30
0.0
 10
12.7236132386
 20
11.3609904146
 30
0.0
 10
12.6554260543
 20
11.3682503887
 30
0.0
 10
12.6058049819
 20
11.3732144733
 30
0.0
 10
12.5757040948
 20
11.3760761905
 30
0.0
 10
12.5622681523
 20
11.3773108045
 30
0.0
 10
12.5589017663
 20
11.3776057714
 30
0.0
  0
LINE
  5
57D
100
AcDbEntity
  8
0
100
AcDbLine
 62
7
  6
CONTINUOUS
 10
10.7796835402
 20
14.5191084313
 11
10.7798566797
 21
14.5239201911
  0
SPLINE
  5
57E
100
AcDbEntity
  8
0
100
AcDbSpline
 62
9
  6
CONTINUOUS
 70
0
 71
3
 72
14
 73
10
 74
0
 42
0.0000001
 43
0.0000001
 44
0.0000000001
 40
0.0
 40
0.0
 40
0.0
 40
0.0
 40
0.1248866025
 40
0.250685314
 40
0.3756570555
 40
0.5007502174
 40
0.6256727543
 40
0.7505178713
 40
1.0
 40
1.0
 40
1.0
 40
1.0
 10
10.7798566797
 20
14.5239201911
 30
0.0
 10
10.7801113286
 20
14.5258190984
 30
0.0
 10
10.7807617592
 20
14.5296185384
 30
0.0
 10
10.7825405439
 20
14.5351253622
 30
0.0
 10
10.7851536765
 20
14.5402883114
 30
0.0
 10
10.7884327921
 20
14.5450364658
 30
0.0
 10
10.7923621244
 20
14.5492658636
 30
0.0
 10
10.7983478573
 20
14.5540745768
 30
0.0
 10
10.8035982063
 20
14.556653073
 30
0.0
 10
10.8072397107
 20
14.5578312169
 30
0.0
  0
SPLINE
  5
57F
100
AcDbEntity
  8
0
100
AcDbSpline
 62
9
  6
CONTINUOUS
 70
0
 71
3
 72
9
 73
5
 74
0
 42
0.0000001
 43
0.0000001
 44
0.0000000001
 40
0.0
 40
0.0
 40
0.0
 40
0.0
 40
0.2513716025
 40
1.0
 40
1.0
 40
1.0
 40
1.0
 10
10.8072397107
 20
14.5578312169
 30
0.0
 10
10.8082220292
 20
14.5581490286
 30
0.0
 10
10.8121774062
 20
14.55926092
 30
0.0
 10
10.8163067125
 20
14.559757946
 30
0.0
 10
10.8193815296
 20
14.5597579458
 30
0.0
  0
SPLINE
  5
580
100
AcDbEntity
  8
0
100
AcDbSpline
 62
9
  6
CONTINUOUS
 70
0
 71
3
 72
19
 73
15
 74
0
 42
0.0000001
 43
0.0000001
 44
0.0000000001
 40
0.0
 40
0.0
 40
0.0
 40
0.0
 40
0.1783420738
 40
0.3516201465
 40
0.5131176361
 40
0.6574827147
 40
0.7217622163
 40
0.7800762095
 40
0.8320605661
 40
0.8775196464
 40
0.9167720614
 40
0.950486673
 40
0.9785044749
 40
1.0
 40
1.0
 40
1.0
 40
1.0
 10
10.8193815296
 20
14.5164362353
 30
0.0
 10
10.8169831557
 20
14.5163827227
 30
0.0
 10
10.8122544333
 20
14.5162830236
 30
0.0
 10
10.8053518878
 20
14.5162179247
 30
0.0
 10
10.798907244
 20
14.516345229
 30
0.0
 10
10.7939315737
 20
14.5165277998
 30
0.0
 10
10.790341154
 20
14.516599932
 30
0.0
 10
10.7879928054
 20
14.5166115859
 30
0.0
 10
10.7858981076
 20
14.5166668847
 30
0.0
 10
10.7840638208
 20
14.5168304381
 30
0.0
 10
10.7825048805
 20
14.5171978887
 30
0.0
 10
10.7812619894
 20
14.5177674326
 30
0.0
 10
10.7803379479
 20
14.5184074557
 30
0.0
 10
10.7798604376
 20
14.5188797098
 30
0.0
 10
10.7796835402
 20
14.5191084313
 30
0.0
  0
SPLINE
  5
581
100
AcDbEntity
  8
0
100
AcDbSpline
 62
9
  6
CONTINUOUS
 70
0
 71
3
 72
31
 73
27
 74
0
 42
0.0000001
 43
0.0000001
 44
0.0000000001
 40
0.0
 40
0.0
 40
0.0
 40
0.0
 40
0.0002649625
 40
0.0005958563
 40
0.0010588488
 40
0.0023806011
 40
0.0042291613
 40
0.0066034718
 40
0.009502475
 40
0.0129251133
 40
0.0168703292
 40
0.0263242649
 40
0.0378558251
 40
0.0514565545
 40
0.0671179996
 40
0.0848292483
 40
0.1045704784
 40
0.1500555289
 40
0.2033984493
 40
0.2644245431
 40
0.3329461301
 40
0.4087242832
 40
0.4915074557
 40
0.5810441238
 40
0.7791588094
 40
1.0
 40
1.0
 40
1.0
 40
1.0
 10
14.156825857
 20
12.0662410714
 30
0.0
 10
14.1568078174
 20
12.066252837
 30
0.0
 10
14.1567538755
 20
12.0662331277
 30
0.0
 10
14.1566706659
 20
12.0662417482
 30
0.0
 10
14.1564970905
 20
12.0662337363
 30
0.0
 10
14.1562029945
 20
12.0662338185
 30
0.0
 10
14.1557517627
 20
12.0662256873
 30
0.0
 10
14.1551731431
 20
12.0662187478
 30
0.0
 10
14.154466276
 20
12.0662092182
 30
0.0
 10
14.1536318366
 20
12.0661986124
 30
0.0
 10
14.1522645824
 20
12.0661813936
 30
0.0
 10
14.1502382597
 20
12.0661568033
 30
0.0
 10
14.1474271237
 20
12.0661241228
 30
0.0
 10
14.1441114318
 20
12.0660873545
 30
0.0
 10
14.1402934345
 20
12.0660470573
 30
0.0
 10
14.1359763145
 20
12.0660038029
 30
0.0
 10
14.1292350887
 20
12.0659394892
 30
0.0
 10
14.1195976316
 20
12.0658541747
 30
0.0
 10
14.1066044023
 20
12.0657492999
 30
0.0
 10
14.0917386372
 20
12.0656402475
 30
0.0
 10
14.0750492023
 20
12.0655296857
 30
0.0
 10
14.0565912047
 20
12.0654216247
 30
0.0
 10
14.0364249466
 20
12.0653200339
 30
0.0
 10
14.0063146348
 20
12.0651943454
 30
0.0
 10
13.9649822306
 20
12.0650791597
 30
0.0
 10
13.9309276274
 20
12.0650431977
 30
0.0
 10
13.9129766708
 20
12.0650394829
 30
0.0
  0
SPLINE
  5
582
100
AcDbEntity
  8
0
100
AcDbSpline
 62
9
  6
CONTINUOUS
 70
0
 71
3
 72
11
 73
7
 74
0
 42
0.0000001
 43
0.0000001
 44
0.0000000001
 40
0.0
 40
0.0
 40
0.0
 40
0.0
 40
0.2852372627
 40
0.5455543251
 40
0.7820915731
 40
1.0
 40
1.0
 40
1.0
 40
1.0
 10
13.2618490515
 20
18.6527364425
 30
0.0
 10
13.249190344
 20
18.6581533269
 30
0.0
 10
13.2252861488
 20
18.6692464359
 30
0.0
 10
13.1919279391
 20
18.6869578687
 30
0.0
 10
13.1623002996
 20
18.7046692464
 30
0.0
 10
13.1440690577
 20
18.7168888219
 30
0.0
 10
13.1354762495
 20
18.7229560216
 30
0.0
  0
SPLINE
  5
583
100
AcDbEntity
  8
0
100
AcDbSpline
 62
9
  6
CONTINUOUS
 70
0
 71
3
 72
13
 73
9
 74
0
 42
0.0000001
 43
0.0000001
 44
0.0000000001
 40
0.0
 40
0.0
 40
0.0
 40
0.0
 40
0.1530180436
 40
0.2984779793
 40
0.5660861147
 40
0.8005028819
 40
0.9046899836
 40
1.0
 40
1.0
 40
1.0
 40
1.0
 10
13.803665867
 20
19.1138337628
 30
0.0
 10
13.8063691894
 20
19.1003404048
 30
0.0
 10
13.8116997604
 20
19.0740317148
 30
0.0
 10
13.8218835372
 20
19.0241503217
 30
0.0
 10
13.8338181373
 20
18.9671555086
 30
0.0
 10
13.845961901
 20
18.9139975793
 30
0.0
 10
13.8557238347
 20
18.8762121157
 30
0.0
 10
13.8606442695
 20
18.8589552482
 30
0.0
 10
13.8631380032
 20
18.8507544276
 30
0.0
  0
SPLINE
  5
584
100
AcDbEntity
  8
0
100
AcDbSpline
 62
9
  6
CONTINUOUS
 70
0
 71
3
 72
15
 73
11
 74
0
 42
0.0000001
 43
0.0000001
 44
0.0000000001
 40
0.0
 40
0.0
 40
0.0
 40
0.0
 40
0.21296467
 40
0.3966275779
 40
0.5528038927
 40
0.683587174
 40
0.7915254117
 40
0.878970522
 40
0.9479166712
 40
1.0
 40
1.0
 40
1.0
 40
1.0
 10
13.8631380032
 20
18.8507544276
 30
0.0
 10
13.866169887
 20
18.8407838617
 30
0.0
 10
13.8722259404
 20
18.8223338482
 30
0.0
 10
13.8820443498
 20
18.7971117762
 30
0.0
 10
13.8917291063
 20
18.7761977504
 30
0.0
 10
13.9011156649
 20
18.759284743
 30
0.0
 10
13.9099508434
 20
18.7459711599
 30
0.0
 10
13.9179937141
 20
18.7358196886
 30
0.0
 10
13.9250268697
 20
18.7284112281
 30
0.0
 10
13.9295031891
 20
18.7245157921
 30
0.0
 10
13.9315199694
 20
18.7229574725
 30
0.0
  0
SPLINE
  5
585
100
AcDbEntity
  8
0
100
AcDbSpline
 62
9
  6
CONTINUOUS
 70
0
 71
3
 72
11
 73
7
 74
0
 42
0.0000001
 43
0.0000001
 44
0.0000000001
 40
0.0
 40
0.0
 40
0.0
 40
0.0
 40
0.0687612966
 40
0.2693209142
 40
0.5870694647
 40
1.0
 40
1.0
 40
1.0
 40
1.0
 10
14.1012446342
 20
11.8434092849
 30
0.0
 10
14.0944303963
 20
11.8436918463
 30
0.0
 10
14.0677393655
 20
11.8447643508
 30
0.0
 10
14.0095484799
 20
11.8468609471
 30
0.0
 10
13.917233696
 20
11.8499032375
 30
0.0
 10
13.8447927166
 20
11.8520412307
 30
0.0
 10
13.8038522956
 20
11.8531877003
 30
0.0
  0
SPLINE
  5
586
100
AcDbEntity
  8
0
100
AcDbSpline
 62
9
  6
CONTINUOUS
 70
0
 71
3
 72
14
 73
10
 74
0
 42
0.0000001
 43
0.0000001
 44
0.0000000001
 40
0.0
 40
0.0
 40
0.0
 40
0.0
 40
0.0278659166
 40
0.0508704918
 40
0.0809555314
 40
0.1631426999
 40
0.2750065153
 40
0.5850997436
 40
1.0
 40
1.0
 40
1.0
 40
1.0
 10
12.9408303231
 20
20.310226412
 30
0.0
 10
12.9408515665
 20
20.3099934424
 30
0.0
 10
12.941253787
 20
20.3096743759
 30
0.0
 10
12.9418598046
 20
20.3094243713
 30
0.0
 10
12.942961851
 20
20.3090992332
 30
0.0
 10
12.9448150673
 20
20.3087934678
 30
0.0
 10
12.9490319095
 20
20.3083747552
 30
0.0
 10
12.956057559
 20
20.3081655804
 30
0.0
 10
12.9621445225
 20
20.3082021035
 30
0.0
 10
12.9656270377
 20
20.3082666648
 30
0.0
  0
SPLINE
  5
587
100
AcDbEntity
  8
0
100
AcDbSpline
 62
9
  6
CONTINUOUS
 70
0
 71
3
 72
9
 73
5
 74
0
 42
0.0000001
 43
0.0000001
 44
0.0000000001
 40
0.0
 40
0.0
 40
0.0
 40
0.0
 40
0.4583306901
 40
1.0
 40
1.0
 40
1.0
 40
1.0
 10
12.9656270377
 20
20.3082666648
 30
0.0
 10
12.9747894275
 20
20.3084365234
 30
0.0
 10
12.994768298
 20
20.3093729837
 30
0.0
 10
13.0147075839
 20
20.3108770552
 30
0.0
 10
13.0254956076
 20
20.3118325457
 30
0.0
  0
SPLINE
  5
588
100
AcDbEntity
  8
0
100
AcDbSpline
 62
9
  6
CONTINUOUS
 70
0
 71
3
 72
18
 73
14
 74
0
 42
0.0000001
 43
0.0000001
 44
0.0000000001
 40
0.0
 40
0.0
 40
0.0
 40
0.0
 40
0.1750523868
 40
0.3537094065
 40
0.5252190831
 40
0.6788511026
 40
0.8054423697
 40
0.857549434
 40
0.9019460728
 40
0.9384609635
 40
0.9669549632
 40
0.9873766149
 40
1.0
 40
1.0
 40
1.0
 40
1.0
 10
10.8546532945
 20
13.4791606782
 30
0.0
 10
10.8523131604
 20
13.4790792961
 30
0.0
 10
10.8475832465
 20
13.4789550757
 30
0.0
 10
10.8405579893
 20
13.4788747894
 30
0.0
 10
10.8338187279
 20
13.478906684
 30
0.0
 10
10.8277776515
 20
13.4790581145
 30
0.0
 10
10.8233379721
 20
13.4793095637
 30
0.0
 10
10.8203664238
 20
13.4795848097
 30
0.0
 10
10.8185993479
 20
13.479799742
 30
0.0
 10
10.8171553242
 20
13.4800317606
 30
0.0
 10
10.8160343022
 20
13.4802749643
 30
0.0
 10
10.8152555978
 20
13.4805228882
 30
0.0
 10
10.8148470739
 20
13.4807293505
 30
0.0
 10
10.8147328947
 20
13.480853748
 30
0.0
  0
SPLINE
  5
589
100
AcDbEntity
  8
0
100
AcDbSpline
 62
9
  6
CONTINUOUS
 70
0
 71
3
 72
12
 73
8
 74
0
 42
0.0000001
 43
0.0000001
 44
0.0000000001
 40
0.0
 40
0.0
 40
0.0
 40
0.0
 40
0.2996723617
 40
0.5671951005
 40
0.8011845073
 40
0.9050832388
 40
1.0
 40
1.0
 40
1.0
 40
1.0
 10
13.263341947
 20
19.1140898602
 30
0.0
 10
13.2580609292
 20
19.0874565509
 30
0.0
 10
13.2479615849
 20
19.0370671316
 30
0.0
 10
13.2329793855
 20
18.9660379969
 30
0.0
 10
13.2206739046
 20
18.9125738892
 30
0.0
 10
13.2107833454
 20
18.8746245571
 30
0.0
 10
13.2057964783
 20
18.8573114782
 30
0.0
 10
13.2032682136
 20
18.849091572
 30
0.0
  0
SPLINE
  5
58A
100
AcDbEntity
  8
0
100
AcDbSpline
 62
9
  6
CONTINUOUS
 70
0
 71
3
 72
9
 73
5
 74
0
 42
0.0000001
 43
0.0000001
 44
0.0000000001
 40
0.0
 40
0.0
 40
0.0
 40
0.0
 40
0.2688516433
 40
1.0
 40
1.0
 40
1.0
 40
1.0
 10
13.2032682136
 20
18.849091572
 30
0.0
 10
13.2021668457
 20
18.8455107994
 30
0.0
 10
13.1979640857
 20
18.8322252817
 30
0.0
 10
13.1933330912
 20
18.8190725944
 30
0.0
 10
13.1896467398
 20
18.8095746702
 30
0.0
  0
SPLINE
  5
58B
100
AcDbEntity
  8
0
100
AcDbSpline
 62
9
  6
CONTINUOUS
 70
0
 71
3
 72
12
 73
8
 74
0
 42
0.0000001
 43
0.0000001
 44
0.0000000001
 40
0.0
 40
0.0
 40
0.0
 40
0.0
 40
0.1974253978
 40
0.371180694
 40
0.6534662486
 40
0.8597578962
 40
1.0
 40
1.0
 40
1.0
 40
1.0
 10
13.1838937927
 20
18.7954684843
 30
0.0
 10
13.1816119869
 20
18.7901507676
 30
0.0
 10
13.1771029225
 20
18.7802432828
 30
0.0
 10
13.168261584
 20
18.7632457751
 30
0.0
 10
13.1578411756
 20
18.746801303
 30
0.0
 10
13.1460216957
 20
18.7325895538
 30
0.0
 10
13.1385967642
 20
18.725631639
 30
0.0
 10
13.1354762494
 20
18.7229560214
 30
0.0
  0
SPLINE
  5
58C
100
AcDbEntity
  8
0
100
AcDbSpline
 62
9
  6
CONTINUOUS
 70
0
 71
3
 72
18
 73
14
 74
0
 42
0.0000001
 43
0.0000001
 44
0.0000000001
 40
0.0
 40
0.0
 40
0.0
 40
0.0
 40
0.0106108691
 40
0.0298785026
 40
0.0576401522
 40
0.0936998543
 40
0.1378540969
 40
0.1898967579
 40
0.3168174454
 40
0.4712620366
 40
0.6438735961
 40
0.8237531188
 40
1.0
 40
1.0
 40
1.0
 40
1.0
 10
11.1479230878
 20
13.4736488008
 30
0.0
 10
11.1477882545
 20
13.4736069287
 30
0.0
 10
11.1473904934
 20
13.473559413
 30
0.0
 10
11.1466289675
 20
13.4734863824
 30
0.0
 10
11.1455242264
 20
13.4734210736
 30
0.0
 10
11.1440894935
 20
13.473353951
 30
0.0
 10
11.1423306308
 20
13.4732919992
 30
0.0
 10
11.1393630669
 20
13.4732101111
 30
0.0
 10
11.1349273833
 20
13.4731315068
 30
0.0
 10
11.1288871264
 20
13.473075898
 30
0.0
 10
11.1221419893
 20
13.4730509606
 30
0.0
 10
11.1151067295
 20
13.473055652
 30
0.0
 10
11.1103682418
 20
13.4730777988
 30
0.0
 10
11.1080232052
 20
13.4730941527
 30
0.0
  0
SPLINE
  5
58D
100
AcDbEntity
  8
0
100
AcDbSpline
 62
9
  6
CONTINUOUS
 70
0
 71
3
 72
11
 73
7
 74
0
 42
0.0000001
 43
0.0000001
 44
0.0000000001
 40
0.0
 40
0.0
 40
0.0
 40
0.0
 40
0.306421238
 40
0.4496994025
 40
0.5838609827
 40
1.0
 40
1.0
 40
1.0
 40
1.0
 10
13.8160631126
 20
12.2803361233
 30
0.0
 10
13.8156939981
 20
12.278733942
 30
0.0
 10
13.8149055844
 20
12.2764325313
 30
0.0
 10
13.8133999429
 20
12.2736633713
 30
0.0
 10
13.8112994815
 20
12.2706627115
 30
0.0
 10
13.8085951934
 20
12.2684206258
 30
0.0
 10
13.8063623355
 20
12.2684203445
 30
0.0
  0
SPLINE
  5
58E
100
AcDbEntity
  8
0
100
AcDbSpline
 62
9
  6
CONTINUOUS
 70
0
 71
3
 72
16
 73
12
 74
0
 42
0.0000001
 43
0.0000001
 44
0.0000000001
 40
0.0
 40
0.0
 40
0.0
 40
0.0
 40
0.3627062917
 40
0.5304161065
 40
0.6801089259
 40
0.80615858
 40
0.903889909
 40
0.940801988
 40
0.9692842086
 40
0.9890960717
 40
1.0
 40
1.0
 40
1.0
 40
1.0
 10
14.0859408602
 20
20.8111652555
 30
0.0
 10
14.0869130517
 20
20.8220884316
 30
0.0
 10
14.0883165108
 20
20.8380639561
 30
0.0
 10
14.0900752328
 20
20.858551568
 30
0.0
 10
14.0912014591
 20
20.8719119006
 30
0.0
 10
14.0921262301
 20
20.8831658437
 30
0.0
 10
14.0927506122
 20
20.891023192
 30
0.0
 10
14.0931173769
 20
20.8959415002
 30
0.0
 10
14.0933001017
 20
20.8985114312
 30
0.0
 10
14.093407725
 20
20.9002976336
 30
0.0
 10
14.0934580855
 20
20.9012255766
 30
0.0
 10
14.0934580855
 20
20.9015552548
 30
0.0
  0
SPLINE
  5
58F
100
AcDbEntity
  8
0
100
AcDbSpline
 62
9
  6
CONTINUOUS
 70
0
 71
3
 72
15
 73
11
 74
0
 42
0.0000001
 43
0.0000001
 44
0.0000000001
 40
0.0
 40
0.0
 40
0.0
 40
0.0
 40
0.0269765821
 40
0.0493930359
 40
0.0789518389
 40
0.115924337
 40
0.1604073887
 40
0.2719427828
 40
0.5827436083
 40
1.0
 40
1.0
 40
1.0
 40
1.0
 10
14.1706078037
 20
20.8095956419
 30
0.0
 10
14.1706078037
 20
20.8093688715
 30
0.0
 10
14.1702292176
 20
20.8090296097
 30
0.0
 10
14.1696403747
 20
20.808781211
 30
0.0
 10
14.1689165158
 20
20.8085571637
 30
0.0
 10
14.1680065342
 20
20.8083617963
 30
0.0
 10
14.1664031966
 20
20.8081019824
 30
0.0
 10
14.1624964908
 20
20.8077160701
 30
0.0
 10
14.1554364333
 20
20.8074956667
 30
0.0
 10
14.149316366
 20
20.8075343605
 30
0.0
 10
14.1458094301
 20
20.8075993745
 30
0.0
  0
SPLINE
  5
590
100
AcDbEntity
  8
0
100
AcDbSpline
 62
9
  6
CONTINUOUS
 70
0
 71
3
 72
9
 73
5
 74
0
 42
0.0000001
 43
0.0000001
 44
0.0000000001
 40
0.0
 40
0.0
 40
0.0
 40
0.0
 40
0.2238782924
 40
1.0
 40
1.0
 40
1.0
 40
1.0
 10
14.1458094301
 20
20.8075993745
 30
0.0
 10
14.143758088
 20
20.8076374037
 30
0.0
 10
14.1345965842
 20
20.8078737847
 30
0.0
 10
14.1254415305
 20
20.8083236815
 30
0.0
 10
14.1183414967
 20
20.8087468865
 30
0.0
  0
SPLINE
  5
591
100
AcDbEntity
  8
0
100
AcDbSpline
 62
9
  6
CONTINUOUS
 70
0
 71
3
 72
31
 73
27
 74
0
 42
0.0000001
 43
0.0000001
 44
0.0000000001
 40
0.0
 40
0.0
 40
0.0
 40
0.0
 40
0.0672985914
 40
0.1304051333
 40
0.2476663543
 40
0.4538338679
 40
0.5442016095
 40
0.6263946213
 40
0.7004978074
 40
0.7664685336
 40
0.8242371666
 40
0.8500445983
 40
0.8738011157
 40
0.8955051201
 40
0.9151513176
 40
0.9327325274
 40
0.9482402938
 40
0.9616688678
 40
0.9730271174
 40
0.982326605
 40
0.9895776166
 40
0.9947891847
 40
0.997969225
 40
0.998799832
 40
0.9991267032
 40
1.0
 40
1.0
 40
1.0
 40
1.0
 10
12.2501818908
 20
11.1026597232
 30
0.0
 10
12.2375156217
 20
11.1065531766
 30
0.0
 10
12.2129921366
 20
11.1141625426
 30
0.0
 10
12.1663325575
 20
11.1283416575
 30
0.0
 10
12.0931911364
 20
11.1494006055
 30
0.0
 10
12.0140381359
 20
11.1689407825
 30
0.0
 10
11.9408895489
 20
11.1834886963
 30
0.0
 10
11.8929912308
 20
11.1915714778
 30
0.0
 10
11.8496366406
 20
11.1975929602
 30
0.0
 10
11.8109082088
 20
11.2018396858
 30
0.0
 10
11.7815540179
 20
11.2042168953
 30
0.0
 10
11.7604560315
 20
11.2054588817
 30
0.0
 10
11.7464368203
 20
11.2060857652
 30
0.0
 10
11.7336228632
 20
11.2064787469
 30
0.0
 10
11.7220204048
 20
11.2066727977
 30
0.0
 10
11.7116366629
 20
11.2067028752
 30
0.0
 10
11.702477079
 20
11.2066039649
 30
0.0
 10
11.6945465829
 20
11.2064107418
 30
0.0
 10
11.6878353323
 20
11.2061582525
 30
0.0
 10
11.6823584944
 20
11.2058807625
 30
0.0
 10
11.6780519772
 20
11.2056143918
 30
0.0
 10
11.6750479607
 20
11.2053895659
 30
0.0
 10
11.673119596
 20
11.2052509798
 30
0.0
 10
11.6723866311
 20
11.2051877255
 30
0.0
 10
11.671832984
 20
11.2051815686
 30
0.0
 10
11.6723784075
 20
11.2052830868
 30
0.0
 10
11.6725472013
 20
11.205315897
 30
0.0
  0
LINE
  5
592
100
AcDbEntity
  8
0
100
AcDbLine
 62
9
  6
CONTINUOUS
 10
13.263497396
 20
12.279704623
 11
13.2572703162
 21
12.2800175281
  0
LINE
  5
593
100
AcDbEntity
  8
0
100
AcDbLine
 62
9
  6
CONTINUOUS
 10
13.2572703162
 20
12.2800175281
 11
13.2509303057
 21
12.2803361504
  0
SPLINE
  5
594
100
AcDbEntity
  8
0
100
AcDbSpline
 62
9
  6
CONTINUOUS
 70
0
 71
3
 72
18
 73
14
 74
0
 42
0.0000001
 43
0.0000001
 44
0.0000000001
 40
0.0
 40
0.0
 40
0.0
 40
0.0
 40
0.1934199013
 40
0.3800575379
 40
0.551719337
 40
0.7021078413
 40
0.8256909838
 40
0.9180823079
 40
0.9514160311
 40
0.9759040624
 40
0.9848659372
 40
0.9917160208
 40
1.0
 40
1.0
 40
1.0
 40
1.0
 10
14.0414989297
 20
20.3118325457
 30
0.0
 10
14.046968696
 20
20.311348091
 30
0.0
 10
14.0577230489
 20
20.3104694723
 30
0.0
 10
14.0733507848
 20
20.3094065052
 30
0.0
 10
14.087773468
 20
20.3086556273
 30
0.0
 10
14.1004191429
 20
20.3082328645
 30
0.0
 10
14.1108210389
 20
20.3081636864
 30
0.0
 10
14.1178991243
 20
20.3083707907
 30
0.0
 10
14.1221484446
 20
20.3087892638
 30
0.0
 10
14.1240160027
 20
20.3090954459
 30
0.0
 10
14.125126797
 20
20.3094215
 30
0.0
 10
14.1257369877
 20
20.3096720646
 30
0.0
 10
14.1261428577
 20
20.309992202
 30
0.0
 10
14.1261642143
 20
20.310226412
 30
0.0
  0
SPLINE
  5
595
100
AcDbEntity
  8
0
100
AcDbSpline
 62
9
  6
CONTINUOUS
 70
0
 71
3
 72
9
 73
5
 74
0
 42
0.0000001
 43
0.0000001
 44
0.0000000001
 40
0.0
 40
0.0
 40
0.0
 40
0.0
 40
0.2733781337
 40
1.0
 40
1.0
 40
1.0
 40
1.0
 10
13.2555862566
 20
19.8655658782
 30
0.0
 10
13.251775783
 20
19.866816593
 30
0.0
 10
13.2378533528
 20
19.8714396247
 30
0.0
 10
13.223997712
 20
19.8762691457
 30
0.0
 10
13.2140030934
 20
19.8799752322
 30
0.0
  0
SPLINE
  5
596
100
AcDbEntity
  8
0
100
AcDbSpline
 62
9
  6
CONTINUOUS
 70
0
 71
3
 72
11
 73
7
 74
0
 42
0.0000001
 43
0.0000001
 44
0.0000000001
 40
0.0
 40
0.0
 40
0.0
 40
0.0
 40
0.303911651
 40
0.569909788
 40
0.8015700518
 40
1.0
 40
1.0
 40
1.0
 40
1.0
 10
13.2011366634
 20
19.8848881575
 30
0.0
 10
13.195445965
 20
19.8871307032
 30
0.0
 10
13.1848372854
 20
19.8914999357
 30
0.0
 10
13.1701928795
 20
19.8982834362
 30
0.0
 10
13.1578154474
 20
19.9048621435
 30
0.0
 10
13.1504713196
 20
19.9094681797
 30
0.0
 10
13.147205837
 20
19.9117673039
 30
0.0
  0
SPLINE
  5
597
100
AcDbEntity
  8
0
100
AcDbSpline
 62
9
  6
CONTINUOUS
 70
0
 71
3
 72
9
 73
5
 74
0
 42
0.0000001
 43
0.0000001
 44
0.0000000001
 40
0.0
 40
0.0
 40
0.0
 40
0.0
 40
0.2656711932
 40
1.0
 40
1.0
 40
1.0
 40
1.0
 10
13.147205837
 20
19.9117673039
 30
0.0
 10
13.146539379
 20
19.9122365361
 30
0.0
 10
13.1440509224
 20
19.914030783
 30
0.0
 10
13.14164503
 20
19.915942375
 30
0.0
 10
13.1399525963
 20
19.9174294027
 30
0.0
  0
SPLINE
  5
598
100
AcDbEntity
  8
0
100
AcDbSpline
 62
9
  6
CONTINUOUS
 70
0
 71
3
 72
9
 73
5
 74
0
 42
0.0000001
 43
0.0000001
 44
0.0000000001
 40
0.0
 40
0.0
 40
0.0
 40
0.0
 40
0.5226999108
 40
1.0
 40
1.0
 40
1.0
 40
1.0
 10
13.0454172414
 20
20.313596996
 30
0.0
 10
13.0538694224
 20
20.314345602
 30
0.0
 10
13.0700250365
 20
20.315946039
 30
0.0
 10
13.0861435084
 20
20.3178935172
 30
0.0
 10
13.0938197027
 20
20.318947891
 30
0.0
  0
SPLINE
  5
599
100
AcDbEntity
  8
0
100
AcDbSpline
 62
9
  6
CONTINUOUS
 70
0
 71
3
 72
9
 73
5
 74
0
 42
0.0000001
 43
0.0000001
 44
0.0000000001
 40
0.0
 40
0.0
 40
0.0
 40
0.0
 40
0.4777985251
 40
1.0
 40
1.0
 40
1.0
 40
1.0
 10
13.9735867627
 20
20.3188914367
 30
0.0
 10
13.9812060048
 20
20.3178495624
 30
0.0
 10
13.9971874322
 20
20.3159238148
 30
0.0
 10
14.0132052593
 20
20.3143385036
 30
0.0
 10
14.0215772959
 20
20.313596996
 30
0.0
  0
SPLINE
  5
59A
100
AcDbEntity
  8
0
100
AcDbSpline
 62
9
  6
CONTINUOUS
 70
0
 71
3
 72
9
 73
5
 74
0
 42
0.0000001
 43
0.0000001
 44
0.0000000001
 40
0.0
 40
0.0
 40
0.0
 40
0.0
 40
0.5031006358
 40
1.0
 40
1.0
 40
1.0
 40
1.0
 10
13.1567676707
 20
13.5953170853
 30
0.0
 10
13.172533017
 20
13.6139292623
 30
0.0
 10
13.2060593111
 20
13.6491350096
 30
0.0
 10
13.2437909574
 20
13.6798332933
 30
0.0
 10
13.2634650967
 20
13.6937369206
 30
0.0
  0
SPLINE
  5
59B
100
AcDbEntity
  8
0
100
AcDbSpline
 62
9
  6
CONTINUOUS
 70
0
 71
3
 72
9
 73
5
 74
0
 42
0.0000001
 43
0.0000001
 44
0.0000000001
 40
0.0
 40
0.0
 40
0.0
 40
0.0
 40
0.4969710373
 40
1.0
 40
1.0
 40
1.0
 40
1.0
 10
13.8050640827
 20
13.6927002685
 30
0.0
 10
13.8242430117
 20
13.679053754
 30
0.0
 10
13.8610419046
 20
13.6489958281
 30
0.0
 10
13.8937947108
 20
13.6146112346
 30
0.0
 10
13.9092296297
 20
13.5964615266
 30
0.0
  0
SPLINE
  5
59C
100
AcDbEntity
  8
0
100
AcDbSpline
 62
9
  6
CONTINUOUS
 70
0
 71
3
 72
14
 73
10
 74
0
 42
0.0000001
 43
0.0000001
 44
0.0000000001
 40
0.0
 40
0.0
 40
0.0
 40
0.0
 40
0.0309280107
 40
0.0928882561
 40
0.184600282
 40
0.3041623123
 40
0.4487192432
 40
0.6152869567
 40
1.0
 40
1.0
 40
1.0
 40
1.0
 10
14.0735364518
 20
20.9033197051
 30
0.0
 10
14.0735364518
 20
20.9027237712
 30
0.0
 10
14.0734124137
 20
20.9009364424
 30
0.0
 10
14.0731811693
 20
20.8973883179
 30
0.0
 10
14.0727742999
 20
20.8921385322
 30
0.0
 10
14.0722340005
 20
20.8853038394
 30
0.0
 10
14.0715562355
 20
20.8770327973
 30
0.0
 10
14.0704407042
 20
20.8636716337
 30
0.0
 10
14.0695347041
 20
20.853087998
 30
0.0
 10
14.068895944
 20
20.8457027571
 30
0.0
  0
SPLINE
  5
59D
100
AcDbEntity
  8
0
100
AcDbSpline
 62
7
  6
CONTINUOUS
 70
0
 71
3
 72
21
 73
17
 74
0
 42
0.0000001
 43
0.0000001
 44
0.0000000001
 40
0.0
 40
0.0
 40
0.0
 40
0.0
 40
0.1418036009
 40
0.2085172763
 40
0.2721412473
 40
0.3326751245
 40
0.3903572991
 40
0.4458028798
 40
0.5000001819
 40
0.5541975235
 40
0.609643127
 40
0.6673252278
 40
0.7278589383
 40
0.7914828058
 40
0.8581963922
 40
1.0
 40
1.0
 40
1.0
 40
1.0
 10
14.2858831391
 20
12.6610650954
 30
0.0
 10
14.2753269024
 20
12.6526717161
 30
0.0
 10
14.2603212144
 20
12.6396110998
 30
0.0
 10
14.2427110952
 20
12.6206112594
 30
0.0
 10
14.2315638549
 20
12.6062474576
 30
0.0
 10
14.2224686798
 20
12.5914905163
 30
0.0
 10
14.2156939612
 20
12.5763658913
 30
0.0
 10
14.2114921624
 20
12.5609408906
 30
0.0
 10
14.2100707635
 20
12.5453388007
 30
0.0
 10
14.2114921545
 20
12.5297367009
 30
0.0
 10
14.2156940425
 20
12.514311729
 30
0.0
 10
14.2224686843
 20
12.4991870946
 30
0.0
 10
14.2315639028
 20
12.484430214
 30
0.0
 10
14.242711113
 20
12.4700664363
 30
0.0
 10
14.2603212189
 20
12.4510666056
 30
0.0
 10
14.2753269019
 20
12.4380059961
 30
0.0
 10
14.2858831391
 20
12.4296126165
 30
0.0
  0
SPLINE
  5
59E
100
AcDbEntity
  8
0
100
AcDbSpline
 62
9
  6
CONTINUOUS
 70
0
 71
3
 72
19
 73
15
 74
0
 42
0.0000001
 43
0.0000001
 44
0.0000000001
 40
0.0
 40
0.0
 40
0.0
 40
0.0
 40
0.1921193442
 40
0.3779048721
 40
0.5491501685
 40
0.6995213741
 40
0.8234412593
 40
0.8740742849
 40
0.9164727668
 40
0.9502110624
 40
0.9751507243
 40
0.9843447845
 40
0.9914188511
 40
1.0
 40
1.0
 40
1.0
 40
1.0
 10
14.0660192264
 20
20.8129297058
 30
0.0
 10
14.0605212309
 20
20.8134166608
 30
0.0
 10
14.0497129154
 20
20.8144485604
 30
0.0
 10
14.0340288478
 20
20.8161620688
 30
0.0
 10
14.0195634805
 20
20.8179726667
 30
0.0
 10
14.0068939682
 20
20.8198018852
 30
0.0
 10
13.9976892216
 20
20.821366117
 30
0.0
 10
13.991580243
 20
20.822607928
 30
0.0
 10
13.9880330916
 20
20.8234327518
 30
0.0
 10
13.9852322644
 20
20.8242143584
 30
0.0
 10
13.9833940366
 20
20.8248527794
 30
0.0
 10
13.9823151201
 20
20.825371901
 30
0.0
 10
13.981728594
 20
20.8257342961
 30
0.0
 10
13.9813522829
 20
20.8261113866
 30
0.0
 10
13.9813522829
 20
20.8263579198
 30
0.0
  0
SPLINE
  5
59F
100
AcDbEntity
  8
0
100
AcDbSpline
 62
7
  6
CONTINUOUS
 70
0
 71
3
 72
21
 73
17
 74
0
 42
0.0000001
 43
0.0000001
 44
0.0000000001
 40
0.0
 40
0.0
 40
0.0
 40
0.0
 40
0.1418036009
 40
0.2085172763
 40
0.2721412473
 40
0.3326751245
 40
0.3903572991
 40
0.4458028798
 40
0.5000001819
 40
0.5541975235
 40
0.609643127
 40
0.6673252278
 40
0.7278589383
 40
0.7914828058
 40
0.8581963922
 40
1.0
 40
1.0
 40
1.0
 40
1.0
 10
14.6320562801
 20
12.4296126165
 30
0.0
 10
14.6426125168
 20
12.4380059957
 30
0.0
 10
14.6576182048
 20
12.451066612
 30
0.0
 10
14.675228324
 20
12.4700664525
 30
0.0
 10
14.6863755643
 20
12.4844302543
 30
0.0
 10
14.6954707394
 20
12.4991871956
 30
0.0
 10
14.702245458
 20
12.5143118206
 30
0.0
 10
14.7064472568
 20
12.5297368213
 30
0.0
 10
14.7078686557
 20
12.5453389112
 30
0.0
 10
14.7064472647
 20
12.5609410109
 30
0.0
 10
14.7022453767
 20
12.5763659828
 30
0.0
 10
14.6954707349
 20
12.5914906173
 30
0.0
 10
14.6863755164
 20
12.6062474979
 30
0.0
 10
14.6752283062
 20
12.6206112755
 30
0.0
 10
14.6576182003
 20
12.6396111062
 30
0.0
 10
14.6426125173
 20
12.6526717157
 30
0.0
 10
14.6320562801
 20
12.6610650954
 30
0.0
  0
SPLINE
  5
5A0
100
AcDbEntity
  8
0
100
AcDbSpline
 62
7
  6
CONTINUOUS
 70
0
 71
3
 72
12
 73
8
 74
0
 42
0.0000001
 43
0.0000001
 44
0.0000000001
 40
0.0
 40
0.0
 40
0.0
 40
0.0
 40
0.2499376636
 40
0.4999425457
 40
0.6249993968
 40
0.7500950232
 40
1.0
 40
1.0
 40
1.0
 40
1.0
 10
14.6320562801
 20
12.8283054669
 30
0.0
 10
14.6429908894
 20
12.8456939219
 30
0.0
 10
14.6633652491
 20
12.8814581899
 30
0.0
 10
14.6836081144
 20
12.9288321142
 30
0.0
 10
14.6956613101
 20
12.9681719182
 30
0.0
 10
14.7045676448
 20
13.008321004
 30
0.0
 10
14.7074004902
 20
13.0392198422
 30
0.0
 10
14.7074004902
 20
13.0597579458
 30
0.0
  0
SPLINE
  5
5A1
100
AcDbEntity
  8
0
100
AcDbSpline
 62
9
  6
CONTINUOUS
 70
0
 71
3
 72
35
 73
31
 74
0
 42
0.0000001
 43
0.0000001
 44
0.0000000001
 40
0.0
 40
0.0
 40
0.0
 40
0.0
 40
0.2144494635
 40
0.3147548729
 40
0.4097996539
 40
0.4990999241
 40
0.5822050126
 40
0.6587344531
 40
0.7283166925
 40
0.790582725
 40
0.8452191533
 40
0.8695950603
 40
0.8919665561
 40
0.9123014818
 40
0.9305676756
 40
0.9467335195
 40
0.960778756
 40
0.9726938569
 40
0.9824697158
 40
0.986552585
 40
0.9900972312
 40
0.9931025189
 40
0.9955673147
 40
0.9974904905
 40
0.998248622
 40
0.9988709328
 40
0.9993572913
 40
0.9997075787
 40
0.9999217205
 40
1.0
 40
1.0
 40
1.0
 40
1.0
 10
13.261558741
 20
12.0651694094
 30
0.0
 10
13.2364396813
 20
12.065094367
 30
0.0
 10
13.1995714422
 20
12.0650182267
 30
0.0
 10
13.1515702504
 20
12.06501193
 30
0.0
 10
13.1182282133
 20
12.0650433126
 30
0.0
 10
13.0869009525
 20
12.0651043436
 30
0.0
 10
13.0577425164
 20
12.0651883375
 30
0.0
 10
13.0308937991
 20
12.0652925627
 30
0.0
 10
13.0064861257
 20
12.0654134994
 30
0.0
 10
12.9846429718
 20
12.065548829
 30
0.0
 10
12.9680950291
 20
12.065672461
 30
0.0
 10
12.9562200154
 20
12.0657709714
 30
0.0
 10
12.9483627431
 20
12.0658398659
 30
0.0
 10
12.9412211195
 20
12.0659052969
 30
0.0
 10
12.9348063721
 20
12.0659660203
 30
0.0
 10
12.9291283312
 20
12.0660205651
 30
0.0
 10
12.9241941856
 20
12.0660684477
 30
0.0
 10
12.9200084945
 20
12.0661102187
 30
0.0
 10
12.9169896892
 20
12.0661418483
 30
0.0
 10
12.9149512987
 20
12.0661647507
 30
0.0
 10
12.9137059426
 20
12.0661796256
 30
0.0
 10
12.9126500742
 20
12.0661932072
 30
0.0
 10
12.9117842525
 20
12.0662057721
 30
0.0
 10
12.9111813568
 20
12.066215493
 30
0.0
 10
12.910794772
 20
12.0662236302
 30
0.0
 10
12.9105755271
 20
12.0662277657
 30
0.0
 10
12.9104063576
 20
12.0662348397
 30
0.0
 10
12.9102795545
 20
12.0662338716
 30
0.0
 10
12.9102112092
 20
12.0662473709
 30
0.0
 10
12.9101695962
 20
12.066239904
 30
0.0
 10
12.9101639353
 20
12.0662471171
 30
0.0
  0
SPLINE
  5
5A2
100
AcDbEntity
  8
0
100
AcDbSpline
 62
9
  6
CONTINUOUS
 70
0
 71
3
 72
31
 73
27
 74
0
 42
0.0000001
 43
0.0000001
 44
0.0000000001
 40
0.0
 40
0.0
 40
0.0
 40
0.0
 40
0.0006768385
 40
0.0012982718
 40
0.0025191773
 40
0.0044362019
 40
0.0070527332
 40
0.0103564675
 40
0.0143306224
 40
0.018956742
 40
0.0242156629
 40
0.0300879221
 40
0.0435942021
 40
0.0593195365
 40
0.0771235869
 40
0.0969414567
 40
0.1187322042
 40
0.1680656049
 40
0.224787658
 40
0.2885597146
 40
0.3590015556
 40
0.4356673196
 40
0.5181072158
 40
0.6058737114
 40
0.795415794
 40
1.0
 40
1.0
 40
1.0
 40
1.0
 10
12.977504571
 20
12.3512811164
 30
0.0
 10
12.977520609
 20
12.3512403539
 30
0.0
 10
12.9775768547
 20
12.3511417574
 30
0.0
 10
12.9777476189
 20
12.3512498714
 30
0.0
 10
12.977859378
 20
12.3514535315
 30
0.0
 10
12.9780355877
 20
12.3517882557
 30
0.0
 10
12.9782292155
 20
12.3522550104
 30
0.0
 10
12.9784629055
 20
12.3528520419
 30
0.0
 10
12.9787284823
 20
12.3535749923
 30
0.0
 10
12.9790301528
 20
12.3544197836
 30
0.0
 10
12.9793678499
 20
12.3553820145
 30
0.0
 10
12.9798930833
 20
12.3568875407
 30
0.0
 10
12.9806434597
 20
12.3590319197
 30
0.0
 10
12.9816706246
 20
12.3618975384
 30
0.0
 10
12.9828737324
 20
12.3651337731
 30
0.0
 10
12.9842436584
 20
12.3687265992
 30
0.0
 10
12.9863719085
 20
12.3742140145
 30
0.0
 10
12.9894073086
 20
12.3819112074
 30
0.0
 10
12.9934582222
 20
12.3921284692
 30
0.0
 10
12.9979953479
 20
12.4036225411
 30
0.0
 10
13.0029582238
 20
12.4163361329
 30
0.0
 10
13.0082877417
 20
12.4302033681
 30
0.0
 10
13.0139238441
 20
12.4451536639
 30
0.0
 10
13.0219639844
 20
12.4670041369
 30
0.0
 10
13.0324071973
 20
12.496391628
 30
0.0
 10
13.0409445775
 20
12.520427836
 30
0.0
 10
13.0454367988
 20
12.5328829155
 30
0.0
  0
SPLINE
  5
5A3
100
AcDbEntity
  8
0
100
AcDbSpline
 62
9
  6
CONTINUOUS
 70
0
 71
3
 72
9
 73
5
 74
0
 42
0.0000001
 43
0.0000001
 44
0.0000000001
 40
0.0
 40
0.0
 40
0.0
 40
0.0
 40
0.307183257
 40
1.0
 40
1.0
 40
1.0
 40
1.0
 10
11.1781442949
 20
13.3886347615
 30
0.0
 10
11.1791754408
 20
13.394088529
 30
0.0
 10
11.1826136219
 20
13.4118270476
 30
0.0
 10
11.1863256094
 20
13.4295132167
 30
0.0
 10
11.1890922082
 20
13.4417219469
 30
0.0
  0
LINE
  5
5A4
100
AcDbEntity
  8
0
100
AcDbLine
 62
9
  6
CONTINUOUS
 10
11.1890922082
 20
13.4417219469
 11
11.1933853063
 21
13.4597579394
  0
SPLINE
  5
5A5
100
AcDbEntity
  8
0
100
AcDbSpline
 62
9
  6
CONTINUOUS
 70
0
 71
3
 72
19
 73
15
 74
0
 42
0.0000001
 43
0.0000001
 44
0.0000000001
 40
0.0
 40
0.0
 40
0.0
 40
0.0
 40
0.0792032214
 40
0.1478480218
 40
0.2100563123
 40
0.2674766789
 40
0.3719743717
 40
0.4655984923
 40
0.6270035076
 40
0.7585426718
 40
0.862008957
 40
0.9374672075
 40
0.9840447115
 40
1.0
 40
1.0
 40
1.0
 40
1.0
 10
7.7832940773
 20
10.1994085526
 30
0.0
 10
7.7700704067
 20
10.2023993575
 30
0.0
 10
7.7455024058
 20
10.2085026036
 30
0.0
 10
7.7108568728
 20
10.2181304399
 30
0.0
 10
7.6799568654
 20
10.2272906892
 30
0.0
 10
7.643325236
 20
10.2386945827
 30
0.0
 10
7.6017175211
 20
10.2521974252
 30
0.0
 10
7.5433588483
 20
10.2717359545
 30
0.0
 10
7.480733368
 20
10.2931060774
 30
0.0
 10
7.4164654382
 20
10.3148791742
 30
0.0
 10
7.3660194373
 20
10.3315986864
 30
0.0
 10
7.3292654825
 20
10.3433963352
 30
0.0
 10
7.3066972983
 20
10.3503715779
 30
0.0
 10
7.2964335087
 20
10.3534101212
 30
0.0
 10
7.2938118913
 20
10.3541759738
 30
0.0
  0
SPLINE
  5
5A6
100
AcDbEntity
  8
0
100
AcDbSpline
 62
9
  6
CONTINUOUS
 70
0
 71
3
 72
26
 73
22
 74
0
 42
0.0000001
 43
0.0000001
 44
0.0000000001
 40
0.0
 40
0.0
 40
0.0
 40
0.0
 40
0.0098668429
 40
0.0209908617
 40
0.0335145019
 40
0.0475108488
 40
0.0800006233
 40
0.1184262933
 40
0.1625424931
 40
0.2120742549
 40
0.2667269799
 40
0.3262331741
 40
0.3903498902
 40
0.4589156001
 40
0.5318724193
 40
0.6094712247
 40
0.6922294641
 40
0.781520328
 40
0.829452389
 40
0.8806327932
 40
1.0
 40
1.0
 40
1.0
 40
1.0
 10
8.367299666
 20
9.9422940594
 30
0.0
 10
8.3652151072
 20
9.9419638977
 30
0.0
 10
8.3607085325
 20
9.9416978636
 30
0.0
 10
8.3535487385
 20
9.942285748
 30
0.0
 10
8.3456252878
 20
9.9437838514
 30
0.0
 10
8.3334398727
 20
9.9471128347
 30
0.0
 10
8.3164101862
 20
9.9535205411
 30
0.0
 10
8.2940364861
 20
9.9637799085
 30
0.0
 10
8.2688991787
 20
9.976687459
 30
0.0
 10
8.2410695551
 20
9.9919150945
 30
0.0
 10
8.2105914024
 20
10.0091513472
 30
0.0
 10
8.1774784354
 20
10.0280641704
 30
0.0
 10
8.1417141459
 20
10.0483359249
 30
0.0
 10
8.1032248221
 20
10.0696317345
 30
0.0
 10
8.0618484867
 20
10.0916577338
 30
0.0
 10
8.0172409664
 20
10.1140501794
 30
0.0
 10
7.9688055616
 20
10.1365600684
 30
0.0
 10
7.9253637254
 20
10.1546845944
 30
0.0
 10
7.8876256764
 20
10.1688409458
 30
0.0
 10
7.8433832244
 20
10.1839002944
 30
0.0
 10
7.8081980169
 20
10.1937760147
 30
0.0
 10
7.7832940773
 20
10.1994085526
 30
0.0
  0
LINE
  5
5A7
100
AcDbEntity
  8
0
100
AcDbLine
 62
9
  6
CONTINUOUS
 10
10.7823804512
 20
13.059757103
 11
10.7819687482
 21
13.056257217
  0
SPLINE
  5
5A8
100
AcDbEntity
  8
0
100
AcDbSpline
 62
9
  6
CONTINUOUS
 70
0
 71
3
 72
15
 73
11
 74
0
 42
0.0000001
 43
0.0000001
 44
0.0000000001
 40
0.0
 40
0.0
 40
0.0
 40
0.0
 40
0.1593378187
 40
0.3118075493
 40
0.455575975
 40
0.5891457944
 40
0.7114306645
 40
0.8213654129
 40
0.9178929578
 40
1.0
 40
1.0
 40
1.0
 40
1.0
 10
10.7718599993
 20
12.947426256
 30
0.0
 10
10.7709856603
 20
12.9341340163
 30
0.0
 10
10.7695685259
 20
12.9081017424
 30
0.0
 10
10.7685261288
 20
12.8700234403
 30
0.0
 10
10.7687464877
 20
12.8340829849
 30
0.0
 10
10.7702690816
 20
12.8006992993
 30
0.0
 10
10.7729019579
 20
12.770223297
 30
0.0
 10
10.7764839476
 20
12.7429627775
 30
0.0
 10
10.7808449109
 20
12.7192247421
 30
0.0
 10
10.7844568569
 20
12.7047166428
 30
0.0
 10
10.7864234992
 20
12.6981400827
 30
0.0
  0
SPLINE
  5
5A9
100
AcDbEntity
  8
0
100
AcDbSpline
 62
9
  6
CONTINUOUS
 70
0
 71
3
 72
19
 73
15
 74
0
 42
0.0000001
 43
0.0000001
 44
0.0000000001
 40
0.0
 40
0.0
 40
0.0
 40
0.0
 40
0.0085811489
 40
0.0156552155
 40
0.0248492757
 40
0.0497889376
 40
0.0835272332
 40
0.1259257151
 40
0.1765587407
 40
0.3004786259
 40
0.4508498315
 40
0.6220951279
 40
0.8078806558
 40
1.0
 40
1.0
 40
1.0
 40
1.0
 10
13.0856422544
 20
20.8263579198
 30
0.0
 10
13.0856422544
 20
20.8261113866
 30
0.0
 10
13.0852659434
 20
20.8257342961
 30
0.0
 10
13.0846794172
 20
20.825371901
 30
0.0
 10
13.0836005008
 20
20.8248527794
 30
0.0
 10
13.081762273
 20
20.8242143584
 30
0.0
 10
13.0789614458
 20
20.8234327518
 30
0.0
 10
13.0754142943
 20
20.822607928
 30
0.0
 10
13.0693053157
 20
20.821366117
 30
0.0
 10
13.0601005691
 20
20.8198018852
 30
0.0
 10
13.0474310568
 20
20.8179726667
 30
0.0
 10
13.0329656895
 20
20.8161620688
 30
0.0
 10
13.0172816219
 20
20.8144485604
 30
0.0
 10
13.0064733064
 20
20.8134166608
 30
0.0
 10
13.0009753109
 20
20.8129297058
 30
0.0
  0
SPLINE
  5
5AA
100
AcDbEntity
  8
0
100
AcDbSpline
 62
9
  6
CONTINUOUS
 70
0
 71
3
 72
11
 73
7
 74
0
 42
0.0000001
 43
0.0000001
 44
0.0000000001
 40
0.0
 40
0.0
 40
0.0
 40
0.0
 40
0.1895126826
 40
0.4223737616
 40
0.694056244
 40
1.0
 40
1.0
 40
1.0
 40
1.0
 10
11.1781444991
 20
12.6981400863
 30
0.0
 10
11.1804517734
 20
12.7073038497
 30
0.0
 10
11.1845237007
 20
12.7279949752
 30
0.0
 10
11.1890512357
 20
12.7623198962
 30
0.0
 10
11.1922361746
 20
12.80262502
 30
0.0
 10
11.19315588
 20
12.8314243688
 30
0.0
 10
11.1933143351
 20
12.8466789726
 30
0.0
  0
SPLINE
  5
5AB
100
AcDbEntity
  8
0
100
AcDbSpline
 62
9
  6
CONTINUOUS
 70
0
 71
3
 72
10
 73
6
 74
0
 42
0.0000001
 43
0.0000001
 44
0.0000000001
 40
0.0
 40
0.0
 40
0.0
 40
0.0
 40
0.2369435356
 40
0.4851790445
 40
1.0
 40
1.0
 40
1.0
 40
1.0
 10
11.193283037
 20
12.8730635405
 30
0.0
 10
11.193106079
 20
12.8878407786
 30
0.0
 10
11.1922384811
 20
12.9180945278
 30
0.0
 10
11.1888518777
 20
12.9803771724
 30
0.0
 10
11.1847785479
 20
13.0278087014
 30
0.0
 10
11.1815651713
 20
13.0597571713
 30
0.0
  0
SPLINE
  5
5AC
100
AcDbEntity
  8
0
100
AcDbSpline
 62
9
  6
CONTINUOUS
 70
0
 71
3
 72
14
 73
10
 74
0
 42
0.0000001
 43
0.0000001
 44
0.0000000001
 40
0.0
 40
0.0
 40
0.0
 40
0.0
 40
0.3847130433
 40
0.5512807568
 40
0.6958376877
 40
0.815399718
 40
0.9071117439
 40
0.9690719893
 40
1.0
 40
1.0
 40
1.0
 40
1.0
 10
12.9980985933
 20
20.8457027571
 30
0.0
 10
12.9974598333
 20
20.853087998
 30
0.0
 10
12.9965538331
 20
20.8636716337
 30
0.0
 10
12.9954383018
 20
20.8770327973
 30
0.0
 10
12.9947605368
 20
20.8853038394
 30
0.0
 10
12.9942202375
 20
20.8921385322
 30
0.0
 10
12.993813368
 20
20.8973883179
 30
0.0
 10
12.9935821236
 20
20.9009364424
 30
0.0
 10
12.9934580855
 20
20.9027237712
 30
0.0
 10
12.9934580855
 20
20.9033197051
 30
0.0
  0
SPLINE
  5
5AD
100
AcDbEntity
  8
0
100
AcDbSpline
 62
7
  6
CONTINUOUS
 70
0
 71
3
 72
21
 73
17
 74
0
 42
0.0000001
 43
0.0000001
 44
0.0000000001
 40
0.0
 40
0.0
 40
0.0
 40
0.0
 40
0.1418036009
 40
0.2085172763
 40
0.2721412473
 40
0.3326751245
 40
0.3903572991
 40
0.4458028798
 40
0.5000001819
 40
0.5541975235
 40
0.609643127
 40
0.6673252278
 40
0.7278589383
 40
0.7914828058
 40
0.8581963922
 40
1.0
 40
1.0
 40
1.0
 40
1.0
 10
13.1348044183
 20
14.3811122328
 30
0.0
 10
13.126411039
 20
14.3916684695
 30
0.0
 10
13.1133504227
 20
14.4066741575
 30
0.0
 10
13.0943505822
 20
14.4242842767
 30
0.0
 10
13.0799867804
 20
14.435431517
 30
0.0
 10
13.0652298391
 20
14.4445266921
 30
0.0
 10
13.0501052142
 20
14.4513014107
 30
0.0
 10
13.0346802135
 20
14.4555032095
 30
0.0
 10
13.0190781235
 20
14.4569246084
 30
0.0
 10
13.0034760238
 20
14.4555032174
 30
0.0
 10
12.9880510519
 20
14.4513013294
 30
0.0
 10
12.9729264174
 20
14.4445266876
 30
0.0
 10
12.9581695369
 20
14.4354314691
 30
0.0
 10
12.9438057592
 20
14.4242842589
 30
0.0
 10
12.9248059285
 20
14.406674153
 30
0.0
 10
12.911745319
 20
14.39166847
 30
0.0
 10
12.9033519394
 20
14.3811122328
 30
0.0
  0
SPLINE
  5
5AE
100
AcDbEntity
  8
0
100
AcDbSpline
 62
7
  6
CONTINUOUS
 70
0
 71
3
 72
21
 73
17
 74
0
 42
0.0000001
 43
0.0000001
 44
0.0000000001
 40
0.0
 40
0.0
 40
0.0
 40
0.0
 40
0.1418036009
 40
0.2085172763
 40
0.2721412473
 40
0.3326751245
 40
0.3903572991
 40
0.4458028798
 40
0.5000001819
 40
0.5541975235
 40
0.609643127
 40
0.6673252278
 40
0.7278589383
 40
0.7914828058
 40
0.8581963922
 40
1.0
 40
1.0
 40
1.0
 40
1.0
 10
14.163642598
 20
14.3811122328
 30
0.0
 10
14.1552492187
 20
14.3916684695
 30
0.0
 10
14.1421886024
 20
14.4066741575
 30
0.0
 10
14.1231887619
 20
14.4242842767
 30
0.0
 10
14.1088249601
 20
14.435431517
 30
0.0
 10
14.0940680188
 20
14.4445266921
 30
0.0
 10
14.0789433939
 20
14.4513014107
 30
0.0
 10
14.0635183932
 20
14.4555032095
 30
0.0
 10
14.0479163032
 20
14.4569246084
 30
0.0
 10
14.0323142035
 20
14.4555032174
 30
0.0
 10
14.0168892316
 20
14.4513013294
 30
0.0
 10
14.0017645971
 20
14.4445266876
 30
0.0
 10
13.9870077166
 20
14.4354314691
 30
0.0
 10
13.9726439389
 20
14.4242842589
 30
0.0
 10
13.9536441082
 20
14.406674153
 30
0.0
 10
13.9405834987
 20
14.39166847
 30
0.0
 10
13.932190119
 20
14.3811122328
 30
0.0
  0
SPLINE
  5
5AF
100
AcDbEntity
  8
0
100
AcDbSpline
 62
7
  6
CONTINUOUS
 70
0
 71
3
 72
21
 73
17
 74
0
 42
0.0000001
 43
0.0000001
 44
0.0000000001
 40
0.0
 40
0.0
 40
0.0
 40
0.0
 40
0.1418036009
 40
0.2085172763
 40
0.2721412473
 40
0.3326751245
 40
0.3903572991
 40
0.4458028798
 40
0.5000001819
 40
0.5541975235
 40
0.609643127
 40
0.6673252278
 40
0.7278589383
 40
0.7914828058
 40
0.8581963922
 40
1.0
 40
1.0
 40
1.0
 40
1.0
 10
13.932190119
 20
14.0349390918
 30
0.0
 10
13.9405834983
 20
14.0243828552
 30
0.0
 10
13.9536441146
 20
14.0093771672
 30
0.0
 10
13.9726439551
 20
13.991767048
 30
0.0
 10
13.9870077569
 20
13.9806198076
 30
0.0
 10
14.0017646982
 20
13.9715246325
 30
0.0
 10
14.0168893232
 20
13.9647499139
 30
0.0
 10
14.0323143239
 20
13.9605481151
 30
0.0
 10
14.0479164138
 20
13.9591267162
 30
0.0
 10
14.0635185135
 20
13.9605481072
 30
0.0
 10
14.0789434854
 20
13.9647499952
 30
0.0
 10
14.0940681199
 20
13.971524637
 30
0.0
 10
14.1088250004
 20
13.9806198555
 30
0.0
 10
14.1231887781
 20
13.9917670657
 30
0.0
 10
14.1421886088
 20
14.0093771716
 30
0.0
 10
14.1552492183
 20
14.0243828546
 30
0.0
 10
14.163642598
 20
14.0349390918
 30
0.0
  0
SPLINE
  5
5B0
100
AcDbEntity
  8
0
100
AcDbSpline
 62
7
  6
CONTINUOUS
 70
0
 71
3
 72
21
 73
17
 74
0
 42
0.0000001
 43
0.0000001
 44
0.0000000001
 40
0.0
 40
0.0
 40
0.0
 40
0.0
 40
0.1418036009
 40
0.2085172763
 40
0.2721412473
 40
0.3326751245
 40
0.3903572991
 40
0.4458028798
 40
0.5000001819
 40
0.5541975235
 40
0.609643127
 40
0.6673252278
 40
0.7278589383
 40
0.7914828058
 40
0.8581963922
 40
1.0
 40
1.0
 40
1.0
 40
1.0
 10
12.9033519394
 20
14.0349390918
 30
0.0
 10
12.9117453186
 20
14.0243828552
 30
0.0
 10
12.9248059349
 20
14.0093771672
 30
0.0
 10
12.9438057754
 20
13.991767048
 30
0.0
 10
12.9581695772
 20
13.9806198076
 30
0.0
 10
12.9729265185
 20
13.9715246325
 30
0.0
 10
12.9880511435
 20
13.9647499139
 30
0.0
 10
13.0034761442
 20
13.9605481151
 30
0.0
 10
13.0190782341
 20
13.9591267162
 30
0.0
 10
13.0346803338
 20
13.9605481072
 30
0.0
 10
13.0501053057
 20
13.9647499952
 30
0.0
 10
13.0652299402
 20
13.971524637
 30
0.0
 10
13.0799868207
 20
13.9806198555
 30
0.0
 10
13.0943505984
 20
13.9917670657
 30
0.0
 10
13.1133504291
 20
14.0093771716
 30
0.0
 10
13.1264110386
 20
14.0243828546
 30
0.0
 10
13.1348044183
 20
14.0349390918
 30
0.0
  0
SPLINE
  5
5B1
100
AcDbEntity
  8
0
100
AcDbSpline
 62
9
  6
CONTINUOUS
 70
0
 71
3
 72
16
 73
12
 74
0
 42
0.0000001
 43
0.0000001
 44
0.0000000001
 40
0.0
 40
0.0
 40
0.0
 40
0.0
 40
0.0109039283
 40
0.0307157914
 40
0.059198012
 40
0.096110091
 40
0.19384142
 40
0.3198910741
 40
0.4695838935
 40
0.6372937083
 40
1.0
 40
1.0
 40
1.0
 40
1.0
 10
12.9735364518
 20
20.9015552548
 30
0.0
 10
12.9735364518
 20
20.9012255766
 30
0.0
 10
12.9735868124
 20
20.9002976336
 30
0.0
 10
12.9736944357
 20
20.8985114312
 30
0.0
 10
12.9738771604
 20
20.8959415002
 30
0.0
 10
12.9742439251
 20
20.891023192
 30
0.0
 10
12.9748683073
 20
20.8831658437
 30
0.0
 10
12.9757930782
 20
20.8719119006
 30
0.0
 10
12.9769193045
 20
20.858551568
 30
0.0
 10
12.9786780265
 20
20.8380639561
 30
0.0
 10
12.9800814856
 20
20.8220884316
 30
0.0
 10
12.9810536772
 20
20.8111652555
 30
0.0
  0
SPLINE
  5
5B2
100
AcDbEntity
  8
0
100
AcDbSpline
 62
9
  6
CONTINUOUS
 70
0
 71
3
 72
13
 73
9
 74
0
 42
0.0000001
 43
0.0000001
 44
0.0000000001
 40
0.0
 40
0.0
 40
0.0
 40
0.0
 40
0.250650011
 40
0.3757341403
 40
0.5006412222
 40
0.6254777963
 40
0.7503709251
 40
1.0
 40
1.0
 40
1.0
 40
1.0
 10
13.0554642533
 20
12.5324701535
 30
0.0
 10
13.0678354453
 20
12.5086732646
 30
0.0
 10
13.0876758706
 20
12.4736392751
 30
0.0
 10
13.1170940821
 20
12.4288508217
 30
0.0
 10
13.1406883795
 20
12.3963975733
 30
0.0
 10
13.1658224583
 20
12.365144071
 30
0.0
 10
13.2013201817
 20
12.3251959822
 30
0.0
 10
13.2303633615
 20
12.2973831618
 30
0.0
 10
13.2509269788
 20
12.2803353485
 30
0.0
  0
SPLINE
  5
5B3
100
AcDbEntity
  8
0
100
AcDbSpline
 62
9
  6
CONTINUOUS
 70
0
 71
3
 72
11
 73
7
 74
0
 42
0.0000001
 43
0.0000001
 44
0.0000000001
 40
0.0
 40
0.0
 40
0.0
 40
0.0
 40
0.3064208366
 40
0.4496991163
 40
0.5838608769
 40
1.0
 40
1.0
 40
1.0
 40
1.0
 10
13.2509312737
 20
12.2803361311
 30
0.0
 10
13.2513003937
 20
12.2787339556
 30
0.0
 10
13.2520888111
 20
12.2764325524
 30
0.0
 10
13.2535944488
 20
12.2736633958
 30
0.0
 10
13.2556949018
 20
12.2706627354
 30
0.0
 10
13.2583991802
 20
12.268420634
 30
0.0
 10
13.2606320357
 20
12.2684203544
 30
0.0
  0
SPLINE
  5
5B4
100
AcDbEntity
  8
0
100
AcDbSpline
 62
9
  6
CONTINUOUS
 70
0
 71
3
 72
21
 73
17
 74
0
 42
0.0000001
 43
0.0000001
 44
0.0000000001
 40
0.0
 40
0.0
 40
0.0
 40
0.0
 40
0.0062264549
 40
0.0243009175
 40
0.0533190198
 40
0.0923808312
 40
0.1405742351
 40
0.1969226846
 40
0.3301510527
 40
0.4842363739
 40
0.6512242243
 40
0.7372707377
 40
0.8240148457
 40
0.9111629805
 40
0.9551272189
 40
1.0
 40
1.0
 40
1.0
 40
1.0
 10
13.04904035
 20
10.6838089374
 30
0.0
 10
13.0475198147
 20
10.6849111711
 30
0.0
 10
13.0415484958
 20
10.6891618989
 30
0.0
 10
13.0283815816
 20
10.698396005
 30
0.0
 10
13.0069454878
 20
10.7130857196
 30
0.0
 10
12.9777954308
 20
10.7325857271
 30
0.0
 10
12.9414968143
 20
10.7562200806
 30
0.0
 10
12.8809180009
 20
10.7946075921
 30
0.0
 10
12.7922353958
 20
10.8483004323
 30
0.0
 10
12.6729055348
 20
10.9156987297
 30
0.0
 10
12.563865451
 20
10.9722540993
 30
0.0
 10
12.4712812522
 20
11.016222845
 30
0.0
 10
12.3995305513
 20
11.0478544215
 30
0.0
 10
12.3385096756
 20
11.0722846451
 30
0.0
 10
12.2885776403
 20
11.0903067406
 30
0.0
 10
12.2631189711
 20
11.0986830259
 30
0.0
 10
12.2501818908
 20
11.1026597232
 30
0.0
  0
SPLINE
  5
5B5
100
AcDbEntity
  8
0
100
AcDbSpline
 62
9
  6
CONTINUOUS
 70
0
 71
3
 72
20
 73
16
 74
0
 42
0.0000001
 43
0.0000001
 44
0.0000000001
 40
0.0
 40
0.0
 40
0.0
 40
0.0
 40
0.2114530284
 40
0.4046946081
 40
0.5757300971
 40
0.7209992488
 40
0.7830685474
 40
0.8376313876
 40
0.8843558265
 40
0.9230201017
 40
0.9535804249
 40
0.976101973
 40
0.9844544815
 40
0.9910107751
 40
1.0
 40
1.0
 40
1.0
 40
1.0
 10
12.9486530406
 20
20.8087468865
 30
0.0
 10
12.9449431801
 20
20.8085257564
 30
0.0
 10
12.9378404001
 20
20.8081440743
 30
0.0
 10
12.9277292148
 20
20.8077393102
 30
0.0
 10
12.9187755364
 20
20.8075314302
 30
0.0
 10
12.9121243823
 20
20.807522434
 30
0.0
 10
12.9075223445
 20
20.8076320974
 30
0.0
 10
12.9046537851
 20
20.8077599113
 30
0.0
 10
12.9022000913
 20
20.8079373016
 30
0.0
 10
12.9001736625
 20
20.8081611502
 30
0.0
 10
12.8985830677
 20
20.8084319323
 30
0.0
 10
12.8975352569
 20
20.8087028847
 30
0.0
 10
12.8969284591
 20
20.808969062
 30
0.0
 10
12.8965743461
 20
20.8091832518
 30
0.0
 10
12.8963867336
 20
20.8094376496
 30
0.0
 10
12.8963867336
 20
20.8095956419
 30
0.0
  0
SPLINE
  5
5B6
100
AcDbEntity
  8
0
100
AcDbSpline
 62
7
  6
CONTINUOUS
 70
0
 71
3
 72
13
 73
9
 74
0
 42
0.0000001
 43
0.0000001
 44
0.0000000001
 40
0.0
 40
0.0
 40
0.0
 40
0.0
 40
0.0958084554
 40
0.1812853433
 40
0.2957888385
 40
0.4380045301
 40
0.6049596822
 40
1.0
 40
1.0
 40
1.0
 40
1.0
 10
13.2022452021
 20
19.0514813636
 30
0.0
 10
13.2022440731
 20
19.0510980813
 30
0.0
 10
13.2014880691
 20
19.0505705699
 30
0.0
 10
13.2004209591
 20
19.0502266004
 30
0.0
 10
13.1990599154
 20
19.0499264035
 30
0.0
 10
13.1973871856
 20
19.0497014822
 30
0.0
 10
13.1945760888
 20
19.0494589579
 30
0.0
 10
13.1923276368
 20
19.0494036089
 30
0.0
 10
13.1907472687
 20
19.0494036089
 30
0.0
  0
SPLINE
  5
5B7
100
AcDbEntity
  8
0
100
AcDbSpline
 62
9
  6
CONTINUOUS
 70
0
 71
3
 72
26
 73
22
 74
0
 42
0.0000001
 43
0.0000001
 44
0.0000000001
 40
0.0
 40
0.0
 40
0.0
 40
0.0
 40
0.0098761759
 40
0.0210048544
 40
0.0335353459
 40
0.0475425435
 40
0.0800590448
 40
0.1184935847
 40
0.1625660734
 40
0.2119792713
 40
0.2664204368
 40
0.3256096905
 40
0.3892998733
 40
0.4573457046
 40
0.5297236867
 40
0.6067572909
 40
0.6890747139
 40
0.7782636529
 40
0.8263853404
 40
0.8780401641
 40
1.0
 40
1.0
 40
1.0
 40
1.0
 10
7.9773588186
 20
9.8805334965
 30
0.0
 10
7.9753417278
 20
9.8802140207
 30
0.0
 10
7.9709801728
 20
9.879968587
 30
0.0
 10
7.9640575611
 20
9.8805840247
 30
0.0
 10
7.9564065782
 20
9.8821045054
 30
0.0
 10
7.9446533891
 20
9.8854538094
 30
0.0
 10
7.92825829
 20
9.891854108
 30
0.0
 10
7.9067567334
 20
9.9020410732
 30
0.0
 10
7.8826356686
 20
9.9147946625
 30
0.0
 10
7.8559584584
 20
9.92976359
 30
0.0
 10
7.826757073
 20
9.9466154896
 30
0.0
 10
7.7950302696
 20
9.9649968734
 30
0.0
 10
7.7607429857
 20
9.9845705409
 30
0.0
 10
7.7237949711
 20
10.004978493
 30
0.0
 10
7.6839900965
 20
10.0259066264
 30
0.0
 10
7.6409392383
 20
10.0469670311
 30
0.0
 10
7.5939820566
 20
10.0678896429
 30
0.0
 10
7.551675466
 20
10.0844609463
 30
0.0
 10
7.5147383234
 20
10.0972283415
 30
0.0
 10
7.4709244733
 20
10.1107575726
 30
0.0
 10
7.4360023301
 20
10.1193551093
 30
0.0
 10
7.4112482642
 20
10.12417702
 30
0.0
  0
SPLINE
  5
5B8
100
AcDbEntity
  8
0
100
AcDbSpline
 62
9
  6
CONTINUOUS
 70
0
 71
3
 72
15
 73
11
 74
0
 42
0.0000001
 43
0.0000001
 44
0.0000000001
 40
0.0
 40
0.0
 40
0.0
 40
0.0
 40
0.019709136
 40
0.0751055669
 40
0.1608632523
 40
0.2728431439
 40
0.4081162132
 40
0.5660028406
 40
0.7517998174
 40
1.0
 40
1.0
 40
1.0
 40
1.0
 10
7.5101092238
 20
9.8065284309
 30
0.0
 10
7.506897642
 20
9.8079761631
 30
0.0
 10
7.494634079
 20
9.8134363339
 30
0.0
 10
7.468189791
 20
9.8247271246
 30
0.0
 10
7.4262822367
 20
9.8417884818
 30
0.0
 10
7.3705665127
 20
9.8627565765
 30
0.0
 10
7.3019460837
 20
9.8859399061
 30
0.0
 10
7.2196634582
 20
9.9097038979
 30
0.0
 10
7.1164092404
 20
9.9330489218
 30
0.0
 10
7.0394488789
 20
9.9438871771
 30
0.0
 10
6.9952724723
 20
9.9479458407
 30
0.0
  0
SPLINE
  5
5B9
100
AcDbEntity
  8
0
100
AcDbSpline
 62
7
  6
CONTINUOUS
 70
0
 71
3
 72
13
 73
9
 74
0
 42
0.0000001
 43
0.0000001
 44
0.0000000001
 40
0.0
 40
0.0
 40
0.0
 40
0.0
 40
0.4039830118
 40
0.5696742025
 40
0.7090046181
 40
0.8206667216
 40
0.9041485627
 40
1.0
 40
1.0
 40
1.0
 40
1.0
 10
14.0182189672
 20
19.0494036089
 30
0.0
 10
14.0172698005
 20
19.0494036089
 30
0.0
 10
14.0159310517
 20
19.0494317405
 30
0.0
 10
14.0142687889
 20
19.0495704359
 30
0.0
 10
14.0133015439
 20
19.0496988973
 30
0.0
 10
14.012522789
 20
19.0498736382
 30
0.0
 10
14.0119009309
 20
19.0500736492
 30
0.0
 10
14.0114827532
 20
19.0503996672
 30
0.0
 10
14.0114834215
 20
19.0506248712
 30
0.0
  0
SPLINE
  5
5BA
100
AcDbEntity
  8
0
100
AcDbSpline
 62
7
  6
CONTINUOUS
 70
0
 71
3
 72
13
 73
9
 74
0
 42
0.0000001
 43
0.0000001
 44
0.0000000001
 40
0.0
 40
0.0
 40
0.0
 40
0.0
 40
0.3967745881
 40
0.5638508541
 40
0.7054149046
 40
0.8188314409
 40
0.9040463894
 40
1.0
 40
1.0
 40
1.0
 40
1.0
 10
13.8762472687
 20
19.0494036089
 30
0.0
 10
13.8746597668
 20
19.0494036089
 30
0.0
 10
13.8724036401
 20
19.049457681
 30
0.0
 10
13.8695871853
 20
19.0496993718
 30
0.0
 10
13.867920824
 20
19.0499240482
 30
0.0
 10
13.8665680707
 20
19.0502277267
 30
0.0
 10
13.8655081484
 20
19.0505731537
 30
0.0
 10
13.8647464739
 20
19.0510974346
 30
0.0
 10
13.8647472798
 20
19.0514813458
 30
0.0
  0
SPLINE
  5
5BB
100
AcDbEntity
  8
0
100
AcDbSpline
 62
7
  6
CONTINUOUS
 70
0
 71
3
 72
12
 73
8
 74
0
 42
0.0000001
 43
0.0000001
 44
0.0000000001
 40
0.0
 40
0.0
 40
0.0
 40
0.0
 40
0.2684861579
 40
0.5520426371
 40
0.807493032
 40
0.9134237023
 40
1.0
 40
1.0
 40
1.0
 40
1.0
 10
13.1907472687
 20
19.0494036089
 30
0.0
 10
13.1879155087
 20
19.0494036089
 30
0.0
 10
13.1820925113
 20
19.0496505468
 30
0.0
 10
13.1736152477
 20
19.0504995302
 30
0.0
 10
13.1668906519
 20
19.0515711023
 30
0.0
 10
13.1622822007
 20
19.0526175071
 30
0.0
 10
13.1603283741
 20
19.0531788926
 30
0.0
 10
13.1594653566
 20
19.0534772395
 30
0.0
  0
SPLINE
  5
5BC
100
AcDbEntity
  8
0
100
AcDbSpline
 62
7
  6
CONTINUOUS
 70
0
 71
3
 72
11
 73
7
 74
0
 42
0.0000001
 43
0.0000001
 44
0.0000000001
 40
0.0
 40
0.0
 40
0.0
 40
0.0
 40
0.37622537
 40
0.6645692718
 40
0.8671462119
 40
1.0
 40
1.0
 40
1.0
 40
1.0
 10
13.1594653566
 20
19.0534772395
 30
0.0
 10
13.1589974126
 20
19.0536390086
 30
0.0
 10
13.1581782117
 20
19.0539470829
 30
0.0
 10
13.1571561701
 20
19.0544662576
 30
0.0
 10
13.1564881123
 20
19.0549423731
 30
0.0
 10
13.1562475075
 20
19.0553608542
 30
0.0
 10
13.1562471929
 20
19.0555356911
 30
0.0
  0
SPLINE
  5
5BD
100
AcDbEntity
  8
0
100
AcDbSpline
 62
7
  6
CONTINUOUS
 70
0
 71
3
 72
16
 73
12
 74
0
 42
0.0000001
 43
0.0000001
 44
0.0000000001
 40
0.0
 40
0.0
 40
0.0
 40
0.0
 40
0.1223090196
 40
0.2654909357
 40
0.4187320109
 40
0.5717504633
 40
0.7146408488
 40
0.8385163987
 40
0.9354252111
 40
0.9720261398
 40
1.0
 40
1.0
 40
1.0
 40
1.0
 10
13.0487755702
 20
19.0494036089
 30
0.0
 10
13.0471824262
 20
19.0494036089
 30
0.0
 10
13.0437245021
 20
19.0495291019
 30
0.0
 10
13.0382853649
 20
19.049946135
 30
0.0
 10
13.0324665392
 20
19.0505998254
 30
0.0
 10
13.0266746853
 20
19.0514311972
 30
0.0
 10
13.0212888198
 20
19.0523833482
 30
0.0
 10
13.0166585582
 20
19.0533856394
 30
0.0
 10
13.01341862
 20
19.0542651399
 30
0.0
 10
13.0114389536
 20
19.0549773454
 30
0.0
 10
13.0106700038
 20
19.0553244129
 30
0.0
 10
13.0103525319
 20
19.0555032452
 30
0.0
  0
SPLINE
  5
5BE
100
AcDbEntity
  8
0
100
AcDbSpline
 62
7
  6
CONTINUOUS
 70
0
 71
3
 72
9
 73
5
 74
0
 42
0.0000001
 43
0.0000001
 44
0.0000000001
 40
0.0
 40
0.0
 40
0.0
 40
0.0
 40
0.6281842068
 40
1.0
 40
1.0
 40
1.0
 40
1.0
 10
13.0103525319
 20
19.0555032452
 30
0.0
 10
13.0101281154
 20
19.0556296593
 30
0.0
 10
13.0097831584
 20
19.0558354098
 30
0.0
 10
13.0095137224
 20
19.0562066511
 30
0.0
 10
13.0095132531
 20
19.0563591046
 30
0.0
  0
SPLINE
  5
5BF
100
AcDbEntity
  8
0
100
AcDbSpline
 62
7
  6
CONTINUOUS
 70
0
 71
3
 72
14
 73
10
 74
0
 42
0.0000001
 43
0.0000001
 44
0.0000000001
 40
0.0
 40
0.0
 40
0.0
 40
0.0
 40
0.0949151051
 40
0.2201737301
 40
0.5189613213
 40
0.6697422153
 40
0.8065523232
 40
0.9194348577
 40
1.0
 40
1.0
 40
1.0
 40
1.0
 10
12.9398368544
 20
19.0494036089
 30
0.0
 10
12.9385150282
 20
19.0494036089
 30
0.0
 10
12.9354501569
 20
19.0495685184
 30
0.0
 10
12.9282548426
 20
19.0502474916
 30
0.0
 10
12.9203231004
 20
19.0513672672
 30
0.0
 10
12.9122755936
 20
19.0527531612
 30
0.0
 10
12.9068024009
 20
19.0538325974
 30
0.0
 10
12.9023219972
 20
19.0548683537
 30
0.0
 10
12.8997220471
 20
19.0555911558
 30
0.0
 10
12.8986660127
 20
19.0559701502
 30
0.0
  0
SPLINE
  5
5C0
100
AcDbEntity
  8
0
100
AcDbSpline
 62
7
  6
CONTINUOUS
 70
0
 71
3
 72
10
 73
6
 74
0
 42
0.0000001
 43
0.0000001
 44
0.0000000001
 40
0.0
 40
0.0
 40
0.0
 40
0.0
 40
0.6868540769
 40
0.8854264951
 40
1.0
 40
1.0
 40
1.0
 40
1.0
 10
12.8986660127
 20
19.0559701502
 30
0.0
 10
12.8982198112
 20
19.056130285
 30
0.0
 10
12.8976387009
 20
19.0563571102
 30
0.0
 10
12.8970630454
 20
19.0567141927
 30
0.0
 10
12.8969167727
 20
19.0569084678
 30
0.0
 10
12.8969183492
 20
19.0569875307
 30
0.0
  0
ENDSEC
  0
SECTION
  2
OBJECTS
  0
DICTIONARY
  5
C
100
AcDbDictionary
280
0
281
1
  3
ACAD_GROUP
350
D
  3
ACAD_MLINESTYLE
350
17
  3
ACAD_LAYOUT
350
1A
  3
ACAD_PLOTSETTINGS
350
19
  3
ACAD_PLOTSTYLENAME
350
E
  0
DICTIONARY
  5
D
102
{ACAD_REACTORS
330
C
102
}
100
AcDbDictionary
280
0
281
1
  0
ACDBDICTIONARYWDFLT
  5
E
102
{ACAD_REACTORS
330
C
102
}
100
AcDbDictionary
281
1
  3
Normal
350
F
100
AcDbDictionaryWithDefault
340
F
  0
DICTIONARY
  5
17
102
{ACAD_REACTORS
330
C
102
}
100
AcDbDictionary
280
0
281
1
  3
Standard
350
18
  0
DICTIONARY
  5
19
102
{ACAD_REACTORS
330
C
102
}
100
AcDbDictionary
281
1
  0
DICTIONARY
  5
1A
102
{ACAD_REACTORS
330
C
102
}
100
AcDbDictionary
281
1
  3
Model
350
5C1
  3
Layout1
350
5C2
  0
ACDBPLACEHOLDER
  5
F
102
{ACAD_REACTORS
330
E
102
}
  0
MLINESTYLE
  5
18
102
{ACAD_REACTORS
330
17
102
}
100
AcDbMlineStyle
  2
STANDARD
 70
0
  3

 62
256
 51
90.0
 52
90.0
 71
2
 49
0.5
 62
256
  6
BYLAYER
 49
-0.5
 62
256
  6
BYLAYER
  0
LAYOUT
  5
5C1
102
{ACAD_REACTORS
330
1A
102
}
100
AcDbPlotSettings
  1

  2
none_device
  4
ANSI_C_(22.00_x_17.00_Inches)
  6

 40
0.0
 41
0.0
 42
0.0
 43
0.0
 44
558.8
 45
431.8
 46
0.0
 47
0.0
 48
0.0
 49
0.0
140
0.0
141
0.0
142
1.0
143
1.0
 70
1024
 72
0
 73
0
 74
0
  7

 75
0
147
1.0
148
0.0
149
0.0
100
AcDbLayout
  1
Model
 70
0
 71
0
 10
0.0
 20
0.0
 11
22.0
 21
17.0
 12
0.0
 22
0.0
 32
0.0
 14
0.0
 24
0.0
 34
0.0
 15
0.0
 25
0.0
 35
0.0
146
0.0
 13
0.0
 23
0.0
 33
0.0
 16
1.0
 26
0.0
 36
0.0
 17
0.0
 27
1.0
 37
0.0
 76
0
330
202
345
0
346
0
  0
LAYOUT
  5
5C2
102
{ACAD_REACTORS
330
1A
102
}
100
AcDbPlotSettings
  1

  2
none_device
  4
ANSI_C_(22.00_x_17.00_Inches)
  6

 40
0.0
 41
0.0
 42
0.0
 43
0.0
 44
558.8
 45
431.8
 46
0.0
 47
0.0
 48
0.0
 49
0.0
140
0.0
141
0.0
142
1.0
143
1.0
 70
0
 72
0
 73
0
 74
0
  7

 75
0
147
1.0
148
0.0
149
0.0
100
AcDbLayout
  1
Layout1
 70
0
 71
1
 10
0.0
 20
0.0
 11
22.0
 21
17.0
 12
0.0
 22
0.0
 32
0.0
 14
0.0
 24
0.0
 34
0.0
 15
0.0
 25
0.0
 35
0.0
146
0.0
 13
0.0
 23
0.0
 33
0.0
 16
1.0
 26
0.0
 36
0.0
 17
0.0
 27
1.0
 37
0.0
 76
0
330
203
345
0
346
0
  0
ENDSEC
  0
EOF
