999
DXF file: E:\BRASSTECH\RAY\EN-4300m\Webdata\1600\CAD\1600_RIGHT.dxf
999
Pro/ENGINEER 2018400 by Parametric Technology Corporation
  0
SECTION
  2
HEADER
  9
$ACADVER
  1
AC1018
  9
$DWGCODEPAGE
  3
ANSI_1252
  9
$EXTMAX
 10
22.0
 20
17.0
 30
0.0
  9
$EXTMIN
 10
0.0
 20
0.0
 30
0.0
  9
$LIMMIN
 10
0.0
 20
0.0
  9
$LIMMAX
 10
22.0
 20
17.0
  9
$VIEWCTR
 10
11.0
 20
8.5
  9
$VIEWSIZE
 40
17.0
  9
$CLAYER
  8
0
  9
$LTSCALE
 40
1.21
  9
$CELTYPE
  6
BYLAYER
  9
$DIMSCALE
 40
1.0
  9
$DIMASZ
 40
0.1
  9
$DIMEXO
 40
0.0625
  9
$DIMDLI
 40
0.836
  9
$DIMEXE
 40
0.125
  9
$DIMCEN
 40
0.198
  9
$DIMLFAC
 40
1.0
  9
$DIMBLK
  1
_FILLED
  9
$DIMALT
 70
1
  9
$DIMALTD
 70
2
  9
$DIMALTTD
 70
2
  9
$DIMALTF
 40
25.4
  9
$DIMTXT
 40
0.08
  9
$DIMTOL
 70
1
  9
$DIMLIM
 70
0
  9
$DIMTFAC
 40
1.0
  9
$DIMTP
 40
0.001
  9
$DIMTM
 40
0.001
  9
$DIMGAP
 40
0.09
  9
$DIMDSEP
 70
46
  9
$AUNITS
 70
0
  9
$PDMODE
 70
3
  9
$PDSIZE
 40
0.06
  9
$HANDSEED
  5
4B4
  9
$TILEMODE
 70
1
  9
$MEASUREMENT
 70
0
  9
$INSUNITS
 70
1
  0
ENDSEC
  0
SECTION
  2
CLASSES
  0
CLASS
  1
ACDBDICTIONARYWDFLT
  2
AcDbDictionaryWithDefault
  3
AutoCAD 2000
 90
0
 91
1
280
0
281
0
  0
CLASS
  1
ACDBPLACEHOLDER
  2
AcDbPlaceHolder
  3
AutoCAD 2000
 90
0
 91
1
280
0
281
0
  0
CLASS
  1
LAYOUT
  2
AcDbLayout
  3
AutoCAD 2000
 90
0
 91
0
280
0
281
0
  0
ENDSEC
  0
SECTION
  2
TABLES
  0
TABLE
  2
VPORT
  5
8
100
AcDbSymbolTable
 70
2
  0
VPORT
  5
1F4
100
AcDbSymbolTableRecord
100
AcDbViewportTableRecord
  2
*ACTIVE
 70
0
 10
0.0
 20
0.0
 11
1.0
 21
1.0
 12
11.0
 22
8.5
 13
0.0
 23
0.0
 14
1.0
 24
1.0
 15
0.0
 25
0.0
 16
0.0
 26
0.0
 36
1.0
 17
0.0
 27
0.0
 37
0.0
 40
17.0
 41
1.2941176471
 42
50.0
 43
0.0
 44
0.0
 50
0.0
 51
0.0
 71
0
 72
100
 73
1
 74
1
 75
0
 76
0
 77
0
 78
0
  0
ENDTAB
  0
TABLE
  2
LTYPE
  5
5
100
AcDbSymbolTable
 70
6
  0
LTYPE
  5
14
100
AcDbSymbolTableRecord
100
AcDbLinetypeTableRecord
  2
BYBLOCK
 70
0
  3

 72
65
 73
0
 40
0.0
  0
LTYPE
  5
15
100
AcDbSymbolTableRecord
100
AcDbLinetypeTableRecord
  2
BYLAYER
 70
0
  3

 72
65
 73
0
 40
0.0
  0
LTYPE
  5
16
100
AcDbSymbolTableRecord
100
AcDbLinetypeTableRecord
  2
CONTINUOUS
 70
64
  3
Solid line
 72
65
 73
0
 40
0.0
  0
LTYPE
  5
1F5
100
AcDbSymbolTableRecord
100
AcDbLinetypeTableRecord
  2
CENTER
 70
64
  3
____ _ ____ _ ____ _ ____ _ ____ _ ____ _ ____
 72
65
 73
4
 40
0.6
 49
0.375
 74
0
 49
-0.075
 74
0
 49
0.075
 74
0
 49
-0.075
 74
0
  0
LTYPE
  5
1F6
100
AcDbSymbolTableRecord
100
AcDbLinetypeTableRecord
  2
HIDDEN
 70
64
  3
- - - - - - - - - - - - - - - - - - - -
 72
65
 73
2
 40
0.2
 49
0.1
 74
0
 49
-0.1
 74
0
  0
LTYPE
  5
1F7
100
AcDbSymbolTableRecord
100
AcDbLinetypeTableRecord
  2
PHANTOM
 70
64
  3
_____ _ _ _____ _ _ _____ _ _ _____
 72
65
 73
6
 40
0.8
 49
0.45
 74
0
 49
-0.05
 74
0
 49
0.1
 74
0
 49
-0.05
 74
0
 49
0.1
 74
0
 49
-0.05
 74
0
  0
LTYPE
  5
1F8
100
AcDbSymbolTableRecord
100
AcDbLinetypeTableRecord
  2
DOT
 70
64
  3
. . . . . . . . . . . . . . . . . . . .
 72
65
 73
2
 40
0.2
 49
0.1
 74
0
 49
-0.1
 74
0
  0
LTYPE
  5
1F9
100
AcDbSymbolTableRecord
100
AcDbLinetypeTableRecord
  2
DASHED
 70
64
  3
- - - - - - - - - - - - - - - - - - - -
 72
65
 73
2
 40
0.2
 49
0.1
 74
0
 49
-0.1
 74
0
  0
ENDTAB
  0
TABLE
  2
LAYER
  5
2
100
AcDbSymbolTable
 70
36
  0
LAYER
  5
10
100
AcDbSymbolTableRecord
100
AcDbLayerTableRecord
  2
0
 70
0
 62
7
  6
CONTINUOUS
370
-3
390
F
  0
LAYER
  5
1FA
100
AcDbSymbolTableRecord
100
AcDbLayerTableRecord
  2
DEFAULT_1
 70
0
 62
7
  6
CENTER
370
-3
390
F
  0
LAYER
  5
1FB
100
AcDbSymbolTableRecord
100
AcDbLayerTableRecord
  2
DEFAULT_2
 70
0
 62
8
  6
HIDDEN
370
-3
390
F
  0
LAYER
  5
1FC
100
AcDbSymbolTableRecord
100
AcDbLayerTableRecord
  2
DEFAULT_3
 70
0
 62
7
  6
PHANTOM
370
-3
390
F
  0
LAYER
  5
1FD
100
AcDbSymbolTableRecord
100
AcDbLayerTableRecord
  2
ALL_FEATURES
 70
0
 62
7
  6
CONTINUOUS
370
-3
390
F
  0
LAYER
  5
1FE
100
AcDbSymbolTableRecord
100
AcDbLayerTableRecord
  2
AXES_FEATURES
 70
0
 62
7
  6
CONTINUOUS
370
-3
390
F
  0
LAYER
  5
1FF
100
AcDbSymbolTableRecord
100
AcDbLayerTableRecord
  2
DIMENSIONS
 70
0
 62
7
  6
CONTINUOUS
370
-3
390
F
  0
ENDTAB
  0
TABLE
  2
STYLE
  5
3
100
AcDbSymbolTable
 70
1
  0
STYLE
  5
11
100
AcDbSymbolTableRecord
100
AcDbTextStyleTableRecord
  2
STANDARD
 70
0
 40
0.0
 41
0.8
 50
0.0
 71
0
 42
0.2
  3
txt
  4

  0
STYLE
  5
200
100
AcDbSymbolTableRecord
100
AcDbTextStyleTableRecord
  2
TEXTSTYLE_1
 70
0
 40
0.0
 41
0.8
 50
0.0
 71
0
 42
0.2
  3
gdt
  4

  0
ENDTAB
  0
TABLE
  2
VIEW
  5
6
100
AcDbSymbolTable
 70
0
  0
ENDTAB
  0
TABLE
  2
UCS
  5
7
100
AcDbSymbolTable
 70
0
  0
ENDTAB
  0
TABLE
  2
APPID
  5
9
100
AcDbSymbolTable
 70
1
  0
APPID
  5
201
100
AcDbSymbolTableRecord
100
AcDbRegAppTableRecord
  2
ACAD
 70
0
  0
ENDTAB
  0
TABLE
  2
BLOCK_RECORD
  5
1
100
AcDbSymbolTable
 70
0
  0
BLOCK_RECORD
  5
202
100
AcDbSymbolTableRecord
100
AcDbBlockTableRecord
  2
*Model_Space
  0
BLOCK_RECORD
  5
203
100
AcDbSymbolTableRecord
100
AcDbBlockTableRecord
  2
*Paper_Space
  0
BLOCK_RECORD
  5
204
100
AcDbSymbolTableRecord
100
AcDbBlockTableRecord
  2
_FILLED
  0
ENDTAB
  0
TABLE
  2
DIMSTYLE
  5
A
100
AcDbSymbolTable
 70
1
100
AcDbDimStyleTable
 71
0
  0
DIMSTYLE
105
205
100
AcDbSymbolTableRecord
100
AcDbDimStyleTableRecord
  2
STANDARD
 70
0
  3

  4

 40
1.0
 41
0.1
 42
0.0625
 43
0.38
 44
0.125
 45
0.0
 46
0.0
 47
0.001
 48
0.001
140
0.08
141
0.09
142
0.0
143
25.4
144
1.0
145
0.0
146
1.0
147
0.09
 71
1.0
 72
0.0
 73
1
 74
1
 75
0
 76
0
 77
0
 78
4
 79
1
170
1
171
2
172
0
173
0
174
0
175
0
176
0
177
0
178
0
270
2
179
3
271
3
272
3
273
2
274
2
275
0
280
0
281
0
282
0
283
1
284
4
285
0
286
0
287
3
288
0
340
11
278
46
341
204
342
204
343
204
344
204
  0
ENDTAB
  0
ENDSEC
  0
SECTION
  2
BLOCKS
  0
BLOCK
  5
20
100
AcDbEntity
  8
0
100
AcDbBlockBegin
  2
*Model_Space
 70
0
 10
0.0
 20
0.0
 30
0.0
  3
*Model_Space
  1

  0
ENDBLK
  5
21
100
AcDbEntity
  8
0
100
AcDbBlockEnd
  0
BLOCK
  5
1C
100
AcDbEntity
  8
0
100
AcDbBlockBegin
  2
*Paper_Space
 70
0
 10
0.0
 20
0.0
 30
0.0
  3
*Paper_Space
  1

  0
ENDBLK
  5
1D
100
AcDbEntity
  8
0
100
AcDbBlockEnd
  0
BLOCK
  5
206
100
AcDbEntity
  8
0
100
AcDbBlockBegin
  2
_FILLED
 70
64
 10
0.0
 20
0.0
  3
_FILLED
  1

  0
SOLID
  5
207
100
AcDbEntity
  8
0
  6
BYBLOCK
 62
0
100
AcDbTrace
 10
0.0
 20
0.0
 11
-1.0
 21
0.2
 12
-1.0
 22
-0.2
 13
-1.0
 23
-0.2
  0
ENDBLK
  5
208
100
AcDbEntity
  8
0
  6
BYBLOCK
 62
0
100
AcDbBlockEnd
  0
ENDSEC
  0
SECTION
  2
ENTITIES
  0
LINE
  5
209
100
AcDbEntity
  8
0
100
AcDbLine
 62
7
  6
CONTINUOUS
 10
7.01831102
 20
9.1705492123
 11
7.0268889058
 21
9.2349807253
  0
LINE
  5
20A
100
AcDbEntity
  8
0
100
AcDbLine
 62
7
  6
CONTINUOUS
 10
7.0276315782
 20
9.234881852
 11
7.0190536923
 21
9.1704503389
  0
LINE
  5
20B
100
AcDbEntity
  8
0
100
AcDbLine
 62
7
  6
CONTINUOUS
 10
7.0213868792
 20
9.1701397175
 11
7.029964765
 21
9.2345712305
  0
LINE
  5
20C
100
AcDbEntity
  8
0
100
AcDbLine
 62
7
  6
CONTINUOUS
 10
7.0321882032
 20
9.2342752201
 11
7.0236103173
 21
9.1698437071
  0
LINE
  5
20D
100
AcDbEntity
  8
0
100
AcDbLine
 62
7
  6
CONTINUOUS
 10
7.0282623062
 20
9.1692243792
 11
7.0368401921
 21
9.2336558923
  0
LINE
  5
20E
100
AcDbEntity
  8
0
100
AcDbLine
 62
7
  6
CONTINUOUS
 10
7.0405306879
 20
9.2331645698
 11
7.031952802
 21
9.1687330567
  0
LINE
  5
20F
100
AcDbEntity
  8
0
100
AcDbLine
 62
7
  6
CONTINUOUS
 10
7.0388949119
 20
9.1678088409
 11
7.0474727978
 21
9.2322403539
  0
LINE
  5
210
100
AcDbEntity
  8
0
100
AcDbLine
 62
7
  6
CONTINUOUS
 10
7.052607598
 20
9.2315567485
 11
7.0440297122
 21
9.1671252355
  0
LINE
  5
211
100
AcDbEntity
  8
0
100
AcDbLine
 62
7
  6
CONTINUOUS
 10
7.0532191425
 20
9.1659018297
 11
7.0617970284
 21
9.2303333427
  0
LINE
  5
212
100
AcDbEntity
  8
0
100
AcDbLine
 62
7
  6
CONTINUOUS
 10
7.0683444754
 20
9.2294616691
 11
7.0597665895
 21
9.165030156
  0
LINE
  5
213
100
AcDbEntity
  8
0
100
AcDbLine
 62
7
  6
CONTINUOUS
 10
7.0711466846
 20
9.163515103
 11
7.0797245704
 21
9.2279466161
  0
LINE
  5
214
100
AcDbEntity
  8
0
100
AcDbLine
 62
7
  6
CONTINUOUS
 10
7.087644297
 20
9.2268922483
 11
7.0790664111
 21
9.1624607353
  0
LINE
  5
215
100
AcDbEntity
  8
0
100
AcDbLine
 62
7
  6
CONTINUOUS
 10
7.0925670087
 20
9.1606633759
 11
7.1011448946
 21
9.2250948889
  0
LINE
  5
216
100
AcDbEntity
  8
0
100
AcDbLine
 62
7
  6
CONTINUOUS
 10
7.1103880729
 20
9.2238643276
 11
7.101810187
 21
9.1594328145
  0
LINE
  5
217
100
AcDbEntity
  8
0
100
AcDbLine
 62
7
  6
CONTINUOUS
 10
7.1173480515
 20
9.15736423
 11
7.1259259374
 21
9.2217957431
  0
LINE
  5
218
100
AcDbEntity
  8
0
100
AcDbLine
 62
7
  6
CONTINUOUS
 10
7.1364355802
 20
9.220396575
 11
7.1278576944
 21
9.155965062
  0
LINE
  5
219
100
AcDbEntity
  8
0
100
AcDbLine
 62
7
  6
CONTINUOUS
 10
7.1393999749
 20
9.1342519545
 11
7.1262032274
 21
9.0351265498
  0
LINE
  5
21A
100
AcDbEntity
  8
0
100
AcDbLine
 62
7
  6
CONTINUOUS
 10
7.1453370297
 20
9.1536380059
 11
7.1539149156
 21
9.2180695189
  0
LINE
  5
21B
100
AcDbEntity
  8
0
100
AcDbLine
 62
7
  6
CONTINUOUS
 10
7.1656262275
 20
9.2165103704
 11
7.1570483416
 21
9.1520788574
  0
LINE
  5
21C
100
AcDbEntity
  8
0
100
AcDbLine
 62
7
  6
CONTINUOUS
 10
7.1763613818
 20
9.1495076768
 11
7.1849392677
 21
9.2139391899
  0
LINE
  5
21D
100
AcDbEntity
  8
0
100
AcDbLine
 62
7
  6
CONTINUOUS
 10
7.1977800445
 20
9.2122296736
 11
7.1892021586
 21
9.1477981606
  0
LINE
  5
21E
100
AcDbEntity
  8
0
100
AcDbLine
 62
7
  6
CONTINUOUS
 10
7.2102298324
 20
9.1449987077
 11
7.2188077183
 21
9.2094302207
  0
LINE
  5
21F
100
AcDbEntity
  8
0
100
AcDbLine
 62
7
  6
CONTINUOUS
 10
7.2326987924
 20
9.2075808765
 11
7.2241209066
 21
9.1431493634
  0
LINE
  5
220
100
AcDbEntity
  8
0
100
AcDbLine
 62
7
  6
CONTINUOUS
 10
7.245083759
 20
9.1403585403
 11
7.2536616449
 21
9.2047900533
  0
LINE
  5
221
100
AcDbEntity
  8
0
100
AcDbLine
 62
7
  6
CONTINUOUS
 10
7.2467335713
 20
9.1401388977
 11
7.2553114572
 21
9.2045704108
  0
LINE
  5
222
100
AcDbEntity
  8
0
100
AcDbLine
 62
7
  6
CONTINUOUS
 10
7.2701671855
 20
9.2025926403
 11
7.2615892996
 21
9.1381611273
  0
LWPOLYLINE
  5
223
100
AcDbEntity
  8
0
100
AcDbPolyline
 62
7
  6
CONTINUOUS
 90
4
 70
0
 10
7.1831834515
 20
9.6753752591
 10
7.1450018933
 20
9.5319656439
 10
7.1117795743
 20
9.3744223932
 10
7.0886638323
 20
9.2267565157
  0
LINE
  5
224
100
AcDbEntity
  8
0
100
AcDbLine
 62
7
  6
CONTINUOUS
 10
7.2823580878
 20
9.1353961403
 11
7.2909359737
 21
9.1998276534
  0
LINE
  5
225
100
AcDbEntity
  8
0
100
AcDbLine
 62
7
  6
CONTINUOUS
 10
7.2856475407
 20
9.1349582094
 11
7.2942254266
 21
9.1993897224
  0
LINE
  5
226
100
AcDbEntity
  8
0
100
AcDbLine
 62
7
  6
CONTINUOUS
 10
7.3099542186
 20
9.1972957194
 11
7.3013763328
 21
9.1328642064
  0
LINE
  5
227
100
AcDbEntity
  8
0
100
AcDbLine
 62
7
  6
CONTINUOUS
 10
7.3218230102
 20
9.1301421026
 11
7.3304008961
 21
9.1945736156
  0
LINE
  5
228
100
AcDbEntity
  8
0
100
AcDbLine
 62
7
  6
CONTINUOUS
 10
7.3267318232
 20
9.1294885833
 11
7.3353097091
 21
9.1939200963
  0
LINE
  5
229
100
AcDbEntity
  8
0
100
AcDbLine
 62
7
  6
CONTINUOUS
 10
7.3518145916
 20
9.191722771
 11
7.3432367057
 21
9.1272912579
  0
LINE
  5
22A
100
AcDbEntity
  8
0
100
AcDbLine
 62
7
  6
CONTINUOUS
 10
7.3632352118
 20
9.12462882
 11
7.3718130977
 21
9.189060333
  0
LINE
  5
22B
100
AcDbEntity
  8
0
100
AcDbLine
 62
7
  6
CONTINUOUS
 10
7.3697331204
 20
9.1237637415
 11
7.3783110062
 21
9.1881952545
  0
LINE
  5
22C
100
AcDbEntity
  8
0
100
AcDbLine
 62
7
  6
CONTINUOUS
 10
7.3954902211
 20
9.185908154
 11
7.3869123352
 21
9.121476641
  0
LINE
  5
22D
100
AcDbEntity
  8
0
100
AcDbLine
 62
7
  6
CONTINUOUS
 10
7.4063393726
 20
9.1188902838
 11
7.4149172585
 21
9.1833217968
  0
LINE
  5
22E
100
AcDbEntity
  8
0
100
AcDbLine
 62
7
  6
CONTINUOUS
 10
7.414386315
 20
9.1178189795
 11
7.4229642009
 21
9.1822504926
  0
LINE
  5
22F
100
AcDbEntity
  8
0
100
AcDbLine
 62
7
  6
CONTINUOUS
 10
7.4407118325
 20
9.1798877177
 11
7.4321339467
 21
9.1154562047
  0
LINE
  5
230
100
AcDbEntity
  8
0
100
AcDbLine
 62
7
  6
CONTINUOUS
 10
7.4508697412
 20
9.1129618739
 11
7.459447627
 21
9.1773933869
  0
LINE
  5
231
100
AcDbEntity
  8
0
100
AcDbLine
 62
7
  6
CONTINUOUS
 10
7.4604161053
 20
9.1116909488
 11
7.4689939912
 21
9.1761224619
  0
LINE
  5
232
100
AcDbEntity
  8
0
100
AcDbLine
 62
7
  6
CONTINUOUS
 10
7.4872006196
 20
9.17369858
 11
7.4786227337
 21
9.1092670669
  0
LINE
  5
233
100
AcDbEntity
  8
0
100
AcDbLine
 62
7
  6
CONTINUOUS
 10
7.4965517729
 20
9.1068801409
 11
7.5051296588
 21
9.171311654
  0
LINE
  5
234
100
AcDbEntity
  8
0
100
AcDbLine
 62
7
  6
CONTINUOUS
 10
7.5075387022
 20
9.1054174308
 11
7.5161165881
 21
9.1698489439
  0
LINE
  5
235
100
AcDbEntity
  8
0
100
AcDbLine
 62
7
  6
CONTINUOUS
 10
7.5346699634
 20
9.1673788989
 11
7.5260920775
 21
9.1029473858
  0
LINE
  5
236
100
AcDbEntity
  8
0
100
AcDbLine
 62
7
  6
CONTINUOUS
 10
7.5431038229
 20
9.1006825809
 11
7.5516817088
 21
9.1651140939
  0
LINE
  5
237
100
AcDbEntity
  8
0
100
AcDbLine
 62
7
  6
CONTINUOUS
 10
7.5554635794
 20
9.0990371037
 11
7.5640414653
 21
9.1634686168
  0
LINE
  5
238
100
AcDbEntity
  8
0
100
AcDbLine
 62
7
  6
CONTINUOUS
 10
7.5828271996
 20
9.1609676374
 11
7.5742493138
 21
9.0965361244
  0
LINE
  5
239
100
AcDbEntity
  8
0
100
AcDbLine
 62
7
  6
CONTINUOUS
 10
7.5902388823
 20
9.0944074037
 11
7.5988167682
 21
9.1588389167
  0
LINE
  5
23A
100
AcDbEntity
  8
0
100
AcDbLine
 62
7
  6
CONTINUOUS
 10
7.603895264
 20
9.0925893045
 11
7.6124731499
 21
9.1570208175
  0
LINE
  5
23B
100
AcDbEntity
  8
0
100
AcDbLine
 62
7
  6
CONTINUOUS
 10
7.631375423
 20
9.1545043231
 11
7.6227975371
 21
9.0900728101
  0
LINE
  5
23C
100
AcDbEntity
  8
0
100
AcDbLine
 62
7
  6
CONTINUOUS
 10
7.6376663478
 20
9.0880932979
 11
7.6462442337
 21
9.152524811
  0
LINE
  5
23D
100
AcDbEntity
  8
0
100
AcDbLine
 62
7
  6
CONTINUOUS
 10
7.6525351585
 20
9.0861137858
 11
7.6611130444
 21
9.1505452989
  0
LINE
  5
23E
100
AcDbEntity
  8
0
100
AcDbLine
 62
7
  6
CONTINUOUS
 10
7.6800153176
 20
9.1480288045
 11
7.6714374317
 21
9.0835972914
  0
LINE
  5
23F
100
AcDbEntity
  8
0
100
AcDbLine
 62
7
  6
CONTINUOUS
 10
7.6850938134
 20
9.0817791922
 11
7.6936716992
 21
9.1462107052
  0
LINE
  5
240
100
AcDbEntity
  8
0
100
AcDbLine
 62
7
  6
CONTINUOUS
 10
7.7010833819
 20
9.0796504715
 11
7.7096612678
 21
9.1440819845
  0
LINE
  5
241
100
AcDbEntity
  8
0
100
AcDbLine
 62
7
  6
CONTINUOUS
 10
7.7284470021
 20
9.1415810052
 11
7.7198691163
 21
9.0771494921
  0
LINE
  5
242
100
AcDbEntity
  8
0
100
AcDbLine
 62
7
  6
CONTINUOUS
 10
7.7322288728
 20
9.075504015
 11
7.7408067587
 21
9.139935528
  0
LINE
  5
243
100
AcDbEntity
  8
0
100
AcDbLine
 62
7
  6
CONTINUOUS
 10
7.7492406182
 20
9.07323921
 11
7.7578185041
 21
9.1376707231
  0
LINE
  5
244
100
AcDbEntity
  8
0
100
AcDbLine
 62
7
  6
CONTINUOUS
 10
7.7763718793
 20
9.1352006781
 11
7.7677939934
 21
9.070769165
  0
LINE
  5
245
100
AcDbEntity
  8
0
100
AcDbLine
 62
7
  6
CONTINUOUS
 10
7.7787809228
 20
9.0693064549
 11
7.7873588087
 21
9.133737968
  0
LINE
  5
246
100
AcDbEntity
  8
0
100
AcDbLine
 62
7
  6
CONTINUOUS
 10
7.796709962
 20
9.066919529
 11
7.8052878479
 21
9.131351042
  0
LINE
  5
247
100
AcDbEntity
  8
0
100
AcDbLine
 62
9
  6
CONTINUOUS
 10
7.7776343207
 20
10.0112546497
 11
7.786222589
 21
10.0673847502
  0
LINE
  5
248
100
AcDbEntity
  8
0
100
AcDbLine
 62
9
  6
CONTINUOUS
 10
7.7154042034
 20
9.6045345482
 11
7.7731607236
 21
9.9820144472
  0
LINE
  5
249
100
AcDbEntity
  8
0
100
AcDbLine
 62
7
  6
CONTINUOUS
 10
7.8234944763
 20
9.1289271601
 11
7.8149165904
 21
9.064495647
  0
LINE
  5
24A
100
AcDbEntity
  8
0
100
AcDbLine
 62
7
  6
CONTINUOUS
 10
7.8244629545
 20
9.063224722
 11
7.8330408404
 21
9.127656235
  0
LINE
  5
24B
100
AcDbEntity
  8
0
100
AcDbLine
 62
7
  6
CONTINUOUS
 10
7.843198749
 20
9.0607303912
 11
7.8517766349
 21
9.1251619043
  0
LINE
  5
24C
100
AcDbEntity
  8
0
100
AcDbLine
 62
7
  6
CONTINUOUS
 10
7.8695242666
 20
9.1227991294
 11
7.8609463807
 21
9.0583676163
  0
LINE
  5
24D
100
AcDbEntity
  8
0
100
AcDbLine
 62
7
  6
CONTINUOUS
 10
7.8689933231
 20
9.0572963121
 11
7.8775712089
 21
9.1217278252
  0
LINE
  5
24E
100
AcDbEntity
  8
0
100
AcDbLine
 62
7
  6
CONTINUOUS
 10
7.8884203605
 20
9.0547099549
 11
7.8969982463
 21
9.1191414679
  0
LINE
  5
24F
100
AcDbEntity
  8
0
100
AcDbLine
 62
7
  6
CONTINUOUS
 10
7.9141774612
 20
9.1168543674
 11
7.9055995753
 21
9.0524228544
  0
LINE
  5
250
100
AcDbEntity
  8
0
100
AcDbLine
 62
7
  6
CONTINUOUS
 10
7.9120974839
 20
9.0515577759
 11
7.9206753697
 21
9.1159892889
  0
LINE
  5
251
100
AcDbEntity
  8
0
100
AcDbLine
 62
7
  6
CONTINUOUS
 10
7.93209599
 20
9.0488953379
 11
7.9406738759
 21
9.113326851
  0
LINE
  5
252
100
AcDbEntity
  8
0
100
AcDbLine
 62
7
  6
CONTINUOUS
 10
7.9571787584
 20
9.1111295256
 11
7.9486008725
 21
9.0466980126
  0
LINE
  5
253
100
AcDbEntity
  8
0
100
AcDbLine
 62
7
  6
CONTINUOUS
 10
7.9535096855
 20
9.0460444933
 11
7.9620875713
 21
9.1104760063
  0
LINE
  5
254
100
AcDbEntity
  8
0
100
AcDbLine
 62
7
  6
CONTINUOUS
 10
7.9739563629
 20
9.0433223895
 11
7.9825342488
 21
9.1077539025
  0
LINE
  5
255
100
AcDbEntity
  8
0
100
AcDbLine
 62
7
  6
CONTINUOUS
 10
7.9982630408
 20
9.1056598995
 11
7.989685155
 21
9.0412283865
  0
LINE
  5
256
100
AcDbEntity
  8
0
100
AcDbLine
 62
7
  6
CONTINUOUS
 10
7.9929746079
 20
9.0407904555
 11
8.0015524937
 21
9.1052219686
  0
LINE
  5
257
100
AcDbEntity
  8
0
100
AcDbLine
 62
7
  6
CONTINUOUS
 10
8.0137433961
 20
9.0380254686
 11
8.0223212819
 21
9.1024569816
  0
LINE
  5
258
100
AcDbEntity
  8
0
100
AcDbLine
 62
7
  6
CONTINUOUS
 10
8.0371770103
 20
9.1004792112
 11
8.0285991244
 21
9.0360476981
  0
LINE
  5
259
100
AcDbEntity
  8
0
100
AcDbLine
 62
7
  6
CONTINUOUS
 10
8.0302489367
 20
9.0358280556
 11
8.0388268226
 21
9.1002595686
  0
LINE
  5
25A
100
AcDbEntity
  8
0
100
AcDbLine
 62
7
  6
CONTINUOUS
 10
8.0512117891
 20
9.0330372325
 11
8.059789675
 21
9.0974687455
  0
LINE
  5
25B
100
AcDbEntity
  8
0
100
AcDbLine
 62
7
  6
CONTINUOUS
 10
8.0736807492
 20
9.0956194012
 11
8.0651028633
 21
9.0311878882
  0
LINE
  5
25C
100
AcDbEntity
  8
0
100
AcDbLine
 62
7
  6
CONTINUOUS
 10
8.086130537
 20
9.0283884353
 11
8.0947084229
 21
9.0928199483
  0
LINE
  5
25D
100
AcDbEntity
  8
0
100
AcDbLine
 62
7
  6
CONTINUOUS
 10
8.1075491998
 20
9.0911104321
 11
8.0989713139
 21
9.026678919
  0
LINE
  5
25E
100
AcDbEntity
  8
0
100
AcDbLine
 62
7
  6
CONTINUOUS
 10
8.1182843541
 20
9.0241077385
 11
8.12686224
 21
9.0885392515
  0
LINE
  5
25F
100
AcDbEntity
  8
0
100
AcDbLine
 62
7
  6
CONTINUOUS
 10
8.1385735519
 20
9.086980103
 11
8.129995666
 21
9.02254859
  0
LINE
  5
260
100
AcDbEntity
  8
0
100
AcDbLine
 62
7
  6
CONTINUOUS
 10
8.1306540218
 20
9.0022844795
 11
8.1174572743
 21
8.9031590748
  0
LINE
  5
261
100
AcDbEntity
  8
0
100
AcDbLine
 62
7
  6
CONTINUOUS
 10
8.1474750013
 20
9.0202215339
 11
8.1560528872
 21
9.0846530469
  0
LINE
  5
262
100
AcDbEntity
  8
0
100
AcDbLine
 62
7
  6
CONTINUOUS
 10
8.16656253
 20
9.0832538789
 11
8.1579846442
 21
9.0188223658
  0
LINE
  5
263
100
AcDbEntity
  8
0
100
AcDbLine
 62
7
  6
CONTINUOUS
 10
8.1735225087
 20
9.0167537813
 11
8.1821003945
 21
9.0811852944
  0
LINE
  5
264
100
AcDbEntity
  8
0
100
AcDbLine
 62
7
  6
CONTINUOUS
 10
8.1913435729
 20
9.079954733
 11
8.182765687
 21
9.01552322
  0
LINE
  5
265
100
AcDbEntity
  8
0
100
AcDbLine
 62
7
  6
CONTINUOUS
 10
8.1962662846
 20
9.0137258606
 11
8.2048441705
 21
9.0781573736
  0
LINE
  5
266
100
AcDbEntity
  8
0
100
AcDbLine
 62
7
  6
CONTINUOUS
 10
8.212763897
 20
9.0771030059
 11
8.2041860111
 21
9.0126714928
  0
LINE
  5
267
100
AcDbEntity
  8
0
100
AcDbLine
 62
7
  6
CONTINUOUS
 10
8.2155661061
 20
9.0111564398
 11
8.224143992
 21
9.0755879529
  0
LINE
  5
268
100
AcDbEntity
  8
0
100
AcDbLine
 62
7
  6
CONTINUOUS
 10
8.230691439
 20
9.0747162792
 11
8.2221135531
 21
9.0102847662
  0
LINE
  5
269
100
AcDbEntity
  8
0
100
AcDbLine
 62
7
  6
CONTINUOUS
 10
8.2313029835
 20
9.0090613604
 11
8.2398808694
 21
9.0734928734
  0
LINE
  5
26A
100
AcDbEntity
  8
0
100
AcDbLine
 62
7
  6
CONTINUOUS
 10
8.2450156697
 20
9.072809268
 11
8.2364377838
 21
9.008377755
  0
LINE
  5
26B
100
AcDbEntity
  8
0
100
AcDbLine
 62
7
  6
CONTINUOUS
 10
8.2433798936
 20
9.0074535391
 11
8.2519577795
 21
9.0718850522
  0
LINE
  5
26C
100
AcDbEntity
  8
0
100
AcDbLine
 62
7
  6
CONTINUOUS
 10
8.2556482753
 20
9.0713937297
 11
8.2470703894
 21
9.0069622166
  0
LINE
  5
26D
100
AcDbEntity
  8
0
100
AcDbLine
 62
7
  6
CONTINUOUS
 10
8.2517223783
 20
9.0063428888
 11
8.2603002642
 21
9.0707744018
  0
LINE
  5
26E
100
AcDbEntity
  8
0
100
AcDbLine
 62
7
  6
CONTINUOUS
 10
8.2625237024
 20
9.0704783914
 11
8.2539458165
 21
9.0060468784
  0
LINE
  5
26F
100
AcDbEntity
  8
0
100
AcDbLine
 62
7
  6
CONTINUOUS
 10
8.2562790034
 20
9.0057362569
 11
8.2648568893
 21
9.07016777
  0
LINE
  5
270
100
AcDbEntity
  8
0
100
AcDbLine
 62
7
  6
CONTINUOUS
 10
8.2655995616
 20
9.0700688966
 11
8.2570216757
 21
9.0056373836
  0
LWPOLYLINE
  5
271
100
AcDbEntity
  8
0
100
AcDbPolyline
 62
7
  6
CONTINUOUS
 90
4
 70
0
 10
8.2038246351
 20
9.0782931063
 10
8.2119340996
 20
9.1079853336
 10
8.2225877364
 20
9.1489864515
 10
8.2297260789
 20
9.1779064464
  0
LINE
  5
272
100
AcDbEntity
  8
0
100
AcDbLine
 62
9
  6
CONTINUOUS
 10
9.2216478275
 20
9.8808015316
 11
9.246696426
 21
9.971123855
  0
LINE
  5
273
100
AcDbEntity
  8
0
100
AcDbLine
 62
9
  6
CONTINUOUS
 10
9.2129969097
 20
9.849609138
 11
9.0195212272
 21
9.1519564698
  0
LINE
  5
274
100
AcDbEntity
  8
0
100
AcDbLine
 62
7
  6
CONTINUOUS
 10
11.9016664135
 20
7.519100304
 11
14.4016455032
 21
7.519100304
  0
LINE
  5
275
100
AcDbEntity
  8
0
100
AcDbLine
 62
7
  6
CONTINUOUS
 10
14.4016559583
 20
7.669100304
 11
11.9016559583
 21
7.669100304
  0
LINE
  5
276
100
AcDbEntity
  8
0
100
AcDbLine
 62
7
  6
CONTINUOUS
 10
11.9516559583
 20
7.719100304
 11
14.3516559583
 21
7.719100304
  0
LINE
  5
277
100
AcDbEntity
  8
0
100
AcDbLine
 62
7
  6
CONTINUOUS
 10
11.9016745428
 20
7.919100304
 11
14.4006380362
 21
7.919100304
  0
LINE
  5
278
100
AcDbEntity
  8
0
100
AcDbLine
 62
7
  6
CONTINUOUS
 10
14.400971723
 20
7.919100304
 11
14.4016373738
 21
7.919100304
  0
LINE
  5
279
100
AcDbEntity
  8
0
100
AcDbLine
 62
7
  6
CONTINUOUS
 10
11.9023401936
 20
7.994100304
 11
11.9016745428
 21
7.994100304
  0
LINE
  5
27A
100
AcDbEntity
  8
0
100
AcDbLine
 62
7
  6
CONTINUOUS
 10
11.9026738804
 20
7.994100304
 11
14.4016373738
 21
7.994100304
  0
LINE
  5
27B
100
AcDbEntity
  8
0
100
AcDbLine
 62
7
  6
CONTINUOUS
 10
14.2266553628
 20
8.094100304
 11
12.0766565538
 21
8.094100304
  0
LINE
  5
27C
100
AcDbEntity
  8
0
100
AcDbLine
 62
7
  6
CONTINUOUS
 10
14.0766441144
 20
8.194100304
 11
12.2266678022
 21
8.194100304
  0
LINE
  5
27D
100
AcDbEntity
  8
0
100
AcDbLine
 62
7
  6
CONTINUOUS
 10
7.1477126489
 20
8.8607630306
 11
8.0510742233
 21
8.7404968421
  0
LINE
  5
27E
100
AcDbEntity
  8
0
100
AcDbLine
 62
9
  6
CONTINUOUS
 10
8.0608971222
 20
8.7451385715
 11
7.1394509775
 21
8.8678123921
  0
LINE
  5
27F
100
AcDbEntity
  8
0
100
AcDbLine
 62
7
  6
CONTINUOUS
 10
14.0266559583
 20
8.719100304
 11
12.2766559583
 21
8.719100304
  0
LINE
  5
280
100
AcDbEntity
  8
0
100
AcDbLine
 62
9
  6
CONTINUOUS
 10
7.1262032274
 20
9.0351265498
 11
8.1174572743
 21
8.9031590748
  0
LINE
  5
281
100
AcDbEntity
  8
0
100
AcDbLine
 62
9
  6
CONTINUOUS
 10
8.1306540218
 20
9.0022844795
 11
7.1394079669
 21
9.1342508905
  0
LINE
  5
282
100
AcDbEntity
  8
0
100
AcDbLine
 62
7
  6
CONTINUOUS
 10
7.01831102
 20
9.1705492123
 11
8.2570216757
 21
9.0056373836
  0
LINE
  5
283
100
AcDbEntity
  8
0
100
AcDbLine
 62
7
  6
CONTINUOUS
 10
7.0268889058
 20
9.2349807253
 11
8.2655995616
 21
9.0700688966
  0
LINE
  5
284
100
AcDbEntity
  8
0
100
AcDbLine
 62
7
  6
CONTINUOUS
 10
8.4451296587
 20
9.3058642267
 11
11.982021263
 21
8.3581569777
  0
LINE
  5
285
100
AcDbEntity
  8
0
100
AcDbLine
 62
7
  6
CONTINUOUS
 10
12.2016559583
 20
8.794100304
 11
14.1016559583
 21
8.794100304
  0
LINE
  5
286
100
AcDbEntity
  8
0
100
AcDbLine
 62
7
  6
CONTINUOUS
 10
12.1266648795
 20
8.894100304
 11
14.1766470372
 21
8.894100304
  0
LINE
  5
287
100
AcDbEntity
  8
0
100
AcDbLine
 62
7
  6
CONTINUOUS
 10
9.0461476295
 20
9.2479681724
 11
11.6123758797
 21
8.56034827
  0
LINE
  5
288
100
AcDbEntity
  8
0
100
AcDbLine
 62
7
  6
CONTINUOUS
 10
8.4138209233
 20
9.417372984
 11
9.0461462428
 21
9.2479631721
  0
LINE
  5
289
100
AcDbEntity
  8
0
100
AcDbLine
 62
7
  6
CONTINUOUS
 10
14.1766470372
 20
9.094100304
 11
12.1266648795
 21
9.094100304
  0
LINE
  5
28A
100
AcDbEntity
  8
0
100
AcDbLine
 62
7
  6
CONTINUOUS
 10
14.1016559583
 20
9.144100304
 11
12.2016559583
 21
9.144100304
  0
LINE
  5
28B
100
AcDbEntity
  8
0
100
AcDbLine
 62
9
  6
CONTINUOUS
 10
14.1752780056
 20
9.2010526011
 11
14.0114398656
 21
9.2010526011
  0
LINE
  5
28C
100
AcDbEntity
  8
0
100
AcDbLine
 62
7
  6
CONTINUOUS
 10
12.2983093547
 20
9.219449358
 11
12.140187951
 21
9.2194492137
  0
LINE
  5
28D
100
AcDbEntity
  8
0
100
AcDbLine
 62
7
  6
CONTINUOUS
 10
14.1631239873
 20
9.2194492487
 11
14.0050025511
 21
9.2194493891
  0
LINE
  5
28E
100
AcDbEntity
  8
0
100
AcDbLine
 62
7
  6
CONTINUOUS
 10
14.0016554891
 20
9.244100304
 11
12.3016564276
 21
9.244100304
  0
LINE
  5
28F
100
AcDbEntity
  8
0
100
AcDbLine
 62
7
  6
CONTINUOUS
 10
13.9016462974
 20
9.294100304
 11
12.4016656193
 21
9.294100304
  0
LINE
  5
290
100
AcDbEntity
  8
0
100
AcDbLine
 62
7
  6
CONTINUOUS
 10
13.5516554083
 20
9.394100304
 11
12.7516565084
 21
9.394100304
  0
LINE
  5
291
100
AcDbEntity
  8
0
100
AcDbLine
 62
7
  6
CONTINUOUS
 10
12.8391565587
 20
9.424100304
 11
13.464155358
 21
9.424100304
  0
LINE
  5
292
100
AcDbEntity
  8
0
100
AcDbLine
 62
7
  6
CONTINUOUS
 10
13.9516586343
 20
9.511943304
 11
13.4641559583
 21
9.511943304
  0
LINE
  5
293
100
AcDbEntity
  8
0
100
AcDbLine
 62
7
  6
CONTINUOUS
 10
12.8391559583
 20
9.511943304
 11
12.351648469
 21
9.511943304
  0
LINE
  5
294
100
AcDbEntity
  8
0
100
AcDbLine
 62
9
  6
CONTINUOUS
 10
12.4266559583
 20
9.531943304
 11
12.8391559583
 21
9.531943304
  0
LINE
  5
295
100
AcDbEntity
  8
0
100
AcDbLine
 62
9
  6
CONTINUOUS
 10
13.4641559583
 20
9.531943304
 11
13.8766559583
 21
9.531943304
  0
LINE
  5
296
100
AcDbEntity
  8
0
100
AcDbLine
 62
7
  6
CONTINUOUS
 10
13.4303115017
 20
9.540100304
 11
13.4072174909
 21
9.540100304
  0
LINE
  5
297
100
AcDbEntity
  8
0
100
AcDbLine
 62
7
  6
CONTINUOUS
 10
12.1029622129
 20
9.1853365568
 11
12.1024752104
 21
9.1854382426
  0
LINE
  5
298
100
AcDbEntity
  8
0
100
AcDbLine
 62
7
  6
CONTINUOUS
 10
12.1029391179
 20
9.1853410517
 11
12.0771105962
 21
9.1908601187
  0
LINE
  5
299
100
AcDbEntity
  8
0
100
AcDbLine
 62
7
  6
CONTINUOUS
 10
12.0771105962
 20
9.1908601187
 11
12.0058186344
 21
9.2073715758
  0
LWPOLYLINE
  5
29A
100
AcDbEntity
  8
0
100
AcDbPolyline
 62
7
  6
CONTINUOUS
 90
4
 70
0
 10
12.0058162779
 20
9.2073721523
 10
11.9558279716
 20
9.2200661784
 10
11.9286028381
 20
9.2273769165
 10
11.9233879982
 20
9.2288115851
  0
LINE
  5
29B
100
AcDbEntity
  8
0
100
AcDbLine
 62
9
  6
CONTINUOUS
 10
11.8003041567
 20
9.1666597133
 11
11.6801848986
 21
9.1997072751
  0
LINE
  5
29C
100
AcDbEntity
  8
0
100
AcDbLine
 62
9
  6
CONTINUOUS
 10
9.2130017272
 20
9.8496246421
 11
9.2110353051
 21
9.8501693242
  0
LINE
  5
29D
100
AcDbEntity
  8
0
100
AcDbLine
 62
9
  6
CONTINUOUS
 10
11.7903335866
 20
9.1368928036
 11
11.670246405
 21
9.170151864
  0
LINE
  5
29E
100
AcDbEntity
  8
0
100
AcDbLine
 62
7
  6
CONTINUOUS
 10
9.246696426
 20
9.971123855
 11
11.9233866342
 21
9.2288119634
  0
LINE
  5
29F
100
AcDbEntity
  8
0
100
AcDbLine
 62
9
  6
CONTINUOUS
 10
9.2236090763
 20
9.8802568339
 11
9.221648047
 21
9.8808022631
  0
LWPOLYLINE
  5
2A0
100
AcDbEntity
  8
0
100
AcDbPolyline
 62
7
  6
CONTINUOUS
 90
4
 70
0
 10
11.6917114659
 20
9.7931619884
 10
12.0051803192
 20
9.7950071034
 10
12.3578539717
 20
9.7992185108
 10
12.711215106
 20
9.8036958578
  0
LINE
  5
2A1
100
AcDbEntity
  8
0
100
AcDbLine
 62
7
  6
CONTINUOUS
 10
13.3956704855
 20
9.580100304
 11
13.441858507
 21
9.580100304
  0
LINE
  5
2A2
100
AcDbEntity
  8
0
100
AcDbLine
 62
7
  6
CONTINUOUS
 10
13.8766559583
 20
9.590683304
 11
13.4641559583
 21
9.590683304
  0
LINE
  5
2A3
100
AcDbEntity
  8
0
100
AcDbLine
 62
7
  6
CONTINUOUS
 10
12.8391559583
 20
9.590683304
 11
12.4266559583
 21
9.590683304
  0
LINE
  5
2A4
100
AcDbEntity
  8
0
100
AcDbLine
 62
9
  6
CONTINUOUS
 10
12.7016559583
 20
9.610683304
 11
12.8391559583
 21
9.610683304
  0
LINE
  5
2A5
100
AcDbEntity
  8
0
100
AcDbLine
 62
9
  6
CONTINUOUS
 10
13.4641559583
 20
9.610683304
 11
13.6016559583
 21
9.610683304
  0
LINE
  5
2A6
100
AcDbEntity
  8
0
100
AcDbLine
 62
7
  6
CONTINUOUS
 10
13.4072174909
 20
9.620100304
 11
13.4303115017
 21
9.620100304
  0
LINE
  5
2A7
100
AcDbEntity
  8
0
100
AcDbLine
 62
7
  6
CONTINUOUS
 10
13.4066427995
 20
9.6451867183
 11
13.4056156724
 21
9.6451867183
  0
LINE
  5
2A8
100
AcDbEntity
  8
0
100
AcDbLine
 62
9
  6
CONTINUOUS
 10
13.4641559583
 20
9.717100304
 11
12.8391559583
 21
9.717100304
  0
LINE
  5
2A9
100
AcDbEntity
  8
0
100
AcDbLine
 62
7
  6
CONTINUOUS
 10
12.7516664574
 20
9.737100304
 11
13.5516454593
 21
9.737100304
  0
LINE
  5
2AA
100
AcDbEntity
  8
0
100
AcDbLine
 62
7
  6
CONTINUOUS
 10
13.6016559583
 20
9.750683304
 11
13.5516559583
 21
9.750683304
  0
LINE
  5
2AB
100
AcDbEntity
  8
0
100
AcDbLine
 62
7
  6
CONTINUOUS
 10
12.7516559583
 20
9.750683304
 11
12.7016559583
 21
9.750683304
  0
LINE
  5
2AC
100
AcDbEntity
  8
0
100
AcDbLine
 62
7
  6
CONTINUOUS
 10
13.8775757149
 20
9.7931642633
 11
13.8775733767
 21
9.7931642697
  0
LINE
  5
2AD
100
AcDbEntity
  8
0
100
AcDbLine
 62
9
  6
CONTINUOUS
 10
11.6929997654
 20
10.1917166575
 11
11.6932968027
 21
10.1773770572
  0
LINE
  5
2AE
100
AcDbEntity
  8
0
100
AcDbLine
 62
7
  6
CONTINUOUS
 10
11.6516559583
 20
9.8331616713
 11
11.6516559583
 21
10.1517361107
  0
LINE
  5
2AF
100
AcDbEntity
  8
0
100
AcDbLine
 62
7
  6
CONTINUOUS
 10
11.6516556424
 20
9.8471818055
 11
11.6516563268
 21
9.8331586504
  0
LINE
  5
2B0
100
AcDbEntity
  8
0
100
AcDbLine
 62
9
  6
CONTINUOUS
 10
11.6949777784
 20
9.8472032967
 11
11.6949776749
 21
10.137684792
  0
LINE
  5
2B1
100
AcDbEntity
  8
0
100
AcDbLine
 62
9
  6
CONTINUOUS
 10
11.6920195953
 20
9.8074788542
 11
11.6917114652
 21
9.7931586718
  0
LINE
  5
2B2
100
AcDbEntity
  8
0
100
AcDbLine
 62
9
  6
CONTINUOUS
 10
13.6761386494
 20
10.177377079
 11
13.7765748968
 21
10.1879990543
  0
LWPOLYLINE
  5
2B3
100
AcDbEntity
  8
0
100
AcDbPolyline
 62
7
  6
CONTINUOUS
 90
3
 70
0
 10
13.5828639898
 20
10.1725378852
 10
13.3991861436
 20
10.1563986949
 10
13.2343660876
 20
10.1423738987
  0
LINE
  5
2B4
100
AcDbEntity
  8
0
100
AcDbLine
 62
7
  6
CONTINUOUS
 10
13.7765739909
 20
10.1879999582
 11
13.5828639731
 21
10.1725378839
  0
LINE
  5
2B5
100
AcDbEntity
  8
0
100
AcDbLine
 62
7
  6
CONTINUOUS
 10
13.7765748968
 20
10.1879990543
 11
13.7765848199
 21
10.1879997614
  0
LINE
  5
2B6
100
AcDbEntity
  8
0
100
AcDbLine
 62
9
  6
CONTINUOUS
 10
14.1221651037
 20
9.8471838968
 11
14.1021651037
 21
9.8471838968
  0
LINE
  5
2B7
100
AcDbEntity
  8
0
100
AcDbLine
 62
9
  6
CONTINUOUS
 10
11.6949777267
 20
9.8471838968
 11
11.6516559583
 21
9.8471838968
  0
LINE
  5
2B8
100
AcDbEntity
  8
0
100
AcDbLine
 62
9
  6
CONTINUOUS
 10
13.6449645687
 20
9.8471838968
 11
13.701146813
 21
9.8471838968
  0
LWPOLYLINE
  5
2B9
100
AcDbEntity
  8
0
100
AcDbPolyline
 62
7
  6
CONTINUOUS
 90
4
 70
0
 10
13.3371227113
 20
9.8040837029
 10
13.507015052
 20
9.7998387215
 10
13.6934912208
 20
9.7953662927
 10
13.8775734454
 20
9.7931675779
  0
LWPOLYLINE
  5
2BA
100
AcDbEntity
  8
0
100
AcDbPolyline
 62
7
  6
CONTINUOUS
 90
7
 70
0
 10
12.7112151062
 20
9.8036958632
 10
12.7203059293
 20
9.8027518211
 10
12.7312571143
 20
9.7985665428
 10
12.7405297256
 20
9.7913805225
 10
12.7473193513
 20
9.7818124524
 10
12.7510393733
 20
9.7706945129
 10
12.7516559647
 20
9.7636982905
  0
LINE
  5
2BB
100
AcDbEntity
  8
0
100
AcDbLine
 62
7
  6
CONTINUOUS
 10
12.2766559583
 20
8.719100304
 11
12.2016559583
 21
8.794100304
  0
LINE
  5
2BC
100
AcDbEntity
  8
0
100
AcDbLine
 62
7
  6
CONTINUOUS
 10
11.9016559583
 20
7.519100304
 11
11.9016559583
 21
7.669100304
  0
LINE
  5
2BD
100
AcDbEntity
  8
0
100
AcDbLine
 62
7
  6
CONTINUOUS
 10
11.9016745428
 20
7.994100304
 11
11.9016745428
 21
7.919100304
  0
LINE
  5
2BE
100
AcDbEntity
  8
0
100
AcDbLine
 62
7
  6
CONTINUOUS
 10
11.902198115
 20
7.919100304
 11
11.902198115
 21
7.994100304
  0
LINE
  5
2BF
100
AcDbEntity
  8
0
100
AcDbLine
 62
7
  6
CONTINUOUS
 10
11.9026738804
 20
7.994100304
 11
11.9026738804
 21
7.919100304
  0
LINE
  5
2C0
100
AcDbEntity
  8
0
100
AcDbLine
 62
7
  6
CONTINUOUS
 10
11.9042439591
 20
7.919100304
 11
11.9042439591
 21
7.994100304
  0
LINE
  5
2C1
100
AcDbEntity
  8
0
100
AcDbLine
 62
7
  6
CONTINUOUS
 10
11.9051949103
 20
7.994100304
 11
11.9051949103
 21
7.919100304
  0
LINE
  5
2C2
100
AcDbEntity
  8
0
100
AcDbLine
 62
7
  6
CONTINUOUS
 10
11.9078095826
 20
7.919100304
 11
11.9078095826
 21
7.994100304
  0
LINE
  5
2C3
100
AcDbEntity
  8
0
100
AcDbLine
 62
7
  6
CONTINUOUS
 10
11.909234561
 20
7.994100304
 11
11.909234561
 21
7.919100304
  0
LINE
  5
2C4
100
AcDbEntity
  8
0
100
AcDbLine
 62
7
  6
CONTINUOUS
 10
11.9128906413
 20
7.919100304
 11
11.9128906413
 21
7.994100304
  0
LINE
  5
2C5
100
AcDbEntity
  8
0
100
AcDbLine
 62
7
  6
CONTINUOUS
 10
11.9147879107
 20
7.994100304
 11
11.9147879107
 21
7.919100304
  0
LINE
  5
2C6
100
AcDbEntity
  8
0
100
AcDbLine
 62
7
  6
CONTINUOUS
 10
11.9194809447
 20
7.919100304
 11
11.9194809447
 21
7.994100304
  0
LINE
  5
2C7
100
AcDbEntity
  8
0
100
AcDbLine
 62
7
  6
CONTINUOUS
 10
11.9218481937
 20
7.994100304
 11
11.9218481937
 21
7.919100304
  0
LINE
  5
2C8
100
AcDbEntity
  8
0
100
AcDbLine
 62
7
  6
CONTINUOUS
 10
11.9275724636
 20
7.919100304
 11
11.9275724636
 21
7.994100304
  0
LINE
  5
2C9
100
AcDbEntity
  8
0
100
AcDbLine
 62
7
  6
CONTINUOUS
 10
11.930406808
 20
7.994100304
 11
11.930406808
 21
7.919100304
  0
LINE
  5
2CA
100
AcDbEntity
  8
0
100
AcDbLine
 62
7
  6
CONTINUOUS
 10
11.9371553396
 20
7.919100304
 11
11.9371553396
 21
7.994100304
  0
LINE
  5
2CB
100
AcDbEntity
  8
0
100
AcDbLine
 62
7
  6
CONTINUOUS
 10
11.9404533262
 20
7.994100304
 11
11.9404533262
 21
7.919100304
  0
LINE
  5
2CC
100
AcDbEntity
  8
0
100
AcDbLine
 62
7
  6
CONTINUOUS
 10
11.9482178976
 20
7.919100304
 11
11.9482178976
 21
7.994100304
  0
LINE
  5
2CD
100
AcDbEntity
  8
0
100
AcDbLine
 62
7
  6
CONTINUOUS
 10
11.9516559583
 20
7.719100304
 11
11.9516559583
 21
7.919100304
  0
LINE
  5
2CE
100
AcDbEntity
  8
0
100
AcDbLine
 62
7
  6
CONTINUOUS
 10
11.9519755083
 20
7.994100304
 11
11.9519755083
 21
7.919100304
  0
LINE
  5
2CF
100
AcDbEntity
  8
0
100
AcDbLine
 62
7
  6
CONTINUOUS
 10
11.9607466595
 20
7.919100304
 11
11.9607466595
 21
7.994100304
  0
LINE
  5
2D0
100
AcDbEntity
  8
0
100
AcDbLine
 62
7
  6
CONTINUOUS
 10
11.9649593162
 20
7.994100304
 11
11.9649593162
 21
7.919100304
  0
LINE
  5
2D1
100
AcDbEntity
  8
0
100
AcDbLine
 62
7
  6
CONTINUOUS
 10
11.9747263609
 20
7.919100304
 11
11.9747263609
 21
7.994100304
  0
LINE
  5
2D2
100
AcDbEntity
  8
0
100
AcDbLine
 62
7
  6
CONTINUOUS
 10
11.9793889312
 20
7.994100304
 11
11.9793889312
 21
7.919100304
  0
LINE
  5
2D3
100
AcDbEntity
  8
0
100
AcDbLine
 62
7
  6
CONTINUOUS
 10
11.9901399697
 20
7.919100304
 11
11.9901399697
 21
7.994100304
  0
LINE
  5
2D4
100
AcDbEntity
  8
0
100
AcDbLine
 62
7
  6
CONTINUOUS
 10
11.995246773
 20
7.994100304
 11
11.995246773
 21
7.919100304
  0
LINE
  5
2D5
100
AcDbEntity
  8
0
100
AcDbLine
 62
7
  6
CONTINUOUS
 10
12.0069687068
 20
7.919100304
 11
12.0069687068
 21
7.994100304
  0
LINE
  5
2D6
100
AcDbEntity
  8
0
100
AcDbLine
 62
7
  6
CONTINUOUS
 10
12.0125135212
 20
7.994100304
 11
12.0125135212
 21
7.919100304
  0
LINE
  5
2D7
100
AcDbEntity
  8
0
100
AcDbLine
 62
7
  6
CONTINUOUS
 10
12.0251920691
 20
7.919100304
 11
12.0251920691
 21
7.994100304
  0
LINE
  5
2D8
100
AcDbEntity
  8
0
100
AcDbLine
 62
7
  6
CONTINUOUS
 10
12.0311681391
 20
7.994100304
 11
12.0311681391
 21
7.919100304
  0
LINE
  5
2D9
100
AcDbEntity
  8
0
100
AcDbLine
 62
7
  6
CONTINUOUS
 10
12.0447878541
 20
7.919100304
 11
12.0447878541
 21
7.994100304
  0
LINE
  5
2DA
100
AcDbEntity
  8
0
100
AcDbLine
 62
7
  6
CONTINUOUS
 10
12.0511878987
 20
7.994100304
 11
12.0511878987
 21
7.919100304
  0
LINE
  5
2DB
100
AcDbEntity
  8
0
100
AcDbLine
 62
7
  6
CONTINUOUS
 10
12.0657321873
 20
7.919100304
 11
12.0657321873
 21
7.994100304
  0
LINE
  5
2DC
100
AcDbEntity
  8
0
100
AcDbLine
 62
7
  6
CONTINUOUS
 10
12.0725484091
 20
7.994100304
 11
12.0725484091
 21
7.919100304
  0
LINE
  5
2DD
100
AcDbEntity
  8
0
100
AcDbLine
 62
9
  6
CONTINUOUS
 10
14.1221651037
 20
10.137704232
 11
14.1021651037
 21
10.137704232
  0
LINE
  5
2DE
100
AcDbEntity
  8
0
100
AcDbLine
 62
9
  6
CONTINUOUS
 10
11.6949777267
 20
10.137704232
 11
11.6516559583
 21
10.137704232
  0
LINE
  5
2DF
100
AcDbEntity
  8
0
100
AcDbLine
 62
9
  6
CONTINUOUS
 10
13.6449645687
 20
10.137704232
 11
13.701146813
 21
10.137704232
  0
LINE
  5
2E0
100
AcDbEntity
  8
0
100
AcDbLine
 62
7
  6
CONTINUOUS
 10
13.5516454593
 20
10.212100304
 11
12.7516664574
 21
10.212100304
  0
LINE
  5
2E1
100
AcDbEntity
  8
0
100
AcDbLine
 62
7
  6
CONTINUOUS
 10
13.464155358
 20
10.287100304
 11
12.8391565587
 21
10.287100304
  0
LINE
  5
2E2
100
AcDbEntity
  8
0
100
AcDbLine
 62
9
  6
CONTINUOUS
 10
12.8891559583
 20
10.307100304
 11
13.4141559583
 21
10.307100304
  0
LINE
  5
2E3
100
AcDbEntity
  8
0
100
AcDbLine
 62
7
  6
CONTINUOUS
 10
13.4141554702
 20
10.337100304
 11
12.8891564464
 21
10.337100304
  0
LWPOLYLINE
  5
2E4
100
AcDbEntity
  8
0
100
AcDbPolyline
 62
7
  6
CONTINUOUS
 90
4
 70
0
 10
12.7099292179
 20
10.1484687546
 10
12.35755325
 20
10.1642760064
 10
12.0057492046
 20
10.1797996894
 10
11.6929997289
 20
10.1917133494
  0
LINE
  5
2E5
100
AcDbEntity
  8
0
100
AcDbLine
 62
7
  6
CONTINUOUS
 10
12.0879995514
 20
7.919100304
 11
12.0879995514
 21
7.994100304
  0
LINE
  5
2E6
100
AcDbEntity
  8
0
100
AcDbLine
 62
7
  6
CONTINUOUS
 10
12.0952236459
 20
7.994100304
 11
12.0952236459
 21
7.919100304
  0
LINE
  5
2E7
100
AcDbEntity
  8
0
100
AcDbLine
 62
7
  6
CONTINUOUS
 10
12.111562817
 20
7.919100304
 11
12.111562817
 21
7.994100304
  0
LINE
  5
2E8
100
AcDbEntity
  8
0
100
AcDbLine
 62
7
  6
CONTINUOUS
 10
12.1191859827
 20
7.994100304
 11
12.1191859827
 21
7.919100304
  0
LINE
  5
2E9
100
AcDbEntity
  8
0
100
AcDbLine
 62
7
  6
CONTINUOUS
 10
12.1266559583
 20
8.894100304
 11
12.1266559583
 21
9.094100304
  0
LINE
  5
2EA
100
AcDbEntity
  8
0
100
AcDbLine
 62
7
  6
CONTINUOUS
 10
12.1280339111
 20
8.1678695899
 11
12.1280339111
 21
8.094100304
  0
LINE
  5
2EB
100
AcDbEntity
  8
0
100
AcDbLine
 62
7
  6
CONTINUOUS
 10
12.1363932758
 20
7.919100304
 11
12.1363932758
 21
7.994100304
  0
LINE
  5
2EC
100
AcDbEntity
  8
0
100
AcDbLine
 62
7
  6
CONTINUOUS
 10
12.1444062252
 20
7.994100304
 11
12.1444062252
 21
7.919100304
  0
LINE
  5
2ED
100
AcDbEntity
  8
0
100
AcDbLine
 62
7
  6
CONTINUOUS
 10
12.1624606759
 20
7.919100304
 11
12.1624606759
 21
7.994100304
  0
LINE
  5
2EE
100
AcDbEntity
  8
0
100
AcDbLine
 62
7
  6
CONTINUOUS
 10
12.1708536463
 20
7.994100304
 11
12.1708536463
 21
7.919100304
  0
LINE
  5
2EF
100
AcDbEntity
  8
0
100
AcDbLine
 62
7
  6
CONTINUOUS
 10
12.189733258
 20
7.919100304
 11
12.189733258
 21
7.994100304
  0
LINE
  5
2F0
100
AcDbEntity
  8
0
100
AcDbLine
 62
7
  6
CONTINUOUS
 10
12.1984960239
 20
7.994100304
 11
12.1984960239
 21
7.919100304
  0
LINE
  5
2F1
100
AcDbEntity
  8
0
100
AcDbLine
 62
7
  6
CONTINUOUS
 10
12.2016559583
 20
8.794100304
 11
12.2016559583
 21
8.894100304
  0
LINE
  5
2F2
100
AcDbEntity
  8
0
100
AcDbLine
 62
7
  6
CONTINUOUS
 10
12.2016559583
 20
9.094100304
 11
12.2016559583
 21
9.144100304
  0
LINE
  5
2F3
100
AcDbEntity
  8
0
100
AcDbLine
 62
7
  6
CONTINUOUS
 10
12.2181777948
 20
7.919100304
 11
12.2181777948
 21
7.994100304
  0
LINE
  5
2F4
100
AcDbEntity
  8
0
100
AcDbLine
 62
7
  6
CONTINUOUS
 10
12.2272996801
 20
7.994100304
 11
12.2272996801
 21
7.919100304
  0
LINE
  5
2F5
100
AcDbEntity
  8
0
100
AcDbLine
 62
7
  6
CONTINUOUS
 10
12.2477596309
 20
7.919100304
 11
12.2477596309
 21
7.994100304
  0
LINE
  5
2F6
100
AcDbEntity
  8
0
100
AcDbLine
 62
7
  6
CONTINUOUS
 10
12.257229522
 20
7.994100304
 11
12.257229522
 21
7.919100304
  0
LINE
  5
2F7
100
AcDbEntity
  8
0
100
AcDbLine
 62
7
  6
CONTINUOUS
 10
12.2766559583
 20
8.194100304
 11
12.2766559583
 21
8.719100304
  0
LINE
  5
2F8
100
AcDbEntity
  8
0
100
AcDbLine
 62
7
  6
CONTINUOUS
 10
12.2784427255
 20
7.919100304
 11
12.2784427255
 21
7.994100304
  0
LINE
  5
2F9
100
AcDbEntity
  8
0
100
AcDbLine
 62
7
  6
CONTINUOUS
 10
12.2882490848
 20
7.994100304
 11
12.2882490848
 21
7.919100304
  0
LINE
  5
2FA
100
AcDbEntity
  8
0
100
AcDbLine
 62
7
  6
CONTINUOUS
 10
12.3094493657
 20
7.919100304
 11
12.3094493657
 21
7.994100304
  0
LINE
  5
2FB
100
AcDbEntity
  8
0
100
AcDbLine
 62
7
  6
CONTINUOUS
 10
12.3101896958
 20
7.919100304
 11
12.3101896958
 21
7.994100304
  0
LINE
  5
2FC
100
AcDbEntity
  8
0
100
AcDbLine
 62
7
  6
CONTINUOUS
 10
12.3203205758
 20
7.994100304
 11
12.3203205758
 21
7.919100304
  0
LINE
  5
2FD
100
AcDbEntity
  8
0
100
AcDbLine
 62
7
  6
CONTINUOUS
 10
13.5516557369
 20
10.375683304
 11
12.7516561797
 21
10.375683304
  0
LINE
  5
2FE
100
AcDbEntity
  8
0
100
AcDbLine
 62
7
  6
CONTINUOUS
 10
13.464151891
 20
10.450683304
 11
12.8391600256
 21
10.450683304
  0
LINE
  5
2FF
100
AcDbEntity
  8
0
100
AcDbLine
 62
7
  6
CONTINUOUS
 10
13.4141556756
 20
10.500683304
 11
12.8891562411
 21
10.500683304
  0
LINE
  5
300
100
AcDbEntity
  8
0
100
AcDbLine
 62
7
  6
CONTINUOUS
 10
12.341482105
 20
7.919100304
 11
12.341482105
 21
7.994100304
  0
LINE
  5
301
100
AcDbEntity
  8
0
100
AcDbLine
 62
7
  6
CONTINUOUS
 10
12.3429618632
 20
7.919100304
 11
12.3429618632
 21
7.994100304
  0
LINE
  5
302
100
AcDbEntity
  8
0
100
AcDbLine
 62
7
  6
CONTINUOUS
 10
12.353404921
 20
7.994100304
 11
12.353404921
 21
7.919100304
  0
LINE
  5
303
100
AcDbEntity
  8
0
100
AcDbLine
 62
7
  6
CONTINUOUS
 10
12.3745019162
 20
7.919100304
 11
12.3745019162
 21
7.994100304
  0
LINE
  5
304
100
AcDbEntity
  8
0
100
AcDbLine
 62
7
  6
CONTINUOUS
 10
12.3767192998
 20
7.919100304
 11
12.3767192998
 21
7.994100304
  0
LINE
  5
305
100
AcDbEntity
  8
0
100
AcDbLine
 62
7
  6
CONTINUOUS
 10
12.387461812
 20
7.994100304
 11
12.387461812
 21
7.919100304
  0
LINE
  5
306
100
AcDbEntity
  8
0
100
AcDbLine
 62
7
  6
CONTINUOUS
 10
12.4016559583
 20
9.244100304
 11
12.4016559583
 21
9.294100304
  0
LINE
  5
307
100
AcDbEntity
  8
0
100
AcDbLine
 62
7
  6
CONTINUOUS
 10
12.40846857
 20
7.919100304
 11
12.40846857
 21
7.994100304
  0
LINE
  5
308
100
AcDbEntity
  8
0
100
AcDbLine
 62
7
  6
CONTINUOUS
 10
12.4114208773
 20
7.919100304
 11
12.4114208773
 21
7.994100304
  0
LINE
  5
309
100
AcDbEntity
  8
0
100
AcDbLine
 62
7
  6
CONTINUOUS
 10
12.422449756
 20
7.994100304
 11
12.422449756
 21
7.919100304
  0
LINE
  5
30A
100
AcDbEntity
  8
0
100
AcDbLine
 62
7
  6
CONTINUOUS
 10
12.4266559583
 20
9.590683304
 11
12.4266559583
 21
9.531943304
  0
LINE
  5
30B
100
AcDbEntity
  8
0
100
AcDbLine
 62
7
  6
CONTINUOUS
 10
12.4433406832
 20
7.919100304
 11
12.4433406832
 21
7.994100304
  0
LINE
  5
30C
100
AcDbEntity
  8
0
100
AcDbLine
 62
7
  6
CONTINUOUS
 10
12.4470243173
 20
7.919100304
 11
12.4470243173
 21
7.994100304
  0
LINE
  5
30D
100
AcDbEntity
  8
0
100
AcDbLine
 62
7
  6
CONTINUOUS
 10
12.4583261253
 20
7.994100304
 11
12.4583261253
 21
7.919100304
  0
LINE
  5
30E
100
AcDbEntity
  8
0
100
AcDbLine
 62
7
  6
CONTINUOUS
 10
12.4790757694
 20
7.919100304
 11
12.4790757694
 21
7.994100304
  0
LINE
  5
30F
100
AcDbEntity
  8
0
100
AcDbLine
 62
7
  6
CONTINUOUS
 10
12.4834862423
 20
7.919100304
 11
12.4834862423
 21
7.994100304
  0
LINE
  5
310
100
AcDbEntity
  8
0
100
AcDbLine
 62
7
  6
CONTINUOUS
 10
12.4950472103
 20
7.994100304
 11
12.4950472103
 21
7.919100304
  0
LINE
  5
311
100
AcDbEntity
  8
0
100
AcDbLine
 62
7
  6
CONTINUOUS
 10
12.5156302909
 20
7.919100304
 11
12.5156302909
 21
7.994100304
  0
LINE
  5
312
100
AcDbEntity
  8
0
100
AcDbLine
 62
7
  6
CONTINUOUS
 10
12.5207622293
 20
7.919100304
 11
12.5207622293
 21
7.994100304
  0
LINE
  5
313
100
AcDbEntity
  8
0
100
AcDbLine
 62
7
  6
CONTINUOUS
 10
12.5325682718
 20
7.994100304
 11
12.5325682718
 21
7.919100304
  0
LINE
  5
314
100
AcDbEntity
  8
0
100
AcDbLine
 62
7
  6
CONTINUOUS
 10
12.5529597117
 20
7.919100304
 11
12.5529597117
 21
7.994100304
  0
LINE
  5
315
100
AcDbEntity
  8
0
100
AcDbLine
 62
7
  6
CONTINUOUS
 10
12.5588068631
 20
7.919100304
 11
12.5588068631
 21
7.994100304
  0
LINE
  5
316
100
AcDbEntity
  8
0
100
AcDbLine
 62
7
  6
CONTINUOUS
 10
12.5708435964
 20
7.994100304
 11
12.5708435964
 21
7.919100304
  0
LINE
  5
317
100
AcDbEntity
  8
0
100
AcDbLine
 62
7
  6
CONTINUOUS
 10
12.5910185518
 20
7.919100304
 11
12.5910185518
 21
7.994100304
  0
LINE
  5
318
100
AcDbEntity
  8
0
100
AcDbLine
 62
7
  6
CONTINUOUS
 10
12.5975737921
 20
7.919100304
 11
12.5975737921
 21
7.994100304
  0
LINE
  5
319
100
AcDbEntity
  8
0
100
AcDbLine
 62
7
  6
CONTINUOUS
 10
11.9516559583
 20
7.719100304
 11
11.9016559583
 21
7.669100304
  0
LINE
  5
31A
100
AcDbEntity
  8
0
100
AcDbLine
 62
7
  6
CONTINUOUS
 10
14.3516559583
 20
7.719100304
 11
14.4016559583
 21
7.669100304
  0
LINE
  5
31B
100
AcDbEntity
  8
0
100
AcDbLine
 62
7
  6
CONTINUOUS
 10
12.6098265513
 20
7.994100304
 11
12.6098265513
 21
7.919100304
  0
LINE
  5
31C
100
AcDbEntity
  8
0
100
AcDbLine
 62
7
  6
CONTINUOUS
 10
12.6297604421
 20
7.919100304
 11
12.6297604421
 21
7.994100304
  0
LINE
  5
31D
100
AcDbEntity
  8
0
100
AcDbLine
 62
7
  6
CONTINUOUS
 10
12.637015785
 20
7.919100304
 11
12.637015785
 21
7.994100304
  0
LINE
  5
31E
100
AcDbEntity
  8
0
100
AcDbLine
 62
7
  6
CONTINUOUS
 10
12.649469642
 20
7.994100304
 11
12.649469642
 21
7.919100304
  0
LINE
  5
31F
100
AcDbEntity
  8
0
100
AcDbLine
 62
7
  6
CONTINUOUS
 10
12.6691381817
 20
7.919100304
 11
12.6691381817
 21
7.994100304
  0
LINE
  5
320
100
AcDbEntity
  8
0
100
AcDbLine
 62
7
  6
CONTINUOUS
 10
12.6770847876
 20
7.919100304
 11
12.6770847876
 21
7.994100304
  0
LINE
  5
321
100
AcDbEntity
  8
0
100
AcDbLine
 62
7
  6
CONTINUOUS
 10
12.6897245693
 20
7.994100304
 11
12.6897245693
 21
7.919100304
  0
LINE
  5
322
100
AcDbEntity
  8
0
100
AcDbLine
 62
7
  6
CONTINUOUS
 10
12.7016559583
 20
9.750683304
 11
12.7016559583
 21
9.610683304
  0
LINE
  5
323
100
AcDbEntity
  8
0
100
AcDbLine
 62
7
  6
CONTINUOUS
 10
12.7091037949
 20
7.919100304
 11
12.7091037949
 21
7.994100304
  0
LINE
  5
324
100
AcDbEntity
  8
0
100
AcDbLine
 62
7
  6
CONTINUOUS
 10
12.7177319821
 20
7.919100304
 11
12.7177319821
 21
7.994100304
  0
LINE
  5
325
100
AcDbEntity
  8
0
100
AcDbLine
 62
7
  6
CONTINUOUS
 10
12.7305422888
 20
7.994100304
 11
12.7305422888
 21
7.919100304
  0
LINE
  5
326
100
AcDbEntity
  8
0
100
AcDbLine
 62
9
  6
CONTINUOUS
 10
12.7322550789
 20
10.1024324946
 11
12.7322550789
 21
9.8490745984
  0
LINE
  5
327
100
AcDbEntity
  8
0
100
AcDbLine
 62
7
  6
CONTINUOUS
 10
12.7496085898
 20
7.919100304
 11
12.7496085898
 21
7.994100304
  0
LINE
  5
328
100
AcDbEntity
  8
0
100
AcDbLine
 62
7
  6
CONTINUOUS
 10
12.7516559583
 20
10.375683304
 11
12.7516559583
 21
10.1884314635
  0
LINE
  5
329
100
AcDbEntity
  8
0
100
AcDbLine
 62
7
  6
CONTINUOUS
 10
12.7516559583
 20
9.7636982906
 11
12.7516559583
 21
9.737100304
  0
LINE
  5
32A
100
AcDbEntity
  8
0
100
AcDbLine
 62
7
  6
CONTINUOUS
 10
12.7516559583
 20
9.294100304
 11
12.7516559583
 21
9.394100304
  0
LINE
  5
32B
100
AcDbEntity
  8
0
100
AcDbLine
 62
7
  6
CONTINUOUS
 10
12.7589078461
 20
7.919100304
 11
12.7589078461
 21
7.994100304
  0
LINE
  5
32C
100
AcDbEntity
  8
0
100
AcDbLine
 62
7
  6
CONTINUOUS
 10
12.7718730705
 20
7.994100304
 11
12.7718730705
 21
7.919100304
  0
LINE
  5
32D
100
AcDbEntity
  8
0
100
AcDbLine
 62
7
  6
CONTINUOUS
 10
12.7906032174
 20
7.919100304
 11
12.7906032174
 21
7.994100304
  0
LINE
  5
32E
100
AcDbEntity
  8
0
100
AcDbLine
 62
7
  6
CONTINUOUS
 10
12.8005622132
 20
7.919100304
 11
12.8005622132
 21
7.994100304
  0
LINE
  5
32F
100
AcDbEntity
  8
0
100
AcDbLine
 62
7
  6
CONTINUOUS
 10
12.8136665591
 20
7.994100304
 11
12.8136665591
 21
7.919100304
  0
LINE
  5
330
100
AcDbEntity
  8
0
100
AcDbLine
 62
9
  6
CONTINUOUS
 10
12.8227787976
 20
9.778939279
 11
12.8227787976
 21
10.1706642287
  0
LINE
  5
331
100
AcDbEntity
  8
0
100
AcDbLine
 62
7
  6
CONTINUOUS
 10
12.8320377322
 20
7.919100304
 11
12.8320377322
 21
7.994100304
  0
LINE
  5
332
100
AcDbEntity
  8
0
100
AcDbLine
 62
7
  6
CONTINUOUS
 10
12.8391559583
 20
9.717100304
 11
12.8391559583
 21
9.424100304
  0
LINE
  5
333
100
AcDbEntity
  8
0
100
AcDbLine
 62
7
  6
CONTINUOUS
 10
12.8426443339
 20
7.919100304
 11
12.8426443339
 21
7.994100304
  0
LINE
  5
334
100
AcDbEntity
  8
0
100
AcDbLine
 62
7
  6
CONTINUOUS
 10
12.8558718357
 20
7.994100304
 11
12.8558718357
 21
7.919100304
  0
LWPOLYLINE
  5
335
100
AcDbEntity
  8
0
100
AcDbPolyline
 62
7
  6
CONTINUOUS
 90
7
 70
0
 10
12.7516559649
 20
10.1884314635
 10
12.7509966144
 20
10.1811986701
 10
12.747115463
 20
10.169921358
 10
12.7400753278
 20
10.1602829317
 10
12.73050584
 20
10.1531514083
 10
12.7192664065
 20
10.1491621202
 10
12.7099292177
 20
10.1484687493
  0
LINE
  5
336
100
AcDbEntity
  8
0
100
AcDbLine
 62
7
  6
CONTINUOUS
 10
13.4366623546
 20
9.529477516
 11
13.4287224111
 21
9.5182487402
  0
LINE
  5
337
100
AcDbEntity
  8
0
100
AcDbLine
 62
7
  6
CONTINUOUS
 10
12.8738616525
 20
7.919100304
 11
12.8738616525
 21
7.994100304
  0
LINE
  5
338
100
AcDbEntity
  8
0
100
AcDbLine
 62
7
  6
CONTINUOUS
 10
12.8851029377
 20
7.919100304
 11
12.8851029377
 21
7.994100304
  0
LINE
  5
339
100
AcDbEntity
  8
0
100
AcDbLine
 62
7
  6
CONTINUOUS
 10
12.8891559583
 20
10.500683304
 11
12.8891559583
 21
10.450683304
  0
LINE
  5
33A
100
AcDbEntity
  8
0
100
AcDbLine
 62
7
  6
CONTINUOUS
 10
12.8891559583
 20
10.337100304
 11
12.8891559583
 21
10.307100304
  0
LINE
  5
33B
100
AcDbEntity
  8
0
100
AcDbLine
 62
7
  6
CONTINUOUS
 10
12.8984374798
 20
7.994100304
 11
12.8984374798
 21
7.919100304
  0
LINE
  5
33C
100
AcDbEntity
  8
0
100
AcDbLine
 62
7
  6
CONTINUOUS
 10
12.9160240225
 20
7.919100304
 11
12.9160240225
 21
7.994100304
  0
LINE
  5
33D
100
AcDbEntity
  8
0
100
AcDbLine
 62
7
  6
CONTINUOUS
 10
12.9278862953
 20
7.919100304
 11
12.9278862953
 21
7.994100304
  0
LINE
  5
33E
100
AcDbEntity
  8
0
100
AcDbLine
 62
7
  6
CONTINUOUS
 10
12.9413116315
 20
7.994100304
 11
12.9413116315
 21
7.919100304
  0
LINE
  5
33F
100
AcDbEntity
  8
0
100
AcDbLine
 62
7
  6
CONTINUOUS
 10
12.9584734736
 20
7.919100304
 11
12.9584734736
 21
7.994100304
  0
LINE
  5
340
100
AcDbEntity
  8
0
100
AcDbLine
 62
7
  6
CONTINUOUS
 10
12.9679068314
 20
9.394100304
 11
12.9679068314
 21
9.424100304
  0
LINE
  5
341
100
AcDbEntity
  8
0
100
AcDbLine
 62
7
  6
CONTINUOUS
 10
12.9709422817
 20
7.919100304
 11
12.9709422817
 21
7.994100304
  0
LINE
  5
342
100
AcDbEntity
  8
0
100
AcDbLine
 62
7
  6
CONTINUOUS
 10
12.9736750371
 20
9.424100304
 11
12.9736750371
 21
9.394100304
  0
LINE
  5
343
100
AcDbEntity
  8
0
100
AcDbLine
 62
7
  6
CONTINUOUS
 10
12.9844420554
 20
7.994100304
 11
12.9844420554
 21
7.919100304
  0
LINE
  5
344
100
AcDbEntity
  8
0
100
AcDbLine
 62
7
  6
CONTINUOUS
 10
12.9901127646
 20
9.394100304
 11
12.9901127646
 21
9.424100304
  0
LINE
  5
345
100
AcDbEntity
  8
0
100
AcDbLine
 62
7
  6
CONTINUOUS
 10
13.0011582878
 20
7.919100304
 11
13.0011582878
 21
7.994100304
  0
LINE
  5
346
100
AcDbEntity
  8
0
100
AcDbLine
 62
7
  6
CONTINUOUS
 10
13.0065392246
 20
9.424100304
 11
13.0065392246
 21
9.394100304
  0
LINE
  5
347
100
AcDbEntity
  8
0
100
AcDbLine
 62
7
  6
CONTINUOUS
 10
13.01421844
 20
7.919100304
 11
13.01421844
 21
7.994100304
  0
LINE
  5
348
100
AcDbEntity
  8
0
100
AcDbLine
 62
7
  6
CONTINUOUS
 10
13.0277762037
 20
7.994100304
 11
13.0277762037
 21
7.919100304
  0
LINE
  5
349
100
AcDbEntity
  8
0
100
AcDbLine
 62
7
  6
CONTINUOUS
 10
13.0294402839
 20
9.394100304
 11
13.0294402839
 21
9.424100304
  0
LINE
  5
34A
100
AcDbEntity
  8
0
100
AcDbLine
 62
7
  6
CONTINUOUS
 10
13.0369121846
 20
9.394100304
 11
13.0369121846
 21
9.424100304
  0
LINE
  5
34B
100
AcDbEntity
  8
0
100
AcDbLine
 62
7
  6
CONTINUOUS
 10
13.0440264603
 20
7.919100304
 11
13.0440264603
 21
7.994100304
  0
LINE
  5
34C
100
AcDbEntity
  8
0
100
AcDbLine
 62
7
  6
CONTINUOUS
 10
13.0576620447
 20
7.919100304
 11
13.0576620447
 21
7.994100304
  0
LINE
  5
34D
100
AcDbEntity
  8
0
100
AcDbLine
 62
7
  6
CONTINUOUS
 10
13.0614961194
 20
9.424100304
 11
13.0614961194
 21
9.394100304
  0
LINE
  5
34E
100
AcDbEntity
  8
0
100
AcDbLine
 62
7
  6
CONTINUOUS
 10
13.0712612804
 20
7.994100304
 11
13.0712612804
 21
7.919100304
  0
LINE
  5
34F
100
AcDbEntity
  8
0
100
AcDbLine
 62
7
  6
CONTINUOUS
 10
13.0803056712
 20
9.394100304
 11
13.0803056712
 21
9.424100304
  0
LINE
  5
350
100
AcDbEntity
  8
0
100
AcDbLine
 62
7
  6
CONTINUOUS
 10
13.0870257628
 20
7.919100304
 11
13.0870257628
 21
7.994100304
  0
LINE
  5
351
100
AcDbEntity
  8
0
100
AcDbLine
 62
7
  6
CONTINUOUS
 10
13.0980856688
 20
9.424100304
 11
13.0980856688
 21
9.394100304
  0
LINE
  5
352
100
AcDbEntity
  8
0
100
AcDbLine
 62
7
  6
CONTINUOUS
 10
13.101180304
 20
9.394100304
 11
13.101180304
 21
9.424100304
  0
LINE
  5
353
100
AcDbEntity
  8
0
100
AcDbLine
 62
7
  6
CONTINUOUS
 10
13.1012201664
 20
7.919100304
 11
13.1012201664
 21
7.994100304
  0
LINE
  5
354
100
AcDbEntity
  8
0
100
AcDbLine
 62
7
  6
CONTINUOUS
 10
13.1148443056
 20
7.994100304
 11
13.1148443056
 21
7.919100304
  0
LINE
  5
355
100
AcDbEntity
  8
0
100
AcDbLine
 62
9
  6
CONTINUOUS
 10
13.1189133009
 20
10.1706629559
 11
13.1189133009
 21
9.7789401439
  0
LINE
  5
356
100
AcDbEntity
  8
0
100
AcDbLine
 62
7
  6
CONTINUOUS
 10
13.1301038071
 20
7.919100304
 11
13.1301038071
 21
7.994100304
  0
LINE
  5
357
100
AcDbEntity
  8
0
100
AcDbLine
 62
7
  6
CONTINUOUS
 10
13.1301790324
 20
9.424100304
 11
13.1301790324
 21
9.394100304
  0
LINE
  5
358
100
AcDbEntity
  8
0
100
AcDbLine
 62
9
  6
CONTINUOUS
 10
13.1516553549
 20
9.7755124126
 11
13.1529550571
 21
9.7897245112
  0
LINE
  5
359
100
AcDbEntity
  8
0
100
AcDbLine
 62
7
  6
CONTINUOUS
 10
13.4072174909
 20
9.620100304
 11
13.3956704855
 21
9.580100304
  0
LINE
  5
35A
100
AcDbEntity
  8
0
100
AcDbLine
 62
9
  6
CONTINUOUS
 10
13.1516551763
 20
10.174714066
 11
13.1532047364
 21
10.160311553
  0
LINE
  5
35B
100
AcDbEntity
  8
0
100
AcDbLine
 62
7
  6
CONTINUOUS
 10
13.1420334929
 20
9.394100304
 11
13.1420334929
 21
9.424100304
  0
LINE
  5
35C
100
AcDbEntity
  8
0
100
AcDbLine
 62
7
  6
CONTINUOUS
 10
13.1448397365
 20
7.919100304
 11
13.1448397365
 21
7.994100304
  0
LINE
  5
35D
100
AcDbEntity
  8
0
100
AcDbLine
 62
7
  6
CONTINUOUS
 10
13.1584721802
 20
7.994100304
 11
13.1584721802
 21
7.919100304
  0
LINE
  5
35E
100
AcDbEntity
  8
0
100
AcDbLine
 62
7
  6
CONTINUOUS
 10
13.1612784237
 20
9.424100304
 11
13.1612784237
 21
9.394100304
  0
LINE
  5
35F
100
AcDbEntity
  8
0
100
AcDbLine
 62
7
  6
CONTINUOUS
 10
13.1731328843
 20
9.394100304
 11
13.1731328843
 21
9.424100304
  0
LINE
  5
360
100
AcDbEntity
  8
0
100
AcDbLine
 62
7
  6
CONTINUOUS
 10
13.1732081095
 20
7.919100304
 11
13.1732081095
 21
7.994100304
  0
LINE
  5
361
100
AcDbEntity
  8
0
100
AcDbLine
 62
7
  6
CONTINUOUS
 10
13.188467611
 20
7.919100304
 11
13.188467611
 21
7.994100304
  0
LINE
  5
362
100
AcDbEntity
  8
0
100
AcDbLine
 62
9
  6
CONTINUOUS
 10
13.2011849361
 20
9.8490745876
 11
13.2011849361
 21
10.1024324829
  0
LINE
  5
363
100
AcDbEntity
  8
0
100
AcDbLine
 62
7
  6
CONTINUOUS
 10
13.2020917502
 20
7.994100304
 11
13.2020917502
 21
7.919100304
  0
LINE
  5
364
100
AcDbEntity
  8
0
100
AcDbLine
 62
7
  6
CONTINUOUS
 10
13.2021316126
 20
9.424100304
 11
13.2021316126
 21
9.394100304
  0
LINE
  5
365
100
AcDbEntity
  8
0
100
AcDbLine
 62
7
  6
CONTINUOUS
 10
13.2052262478
 20
9.394100304
 11
13.2052262478
 21
9.424100304
  0
LINE
  5
366
100
AcDbEntity
  8
0
100
AcDbLine
 62
7
  6
CONTINUOUS
 10
13.2162861539
 20
7.919100304
 11
13.2162861539
 21
7.994100304
  0
LINE
  5
367
100
AcDbEntity
  8
0
100
AcDbLine
 62
7
  6
CONTINUOUS
 10
13.2230062454
 20
9.424100304
 11
13.2230062454
 21
9.394100304
  0
LINE
  5
368
100
AcDbEntity
  8
0
100
AcDbLine
 62
7
  6
CONTINUOUS
 10
13.2320506362
 20
7.919100304
 11
13.2320506362
 21
7.994100304
  0
LINE
  5
369
100
AcDbEntity
  8
0
100
AcDbLine
 62
7
  6
CONTINUOUS
 10
13.2418157972
 20
9.394100304
 11
13.2418157972
 21
9.424100304
  0
LINE
  5
36A
100
AcDbEntity
  8
0
100
AcDbLine
 62
7
  6
CONTINUOUS
 10
13.245649872
 20
7.994100304
 11
13.245649872
 21
7.919100304
  0
LINE
  5
36B
100
AcDbEntity
  8
0
100
AcDbLine
 62
7
  6
CONTINUOUS
 10
13.2592854563
 20
7.919100304
 11
13.2592854563
 21
7.994100304
  0
LINE
  5
36C
100
AcDbEntity
  8
0
100
AcDbLine
 62
7
  6
CONTINUOUS
 10
13.266399732
 20
9.424100304
 11
13.266399732
 21
9.394100304
  0
LINE
  5
36D
100
AcDbEntity
  8
0
100
AcDbLine
 62
7
  6
CONTINUOUS
 10
13.2738716327
 20
9.424100304
 11
13.2738716327
 21
9.394100304
  0
LINE
  5
36E
100
AcDbEntity
  8
0
100
AcDbLine
 62
7
  6
CONTINUOUS
 10
13.2755357129
 20
7.919100304
 11
13.2755357129
 21
7.994100304
  0
LINE
  5
36F
100
AcDbEntity
  8
0
100
AcDbLine
 62
7
  6
CONTINUOUS
 10
13.2890934767
 20
7.994100304
 11
13.2890934767
 21
7.919100304
  0
LINE
  5
370
100
AcDbEntity
  8
0
100
AcDbLine
 62
7
  6
CONTINUOUS
 10
13.296772692
 20
9.394100304
 11
13.296772692
 21
9.424100304
  0
LINE
  5
371
100
AcDbEntity
  8
0
100
AcDbLine
 62
7
  6
CONTINUOUS
 10
13.3021536288
 20
7.919100304
 11
13.3021536288
 21
7.994100304
  0
LINE
  5
372
100
AcDbEntity
  8
0
100
AcDbLine
 62
7
  6
CONTINUOUS
 10
13.3131991521
 20
9.424100304
 11
13.3131991521
 21
9.394100304
  0
LINE
  5
373
100
AcDbEntity
  8
0
100
AcDbLine
 62
7
  6
CONTINUOUS
 10
13.3188698612
 20
7.919100304
 11
13.3188698612
 21
7.994100304
  0
LINE
  5
374
100
AcDbEntity
  8
0
100
AcDbLine
 62
7
  6
CONTINUOUS
 10
13.3296368796
 20
9.394100304
 11
13.3296368796
 21
9.424100304
  0
LINE
  5
375
100
AcDbEntity
  8
0
100
AcDbLine
 62
7
  6
CONTINUOUS
 10
13.3323696349
 20
7.994100304
 11
13.3323696349
 21
7.919100304
  0
LINE
  5
376
100
AcDbEntity
  8
0
100
AcDbLine
 62
7
  6
CONTINUOUS
 10
13.3354050853
 20
9.424100304
 11
13.3354050853
 21
9.394100304
  0
LINE
  5
377
100
AcDbEntity
  8
0
100
AcDbLine
 62
7
  6
CONTINUOUS
 10
13.344838443
 20
7.919100304
 11
13.344838443
 21
7.994100304
  0
LINE
  5
378
100
AcDbEntity
  8
0
100
AcDbLine
 62
7
  6
CONTINUOUS
 10
13.3620002851
 20
7.919100304
 11
13.3620002851
 21
7.994100304
  0
LINE
  5
379
100
AcDbEntity
  8
0
100
AcDbLine
 62
7
  6
CONTINUOUS
 10
13.3754256214
 20
7.994100304
 11
13.3754256214
 21
7.919100304
  0
LINE
  5
37A
100
AcDbEntity
  8
0
100
AcDbLine
 62
7
  6
CONTINUOUS
 10
13.3872878942
 20
7.919100304
 11
13.3872878942
 21
7.994100304
  0
LINE
  5
37B
100
AcDbEntity
  8
0
100
AcDbLine
 62
7
  6
CONTINUOUS
 10
13.4303115017
 20
9.540100304
 11
13.441858507
 21
9.580100304
  0
LINE
  5
37C
100
AcDbEntity
  8
0
100
AcDbLine
 62
7
  6
CONTINUOUS
 10
14.0266559583
 20
8.719100304
 11
14.1016559583
 21
8.794100304
  0
LINE
  5
37D
100
AcDbEntity
  8
0
100
AcDbLine
 62
7
  6
CONTINUOUS
 10
13.4366623546
 20
9.6307230921
 11
13.4322016573
 21
9.6370314707
  0
LINE
  5
37E
100
AcDbEntity
  8
0
100
AcDbLine
 62
7
  6
CONTINUOUS
 10
13.4048744369
 20
7.919100304
 11
13.4048744369
 21
7.994100304
  0
LINE
  5
37F
100
AcDbEntity
  8
0
100
AcDbLine
 62
7
  6
CONTINUOUS
 10
13.4141559583
 20
10.500683304
 11
13.4141559583
 21
10.450683304
  0
LINE
  5
380
100
AcDbEntity
  8
0
100
AcDbLine
 62
7
  6
CONTINUOUS
 10
13.4141559583
 20
10.337100304
 11
13.4141559583
 21
10.307100304
  0
LINE
  5
381
100
AcDbEntity
  8
0
100
AcDbLine
 62
7
  6
CONTINUOUS
 10
13.418208979
 20
7.994100304
 11
13.418208979
 21
7.919100304
  0
LINE
  5
382
100
AcDbEntity
  8
0
100
AcDbLine
 62
7
  6
CONTINUOUS
 10
13.4294502641
 20
7.919100304
 11
13.4294502641
 21
7.994100304
  0
LINE
  5
383
100
AcDbEntity
  8
0
100
AcDbLine
 62
7
  6
CONTINUOUS
 10
13.4474400809
 20
7.919100304
 11
13.4474400809
 21
7.994100304
  0
LINE
  5
384
100
AcDbEntity
  8
0
100
AcDbLine
 62
7
  6
CONTINUOUS
 10
13.4606675827
 20
7.994100304
 11
13.4606675827
 21
7.919100304
  0
LINE
  5
385
100
AcDbEntity
  8
0
100
AcDbLine
 62
7
  6
CONTINUOUS
 10
13.4641559583
 20
9.717100304
 11
13.4641559583
 21
9.424100304
  0
LINE
  5
386
100
AcDbEntity
  8
0
100
AcDbLine
 62
7
  6
CONTINUOUS
 10
13.4712741845
 20
7.919100304
 11
13.4712741845
 21
7.994100304
  0
LINE
  5
387
100
AcDbEntity
  8
0
100
AcDbLine
 62
7
  6
CONTINUOUS
 10
13.4896453575
 20
7.919100304
 11
13.4896453575
 21
7.994100304
  0
LINE
  5
388
100
AcDbEntity
  8
0
100
AcDbLine
 62
7
  6
CONTINUOUS
 10
13.5027497035
 20
7.994100304
 11
13.5027497035
 21
7.919100304
  0
LINE
  5
389
100
AcDbEntity
  8
0
100
AcDbLine
 62
7
  6
CONTINUOUS
 10
13.5127086992
 20
7.919100304
 11
13.5127086992
 21
7.994100304
  0
LINE
  5
38A
100
AcDbEntity
  8
0
100
AcDbLine
 62
9
  6
CONTINUOUS
 10
13.5132746989
 20
9.778940095
 11
13.5132746989
 21
9.7996885906
  0
LINE
  5
38B
100
AcDbEntity
  8
0
100
AcDbLine
 62
9
  6
CONTINUOUS
 10
13.5132746989
 20
10.1664232948
 11
13.5132746989
 21
10.1706634064
  0
LINE
  5
38C
100
AcDbEntity
  8
0
100
AcDbLine
 62
7
  6
CONTINUOUS
 10
13.5314388462
 20
7.919100304
 11
13.5314388462
 21
7.994100304
  0
LINE
  5
38D
100
AcDbEntity
  8
0
100
AcDbLine
 62
7
  6
CONTINUOUS
 10
13.5444040706
 20
7.994100304
 11
13.5444040706
 21
7.919100304
  0
LINE
  5
38E
100
AcDbEntity
  8
0
100
AcDbLine
 62
7
  6
CONTINUOUS
 10
13.5516559583
 20
10.375683304
 11
13.5516559583
 21
10.1697957345
  0
LINE
  5
38F
100
AcDbEntity
  8
0
100
AcDbLine
 62
7
  6
CONTINUOUS
 10
13.5516559583
 20
9.7987680577
 11
13.5516559583
 21
9.737100304
  0
LINE
  5
390
100
AcDbEntity
  8
0
100
AcDbLine
 62
7
  6
CONTINUOUS
 10
13.5516559583
 20
9.294100304
 11
13.5516559583
 21
9.394100304
  0
LINE
  5
391
100
AcDbEntity
  8
0
100
AcDbLine
 62
7
  6
CONTINUOUS
 10
13.5537033269
 20
7.919100304
 11
13.5537033269
 21
7.994100304
  0
LINE
  5
392
100
AcDbEntity
  8
0
100
AcDbLine
 62
7
  6
CONTINUOUS
 10
13.5727696278
 20
7.919100304
 11
13.5727696278
 21
7.994100304
  0
LINE
  5
393
100
AcDbEntity
  8
0
100
AcDbLine
 62
7
  6
CONTINUOUS
 10
13.5855799346
 20
7.994100304
 11
13.5855799346
 21
7.919100304
  0
LINE
  5
394
100
AcDbEntity
  8
0
100
AcDbLine
 62
7
  6
CONTINUOUS
 10
13.5942081217
 20
7.919100304
 11
13.5942081217
 21
7.994100304
  0
LINE
  5
395
100
AcDbEntity
  8
0
100
AcDbLine
 62
7
  6
CONTINUOUS
 10
13.6016559583
 20
9.750683304
 11
13.6016559583
 21
9.610683304
  0
LINE
  5
396
100
AcDbEntity
  8
0
100
AcDbLine
 62
7
  6
CONTINUOUS
 10
13.6135873474
 20
7.919100304
 11
13.6135873474
 21
7.994100304
  0
LINE
  5
397
100
AcDbEntity
  8
0
100
AcDbLine
 62
7
  6
CONTINUOUS
 10
13.6262271291
 20
7.994100304
 11
13.6262271291
 21
7.919100304
  0
LINE
  5
398
100
AcDbEntity
  8
0
100
AcDbLine
 62
7
  6
CONTINUOUS
 10
13.6341737349
 20
7.919100304
 11
13.6341737349
 21
7.994100304
  0
LINE
  5
399
100
AcDbEntity
  8
0
100
AcDbLine
 62
9
  6
CONTINUOUS
 10
13.6449645922
 20
10.1376847089
 11
13.6449645453
 21
9.8472032135
  0
LINE
  5
39A
100
AcDbEntity
  8
0
100
AcDbLine
 62
7
  6
CONTINUOUS
 10
13.6538422747
 20
7.919100304
 11
13.6538422747
 21
7.994100304
  0
LINE
  5
39B
100
AcDbEntity
  8
0
100
AcDbLine
 62
7
  6
CONTINUOUS
 10
13.3956704855
 20
9.580100304
 11
13.4072174909
 21
9.540100304
  0
LINE
  5
39C
100
AcDbEntity
  8
0
100
AcDbLine
 62
7
  6
CONTINUOUS
 10
13.441858507
 20
9.580100304
 11
13.4303115017
 21
9.620100304
  0
LINE
  5
39D
100
AcDbEntity
  8
0
100
AcDbLine
 62
7
  6
CONTINUOUS
 10
13.6662961317
 20
7.994100304
 11
13.6662961317
 21
7.919100304
  0
LINE
  5
39E
100
AcDbEntity
  8
0
100
AcDbLine
 62
7
  6
CONTINUOUS
 10
13.6735514746
 20
7.919100304
 11
13.6735514746
 21
7.994100304
  0
LINE
  5
39F
100
AcDbEntity
  8
0
100
AcDbLine
 62
7
  6
CONTINUOUS
 10
13.6934853653
 20
7.919100304
 11
13.6934853653
 21
7.994100304
  0
LINE
  5
3A0
100
AcDbEntity
  8
0
100
AcDbLine
 62
9
  6
CONTINUOUS
 10
13.7011468209
 20
10.1377040491
 11
13.7011468217
 21
9.8471839649
  0
LINE
  5
3A1
100
AcDbEntity
  8
0
100
AcDbLine
 62
7
  6
CONTINUOUS
 10
13.7057381245
 20
7.994100304
 11
13.7057381245
 21
7.919100304
  0
LINE
  5
3A2
100
AcDbEntity
  8
0
100
AcDbLine
 62
7
  6
CONTINUOUS
 10
13.7122933649
 20
7.919100304
 11
13.7122933649
 21
7.994100304
  0
LINE
  5
3A3
100
AcDbEntity
  8
0
100
AcDbLine
 62
7
  6
CONTINUOUS
 10
13.7324683202
 20
7.919100304
 11
13.7324683202
 21
7.994100304
  0
LINE
  5
3A4
100
AcDbEntity
  8
0
100
AcDbLine
 62
7
  6
CONTINUOUS
 10
13.7445050536
 20
7.994100304
 11
13.7445050536
 21
7.919100304
  0
LINE
  5
3A5
100
AcDbEntity
  8
0
100
AcDbLine
 62
7
  6
CONTINUOUS
 10
13.7503522049
 20
7.919100304
 11
13.7503522049
 21
7.994100304
  0
LINE
  5
3A6
100
AcDbEntity
  8
0
100
AcDbLine
 62
7
  6
CONTINUOUS
 10
13.7707436448
 20
7.919100304
 11
13.7707436448
 21
7.994100304
  0
LINE
  5
3A7
100
AcDbEntity
  8
0
100
AcDbLine
 62
7
  6
CONTINUOUS
 10
13.7825496873
 20
7.994100304
 11
13.7825496873
 21
7.919100304
  0
LINE
  5
3A8
100
AcDbEntity
  8
0
100
AcDbLine
 62
7
  6
CONTINUOUS
 10
13.7876816257
 20
7.919100304
 11
13.7876816257
 21
7.994100304
  0
LINE
  5
3A9
100
AcDbEntity
  8
0
100
AcDbLine
 62
7
  6
CONTINUOUS
 10
13.8082647064
 20
7.919100304
 11
13.8082647064
 21
7.994100304
  0
LINE
  5
3AA
100
AcDbEntity
  8
0
100
AcDbLine
 62
7
  6
CONTINUOUS
 10
13.8198256743
 20
7.994100304
 11
13.8198256743
 21
7.919100304
  0
LINE
  5
3AB
100
AcDbEntity
  8
0
100
AcDbLine
 62
7
  6
CONTINUOUS
 10
13.8242361473
 20
7.919100304
 11
13.8242361473
 21
7.994100304
  0
LINE
  5
3AC
100
AcDbEntity
  8
0
100
AcDbLine
 62
7
  6
CONTINUOUS
 10
13.8449857913
 20
7.919100304
 11
13.8449857913
 21
7.994100304
  0
LINE
  5
3AD
100
AcDbEntity
  8
0
100
AcDbLine
 62
7
  6
CONTINUOUS
 10
13.8562875994
 20
7.994100304
 11
13.8562875994
 21
7.919100304
  0
LINE
  5
3AE
100
AcDbEntity
  8
0
100
AcDbLine
 62
7
  6
CONTINUOUS
 10
13.8599712335
 20
7.919100304
 11
13.8599712335
 21
7.994100304
  0
LINE
  5
3AF
100
AcDbEntity
  8
0
100
AcDbLine
 62
7
  6
CONTINUOUS
 10
13.8766559583
 20
9.590683304
 11
13.8766559583
 21
9.531943304
  0
LINE
  5
3B0
100
AcDbEntity
  8
0
100
AcDbLine
 62
7
  6
CONTINUOUS
 10
13.8808621607
 20
7.919100304
 11
13.8808621607
 21
7.994100304
  0
LINE
  5
3B1
100
AcDbEntity
  8
0
100
AcDbLine
 62
7
  6
CONTINUOUS
 10
13.8918910393
 20
7.994100304
 11
13.8918910393
 21
7.919100304
  0
LINE
  5
3B2
100
AcDbEntity
  8
0
100
AcDbLine
 62
7
  6
CONTINUOUS
 10
13.8948433466
 20
7.919100304
 11
13.8948433466
 21
7.994100304
  0
LINE
  5
3B3
100
AcDbEntity
  8
0
100
AcDbLine
 62
7
  6
CONTINUOUS
 10
13.9016559583
 20
9.244100304
 11
13.9016559583
 21
9.294100304
  0
LINE
  5
3B4
100
AcDbEntity
  8
0
100
AcDbLine
 62
7
  6
CONTINUOUS
 10
13.9158501046
 20
7.919100304
 11
13.9158501046
 21
7.994100304
  0
LINE
  5
3B5
100
AcDbEntity
  8
0
100
AcDbLine
 62
7
  6
CONTINUOUS
 10
13.9265926168
 20
7.994100304
 11
13.9265926168
 21
7.919100304
  0
LINE
  5
3B6
100
AcDbEntity
  8
0
100
AcDbLine
 62
7
  6
CONTINUOUS
 10
13.9288100004
 20
7.919100304
 11
13.9288100004
 21
7.994100304
  0
LINE
  5
3B7
100
AcDbEntity
  8
0
100
AcDbLine
 62
7
  6
CONTINUOUS
 10
13.9499069957
 20
7.919100304
 11
13.9499069957
 21
7.994100304
  0
LINE
  5
3B8
100
AcDbEntity
  8
0
100
AcDbLine
 62
7
  6
CONTINUOUS
 10
13.9603500534
 20
7.994100304
 11
13.9603500534
 21
7.919100304
  0
LINE
  5
3B9
100
AcDbEntity
  8
0
100
AcDbLine
 62
7
  6
CONTINUOUS
 10
13.9618298117
 20
7.919100304
 11
13.9618298117
 21
7.994100304
  0
LINE
  5
3BA
100
AcDbEntity
  8
0
100
AcDbLine
 62
7
  6
CONTINUOUS
 10
13.9829913408
 20
7.919100304
 11
13.9829913408
 21
7.994100304
  0
LINE
  5
3BB
100
AcDbEntity
  8
0
100
AcDbLine
 62
7
  6
CONTINUOUS
 10
13.9931222208
 20
7.994100304
 11
13.9931222208
 21
7.919100304
  0
LINE
  5
3BC
100
AcDbEntity
  8
0
100
AcDbLine
 62
7
  6
CONTINUOUS
 10
13.9938625509
 20
7.919100304
 11
13.9938625509
 21
7.994100304
  0
LINE
  5
3BD
100
AcDbEntity
  8
0
100
AcDbLine
 62
7
  6
CONTINUOUS
 10
14.0150628319
 20
7.919100304
 11
14.0150628319
 21
7.994100304
  0
LINE
  5
3BE
100
AcDbEntity
  8
0
100
AcDbLine
 62
7
  6
CONTINUOUS
 10
14.0248691912
 20
7.994100304
 11
14.0248691912
 21
7.919100304
  0
LINE
  5
3BF
100
AcDbEntity
  8
0
100
AcDbLine
 62
7
  6
CONTINUOUS
 10
14.0266559583
 20
8.194100304
 11
14.0266559583
 21
8.719100304
  0
LINE
  5
3C0
100
AcDbEntity
  8
0
100
AcDbLine
 62
7
  6
CONTINUOUS
 10
14.0460823946
 20
7.919100304
 11
14.0460823946
 21
7.994100304
  0
LINE
  5
3C1
100
AcDbEntity
  8
0
100
AcDbLine
 62
7
  6
CONTINUOUS
 10
14.0555522857
 20
7.994100304
 11
14.0555522857
 21
7.919100304
  0
LINE
  5
3C2
100
AcDbEntity
  8
0
100
AcDbLine
 62
7
  6
CONTINUOUS
 10
14.0760122365
 20
7.919100304
 11
14.0760122365
 21
7.994100304
  0
LINE
  5
3C3
100
AcDbEntity
  8
0
100
AcDbLine
 62
7
  6
CONTINUOUS
 10
14.0851341219
 20
7.994100304
 11
14.0851341219
 21
7.919100304
  0
LINE
  5
3C4
100
AcDbEntity
  8
0
100
AcDbLine
 62
7
  6
CONTINUOUS
 10
14.1016559583
 20
8.794100304
 11
14.1016559583
 21
8.894100304
  0
LINE
  5
3C5
100
AcDbEntity
  8
0
100
AcDbLine
 62
7
  6
CONTINUOUS
 10
14.1016559583
 20
9.094100304
 11
14.1016559583
 21
9.144100304
  0
LINE
  5
3C6
100
AcDbEntity
  8
0
100
AcDbLine
 62
9
  6
CONTINUOUS
 10
14.1021650956
 20
9.8471838294
 11
14.102165095
 21
10.1377043438
  0
LINE
  5
3C7
100
AcDbEntity
  8
0
100
AcDbLine
 62
7
  6
CONTINUOUS
 10
14.1048158927
 20
7.919100304
 11
14.1048158927
 21
7.994100304
  0
LINE
  5
3C8
100
AcDbEntity
  8
0
100
AcDbLine
 62
7
  6
CONTINUOUS
 10
14.1135786586
 20
7.994100304
 11
14.1135786586
 21
7.919100304
  0
LINE
  5
3C9
100
AcDbEntity
  8
0
100
AcDbLine
 62
7
  6
CONTINUOUS
 10
14.1221651037
 20
9.8471838968
 11
14.1221651037
 21
10.137704232
  0
LINE
  5
3CA
100
AcDbEntity
  8
0
100
AcDbLine
 62
7
  6
CONTINUOUS
 10
14.1324582703
 20
7.919100304
 11
14.1324582703
 21
7.994100304
  0
LINE
  5
3CB
100
AcDbEntity
  8
0
100
AcDbLine
 62
7
  6
CONTINUOUS
 10
14.1408512407
 20
7.994100304
 11
14.1408512407
 21
7.919100304
  0
LINE
  5
3CC
100
AcDbEntity
  8
0
100
AcDbLine
 62
7
  6
CONTINUOUS
 10
14.1589056914
 20
7.919100304
 11
14.1589056914
 21
7.994100304
  0
LINE
  5
3CD
100
AcDbEntity
  8
0
100
AcDbLine
 62
7
  6
CONTINUOUS
 10
14.1669186408
 20
7.994100304
 11
14.1669186408
 21
7.919100304
  0
LINE
  5
3CE
100
AcDbEntity
  8
0
100
AcDbLine
 62
7
  6
CONTINUOUS
 10
14.1752780056
 20
9.2010526011
 11
14.1752780056
 21
9.094100304
  0
LINE
  5
3CF
100
AcDbEntity
  8
0
100
AcDbLine
 62
7
  6
CONTINUOUS
 10
14.1752780056
 20
8.894100304
 11
14.1752780056
 21
8.094100304
  0
LINE
  5
3D0
100
AcDbEntity
  8
0
100
AcDbLine
 62
7
  6
CONTINUOUS
 10
14.1766559583
 20
8.894100304
 11
14.1766559583
 21
9.094100304
  0
LINE
  5
3D1
100
AcDbEntity
  8
0
100
AcDbLine
 62
7
  6
CONTINUOUS
 10
14.1841259339
 20
7.919100304
 11
14.1841259339
 21
7.994100304
  0
LINE
  5
3D2
100
AcDbEntity
  8
0
100
AcDbLine
 62
7
  6
CONTINUOUS
 10
14.1917490997
 20
7.994100304
 11
14.1917490997
 21
7.919100304
  0
LINE
  5
3D3
100
AcDbEntity
  8
0
100
AcDbLine
 62
7
  6
CONTINUOUS
 10
14.2080882707
 20
7.919100304
 11
14.2080882707
 21
7.994100304
  0
LINE
  5
3D4
100
AcDbEntity
  8
0
100
AcDbLine
 62
7
  6
CONTINUOUS
 10
14.2153123652
 20
7.994100304
 11
14.2153123652
 21
7.919100304
  0
LINE
  5
3D5
100
AcDbEntity
  8
0
100
AcDbLine
 62
7
  6
CONTINUOUS
 10
14.2307635075
 20
7.919100304
 11
14.2307635075
 21
7.994100304
  0
LINE
  5
3D6
100
AcDbEntity
  8
0
100
AcDbLine
 62
7
  6
CONTINUOUS
 10
14.2375797293
 20
7.994100304
 11
14.2375797293
 21
7.919100304
  0
LINE
  5
3D7
100
AcDbEntity
  8
0
100
AcDbLine
 62
7
  6
CONTINUOUS
 10
14.2521240179
 20
7.919100304
 11
14.2521240179
 21
7.994100304
  0
LINE
  5
3D8
100
AcDbEntity
  8
0
100
AcDbLine
 62
7
  6
CONTINUOUS
 10
14.2585240626
 20
7.994100304
 11
14.2585240626
 21
7.919100304
  0
LINE
  5
3D9
100
AcDbEntity
  8
0
100
AcDbLine
 62
7
  6
CONTINUOUS
 10
14.2721437776
 20
7.919100304
 11
14.2721437776
 21
7.994100304
  0
LINE
  5
3DA
100
AcDbEntity
  8
0
100
AcDbLine
 62
7
  6
CONTINUOUS
 10
14.2781198475
 20
7.994100304
 11
14.2781198475
 21
7.919100304
  0
LINE
  5
3DB
100
AcDbEntity
  8
0
100
AcDbLine
 62
7
  6
CONTINUOUS
 10
14.2907983954
 20
7.919100304
 11
14.2907983954
 21
7.994100304
  0
LINE
  5
3DC
100
AcDbEntity
  8
0
100
AcDbLine
 62
7
  6
CONTINUOUS
 10
14.2963432098
 20
7.994100304
 11
14.2963432098
 21
7.919100304
  0
LINE
  5
3DD
100
AcDbEntity
  8
0
100
AcDbLine
 62
7
  6
CONTINUOUS
 10
14.3080651436
 20
7.919100304
 11
14.3080651436
 21
7.994100304
  0
LINE
  5
3DE
100
AcDbEntity
  8
0
100
AcDbLine
 62
7
  6
CONTINUOUS
 10
14.3131719469
 20
7.994100304
 11
14.3131719469
 21
7.919100304
  0
LINE
  5
3DF
100
AcDbEntity
  8
0
100
AcDbLine
 62
7
  6
CONTINUOUS
 10
14.3239229854
 20
7.919100304
 11
14.3239229854
 21
7.994100304
  0
LINE
  5
3E0
100
AcDbEntity
  8
0
100
AcDbLine
 62
7
  6
CONTINUOUS
 10
14.3285855558
 20
7.994100304
 11
14.3285855558
 21
7.919100304
  0
LINE
  5
3E1
100
AcDbEntity
  8
0
100
AcDbLine
 62
7
  6
CONTINUOUS
 10
14.3383526004
 20
7.919100304
 11
14.3383526004
 21
7.994100304
  0
LINE
  5
3E2
100
AcDbEntity
  8
0
100
AcDbLine
 62
7
  6
CONTINUOUS
 10
14.3425652572
 20
7.994100304
 11
14.3425652572
 21
7.919100304
  0
LINE
  5
3E3
100
AcDbEntity
  8
0
100
AcDbLine
 62
7
  6
CONTINUOUS
 10
14.3513364083
 20
7.919100304
 11
14.3513364083
 21
7.994100304
  0
LINE
  5
3E4
100
AcDbEntity
  8
0
100
AcDbLine
 62
7
  6
CONTINUOUS
 10
14.3516559583
 20
7.719100304
 11
14.3516559583
 21
7.919100304
  0
LINE
  5
3E5
100
AcDbEntity
  8
0
100
AcDbLine
 62
7
  6
CONTINUOUS
 10
14.355094019
 20
7.994100304
 11
14.355094019
 21
7.919100304
  0
LINE
  5
3E6
100
AcDbEntity
  8
0
100
AcDbLine
 62
7
  6
CONTINUOUS
 10
14.3628585904
 20
7.919100304
 11
14.3628585904
 21
7.994100304
  0
LINE
  5
3E7
100
AcDbEntity
  8
0
100
AcDbLine
 62
7
  6
CONTINUOUS
 10
14.366156577
 20
7.994100304
 11
14.366156577
 21
7.919100304
  0
LINE
  5
3E8
100
AcDbEntity
  8
0
100
AcDbLine
 62
7
  6
CONTINUOUS
 10
14.3729051087
 20
7.919100304
 11
14.3729051087
 21
7.994100304
  0
LINE
  5
3E9
100
AcDbEntity
  8
0
100
AcDbLine
 62
7
  6
CONTINUOUS
 10
14.3757394531
 20
7.994100304
 11
14.3757394531
 21
7.919100304
  0
LINE
  5
3EA
100
AcDbEntity
  8
0
100
AcDbLine
 62
7
  6
CONTINUOUS
 10
14.3814637229
 20
7.919100304
 11
14.3814637229
 21
7.994100304
  0
LINE
  5
3EB
100
AcDbEntity
  8
0
100
AcDbLine
 62
7
  6
CONTINUOUS
 10
14.3838309719
 20
7.994100304
 11
14.3838309719
 21
7.919100304
  0
LINE
  5
3EC
100
AcDbEntity
  8
0
100
AcDbLine
 62
7
  6
CONTINUOUS
 10
14.3885240059
 20
7.919100304
 11
14.3885240059
 21
7.994100304
  0
LINE
  5
3ED
100
AcDbEntity
  8
0
100
AcDbLine
 62
7
  6
CONTINUOUS
 10
14.3904212753
 20
7.994100304
 11
14.3904212753
 21
7.919100304
  0
LINE
  5
3EE
100
AcDbEntity
  8
0
100
AcDbLine
 62
7
  6
CONTINUOUS
 10
14.3940773556
 20
7.919100304
 11
14.3940773556
 21
7.994100304
  0
LINE
  5
3EF
100
AcDbEntity
  8
0
100
AcDbLine
 62
7
  6
CONTINUOUS
 10
14.395502334
 20
7.994100304
 11
14.395502334
 21
7.919100304
  0
LINE
  5
3F0
100
AcDbEntity
  8
0
100
AcDbLine
 62
7
  6
CONTINUOUS
 10
14.3981170063
 20
7.919100304
 11
14.3981170063
 21
7.994100304
  0
LINE
  5
3F1
100
AcDbEntity
  8
0
100
AcDbLine
 62
7
  6
CONTINUOUS
 10
14.3990679575
 20
7.994100304
 11
14.3990679575
 21
7.919100304
  0
LINE
  5
3F2
100
AcDbEntity
  8
0
100
AcDbLine
 62
7
  6
CONTINUOUS
 10
14.4006380362
 20
7.919100304
 11
14.4006380362
 21
7.994100304
  0
LINE
  5
3F3
100
AcDbEntity
  8
0
100
AcDbLine
 62
7
  6
CONTINUOUS
 10
14.4011138016
 20
7.994100304
 11
14.4011138016
 21
7.919100304
  0
LINE
  5
3F4
100
AcDbEntity
  8
0
100
AcDbLine
 62
7
  6
CONTINUOUS
 10
14.4016373738
 20
7.919100304
 11
14.4016373738
 21
7.994100304
  0
LINE
  5
3F5
100
AcDbEntity
  8
0
100
AcDbLine
 62
7
  6
CONTINUOUS
 10
14.4016559583
 20
7.519100304
 11
14.4016559583
 21
7.669100304
  0
ARC
  5
3F6
100
AcDbEntity
  8
0
100
AcDbCircle
 62
9
  6
CONTINUOUS
 10
2.7693579752
 20
-269.4860736988
 40
279.8057942448
100
AcDbArc
 50
87.9598154095
 51
88.1723368416
  0
ARC
  5
3F7
100
AcDbEntity
  8
0
100
AcDbCircle
 62
9
  6
CONTINUOUS
 10
4.5390660381
 20
-215.6989156804
 40
225.9499439794
100
AcDbArc
 50
87.9219375784
 51
88.185119683
  0
ARC
  5
3F8
100
AcDbEntity
  8
0
100
AcDbCircle
 62
9
  6
CONTINUOUS
 10
7.8898570206
 20
8.5360924979
 40
1.4506224732
100
AcDbArc
 50
94.4484667084
 51
94.6141801589
  0
ARC
  5
3F9
100
AcDbEntity
  8
0
100
AcDbCircle
 62
7
  6
CONTINUOUS
 10
7.5227048461
 20
8.9823395598
 40
0.4
100
AcDbArc
 50
172.4167
 51
196.6376430705
  0
ARC
  5
3FA
100
AcDbEntity
  8
0
100
AcDbCircle
 62
7
  6
CONTINUOUS
 10
7.7209556555
 20
8.9559460648
 40
0.4
100
AcDbArc
 50
328.1957569295
 51
352.4167
  0
ARC
  5
3FB
100
AcDbEntity
  8
0
100
AcDbCircle
 62
7
  6
CONTINUOUS
 10
8.0792448167
 20
8.9668501313
 40
0.3327584208
100
AcDbArc
 50
148.8252687136
 51
149.9972546907
  0
ARC
  5
3FC
100
AcDbEntity
  8
0
100
AcDbCircle
 62
7
  6
CONTINUOUS
 10
8.1504791027
 20
8.99964513
 40
0.02
100
AcDbArc
 50
82.4167376531
 51
172.4167
  0
ARC
  5
3FD
100
AcDbEntity
  8
0
100
AcDbCircle
 62
7
  6
CONTINUOUS
 10
8.0523985854
 20
8.7504087586
 40
0.01
100
AcDbArc
 50
262.416703785
 51
328.1957584306
  0
ARC
  5
3FE
100
AcDbEntity
  8
0
100
AcDbCircle
 62
7
  6
CONTINUOUS
 10
7.1490323243
 20
8.870675571
 40
0.01
100
AcDbArc
 50
196.6376415694
 51
262.416696215
  0
ARC
  5
3FF
100
AcDbEntity
  8
0
100
AcDbCircle
 62
9
  6
CONTINUOUS
 10
7.9589610482
 20
9.4191171222
 40
0.3265468566
100
AcDbArc
 50
283.7982297831
 51
284.0718435795
  0
ARC
  5
400
100
AcDbEntity
  8
0
100
AcDbCircle
 62
9
  6
CONTINUOUS
 10
7.963237533
 20
9.4016593569
 40
0.3085729374
100
AcDbArc
 50
283.0463005844
 51
283.8002100232
  0
ARC
  5
401
100
AcDbEntity
  8
0
100
AcDbCircle
 62
7
  6
CONTINUOUS
 10
7.1195748939
 20
9.136891304
 40
0.02
100
AcDbArc
 50
352.4167
 51
82.4166623469
  0
ARC
  5
402
100
AcDbEntity
  8
0
100
AcDbCircle
 62
9
  6
CONTINUOUS
 10
16.721936577
 20
-31.4080197259
 40
41.6594927627
100
AcDbArc
 50
94.2357260138
 51
94.8479974994
  0
ARC
  5
403
100
AcDbEntity
  8
0
100
AcDbCircle
 62
9
  6
CONTINUOUS
 10
13.542696427
 20
6.8735084776
 40
3.3242783759
100
AcDbArc
 50
96.7554262428
 51
97.3240670277
  0
ARC
  5
404
100
AcDbEntity
  8
0
100
AcDbCircle
 62
7
  6
CONTINUOUS
 10
10.0172264123
 20
8.8439405232
 40
2.9534866216
100
AcDbArc
 50
158.1827372169
 51
163.6496790219
  0
ARC
  5
405
100
AcDbEntity
  8
0
100
AcDbCircle
 62
9
  6
CONTINUOUS
 10
12.6627331427
 20
8.1879233169
 40
1.955606146
100
AcDbArc
 50
87.8379140815
 51
88.0123916914
  0
ARC
  5
406
100
AcDbEntity
  8
0
100
AcDbCircle
 62
9
  6
CONTINUOUS
 10
13.9016570054
 20
8.7123500797
 40
1.4393867304
100
AcDbArc
 50
81.9926046778
 51
98.0074795312
  0
ARC
  5
407
100
AcDbEntity
  8
0
100
AcDbCircle
 62
7
  6
CONTINUOUS
 10
12.1266559583
 20
8.194100304
 40
0.1
100
AcDbArc
 50
270.0
 51
360.0
  0
ARC
  5
408
100
AcDbEntity
  8
0
100
AcDbCircle
 62
7
  6
CONTINUOUS
 10
14.1766559583
 20
8.194100304
 40
0.1
100
AcDbArc
 50
180.0
 51
270.0
  0
ARC
  5
409
100
AcDbEntity
  8
0
100
AcDbCircle
 62
7
  6
CONTINUOUS
 10
11.9766559583
 20
8.094100304
 40
0.1
100
AcDbArc
 50
274.2047698846
 51
360.0
  0
ARC
  5
40A
100
AcDbEntity
  8
0
100
AcDbCircle
 62
7
  6
CONTINUOUS
 10
14.3266559583
 20
8.094100304
 40
0.1
100
AcDbArc
 50
180.0
 51
265.7952301154
  0
ARC
  5
40B
100
AcDbEntity
  8
0
100
AcDbCircle
 62
7
  6
CONTINUOUS
 10
12.8191237501
 20
13.0639644933
 40
4.6624934093
100
AcDbArc
 50
254.9996271631
 51
257.1662385055
  0
ARC
  5
40C
100
AcDbEntity
  8
0
100
AcDbCircle
 62
7
  6
CONTINUOUS
 10
12.8154991711
 20
13.0482302434
 40
4.6463522387
100
AcDbArc
 50
257.1667403269
 51
263.3395222185
  0
ARC
  5
40D
100
AcDbEntity
  8
0
100
AcDbCircle
 62
9
  6
CONTINUOUS
 10
12.3937450236
 20
11.3378249526
 40
2.2821701228
100
AcDbArc
 50
255.716179589
 51
263.2781575409
  0
ARC
  5
40E
100
AcDbEntity
  8
0
100
AcDbCircle
 62
9
  6
CONTINUOUS
 10
12.4109402598
 20
11.3114300901
 40
2.2300330138
100
AcDbArc
 50
255.1593121165
 51
262.6984757187
  0
ARC
  5
40F
100
AcDbEntity
  8
0
100
AcDbCircle
 62
9
  6
CONTINUOUS
 10
12.3980804971
 20
11.2224817958
 40
2.1401721275
100
AcDbArc
 50
262.7373201085
 51
264.1998581637
  0
ARC
  5
410
100
AcDbEntity
  8
0
100
AcDbCircle
 62
9
  6
CONTINUOUS
 10
12.3415897554
 20
11.0537627723
 40
1.9631984538
100
AcDbArc
 50
253.9952920365
 51
255.1896694292
  0
ARC
  5
411
100
AcDbEntity
  8
0
100
AcDbCircle
 62
9
  6
CONTINUOUS
 10
12.7243074896
 20
11.7653082021
 40
1.9561917935
100
AcDbArc
 50
270.1455832212
 51
270.3941696488
  0
ARC
  5
412
100
AcDbEntity
  8
0
100
AcDbCircle
 62
9
  6
CONTINUOUS
 10
12.2937179185
 20
10.9558139554
 40
1.8872914486
100
AcDbArc
 50
254.5306339283
 51
255.7976324284
  0
ARC
  5
413
100
AcDbEntity
  8
0
100
AcDbCircle
 62
9
  6
CONTINUOUS
 10
12.7283056077
 20
10.8737359976
 40
1.0247223744
100
AcDbArc
 50
270.2208293915
 51
270.5599351002
  0
ARC
  5
414
100
AcDbEntity
  8
0
100
AcDbCircle
 62
9
  6
CONTINUOUS
 10
12.6824479604
 20
9.0834028601
 40
1.0202993742
100
AcDbArc
 50
86.9628094456
 51
87.2019266047
  0
ARC
  5
415
100
AcDbEntity
  8
0
100
AcDbCircle
 62
7
  6
CONTINUOUS
 10
12.2016559583
 20
9.244100304
 40
0.1
100
AcDbArc
 50
270.0
 51
360.0
  0
ARC
  5
416
100
AcDbEntity
  8
0
100
AcDbCircle
 62
7
  6
CONTINUOUS
 10
12.7641559583
 20
10.450683304
 40
0.075
100
AcDbArc
 50
270.0
 51
360.0
  0
ARC
  5
417
100
AcDbEntity
  8
0
100
AcDbCircle
 62
7
  6
CONTINUOUS
 10
12.7641559583
 20
10.287100304
 40
0.075
100
AcDbArc
 50
270.0
 51
360.0
  0
ARC
  5
418
100
AcDbEntity
  8
0
100
AcDbCircle
 62
7
  6
CONTINUOUS
 10
11.6916563435
 20
9.8331586504
 40
0.0400000166
100
AcDbArc
 50
180.0
 51
270.0789560796
  0
ARC
  5
419
100
AcDbEntity
  8
0
100
AcDbCircle
 62
7
  6
CONTINUOUS
 10
11.6916563209
 20
10.1517392091
 40
0.0400000152
100
AcDbArc
 50
88.0752963289
 51
180.0
  0
ARC
  5
41A
100
AcDbEntity
  8
0
100
AcDbCircle
 62
9
  6
CONTINUOUS
 10
11.6913049579
 20
10.1376705069
 40
0.0396493497
100
AcDbArc
 50
162.073037805
 51
179.9514079196
  0
ARC
  5
41B
100
AcDbEntity
  8
0
100
AcDbCircle
 62
9
  6
CONTINUOUS
 10
11.6912766108
 20
9.8472123767
 40
0.0396206626
100
AcDbArc
 50
180.0409609494
 51
197.7286858367
  0
ARC
  5
41C
100
AcDbEntity
  8
0
100
AcDbCircle
 62
9
  6
CONTINUOUS
 10
11.6908237623
 20
10.1378167976
 40
0.0391464883
100
AcDbArc
 50
160.9666142881
 51
162.0599736506
  0
ARC
  5
41D
100
AcDbEntity
  8
0
100
AcDbCircle
 62
7
  6
CONTINUOUS
 10
12.1480520516
 20
9.2010211603
 40
0.0200347868
100
AcDbArc
 50
113.1346320839
 51
122.685559103
  0
ARC
  5
41E
100
AcDbEntity
  8
0
100
AcDbCircle
 62
7
  6
CONTINUOUS
 10
12.8191559583
 20
9.717100304
 40
0.02
100
AcDbArc
 50
0.0
 51
89.9999048234
  0
ARC
  5
41F
100
AcDbEntity
  8
0
100
AcDbCircle
 62
7
  6
CONTINUOUS
 10
12.8691559583
 20
10.307100304
 40
0.02
100
AcDbArc
 50
270.000061884
 51
360.0
  0
ARC
  5
420
100
AcDbEntity
  8
0
100
AcDbCircle
 62
7
  6
CONTINUOUS
 10
12.4066559583
 20
9.531943304
 40
0.02
100
AcDbArc
 50
270.0001432569
 51
360.0
  0
ARC
  5
421
100
AcDbEntity
  8
0
100
AcDbCircle
 62
7
  6
CONTINUOUS
 10
12.6816559583
 20
9.610683304
 40
0.02
100
AcDbArc
 50
270.0006602949
 51
360.0
  0
ARC
  5
422
100
AcDbEntity
  8
0
100
AcDbCircle
 62
9
  6
CONTINUOUS
 10
11.7704481203
 20
287.533340416
 40
277.7258728173
100
AcDbArc
 50
269.9838198906
 51
270.1978102186
  0
ARC
  5
423
100
AcDbEntity
  8
0
100
AcDbCircle
 62
9
  6
CONTINUOUS
 10
11.8088763092
 20
234.1736880315
 40
224.3265138855
100
AcDbArc
 50
269.9709088985
 51
270.2358430793
  0
ARC
  5
424
100
AcDbEntity
  8
0
100
AcDbCircle
 62
9
  6
CONTINUOUS
 10
13.5963138557
 20
50.9302444761
 40
41.0830700687
100
AcDbArc
 50
269.4489319211
 51
270.0678498425
  0
ARC
  5
425
100
AcDbEntity
  8
0
100
AcDbCircle
 62
9
  6
CONTINUOUS
 10
13.6167792769
 20
14.3858929008
 40
4.6337771196
100
AcDbArc
 50
263.8320747586
 51
264.2391440955
  0
ARC
  5
426
100
AcDbEntity
  8
0
100
AcDbCircle
 62
7
  6
CONTINUOUS
 10
13.881557881
 20
11.2748683109
 40
1.4817095704
100
AcDbArc
 50
269.846015184
 51
277.9982470982
  0
ARC
  5
427
100
AcDbEntity
  8
0
100
AcDbCircle
 62
9
  6
CONTINUOUS
 10
13.8818243086
 20
11.2682524644
 40
1.4750945491
100
AcDbArc
 50
262.009650939
 51
269.8348847859
  0
ARC
  5
428
100
AcDbEntity
  8
0
100
AcDbCircle
 62
9
  6
CONTINUOUS
 10
13.9016564405
 20
11.273551406
 40
1.4403902636
100
AcDbArc
 50
261.9981585576
 51
278.001802729
  0
ARC
  5
429
100
AcDbEntity
  8
0
100
AcDbCircle
 62
9
  6
CONTINUOUS
 10
13.2377971573
 20
10.286729715
 40
0.477616732
100
AcDbArc
 50
269.1735920578
 51
269.6340794559
  0
ARC
  5
42A
100
AcDbEntity
  8
0
100
AcDbCircle
 62
7
  6
CONTINUOUS
 10
14.3004143961
 20
9.5413985437
 40
0.350000007
100
AcDbArc
 50
184.82763929
 51
246.9049092068
  0
ARC
  5
42B
100
AcDbEntity
  8
0
100
AcDbCircle
 62
9
  6
CONTINUOUS
 10
13.6517364518
 20
9.9734838409
 40
0.2409385494
100
AcDbArc
 50
125.0771509415
 51
127.0204384822
  0
ARC
  5
42C
100
AcDbEntity
  8
0
100
AcDbCircle
 62
9
  6
CONTINUOUS
 10
13.2033404772
 20
10.084579782
 40
0.235568404
100
AcDbArc
 50
268.8055900236
 51
269.4756990833
  0
ARC
  5
42D
100
AcDbEntity
  8
0
100
AcDbCircle
 62
9
  6
CONTINUOUS
 10
13.6561014255
 20
10.1130755336
 40
0.1539994615
100
AcDbArc
 50
158.0406690202
 51
159.7882912589
  0
ARC
  5
42E
100
AcDbEntity
  8
0
100
AcDbCircle
 62
7
  6
CONTINUOUS
 10
13.3285563931
 20
9.5783388396
 40
0.1234470273
100
AcDbArc
 50
340.0045605261
 51
340.255192635
  0
ARC
  5
42F
100
AcDbEntity
  8
0
100
AcDbCircle
 62
7
  6
CONTINUOUS
 10
14.1016559583
 20
9.244100304
 40
0.1
100
AcDbArc
 50
180.0
 51
270.0
  0
ARC
  5
430
100
AcDbEntity
  8
0
100
AcDbCircle
 62
7
  6
CONTINUOUS
 10
13.4684478284
 20
9.5608505876
 40
0.0923370278
100
AcDbArc
 50
212.8817333336
 51
213.6344713131
  0
ARC
  5
431
100
AcDbEntity
  8
0
100
AcDbCircle
 62
7
  6
CONTINUOUS
 10
13.4652886519
 20
9.5587296095
 40
0.0885319423
100
AcDbArc
 50
213.6240797075
 51
215.2607307635
  0
ARC
  5
432
100
AcDbEntity
  8
0
100
AcDbCircle
 62
7
  6
CONTINUOUS
 10
13.5391559583
 20
10.450683304
 40
0.075
100
AcDbArc
 50
180.0
 51
270.0
  0
ARC
  5
433
100
AcDbEntity
  8
0
100
AcDbCircle
 62
7
  6
CONTINUOUS
 10
13.5391559583
 20
10.287100304
 40
0.075
100
AcDbArc
 50
180.0
 51
270.0
  0
ARC
  5
434
100
AcDbEntity
  8
0
100
AcDbCircle
 62
7
  6
CONTINUOUS
 10
13.402659198
 20
9.5580055573
 40
0.0534571646
100
AcDbArc
 50
334.4918941337
 51
334.8292188476
  0
ARC
  5
435
100
AcDbEntity
  8
0
100
AcDbCircle
 62
7
  6
CONTINUOUS
 10
13.4282865857
 20
9.5428943929
 40
0.0491456686
100
AcDbArc
 50
220.7103167935
 51
223.8301797794
  0
ARC
  5
436
100
AcDbEntity
  8
0
100
AcDbCircle
 62
7
  6
CONTINUOUS
 10
14.0821654526
 20
10.1377045526
 40
0.039999159
100
AcDbArc
 50
359.9995667338
 51
82.0021715291
  0
ARC
  5
437
100
AcDbEntity
  8
0
100
AcDbCircle
 62
7
  6
CONTINUOUS
 10
14.0821669831
 20
9.8471827896
 40
0.0399977917
100
AcDbArc
 50
277.9485791498
 51
0.001586017
  0
ARC
  5
438
100
AcDbEntity
  8
0
100
AcDbCircle
 62
7
  6
CONTINUOUS
 10
13.4169126246
 20
9.5293434809
 40
0.0313933498
100
AcDbArc
 50
238.8981630271
 51
239.9131458286
  0
ARC
  5
439
100
AcDbEntity
  8
0
100
AcDbCircle
 62
7
  6
CONTINUOUS
 10
13.4178737246
 20
9.6274854662
 40
0.0210916199
100
AcDbArc
 50
122.2381522636
 51
124.7488944047
  0
ARC
  5
43A
100
AcDbEntity
  8
0
100
AcDbCircle
 62
7
  6
CONTINUOUS
 10
14.1551679873
 20
9.2010307926
 40
0.0201082288
100
AcDbArc
 50
359.9920067179
 51
22.1788186021
  0
ARC
  5
43B
100
AcDbEntity
  8
0
100
AcDbCircle
 62
7
  6
CONTINUOUS
 10
13.4341559583
 20
10.307100304
 40
0.02
100
AcDbArc
 50
180.0
 51
269.999938116
  0
ARC
  5
43C
100
AcDbEntity
  8
0
100
AcDbCircle
 62
7
  6
CONTINUOUS
 10
13.4841559583
 20
9.717100304
 40
0.02
100
AcDbArc
 50
90.0000951766
 51
180.0
  0
ARC
  5
43D
100
AcDbEntity
  8
0
100
AcDbCircle
 62
7
  6
CONTINUOUS
 10
13.8966559583
 20
9.531943304
 40
0.02
100
AcDbArc
 50
180.0
 51
269.9998567431
  0
ARC
  5
43E
100
AcDbEntity
  8
0
100
AcDbCircle
 62
7
  6
CONTINUOUS
 10
13.6216559583
 20
9.610683304
 40
0.02
100
AcDbArc
 50
180.0
 51
269.9993397051
  0
ARC
  5
43F
100
AcDbEntity
  8
0
100
AcDbCircle
 62
7
  6
CONTINUOUS
 10
14.1553207884
 20
9.2010813584
 40
0.0199476479
100
AcDbArc
 50
22.2100053336
 51
44.5419043941
  0
ARC
  5
440
100
AcDbEntity
  8
0
100
AcDbCircle
 62
9
  6
CONTINUOUS
 10
281.0269675247
 20
986.2344427198
 40
1013.4814164037
100
AcDbArc
 50
254.443540502
 51
254.5876504565
  0
SPLINE
  5
441
100
AcDbEntity
  8
0
100
AcDbSpline
 62
7
  6
CONTINUOUS
 70
0
 71
3
 72
21
 73
17
 74
0
 42
0.0000001
 43
0.0000001
 44
0.0000000001
 40
0.0
 40
0.0
 40
0.0
 40
0.0
 40
0.0697353255
 40
0.1393288736
 40
0.277185434
 40
0.4120863991
 40
0.4780199687
 40
0.5427150829
 40
0.6060183994
 40
0.6677895399
 40
0.727897119
 40
0.786226367
 40
0.8426742195
 40
0.8971571774
 40
0.9496133315
 40
1.0
 40
1.0
 40
1.0
 40
1.0
 10
13.4497644963
 20
9.580100304
 30
0.0
 10
13.4497644963
 20
9.5788674388
 30
0.0
 10
13.449727658
 20
9.5764040356
 30
0.0
 10
13.4495082277
 20
9.5715079652
 30
0.0
 10
13.4489651377
 20
9.5654759032
 30
0.0
 10
13.4480588587
 20
9.5595526646
 30
0.0
 10
13.4471199992
 20
9.5549523808
 30
0.0
 10
13.4463203472
 20
9.5516176415
 30
0.0
 10
13.4454226896
 20
9.5483842306
 30
0.0
 10
13.4444304525
 20
9.5452635121
 30
0.0
 10
13.4433467918
 20
9.5422666287
 30
0.0
 10
13.4421758917
 20
9.5394040859
 30
0.0
 10
13.4409216919
 20
9.5366860896
 30
0.0
 10
13.4395885397
 20
9.5341222649
 30
0.0
 10
13.438181455
 20
9.5317216456
 30
0.0
 10
13.4371766379
 20
9.5302049243
 30
0.0
 10
13.4366623249
 20
9.5294776003
 30
0.0
  0
SPLINE
  5
442
100
AcDbEntity
  8
0
100
AcDbSpline
 62
7
  6
CONTINUOUS
 70
0
 71
3
 72
15
 73
11
 74
0
 42
0.0000001
 43
0.0000001
 44
0.0000000001
 40
0.0
 40
0.0
 40
0.0
 40
0.0
 40
0.1496614732
 40
0.292619026
 40
0.4284476684
 40
0.5569843937
 40
0.6782025201
 40
0.7922148679
 40
0.8993076332
 40
1.0
 40
1.0
 40
1.0
 40
1.0
 10
13.3915199374
 20
9.6227881871
 30
0.0
 10
13.3919488713
 20
9.6240487883
 30
0.0
 10
13.3928507473
 20
9.6264926839
 30
0.0
 10
13.3943702894
 20
9.629991049
 30
0.0
 10
13.3960175423
 20
9.63322196
 30
0.0
 10
13.3977810886
 20
9.6361680216
 30
0.0
 10
13.3996504065
 20
9.6388143082
 30
0.0
 10
13.4016141857
 20
9.6411478892
 30
0.0
 10
13.4036611755
 20
9.6431561721
 30
0.0
 10
13.4051157373
 20
9.6443050028
 30
0.0
 10
13.405851904
 20
9.644815563
 30
0.0
  0
SPLINE
  5
443
100
AcDbEntity
  8
0
100
AcDbSpline
 62
7
  6
CONTINUOUS
 70
0
 71
3
 72
24
 73
20
 74
0
 42
0.0000001
 43
0.0000001
 44
0.0000000001
 40
0.0
 40
0.0
 40
0.0
 40
0.0
 40
0.0615320826
 40
0.1208719037
 40
0.1784664328
 40
0.2348259139
 40
0.2905010905
 40
0.3460680095
 40
0.4021013245
 40
0.4591527901
 40
0.5177305005
 40
0.5782841003
 40
0.6094335553
 40
0.6412153401
 40
0.70680557
 40
0.7753204353
 40
0.8469472904
 40
0.921813075
 40
1.0
 40
1.0
 40
1.0
 40
1.0
 10
13.4066226188
 20
9.6453255628
 30
0.0
 10
13.4071446727
 20
9.6456545706
 30
0.0
 10
13.4082003286
 20
9.6462547889
 30
0.0
 10
13.4098394126
 20
9.6469811718
 30
0.0
 10
13.4114975235
 20
9.6475132412
 30
0.0
 10
13.413168796
 20
9.6478497411
 30
0.0
 10
13.4148476194
 20
9.6479894334
 30
0.0
 10
13.416527985
 20
9.6479321946
 30
0.0
 10
13.418204025
 20
9.6476791877
 30
0.0
 10
13.4198699406
 20
9.6472314691
 30
0.0
 10
13.4215202753
 20
9.6465917187
 30
0.0
 10
13.4228658453
 20
9.6459072667
 30
0.0
 10
13.4239281882
 20
9.6452701997
 30
0.0
 10
13.4250030007
 20
9.6445581527
 30
0.0
 10
13.4263286802
 20
9.6435496306
 30
0.0
 10
13.4278683755
 20
9.6421734279
 30
0.0
 10
13.4293692434
 20
9.6406228824
 30
0.0
 10
13.4308271794
 20
9.6389030398
 30
0.0
 10
13.4317476513
 20
9.6376735089
 30
0.0
 10
13.4322003407
 20
9.6370332823
 30
0.0
  0
SPLINE
  5
444
100
AcDbEntity
  8
0
100
AcDbSpline
 62
7
  6
CONTINUOUS
 70
0
 71
3
 72
22
 73
18
 74
0
 42
0.0000001
 43
0.0000001
 44
0.0000000001
 40
0.0
 40
0.0
 40
0.0
 40
0.0
 40
0.1494151703
 40
0.2208266506
 40
0.2900740295
 40
0.3572186316
 40
0.4223511416
 40
0.4855836097
 40
0.5470527856
 40
0.6069252571
 40
0.6653905869
 40
0.7226620315
 40
0.778978762
 40
0.8345969987
 40
0.8897864256
 40
0.9448270926
 40
1.0
 40
1.0
 40
1.0
 40
1.0
 10
13.4287222128
 20
9.5182485129
 30
0.0
 10
13.4277508415
 20
9.5168747261
 30
0.0
 10
13.4262285991
 20
9.5149025187
 30
0.0
 10
13.4240463848
 20
9.5124705705
 30
0.0
 10
13.4223947717
 20
9.5108112692
 30
0.0
 10
13.4207067878
 20
9.5092927525
 30
0.0
 10
13.4189857861
 20
9.5079176442
 30
0.0
 10
13.417235
 20
9.5066885944
 30
0.0
 10
13.4154576063
 20
9.5056081672
 30
0.0
 10
13.4136571603
 20
9.5046781655
 30
0.0
 10
13.4118370835
 20
9.5039003412
 30
0.0
 10
13.4100007738
 20
9.5032764807
 30
0.0
 10
13.4081519159
 20
9.5028074611
 30
0.0
 10
13.4062941223
 20
9.5024940258
 30
0.0
 10
13.4044309684
 20
9.5023369998
 30
0.0
 10
13.4025663515
 20
9.5023361811
 30
0.0
 10
13.4013278717
 20
9.5024392655
 30
0.0
 10
13.4007113731
 20
9.5025162245
 30
0.0
  0
SPLINE
  5
445
100
AcDbEntity
  8
0
100
AcDbSpline
 62
7
  6
CONTINUOUS
 70
0
 71
3
 72
21
 73
17
 74
0
 42
0.0000001
 43
0.0000001
 44
0.0000000001
 40
0.0
 40
0.0
 40
0.0
 40
0.0
 40
0.0503864875
 40
0.1028423908
 40
0.1573250379
 40
0.2137726436
 40
0.2721016117
 40
0.3322090131
 40
0.393980093
 40
0.457283428
 40
0.5219786993
 40
0.5879124088
 40
0.7228137405
 40
0.8606710073
 40
0.9302647162
 40
1.0
 40
1.0
 40
1.0
 40
1.0
 10
13.4366623248
 20
9.6307230075
 30
0.0
 10
13.4371766364
 20
9.6299956865
 30
0.0
 10
13.4381814477
 20
9.6284789706
 30
0.0
 10
13.4395885265
 20
9.6260783632
 30
0.0
 10
13.4409216766
 20
9.6235145534
 30
0.0
 10
13.4421758664
 20
9.6207965688
 30
0.0
 10
13.4433467692
 20
9.6179340407
 30
0.0
 10
13.4444304271
 20
9.614937166
 30
0.0
 10
13.4454226646
 20
9.6118164519
 30
0.0
 10
13.4463203295
 20
9.6085830409
 30
0.0
 10
13.44711998
 20
9.6052482955
 30
0.0
 10
13.4480588498
 20
9.600648002
 30
0.0
 10
13.4489651328
 20
9.5947247422
 30
0.0
 10
13.4495082259
 20
9.5886926587
 30
0.0
 10
13.4497276574
 20
9.5837965738
 30
0.0
 10
13.4497644963
 20
9.5813331686
 30
0.0
 10
13.4497644963
 20
9.580100304
 30
0.0
  0
SPLINE
  5
446
100
AcDbEntity
  8
0
100
AcDbSpline
 62
7
  6
CONTINUOUS
 70
0
 71
3
 72
44
 73
40
 74
0
 42
0.0000001
 43
0.0000001
 44
0.0000000001
 40
0.0
 40
0.0
 40
0.0
 40
0.0
 40
0.0083912334
 40
0.0168321173
 40
0.0253732897
 40
0.0340631809
 40
0.0429453016
 40
0.0520584303
 40
0.0710988393
 40
0.0914185199
 40
0.1131782854
 40
0.1246383641
 40
0.1364976292
 40
0.1614395785
 40
0.1745310431
 40
0.1880297032
 40
0.2162199935
 40
0.2459517719
 40
0.2771464889
 40
0.3097152303
 40
0.3435619499
 40
0.3785670988
 40
0.4145826586
 40
0.4514539616
 40
0.4890232586
 40
0.5271316864
 40
0.5656209704
 40
0.6043312147
 40
0.6430965866
 40
0.6817504298
 40
0.7201274904
 40
0.7580656911
 40
0.795408125
 40
0.8320114918
 40
0.8677548929
 40
0.9025251315
 40
0.9362166159
 40
0.9687347089
 40
1.0
 40
1.0
 40
1.0
 40
1.0
 10
13.4056156714
 20
9.6451867183
 30
0.0
 10
13.4052588478
 20
9.6451867182
 30
0.0
 10
13.404542695
 20
9.6451553372
 30
0.0
 10
13.4034717416
 20
9.6450138147
 30
0.0
 10
13.4024046398
 20
9.6447772037
 30
0.0
 10
13.4013434689
 20
9.6444459639
 30
0.0
 10
13.4002898154
 20
9.6440215187
 30
0.0
 10
13.398876914
 20
9.643322933
 30
0.0
 10
13.3971340537
 20
9.6422092583
 30
0.0
 10
13.3951340273
 20
9.6405405508
 30
0.0
 10
13.3935552033
 20
9.6388940972
 30
0.0
 10
13.3923313483
 20
9.6374180313
 30
0.0
 10
13.3910953807
 20
9.6357789158
 30
0.0
 10
13.3899317988
 20
9.6340014716
 30
0.0
 10
13.3888367702
 20
9.6321030129
 30
0.0
 10
13.387745715
 20
9.6300443453
 30
0.0
 10
13.3864616313
 20
9.6272896128
 30
0.0
 10
13.3850691708
 20
9.6237630267
 30
0.0
 10
13.3838134559
 20
9.6199888491
 30
0.0
 10
13.382704336
 20
9.6159873271
 30
0.0
 10
13.3817526088
 20
9.6117793007
 30
0.0
 10
13.3809656731
 20
9.6073885383
 30
0.0
 10
13.3803469415
 20
9.6028412215
 30
0.0
 10
13.3799010079
 20
9.5981642441
 30
0.0
 10
13.3796322365
 20
9.5933846513
 30
0.0
 10
13.3795449235
 20
9.5885294942
 30
0.0
 10
13.3796438651
 20
9.5836260108
 30
0.0
 10
13.3799316275
 20
9.5787020092
 30
0.0
 10
13.3804052988
 20
9.5737853897
 30
0.0
 10
13.3810628379
 20
9.5689042359
 30
0.0
 10
13.3819019806
 20
9.5640866519
 30
0.0
 10
13.382920458
 20
9.5593607114
 30
0.0
 10
13.3841163081
 20
9.5547542496
 30
0.0
 10
13.3854869322
 20
9.5502941731
 30
0.0
 10
13.3870233909
 20
9.5460043805
 30
0.0
 10
13.3887175329
 20
9.5419079114
 30
0.0
 10
13.3905611885
 20
9.5380275444
 30
0.0
 10
13.3925461049
 20
9.5343862918
 30
0.0
 10
13.3939877584
 20
9.5320862473
 30
0.0
 10
13.3947321842
 20
9.5309846958
 30
0.0
  0
SPLINE
  5
447
100
AcDbEntity
  8
0
100
AcDbSpline
 62
7
  6
CONTINUOUS
 70
0
 71
3
 72
16
 73
12
 74
0
 42
0.0000001
 43
0.0000001
 44
0.0000000001
 40
0.0
 40
0.0
 40
0.0
 40
0.0
 40
0.1098162033
 40
0.2245529433
 40
0.2837256819
 40
0.3440628533
 40
0.4680688092
 40
0.5962010171
 40
0.7279505443
 40
0.8627467848
 40
1.0
 40
1.0
 40
1.0
 40
1.0
 10
13.3947321842
 20
9.5309846957
 30
0.0
 10
13.3935045218
 20
9.532060468
 30
0.0
 10
13.3911087913
 20
9.5343934165
 30
0.0
 10
13.3883651984
 20
9.5376031285
 30
0.0
 10
13.3862674151
 20
9.5403830326
 30
0.0
 10
13.3842002109
 20
9.543355269
 30
0.0
 10
13.3817620312
 20
9.5473133919
 30
0.0
 10
13.3790944831
 20
9.5523616598
 30
0.0
 10
13.3766686975
 20
9.5577067929
 30
0.0
 10
13.3744945988
 20
9.5633042174
 30
0.0
 10
13.37322592
 20
9.567145848
 30
0.0
 10
13.3726322991
 20
9.5690977112
 30
0.0
  0
SPLINE
  5
448
100
AcDbEntity
  8
0
100
AcDbSpline
 62
7
  6
CONTINUOUS
 70
0
 71
3
 72
37
 73
33
 74
0
 42
0.0000001
 43
0.0000001
 44
0.0000000001
 40
0.0
 40
0.0
 40
0.0
 40
0.0
 40
0.0432645981
 40
0.0864303441
 40
0.1718568563
 40
0.2552861661
 40
0.3358137601
 40
0.3747290002
 40
0.4126140797
 40
0.4493846437
 40
0.4849668872
 40
0.5192967257
 40
0.5523266874
 40
0.5840219909
 40
0.6143675521
 40
0.6433679898
 40
0.6710500343
 40
0.6974688616
 40
0.7102319388
 40
0.7227126765
 40
0.7468841309
 40
0.7701375707
 40
0.7926545355
 40
0.8146469857
 40
0.8363499676
 40
0.858013109
 40
0.8798877348
 40
0.9022149177
 40
0.9252144073
 40
0.9490784199
 40
0.9739647671
 40
1.0
 40
1.0
 40
1.0
 40
1.0
 10
13.3877644963
 20
9.580100304
 30
0.0
 10
13.3877644963
 20
9.5813895086
 30
0.0
 10
13.3878047683
 20
9.5839651819
 30
0.0
 10
13.3880445567
 20
9.5890811987
 30
0.0
 10
13.3886375322
 20
9.5953759274
 30
0.0
 10
13.389815142
 20
9.6027184414
 30
0.0
 10
13.3911826631
 20
9.6086129312
 30
0.0
 10
13.3925007047
 20
9.6131129678
 30
0.0
 10
13.3935800997
 20
9.6163214336
 30
0.0
 10
13.3947574458
 20
9.6193891629
 30
0.0
 10
13.3960279269
 20
9.6223044239
 30
0.0
 10
13.3973870768
 20
9.625055759
 30
0.0
 10
13.3988292462
 20
9.6276327196
 30
0.0
 10
13.4003492667
 20
9.6300252296
 30
0.0
 10
13.4019412447
 20
9.6322240952
 30
0.0
 10
13.4035991364
 20
9.6342209432
 30
0.0
 10
13.405316965
 20
9.6360076645
 30
0.0
 10
13.4068098558
 20
9.6373310282
 30
0.0
 10
13.4080276738
 20
9.6382735461
 30
0.0
 10
13.4092326746
 20
9.6391205525
 30
0.0
 10
13.410765074
 20
9.6400423122
 30
0.0
 10
13.412656878
 20
9.6409263337
 30
0.0
 10
13.4145747692
 20
9.6415722018
 30
0.0
 10
13.4165107697
 20
9.6419769656
 30
0.0
 10
13.41845677
 20
9.6421376847
 30
0.0
 10
13.4204041153
 20
9.6420541614
 30
0.0
 10
13.4223442034
 20
9.6417262899
 30
0.0
 10
13.4242686457
 20
9.6411562445
 30
0.0
 10
13.4261695765
 20
9.6403471071
 30
0.0
 10
13.428039351
 20
9.6393024673
 30
0.0
 10
13.429871085
 20
9.6380276999
 30
0.0
 10
13.4310348406
 20
9.6370505749
 30
0.0
 10
13.4316084814
 20
9.6365282682
 30
0.0
  0
SPLINE
  5
449
100
AcDbEntity
  8
0
100
AcDbSpline
 62
7
  6
CONTINUOUS
 70
0
 71
3
 72
10
 73
6
 74
0
 42
0.0000001
 43
0.0000001
 44
0.0000000001
 40
0.0
 40
0.0
 40
0.0
 40
0.0
 40
0.4824713432
 40
0.7368048517
 40
1.0
 40
1.0
 40
1.0
 40
1.0
 10
13.4316084814
 20
9.6365282682
 30
0.0
 10
13.4325252524
 20
9.6356935374
 30
0.0
 10
13.4338448477
 20
9.6343279224
 30
0.0
 10
13.4354786599
 20
9.6323436903
 30
0.0
 10
13.4362718191
 20
9.6312752467
 30
0.0
 10
13.4366623248
 20
9.6307230075
 30
0.0
  0
SPLINE
  5
44A
100
AcDbEntity
  8
0
100
AcDbSpline
 62
7
  6
CONTINUOUS
 70
0
 71
3
 72
18
 73
14
 74
0
 42
0.0000001
 43
0.0000001
 44
0.0000000001
 40
0.0
 40
0.0
 40
0.0
 40
0.0
 40
0.0554207563
 40
0.1121639562
 40
0.1701479584
 40
0.2292879405
 40
0.3507339572
 40
0.4759337371
 40
0.6042009051
 40
0.7348057135
 40
0.8007675965
 40
0.8670370405
 40
1.0
 40
1.0
 40
1.0
 40
1.0
 10
13.3915199374
 20
9.6227881871
 30
0.0
 10
13.391197516
 20
9.6220477895
 30
0.0
 10
13.3905707691
 20
9.6205379742
 30
0.0
 10
13.3896937798
 20
9.6182185831
 30
0.0
 10
13.3888696117
 20
9.6158225027
 30
0.0
 10
13.3878336139
 20
9.6125037721
 30
0.0
 10
13.3866837228
 20
9.6081965647
 30
0.0
 10
13.3855497632
 20
9.6028502679
 30
0.0
 10
13.38465862
 20
9.5973230633
 30
0.0
 10
13.3841262503
 20
9.5926180167
 30
0.0
 10
13.3838244665
 20
9.5887997671
 30
0.0
 10
13.3836064028
 20
9.5849414654
 30
0.0
 10
13.3835412639
 20
9.5820377509
 30
0.0
 10
13.3835434779
 20
9.580100304
 30
0.0
  0
SPLINE
  5
44B
100
AcDbEntity
  8
0
100
AcDbSpline
 62
7
  6
CONTINUOUS
 70
0
 71
3
 72
21
 73
17
 74
0
 42
0.0000001
 43
0.0000001
 44
0.0000000001
 40
0.0
 40
0.0
 40
0.0
 40
0.0
 40
0.0682808934
 40
0.1364542295
 40
0.2043391197
 40
0.2717747216
 40
0.3386267555
 40
0.4047632898
 40
0.4700516238
 40
0.5343599265
 40
0.5975607093
 40
0.6595353054
 40
0.7793447486
 40
0.8930454697
 40
0.9474108079
 40
1.0
 40
1.0
 40
1.0
 40
1.0
 10
13.3835434779
 20
9.580100304
 30
0.0
 10
13.3835448018
 20
9.578941753
 30
0.0
 10
13.3835767339
 20
9.5766263973
 30
0.0
 10
13.3837143606
 20
9.573161635
 30
0.0
 10
13.3839440923
 20
9.5697160797
 30
0.0
 10
13.3842669662
 20
9.5663005178
 30
0.0
 10
13.3846808325
 20
9.562924667
 30
0.0
 10
13.3851840501
 20
9.559597807
 30
0.0
 10
13.3857749845
 20
9.5563292335
 30
0.0
 10
13.3864521062
 20
9.5531283036
 30
0.0
 10
13.3872139142
 20
9.5500042378
 30
0.0
 10
13.3883266915
 20
9.5459985972
 30
0.0
 10
13.3899049869
 20
9.5412355863
 30
0.0
 10
13.3917756684
 20
9.5367176943
 30
0.0
 10
13.3934201091
 20
9.5333531793
 30
0.0
 10
13.3942874228
 20
9.5317582547
 30
0.0
 10
13.3947321842
 20
9.5309846957
 30
0.0
  0
SPLINE
  5
44C
100
AcDbEntity
  8
0
100
AcDbSpline
 62
7
  6
CONTINUOUS
 70
0
 71
3
 72
44
 73
40
 74
0
 42
0.0000001
 43
0.0000001
 44
0.0000000001
 40
0.0
 40
0.0
 40
0.0
 40
0.0
 40
0.0300940977
 40
0.0587137963
 40
0.0859067934
 40
0.0989964777
 40
0.1117636915
 40
0.1363932631
 40
0.1599710419
 40
0.182708326
 40
0.1938454535
 40
0.2048699785
 40
0.2158182592
 40
0.226727887
 40
0.2376368558
 40
0.2485831682
 40
0.2596044427
 40
0.2707370876
 40
0.2934619595
 40
0.3170232921
 40
0.3416331406
 40
0.3674601374
 40
0.3946291087
 40
0.4232236393
 40
0.4532920246
 40
0.4848483604
 40
0.5178814454
 40
0.5523529945
 40
0.5882069582
 40
0.6253662085
 40
0.6637406267
 40
0.7032257601
 40
0.7437071212
 40
0.7850583657
 40
0.827143468
 40
0.8698256963
 40
0.9129690029
 40
0.9564219421
 40
1.0
 40
1.0
 40
1.0
 40
1.0
 10
13.4366623249
 20
9.5294776003
 30
0.0
 10
13.4360998961
 20
9.5286822327
 30
0.0
 10
13.4349505683
 20
9.5271661825
 30
0.0
 10
13.4331069762
 20
9.5250808164
 30
0.0
 10
13.4314935656
 20
9.5235362867
 30
0.0
 10
13.4301725517
 20
9.5224381923
 30
0.0
 10
13.4288660479
 20
9.5214556284
 30
0.0
 10
13.4272000823
 20
9.5203897164
 30
0.0
 10
13.4251349344
 20
9.519373917
 30
0.0
 10
13.4233735637
 20
9.5187604477
 30
0.0
 10
13.4219600825
 20
9.5184185227
 30
0.0
 10
13.420903153
 20
9.5182359294
 30
0.0
 10
13.4198436506
 20
9.5181258866
 30
0.0
 10
13.4187828383
 20
9.5180883612
 30
0.0
 10
13.4177220039
 20
9.5181233771
 30
0.0
 10
13.4166624349
 20
9.5182309129
 30
0.0
 10
13.4156053944
 20
9.5184110051
 30
0.0
 10
13.4141917729
 20
9.5187495729
 30
0.0
 10
13.4124300935
 20
9.5193588346
 30
0.0
 10
13.410364233
 20
9.5203698132
 30
0.0
 10
13.4083402671
 20
9.5216594482
 30
0.0
 10
13.4063675617
 20
9.523221104
 30
0.0
 10
13.4044545897
 20
9.5250469174
 30
0.0
 10
13.4026096018
 20
9.5271281067
 30
0.0
 10
13.4008409256
 20
9.5294550901
 30
0.0
 10
13.3991560685
 20
9.5320168827
 30
0.0
 10
13.3975630498
 20
9.5348019142
 30
0.0
 10
13.3960685857
 20
9.5377971084
 30
0.0
 10
13.3946800431
 20
9.5409888622
 30
0.0
 10
13.3934032878
 20
9.5443622234
 30
0.0
 10
13.392244656
 20
9.5479017267
 30
0.0
 10
13.3912091614
 20
9.5515909062
 30
0.0
 10
13.3903018804
 20
9.5554127207
 30
0.0
 10
13.3895268893
 20
9.5593492836
 30
0.0
 10
13.388887738
 20
9.5633822699
 30
0.0
 10
13.3883875576
 20
9.5674932391
 30
0.0
 10
13.3880285485
 20
9.5716633644
 30
0.0
 10
13.387812691
 20
9.575872309
 30
0.0
 10
13.3877644963
 20
9.5786897006
 30
0.0
 10
13.3877644963
 20
9.580100304
 30
0.0
  0
SPLINE
  5
44D
100
AcDbEntity
  8
0
100
AcDbSpline
 62
7
  6
CONTINUOUS
 70
0
 71
3
 72
13
 73
9
 74
0
 42
0.0000001
 43
0.0000001
 44
0.0000000001
 40
0.0
 40
0.0
 40
0.0
 40
0.0
 40
0.1134162612
 40
0.231700905
 40
0.4793710066
 40
0.7372132181
 40
0.8684013896
 40
1.0
 40
1.0
 40
1.0
 40
1.0
 10
13.3909038394
 20
9.5107201928
 30
0.0
 10
13.3894078031
 20
9.5130341272
 30
0.0
 10
13.3865576965
 20
9.5178974051
 30
0.0
 10
13.3814709008
 20
9.5283841856
 30
0.0
 10
13.376396079
 20
9.5427231767
 30
0.0
 10
13.3732747512
 20
9.5579251948
 30
0.0
 10
13.3719951707
 20
9.5705164631
 30
0.0
 10
13.3717769466
 20
9.576903132
 30
0.0
 10
13.3717769466
 20
9.580100304
 30
0.0
  0
SPLINE
  5
44E
100
AcDbEntity
  8
0
100
AcDbSpline
 62
7
  6
CONTINUOUS
 70
0
 71
3
 72
9
 73
5
 74
0
 42
0.0000001
 43
0.0000001
 44
0.0000000001
 40
0.0
 40
0.0
 40
0.0
 40
0.0
 40
0.2447173724
 40
1.0
 40
1.0
 40
1.0
 40
1.0
 10
13.3930002842
 20
9.6525779871
 30
0.0
 10
13.3925851778
 20
9.6519908736
 30
0.0
 10
13.3909187642
 20
9.6495706997
 30
0.0
 10
13.3893695231
 20
9.6470702985
 30
0.0
 10
13.3882624463
 20
9.6451469602
 30
0.0
  0
SPLINE
  5
44F
100
AcDbEntity
  8
0
100
AcDbSpline
 62
7
  6
CONTINUOUS
 70
0
 71
3
 72
15
 73
11
 74
0
 42
0.0000001
 43
0.0000001
 44
0.0000000001
 40
0.0
 40
0.0
 40
0.0
 40
0.0
 40
0.1153370171
 40
0.2346926475
 40
0.357360328
 40
0.4827238436
 40
0.6102566388
 40
0.7394246841
 40
0.8695750318
 40
1.0
 40
1.0
 40
1.0
 40
1.0
 10
13.3882624463
 20
9.6451469602
 30
0.0
 10
13.3869614313
 20
9.6428866905
 30
0.0
 10
13.3844886898
 20
9.6381850019
 30
0.0
 10
13.381231983
 20
9.6307834498
 30
0.0
 10
13.3783992097
 20
9.622967642
 30
0.0
 10
13.3760276436
 20
9.6148073783
 30
0.0
 10
13.3741464788
 20
9.606369629
 30
0.0
 10
13.3727875522
 20
9.5977225483
 30
0.0
 10
13.3719632307
 20
9.5889430765
 30
0.0
 10
13.3717769466
 20
9.5830494284
 30
0.0
 10
13.3717769466
 20
9.580100304
 30
0.0
  0
SPLINE
  5
450
100
AcDbEntity
  8
0
100
AcDbSpline
 62
7
  6
CONTINUOUS
 70
0
 71
3
 72
9
 73
5
 74
0
 42
0.0000001
 43
0.0000001
 44
0.0000000001
 40
0.0
 40
0.0
 40
0.0
 40
0.0
 40
0.5250687058
 40
1.0
 40
1.0
 40
1.0
 40
1.0
 10
13.388017973
 20
9.6447761145
 30
0.0
 10
13.3892429719
 20
9.6460397444
 30
0.0
 10
13.3917731811
 20
9.6482689419
 30
0.0
 10
13.3947215947
 20
9.6499347875
 30
0.0
 10
13.3961977253
 20
9.6505307247
 30
0.0
  0
SPLINE
  5
451
100
AcDbEntity
  8
0
100
AcDbSpline
 62
7
  6
CONTINUOUS
 70
0
 71
3
 72
11
 73
7
 74
0
 42
0.0000001
 43
0.0000001
 44
0.0000000001
 40
0.0
 40
0.0
 40
0.0
 40
0.0
 40
0.2459689355
 40
0.4856096037
 40
0.7326778569
 40
1.0
 40
1.0
 40
1.0
 40
1.0
 10
13.3961977253
 20
9.6505307247
 30
0.0
 10
13.3975453534
 20
9.6510747834
 30
0.0
 10
13.4003528483
 20
9.6518328133
 30
0.0
 10
13.4047386418
 20
9.6517676716
 30
0.0
 10
13.4090476685
 20
9.6504425567
 30
0.0
 10
13.4116692461
 20
9.648847385
 30
0.0
 10
13.4129337111
 20
9.6479008853
 30
0.0
  0
LINE
  5
452
100
AcDbEntity
  8
0
100
AcDbLine
 62
7
  6
CONTINUOUS
 10
13.2341090865
 20
10.1423529073
 11
13.2314654802
 21
10.1421373062
  0
SPLINE
  5
453
100
AcDbEntity
  8
0
100
AcDbSpline
 62
7
  6
CONTINUOUS
 70
0
 71
3
 72
11
 73
7
 74
0
 42
0.0000001
 43
0.0000001
 44
0.0000000001
 40
0.0
 40
0.0
 40
0.0
 40
0.0
 40
0.2499305892
 40
0.4997901589
 40
0.7497766671
 40
1.0
 40
1.0
 40
1.0
 40
1.0
 10
13.7765847022
 20
10.1879993332
 30
0.0
 10
13.8025010166
 20
10.18984608
 30
0.0
 10
13.8544338991
 20
10.1921743759
 30
0.0
 10
13.9324108505
 20
10.191553409
 30
0.0
 10
14.0102768503
 20
10.1868193758
 30
0.0
 10
14.0619715029
 20
10.1809346552
 30
0.0
 10
14.087730929
 20
10.177315245
 30
0.0
  0
SPLINE
  5
454
100
AcDbEntity
  8
0
100
AcDbSpline
 62
7
  6
CONTINUOUS
 70
0
 71
3
 72
17
 73
13
 74
0
 42
0.0000001
 43
0.0000001
 44
0.0000000001
 40
0.0
 40
0.0
 40
0.0
 40
0.0
 40
0.1589766312
 40
0.3082859203
 40
0.4467310794
 40
0.5741104263
 40
0.6910689799
 40
0.7991306658
 40
0.8506384366
 40
0.9009618436
 40
0.9505781585
 40
1.0
 40
1.0
 40
1.0
 40
1.0
 10
13.4509055917
 20
9.5349848289
 30
0.0
 10
13.4498370597
 20
9.5321771403
 30
0.0
 10
13.4475398375
 20
9.5268140372
 30
0.0
 10
13.4435059936
 20
9.5193832876
 30
0.0
 10
13.4390398582
 20
9.5129128709
 30
0.0
 10
13.4341918817
 20
9.5075119398
 30
0.0
 10
13.4290068164
 20
9.5032854321
 30
0.0
 10
13.4243867037
 20
9.5007619768
 30
0.0
 10
13.4206354574
 20
9.4994512278
 30
0.0
 10
13.4178379501
 20
9.498817127
 30
0.0
 10
13.4150247095
 20
9.4985206699
 30
0.0
 10
13.4131480206
 20
9.4985503428
 30
0.0
 10
13.4122168271
 20
9.4986215568
 30
0.0
  0
SPLINE
  5
455
100
AcDbEntity
  8
0
100
AcDbSpline
 62
7
  6
CONTINUOUS
 70
0
 71
3
 72
9
 73
5
 74
0
 42
0.0000001
 43
0.0000001
 44
0.0000000001
 40
0.0
 40
0.0
 40
0.0
 40
0.0
 40
0.4870033963
 40
1.0
 40
1.0
 40
1.0
 40
1.0
 10
13.4122168271
 20
9.4986215568
 30
0.0
 10
13.4103270171
 20
9.4987660818
 30
0.0
 10
13.4064715801
 20
9.4995471379
 30
0.0
 10
13.4029022836
 20
9.5011790623
 30
0.0
 10
13.4011747546
 20
9.5021798681
 30
0.0
  0
SPLINE
  5
456
100
AcDbEntity
  8
0
100
AcDbSpline
 62
7
  6
CONTINUOUS
 70
0
 71
3
 72
9
 73
5
 74
0
 42
0.0000001
 43
0.0000001
 44
0.0000000001
 40
0.0
 40
0.0
 40
0.0
 40
0.0
 40
0.2380937824
 40
1.0
 40
1.0
 40
1.0
 40
1.0
 10
13.4006960513
 20
9.5024629087
 30
0.0
 10
13.4000060584
 20
9.5028791376
 30
0.0
 10
13.3971747752
 20
9.5047375352
 30
0.0
 10
13.3946192711
 20
9.5070000422
 30
0.0
 10
13.392833119
 20
9.5088598745
 30
0.0
  0
SPLINE
  5
457
100
AcDbEntity
  8
0
100
AcDbSpline
 62
7
  6
CONTINUOUS
 70
0
 71
3
 72
15
 73
11
 74
0
 42
0.0000001
 43
0.0000001
 44
0.0000000001
 40
0.0
 40
0.0
 40
0.0
 40
0.0
 40
0.1170850599
 40
0.241454914
 40
0.370632942
 40
0.5022311397
 40
0.6335241964
 40
0.7618078684
 40
0.8847674838
 40
1.0
 40
1.0
 40
1.0
 40
1.0
 10
13.4510402876
 20
9.5352692734
 30
0.0
 10
13.4516927125
 20
9.5388144429
 30
0.0
 10
13.4527770012
 20
9.546174202
 30
0.0
 10
13.453851246
 20
9.5575377833
 30
0.0
 10
13.4544634836
 20
9.5693827157
 30
0.0
 10
13.4546330433
 20
9.5814548226
 30
0.0
 10
13.4543652204
 20
9.5934976542
 30
0.0
 10
13.4536511673
 20
9.605256581
 30
0.0
 10
13.4524696721
 20
9.6164810715
 30
0.0
 10
13.4513030291
 20
9.6237271365
 30
0.0
 10
13.4506055559
 20
9.6272055679
 30
0.0
  0
SPLINE
  5
458
100
AcDbEntity
  8
0
100
AcDbSpline
 62
7
  6
CONTINUOUS
 70
0
 71
3
 72
26
 73
22
 74
0
 42
0.0000001
 43
0.0000001
 44
0.0000000001
 40
0.0
 40
0.0
 40
0.0
 40
0.0
 40
0.0832627622
 40
0.1623774274
 40
0.2366572734
 40
0.3055729397
 40
0.3688397461
 40
0.4265270506
 40
0.4791415542
 40
0.5039113801
 40
0.5279202799
 40
0.5514399268
 40
0.5747655458
 40
0.5982097582
 40
0.6220915746
 40
0.6722172667
 40
0.7269069617
 40
0.7870526796
 40
0.8528543148
 40
0.9240051373
 40
1.0
 40
1.0
 40
1.0
 40
1.0
 10
13.4506055559
 20
9.6272055679
 30
0.0
 10
13.4501986037
 20
9.6298159824
 30
0.0
 10
13.4493034994
 20
9.6348919251
 30
0.0
 10
13.4476338683
 20
9.6422168682
 30
0.0
 10
13.4456445443
 20
9.6489903632
 30
0.0
 10
13.4433120658
 20
9.6551208827
 30
0.0
 10
13.440614449
 20
9.6605225907
 30
0.0
 10
13.4375246592
 20
9.6651039456
 30
0.0
 10
13.4345464553
 20
9.668226801
 30
0.0
 10
13.4319726874
 20
9.6701678688
 30
0.0
 10
13.4299850719
 20
9.6713250825
 30
0.0
 10
13.4279090107
 20
9.6722040317
 30
0.0
 10
13.4257530041
 20
9.6727996485
 30
0.0
 10
13.4235255956
 20
9.6731064672
 30
0.0
 10
13.4204254803
 20
9.6731244368
 30
0.0
 10
13.4163725779
 20
9.6723601372
 30
0.0
 10
13.4115155475
 20
9.6703315414
 30
0.0
 10
13.4066606314
 20
9.6672423429
 30
0.0
 10
13.4018807414
 20
9.6631850222
 30
0.0
 10
13.3972473874
 20
9.6582506793
 30
0.0
 10
13.3943923661
 20
9.6545469044
 30
0.0
 10
13.3930002842
 20
9.6525779871
 30
0.0
  0
SPLINE
  5
459
100
AcDbEntity
  8
0
100
AcDbSpline
 62
9
  6
CONTINUOUS
 70
0
 71
3
 72
19
 73
15
 74
0
 42
0.0000001
 43
0.0000001
 44
0.0000000001
 40
0.0
 40
0.0
 40
0.0
 40
0.0
 40
0.0409520337
 40
0.0830040223
 40
0.1270986954
 40
0.1740119661
 40
0.2242901753
 40
0.2782916033
 40
0.336196951
 40
0.397974925
 40
0.5324389185
 40
0.679827542
 40
0.8371734602
 40
1.0
 40
1.0
 40
1.0
 40
1.0
 10
14.087732495
 20
9.80757442
 30
0.0
 10
14.0883477994
 20
9.807661471
 30
0.0
 10
14.089580984
 20
9.8079579123
 30
0.0
 10
14.0913503708
 20
9.8087498099
 30
0.0
 10
14.0930318516
 20
9.8098841374
 30
0.0
 10
14.0946096984
 20
9.8113463769
 30
0.0
 10
14.0960748237
 20
9.8131195079
 30
0.0
 10
14.0974158473
 20
9.8151888234
 30
0.0
 10
14.0986214143
 20
9.8175369026
 30
0.0
 10
14.1000791881
 20
9.8211116883
 30
0.0
 10
14.1014683322
 20
9.8261575778
 30
0.0
 10
14.1024290037
 20
9.8327662373
 30
0.0
 10
14.1027027612
 20
9.839867535
 30
0.0
 10
14.1024238716
 20
9.8447266546
 30
0.0
 10
14.1021650879
 20
9.8471838968
 30
0.0
  0
SPLINE
  5
45A
100
AcDbEntity
  8
0
100
AcDbSpline
 62
9
  6
CONTINUOUS
 70
0
 71
3
 72
20
 73
16
 74
0
 42
0.0000001
 43
0.0000001
 44
0.0000000001
 40
0.0
 40
0.0
 40
0.0
 40
0.0
 40
0.1552166365
 40
0.3075040034
 40
0.453697944
 40
0.5235862293
 40
0.5908544846
 40
0.6551615315
 40
0.7162178135
 40
0.7737460167
 40
0.8274699256
 40
0.8771337464
 40
0.9225539028
 40
0.9635641021
 40
1.0
 40
1.0
 40
1.0
 40
1.0
 10
13.1516566601
 20
9.7755193148
 30
0.0
 10
13.1703498419
 20
9.7736391678
 30
0.0
 10
13.2074119302
 20
9.7701862422
 30
0.0
 10
13.2621900755
 20
9.7662278611
 30
0.0
 10
13.3067437206
 20
9.7642851613
 30
0.0
 10
13.3410366934
 20
9.7636710819
 30
0.0
 10
13.3654236173
 20
9.7636930711
 30
0.0
 10
13.388735981
 20
9.7642079374
 30
0.0
 10
13.4108535717
 20
9.7651852584
 30
0.0
 10
13.4316643142
 20
9.7665932818
 30
0.0
 10
13.4510600201
 20
9.7684001417
 30
0.0
 10
13.4689423936
 20
9.7705765197
 30
0.0
 10
13.4852296543
 20
9.7730614825
 30
0.0
 10
13.4998511905
 20
9.7757934407
 30
0.0
 10
13.5089972934
 20
9.7778632204
 30
0.0
 10
13.5132740384
 20
9.7789400115
 30
0.0
  0
SPLINE
  5
45B
100
AcDbEntity
  8
0
100
AcDbSpline
 62
9
  6
CONTINUOUS
 70
0
 71
3
 72
9
 73
5
 74
0
 42
0.0000001
 43
0.0000001
 44
0.0000000001
 40
0.0
 40
0.0
 40
0.0
 40
0.0
 40
0.4919680567
 40
1.0
 40
1.0
 40
1.0
 40
1.0
 10
13.5067033716
 20
9.7998864551
 30
0.0
 10
13.5075238536
 20
9.7963787648
 30
0.0
 10
13.5094714685
 20
9.7893122479
 30
0.0
 10
13.5119160258
 20
9.7824030732
 30
0.0
 10
13.5132746989
 20
9.7789400705
 30
0.0
  0
SPLINE
  5
45C
100
AcDbEntity
  8
0
100
AcDbSpline
 62
9
  6
CONTINUOUS
 70
0
 71
3
 72
12
 73
8
 74
0
 42
0.0000001
 43
0.0000001
 44
0.0000000001
 40
0.0
 40
0.0
 40
0.0
 40
0.0
 40
0.101878341
 40
0.2125393241
 40
0.4552638199
 40
0.7195171999
 40
1.0
 40
1.0
 40
1.0
 40
1.0
 10
13.4886488562
 20
9.8003492653
 30
0.0
 10
13.4893827662
 20
9.7995167957
 30
0.0
 10
13.4909628836
 20
9.7978231939
 30
0.0
 10
13.494484565
 20
9.794330278
 30
0.0
 10
13.499486454
 20
9.7898249254
 30
0.0
 10
13.5061032827
 20
9.7843632495
 30
0.0
 10
13.5108174679
 20
9.7807568278
 30
0.0
 10
13.5132740207
 20
9.7789400557
 30
0.0
  0
SPLINE
  5
45D
100
AcDbEntity
  8
0
100
AcDbSpline
 62
9
  6
CONTINUOUS
 70
0
 71
3
 72
16
 73
12
 74
0
 42
0.0000001
 43
0.0000001
 44
0.0000000001
 40
0.0
 40
0.0
 40
0.0
 40
0.0
 40
0.2868069348
 40
0.4256770949
 40
0.5598555894
 40
0.6875781697
 40
0.8058894458
 40
0.860511304
 40
0.9114132196
 40
0.9580556086
 40
1.0
 40
1.0
 40
1.0
 40
1.0
 10
13.1529553729
 20
9.789723698
 30
0.0
 10
13.1603018596
 20
9.7920388248
 30
0.0
 10
13.1712133112
 20
9.7954508493
 30
0.0
 10
13.1856145021
 20
9.7997737223
 30
0.0
 10
13.1959633853
 20
9.8027335113
 30
0.0
 10
13.2058341121
 20
9.8053512191
 30
0.0
 10
13.2137078436
 20
9.8071556613
 30
0.0
 10
13.219621302
 20
9.8082422076
 30
0.0
 10
13.2236678037
 20
9.8088242593
 30
0.0
 10
13.2274006188
 20
9.8091620958
 30
0.0
 10
13.2297831647
 20
9.8092044046
 30
0.0
 10
13.2309088792
 20
9.8091628521
 30
0.0
  0
SPLINE
  5
45E
100
AcDbEntity
  8
0
100
AcDbSpline
 62
9
  6
CONTINUOUS
 70
0
 71
3
 72
9
 73
5
 74
0
 42
0.0000001
 43
0.0000001
 44
0.0000000001
 40
0.0
 40
0.0
 40
0.0
 40
0.0
 40
0.5100602216
 40
1.0
 40
1.0
 40
1.0
 40
1.0
 10
13.2309084887
 20
9.8091629146
 30
0.0
 10
13.2489450112
 20
9.807902421
 30
0.0
 10
13.2843306502
 20
9.8057580593
 30
0.0
 10
13.3197596718
 20
9.8044604621
 30
0.0
 10
13.3371228803
 20
9.8040840273
 30
0.0
  0
SPLINE
  5
45F
100
AcDbEntity
  8
0
100
AcDbSpline
 62
7
  6
CONTINUOUS
 70
0
 71
3
 72
21
 73
17
 74
0
 42
0.0000001
 43
0.0000001
 44
0.0000000001
 40
0.0
 40
0.0
 40
0.0
 40
0.0
 40
0.0445905903
 40
0.0930690933
 40
0.145306859
 40
0.2010734119
 40
0.2600764713
 40
0.3219881579
 40
0.3864629285
 40
0.4531108098
 40
0.5214207863
 40
0.5908431143
 40
0.7307419533
 40
0.8684223197
 40
0.9351867897
 40
1.0
 40
1.0
 40
1.0
 40
1.0
 10
13.43517466
 20
9.6551133421
 30
0.0
 10
13.4363462803
 20
9.6537093491
 30
0.0
 10
13.4385972122
 20
9.6506141962
 30
0.0
 10
13.4415838427
 20
9.6454483516
 30
0.0
 10
13.4442975633
 20
9.6396249663
 30
0.0
 10
13.4467090656
 20
9.6332084444
 30
0.0
 10
13.4487893219
 20
9.6262624938
 30
0.0
 10
13.4505088221
 20
9.618851964
 30
0.0
 10
13.4518366452
 20
9.6110433062
 30
0.0
 10
13.4527457668
 20
9.602911286
 30
0.0
 10
13.4532377155
 20
9.5945404382
 30
0.0
 10
13.4533331049
 20
9.5831514206
 30
0.0
 10
13.4524066965
 20
9.5689274566
 30
0.0
 10
13.4500701496
 20
9.5549701815
 30
0.0
 10
13.4473038556
 20
9.544274642
 30
0.0
 10
13.4456434992
 20
9.5391362301
 30
0.0
 10
13.4447455544
 20
9.5366345552
 30
0.0
  0
SPLINE
  5
460
100
AcDbEntity
  8
0
100
AcDbSpline
 62
7
  6
CONTINUOUS
 70
0
 71
3
 72
9
 73
5
 74
0
 42
0.0000001
 43
0.0000001
 44
0.0000000001
 40
0.0
 40
0.0
 40
0.0
 40
0.0
 40
0.2549146145
 40
1.0
 40
1.0
 40
1.0
 40
1.0
 10
13.444562014
 20
9.5361267031
 30
0.0
 10
13.4442804804
 20
9.5353530107
 30
0.0
 10
13.4431456064
 20
9.5323291238
 30
0.0
 10
13.4418874238
 20
9.5293511196
 30
0.0
 10
13.4408752041
 20
9.5271678783
 30
0.0
  0
SPLINE
  5
461
100
AcDbEntity
  8
0
100
AcDbSpline
 62
7
  6
CONTINUOUS
 70
0
 71
3
 72
9
 73
5
 74
0
 42
0.0000001
 43
0.0000001
 44
0.0000000001
 40
0.0
 40
0.0
 40
0.0
 40
0.0
 40
0.5144228474
 40
1.0
 40
1.0
 40
1.0
 40
1.0
 10
13.4408752041
 20
9.5271678783
 30
0.0
 10
13.4397947691
 20
9.5248375043
 30
0.0
 10
13.437527456
 20
9.5203823528
 30
0.0
 10
13.4348889933
 20
9.5161334554
 30
0.0
 10
13.4335068163
 20
9.5141413795
 30
0.0
  0
SPLINE
  5
462
100
AcDbEntity
  8
0
100
AcDbSpline
 62
7
  6
CONTINUOUS
 70
0
 71
3
 72
9
 73
5
 74
0
 42
0.0000001
 43
0.0000001
 44
0.0000000001
 40
0.0
 40
0.0
 40
0.0
 40
0.0
 40
0.5311645706
 40
1.0
 40
1.0
 40
1.0
 40
1.0
 10
13.4335068163
 20
9.5141413795
 30
0.0
 10
13.431253728
 20
9.5108940944
 30
0.0
 10
13.4264893555
 20
9.5051086087
 30
0.0
 10
13.4204801449
 20
9.500554483
 30
0.0
 10
13.4174161992
 20
9.4988864091
 30
0.0
  0
SPLINE
  5
463
100
AcDbEntity
  8
0
100
AcDbSpline
 62
7
  6
CONTINUOUS
 70
0
 71
3
 72
9
 73
5
 74
0
 42
0.0000001
 43
0.0000001
 44
0.0000000001
 40
0.0
 40
0.0
 40
0.0
 40
0.0
 40
0.2579156287
 40
1.0
 40
1.0
 40
1.0
 40
1.0
 10
13.4435796163
 20
9.6177054757
 30
0.0
 10
13.443522901
 20
9.618930013
 30
0.0
 10
13.4432385725
 20
9.623674501
 30
0.0
 10
13.4426960399
 20
9.6284045214
 30
0.0
 10
13.442132185
 20
9.63188622
 30
0.0
  0
SPLINE
  5
464
100
AcDbEntity
  8
0
100
AcDbSpline
 62
7
  6
CONTINUOUS
 70
0
 71
3
 72
10
 73
6
 74
0
 42
0.0000001
 43
0.0000001
 44
0.0000000001
 40
0.0
 40
0.0
 40
0.0
 40
0.0
 40
0.5347005118
 40
0.7766284985
 40
1.0
 40
1.0
 40
1.0
 40
1.0
 10
13.442132185
 20
9.63188622
 30
0.0
 10
13.4414392404
 20
9.6361650245
 30
0.0
 10
13.4400777622
 20
9.6423376603
 30
0.0
 10
13.4374670814
 20
9.6500182375
 30
0.0
 10
13.4359706516
 20
9.6534869176
 30
0.0
 10
13.4351746601
 20
9.655113342
 30
0.0
  0
SPLINE
  5
465
100
AcDbEntity
  8
0
100
AcDbSpline
 62
7
  6
CONTINUOUS
 70
0
 71
3
 72
12
 73
8
 74
0
 42
0.0000001
 43
0.0000001
 44
0.0000000001
 40
0.0
 40
0.0
 40
0.0
 40
0.0
 40
0.2204384988
 40
0.4611144625
 40
0.5889228096
 40
0.7215453774
 40
1.0
 40
1.0
 40
1.0
 40
1.0
 10
13.4351746601
 20
9.655113342
 30
0.0
 10
13.4367935803
 20
9.6533961251
 30
0.0
 10
13.4399018982
 20
9.6495375929
 30
0.0
 10
13.4432359337
 20
9.6441711367
 30
0.0
 10
13.4457062394
 20
9.6394065939
 30
0.0
 10
13.4481002912
 20
9.6341552131
 30
0.0
 10
13.449650932
 20
9.6300297437
 30
0.0
 10
13.4506055559
 20
9.627205568
 30
0.0
  0
SPLINE
  5
466
100
AcDbEntity
  8
0
100
AcDbSpline
 62
7
  6
CONTINUOUS
 70
0
 71
3
 72
25
 73
21
 74
0
 42
0.0000001
 43
0.0000001
 44
0.0000000001
 40
0.0
 40
0.0
 40
0.0
 40
0.0
 40
0.0837668009
 40
0.1634438233
 40
0.2383110216
 40
0.3078341979
 40
0.371739684
 40
0.4300266677
 40
0.4830498536
 40
0.5318972461
 40
0.5553689275
 40
0.5785726286
 40
0.6018448056
 40
0.6255027648
 40
0.6750087803
 40
0.7290480352
 40
0.7885629407
 40
0.8537734282
 40
0.9244371698
 40
1.0
 40
1.0
 40
1.0
 40
1.0
 10
13.4509055917
 20
9.5349848289
 30
0.0
 10
13.4505141094
 20
9.53229944
 30
0.0
 10
13.4496491677
 20
9.5270735722
 30
0.0
 10
13.4480239196
 20
9.5195224581
 30
0.0
 10
13.4460745146
 20
9.5125244626
 30
0.0
 10
13.4437764595
 20
9.5061711408
 30
0.0
 10
13.4411046576
 20
9.5005505674
 30
0.0
 10
13.4380346248
 20
9.4957531653
 30
0.0
 10
13.434546116
 20
9.4918732902
 30
0.0
 10
13.4312183054
 20
9.4894745218
 30
0.0
 10
13.4284016913
 20
9.4881735257
 30
0.0
 10
13.4262298843
 20
9.4875023065
 30
0.0
 10
13.4239807313
 20
9.4871333977
 30
0.0
 10
13.4208499098
 20
9.4870400417
 30
0.0
 10
13.4167410739
 20
9.4877195044
 30
0.0
 10
13.4118137039
 20
9.4897122017
 30
0.0
 10
13.406879953
 20
9.4927895325
 30
0.0
 10
13.4020215651
 20
9.4968739451
 30
0.0
 10
13.3973136369
 20
9.5018664242
 30
0.0
 10
13.394412715
 20
9.5056215122
 30
0.0
 10
13.3929993597
 20
9.5076202851
 30
0.0
  0
SPLINE
  5
467
100
AcDbEntity
  8
0
100
AcDbSpline
 62
9
  6
CONTINUOUS
 70
0
 71
3
 72
9
 73
5
 74
0
 42
0.0000001
 43
0.0000001
 44
0.0000000001
 40
0.0
 40
0.0
 40
0.0
 40
0.0
 40
0.4988868279
 40
1.0
 40
1.0
 40
1.0
 40
1.0
 10
13.2347465099
 20
9.809122752
 30
0.0
 10
13.3082539637
 20
9.8086849523
 30
0.0
 10
13.4555957212
 20
9.8076231048
 30
0.0
 10
13.6029424067
 20
9.8073291623
 30
0.0
 10
13.6767790548
 20
9.8074786732
 30
0.0
  0
SPLINE
  5
468
100
AcDbEntity
  8
0
100
AcDbSpline
 62
9
  6
CONTINUOUS
 70
0
 71
3
 72
16
 73
12
 74
0
 42
0.0000001
 43
0.0000001
 44
0.0000000001
 40
0.0
 40
0.0
 40
0.0
 40
0.0
 40
0.1096682485
 40
0.2265123133
 40
0.2877162462
 40
0.3505382914
 40
0.4797892362
 40
0.6123887567
 40
0.7454352277
 40
0.8754908731
 40
1.0
 40
1.0
 40
1.0
 40
1.0
 10
13.2309084267
 20
9.8091626482
 30
0.0
 10
13.2288525757
 20
9.8093280361
 30
0.0
 10
13.2246316045
 20
9.8101055475
 30
0.0
 10
13.2195755111
 20
9.8121426251
 30
0.0
 10
13.2156825479
 20
9.8144732757
 30
0.0
 10
13.2118569203
 20
9.8173221007
 30
0.0
 10
13.2075227463
 20
9.8216868532
 30
0.0
 10
13.203415926
 20
9.8279262092
 30
0.0
 10
13.2004605639
 20
9.8347980497
 30
0.0
 10
13.1987803625
 20
9.8419251493
 30
0.0
 10
13.1984222497
 20
9.8467210852
 30
0.0
 10
13.1984301037
 20
9.8490626721
 30
0.0
  0
LINE
  5
469
100
AcDbEntity
  8
0
100
AcDbLine
 62
9
  6
CONTINUOUS
 10
13.1189130591
 20
10.1706629048
 11
13.1421812405
 21
10.1459100084
  0
LINE
  5
46A
100
AcDbEntity
  8
0
100
AcDbLine
 62
9
  6
CONTINUOUS
 10
13.1992867254
 20
10.1022690753
 11
13.2011849066
 21
10.1024858073
  0
SPLINE
  5
46B
100
AcDbEntity
  8
0
100
AcDbSpline
 62
9
  6
CONTINUOUS
 70
0
 71
3
 72
18
 73
14
 74
0
 42
0.0000001
 43
0.0000001
 44
0.0000000001
 40
0.0
 40
0.0
 40
0.0
 40
0.0
 40
0.0387688501
 40
0.0822151522
 40
0.1305004132
 40
0.1832976438
 40
0.240046581
 40
0.3001711003
 40
0.42839655
 40
0.5645319604
 40
0.7061712169
 40
0.8517139272
 40
1.0
 40
1.0
 40
1.0
 40
1.0
 10
13.198430069
 20
9.8490626725
 30
0.0
 10
13.1974794553
 20
9.8490819594
 30
0.0
 10
13.1954564073
 20
9.8488594369
 30
0.0
 10
13.1923806491
 20
9.8479371378
 30
0.0
 10
13.1891377781
 20
9.8464878588
 30
0.0
 10
13.1857633355
 20
9.8445834862
 30
0.0
 10
13.1822867895
 20
9.8422921988
 30
0.0
 10
13.1774473887
 20
9.8387232247
 30
0.0
 10
13.1713381481
 20
9.8336133535
 30
0.0
 10
13.1640277051
 20
9.8268498814
 30
0.0
 10
13.1566471662
 20
9.8195463642
 30
0.0
 10
13.1492282448
 20
9.8118631917
 30
0.0
 10
13.1443011097
 20
9.8066043798
 30
0.0
 10
13.1418265649
 20
9.8039393431
 30
0.0
  0
LINE
  5
46C
100
AcDbEntity
  8
0
100
AcDbLine
 62
9
  6
CONTINUOUS
 10
13.1418269142
 20
9.8039389873
 11
13.1189128972
 21
9.7789411132
  0
SPLINE
  5
46D
100
AcDbEntity
  8
0
100
AcDbSpline
 62
9
  6
CONTINUOUS
 70
0
 71
3
 72
15
 73
11
 74
0
 42
0.0000001
 43
0.0000001
 44
0.0000000001
 40
0.0
 40
0.0
 40
0.0
 40
0.0
 40
0.1244500913
 40
0.2542158226
 40
0.3868373149
 40
0.519033955
 40
0.6480805821
 40
0.7720747803
 40
0.8894454278
 40
1.0
 40
1.0
 40
1.0
 40
1.0
 10
13.199286744
 20
10.1022690774
 30
0.0
 10
13.1992456702
 20
10.1046046429
 30
0.0
 10
13.1995377001
 20
10.1093895356
 30
0.0
 10
13.2011300971
 20
10.1165083229
 30
0.0
 10
13.2040122981
 20
10.1233734358
 30
0.0
 10
13.2080672858
 20
10.1296097224
 30
0.0
 10
13.2131837663
 20
10.1347881713
 30
0.0
 10
13.2189867288
 20
10.1387066566
 30
0.0
 10
13.2251577761
 20
10.1411889933
 30
0.0
 10
13.2293971577
 20
10.1419690789
 30
0.0
 10
13.231465435
 20
10.1421373103
 30
0.0
  0
SPLINE
  5
46E
100
AcDbEntity
  8
0
100
AcDbSpline
 62
9
  6
CONTINUOUS
 70
0
 71
3
 72
9
 73
5
 74
0
 42
0.0000001
 43
0.0000001
 44
0.0000000001
 40
0.0
 40
0.0
 40
0.0
 40
0.0
 40
0.5010346468
 40
1.0
 40
1.0
 40
1.0
 40
1.0
 10
13.676140917
 20
10.1773772783
 30
0.0
 10
13.602281823
 20
10.171979628
 30
0.0
 10
13.4549148806
 20
10.1605709788
 30
0.0
 10
13.3076147154
 20
10.1483496255
 30
0.0
 10
13.234108715
 20
10.1423528694
 30
0.0
  0
SPLINE
  5
46F
100
AcDbEntity
  8
0
100
AcDbSpline
 62
9
  6
CONTINUOUS
 70
0
 71
3
 72
33
 73
29
 74
0
 42
0.0000001
 43
0.0000001
 44
0.0000000001
 40
0.0
 40
0.0
 40
0.0
 40
0.0
 40
0.2266545272
 40
0.3300931116
 40
0.4267126549
 40
0.5163423156
 40
0.5988104286
 40
0.6739445563
 40
0.7415715466
 40
0.8015343664
 40
0.8537426078
 40
0.8981224373
 40
0.9173535837
 40
0.9345998654
 40
0.9498520078
 40
0.9631007265
 40
0.9743367274
 40
0.9835507066
 40
0.9873965283
 40
0.9907333512
 40
0.9935600099
 40
0.995875338
 40
0.9976781688
 40
0.9989673348
 40
0.9994189285
 40
0.999741668
 40
0.9999354072
 40
1.0
 40
1.0
 40
1.0
 40
1.0
 10
12.8227794046
 20
10.1706640195
 30
0.0
 10
12.8173748472
 20
10.1718776741
 30
0.0
 10
12.8095129767
 20
10.1736864661
 30
0.0
 10
12.7993687977
 20
10.1761043296
 30
0.0
 10
12.7924900707
 20
10.1777789418
 30
0.0
 10
12.7861163992
 20
10.1793612033
 30
0.0
 10
12.7802584968
 20
10.1808415345
 30
0.0
 10
12.7749270793
 20
10.1822103456
 30
0.0
 10
12.7701324836
 20
10.1834582185
 30
0.0
 10
12.7658830215
 20
10.1845761112
 30
0.0
 10
12.7621855115
 20
10.1855589709
 30
0.0
 10
12.7594518853
 20
10.1862930699
 30
0.0
 10
12.7575444723
 20
10.1868093537
 30
0.0
 10
12.7563245952
 20
10.1871411927
 30
0.0
 10
12.7552461639
 20
10.1874360063
 30
0.0
 10
12.7543097352
 20
10.1876932549
 30
0.0
 10
12.7535158766
 20
10.1879123945
 30
0.0
 10
12.7529437082
 20
10.1880710963
 30
0.0
 10
12.7525576943
 20
10.1881785647
 30
0.0
 10
12.7523220433
 20
10.1882443362
 30
0.0
 10
12.7521226074
 20
10.1883001037
 30
0.0
 10
12.7519588678
 20
10.188346072
 30
0.0
 10
12.7518324679
 20
10.1883814463
 30
0.0
 10
12.7517474093
 20
10.188405712
 30
0.0
 10
12.7517011641
 20
10.1884183501
 30
0.0
 10
12.7516746317
 20
10.1884265226
 30
0.0
 10
12.7516676194
 20
10.1884273119
 30
0.0
 10
12.7516546534
 20
10.1884322169
 30
0.0
 10
12.7516559649
 20
10.1884313384
 30
0.0
  0
SPLINE
  5
470
100
AcDbEntity
  8
0
100
AcDbSpline
 62
9
  6
CONTINUOUS
 70
0
 71
3
 72
16
 73
12
 74
0
 42
0.0000001
 43
0.0000001
 44
0.0000000001
 40
0.0
 40
0.0
 40
0.0
 40
0.0
 40
0.0409382856
 40
0.0867074337
 40
0.1369089016
 40
0.1910228466
 40
0.3088887625
 40
0.4367671266
 40
0.5714867687
 40
0.7111586466
 40
1.0
 40
1.0
 40
1.0
 40
1.0
 10
13.2314658157
 20
10.1421371334
 30
0.0
 10
13.2303694442
 20
10.1420478871
 30
0.0
 10
13.2280355211
 20
10.1420010074
 30
0.0
 10
13.2243612554
 20
10.1422224623
 30
0.0
 10
13.2203548308
 20
10.142697579
 30
0.0
 10
13.2144605079
 20
10.1436523269
 30
0.0
 10
13.2065736233
 20
10.1453184211
 30
0.0
 10
13.1966540118
 20
10.1477935536
 30
0.0
 10
13.1862216637
 20
10.1506236259
 30
0.0
 10
13.1716706062
 20
10.1547839263
 30
0.0
 10
13.1606374539
 20
10.1580775754
 30
0.0
 10
13.1532051202
 20
10.1603124387
 30
0.0
  0
SPLINE
  5
471
100
AcDbEntity
  8
0
100
AcDbSpline
 62
9
  6
CONTINUOUS
 70
0
 71
3
 72
33
 73
29
 74
0
 42
0.0000001
 43
0.0000001
 44
0.0000000001
 40
0.0
 40
0.0
 40
0.0
 40
0.0
 40
0.0000643898
 40
0.0002575277
 40
0.0005792764
 40
0.0010294989
 40
0.0023148169
 40
0.0041123852
 40
0.0064211082
 40
0.0092398906
 40
0.012567638
 40
0.0164032563
 40
0.025593733
 40
0.0368025816
 40
0.0500210728
 40
0.0652404871
 40
0.082452115
 40
0.1016472572
 40
0.1459533285
 40
0.1980893188
 40
0.2579860058
 40
0.3255579751
 40
0.4006547102
 40
0.4831099754
 40
0.5727582731
 40
0.6694349038
 40
0.7729760173
 40
1.0
 40
1.0
 40
1.0
 40
1.0
 10
12.7516559647
 20
9.7636984128
 30
0.0
 10
12.7516546313
 20
9.7636976004
 30
0.0
 10
12.7516676298
 20
9.7637019918
 30
0.0
 10
12.7516745692
 20
9.7637025725
 30
0.0
 10
12.7517010792
 20
9.7637097632
 30
0.0
 10
12.7517472097
 20
9.7637207494
 30
0.0
 10
12.7518321124
 20
9.7637419384
 30
0.0
 10
12.7519582554
 20
9.7637727639
 30
0.0
 10
12.7521216817
 20
9.7638128327
 30
0.0
 10
12.7523207405
 20
9.7638614204
 30
0.0
 10
12.7525559587
 20
9.7639187101
 30
0.0
 10
12.7529412952
 20
9.7640122939
 30
0.0
 10
12.7535125023
 20
9.7641504267
 30
0.0
 10
12.7543050794
 20
9.7643410433
 30
0.0
 10
12.7552400839
 20
9.7645646708
 30
0.0
 10
12.7563169772
 20
9.7648207932
 30
0.0
 10
12.7575352307
 20
9.7651088987
 30
0.0
 10
12.7594404342
 20
9.7655568856
 30
0.0
 10
12.762171307
 20
9.7661932182
 30
0.0
 10
12.765865591
 20
9.767043987
 30
0.0
 10
12.7701121804
 20
9.768010303
 30
0.0
 10
12.7749045353
 20
9.7690874288
 30
0.0
 10
12.7802345746
 20
9.77026665
 30
0.0
 10
12.7860922399
 20
9.7715389619
 30
0.0
 10
12.7924671004
 20
9.7728952015
 30
0.0
 10
12.7993487283
 20
9.7743262165
 30
0.0
 10
12.8095019321
 20
9.7763857992
 30
0.0
 10
12.8173702812
 20
9.7779167754
 30
0.0
 10
12.8227794315
 20
9.7789395054
 30
0.0
  0
SPLINE
  5
472
100
AcDbEntity
  8
0
100
AcDbSpline
 62
9
  6
CONTINUOUS
 70
0
 71
3
 72
19
 73
15
 74
0
 42
0.0000001
 43
0.0000001
 44
0.0000000001
 40
0.0
 40
0.0
 40
0.0
 40
0.0
 40
0.0399445973
 40
0.0818328504
 40
0.1263970963
 40
0.1741958939
 40
0.2256359547
 40
0.2809406941
 40
0.3401824326
 40
0.403238261
 40
0.5395449573
 40
0.6870787301
 40
0.8421892191
 40
1.0
 40
1.0
 40
1.0
 40
1.0
 10
13.6767768767
 20
9.807478875
 30
0.0
 10
13.6774413689
 20
9.8074668521
 30
0.0
 10
13.6788081397
 20
9.8075809772
 30
0.0
 10
13.6808460151
 20
9.8081392472
 30
0.0
 10
13.6828830643
 20
9.8090777849
 30
0.0
 10
13.6848925358
 20
9.8103899507
 30
0.0
 10
13.6868570744
 20
9.8120577457
 30
0.0
 10
13.6887627009
 20
9.8140628758
 30
0.0
 10
13.6905930218
 20
9.8163875208
 30
0.0
 10
13.6929737139
 20
9.8199761537
 30
0.0
 10
13.6956245318
 20
9.8251243373
 30
0.0
 10
13.6981719056
 20
9.8319842893
 30
0.0
 10
13.7000754781
 20
9.8394179271
 30
0.0
 10
13.7008735162
 20
9.8445725799
 30
0.0
 10
13.7011469998
 20
9.8471839649
 30
0.0
  0
SPLINE
  5
473
100
AcDbEntity
  8
0
100
AcDbSpline
 62
9
  6
CONTINUOUS
 70
0
 71
3
 72
15
 73
11
 74
0
 42
0.0000001
 43
0.0000001
 44
0.0000000001
 40
0.0
 40
0.0
 40
0.0
 40
0.0
 40
0.1186249428
 40
0.2388207196
 40
0.3608423986
 40
0.4849862571
 40
0.6113518385
 40
0.7397090277
 40
0.8695852342
 40
1.0
 40
1.0
 40
1.0
 40
1.0
 10
13.6767768878
 20
9.8074789761
 30
0.0
 10
13.6746058084
 20
9.807772038
 30
0.0
 10
13.6702832871
 20
9.8088075812
 30
0.0
 10
13.6641923745
 20
9.8116072803
 30
0.0
 10
13.6586602854
 20
9.8155734511
 30
0.0
 10
13.6538809318
 20
9.8205748827
 30
0.0
 10
13.6499951803
 20
9.8264356161
 30
0.0
 10
13.6471183295
 20
9.8329674095
 30
0.0
 10
13.6453602815
 20
9.8399591408
 30
0.0
 10
13.6449650038
 20
9.8447753604
 30
0.0
 10
13.6449645453
 20
9.8471838647
 30
0.0
  0
SPLINE
  5
474
100
AcDbEntity
  8
0
100
AcDbSpline
 62
9
  6
CONTINUOUS
 70
0
 71
3
 72
16
 73
12
 74
0
 42
0.0000001
 43
0.0000001
 44
0.0000000001
 40
0.0
 40
0.0
 40
0.0
 40
0.0
 40
0.1114834452
 40
0.2299256891
 40
0.3548742347
 40
0.4844866822
 40
0.6166512574
 40
0.6829371559
 40
0.7487266522
 40
0.8772275885
 40
1.0
 40
1.0
 40
1.0
 40
1.0
 10
13.2347465104
 20
9.809122752
 30
0.0
 10
13.2326258061
 20
9.8092899956
 30
0.0
 10
13.2282761254
 20
9.8100699609
 30
0.0
 10
13.2219279683
 20
9.8125527289
 30
0.0
 10
13.2159305592
 20
9.8164750897
 30
0.0
 10
13.2106133069
 20
9.8216596958
 30
0.0
 10
13.2070682465
 20
9.8268702473
 30
0.0
 10
13.2048155658
 20
9.8313867582
 30
0.0
 10
13.2029984378
 20
9.8360219588
 30
0.0
 10
13.201554971
 20
9.8419292228
 30
0.0
 10
13.2011794803
 20
9.8467318927
 30
0.0
 10
13.2011850303
 20
9.849074587
 30
0.0
  0
SPLINE
  5
475
100
AcDbEntity
  8
0
100
AcDbSpline
 62
9
  6
CONTINUOUS
 70
0
 71
3
 72
16
 73
12
 74
0
 42
0.0000001
 43
0.0000001
 44
0.0000000001
 40
0.0
 40
0.0
 40
0.0
 40
0.0
 40
0.1231920734
 40
0.2518419541
 40
0.3176070198
 40
0.3838134997
 40
0.5157060846
 40
0.645009886
 40
0.769756408
 40
0.8882219466
 40
1.0
 40
1.0
 40
1.0
 40
1.0
 10
13.2011857593
 20
10.1024325486
 30
0.0
 10
13.2011483084
 20
10.104767818
 30
0.0
 10
13.2014560042
 20
10.1095550856
 30
0.0
 10
13.2028141151
 20
10.1154533738
 30
0.0
 10
13.2045628026
 20
10.1200816034
 30
0.0
 10
13.2067457253
 20
10.1245883271
 30
0.0
 10
13.2102081785
 20
10.1297914592
 30
0.0
 10
13.2154404891
 20
10.1349745938
 30
0.0
 10
13.2213703327
 20
10.1389005919
 30
0.0
 10
13.2276709889
 20
10.1413920945
 30
0.0
 10
13.2319965902
 20
10.142180169
 30
0.0
 10
13.2341087154
 20
10.1423528694
 30
0.0
  0
SPLINE
  5
476
100
AcDbEntity
  8
0
100
AcDbSpline
 62
9
  6
CONTINUOUS
 70
0
 71
3
 72
16
 73
12
 74
0
 42
0.0000001
 43
0.0000001
 44
0.0000000001
 40
0.0
 40
0.0
 40
0.0
 40
0.0
 40
0.130822969
 40
0.1960681779
 40
0.2609503785
 40
0.38922955
 40
0.5153540238
 40
0.6392093134
 40
0.7610263728
 40
0.8811791044
 40
1.0
 40
1.0
 40
1.0
 40
1.0
 10
13.644964539
 20
10.1377042318
 30
0.0
 10
13.6449321585
 20
10.1401043755
 30
0.0
 10
13.6451787332
 20
10.1437146109
 30
0.0
 10
13.6460909564
 20
10.1484190375
 30
0.0
 10
13.6473851882
 20
10.1529854908
 30
0.0
 10
13.6496919312
 20
10.1584037909
 30
0.0
 10
13.6534846009
 20
10.1642579102
 30
0.0
 10
13.6581819692
 20
10.169257941
 30
0.0
 10
13.6636459635
 20
10.1732275478
 30
0.0
 10
13.6696848479
 20
10.1760354894
 30
0.0
 10
13.6739790341
 20
10.1770785742
 30
0.0
 10
13.676138665
 20
10.1773769546
 30
0.0
  0
SPLINE
  5
477
100
AcDbEntity
  8
0
100
AcDbSpline
 62
9
  6
CONTINUOUS
 70
0
 71
3
 72
19
 73
15
 74
0
 42
0.0000001
 43
0.0000001
 44
0.0000000001
 40
0.0
 40
0.0
 40
0.0
 40
0.0
 40
0.0398875364
 40
0.0814576599
 40
0.1255520427
 40
0.1728299202
 40
0.2237742296
 40
0.2786592084
 40
0.3375920847
 40
0.4004746646
 40
0.5368587396
 40
0.6849910305
 40
0.8410601393
 40
1.0
 40
1.0
 40
1.0
 40
1.0
 10
13.676138665
 20
10.1773769546
 30
0.0
 10
13.6768084994
 20
10.1774320317
 30
0.0
 10
13.6781915674
 20
10.1774013684
 30
0.0
 10
13.6802692468
 20
10.1769475268
 30
0.0
 10
13.6823517339
 20
10.1760947232
 30
0.0
 10
13.6844106028
 20
10.174849302
 30
0.0
 10
13.6864270492
 20
10.1732299502
 30
0.0
 10
13.6883859106
 20
10.1712555791
 30
0.0
 10
13.6902693172
 20
10.1689442387
 30
0.0
 10
13.6927236682
 20
10.1653469352
 30
0.0
 10
13.6954583873
 20
10.1601483223
 30
0.0
 10
13.6980861594
 20
10.153188875
 30
0.0
 10
13.7000485241
 20
10.1456221535
 30
0.0
 10
13.700867563
 20
10.1403675461
 30
0.0
 10
13.7011468209
 20
10.1377040491
 30
0.0
  0
LINE
  5
478
100
AcDbEntity
  8
0
100
AcDbLine
 62
9
  6
CONTINUOUS
 10
13.1532047364
 20
10.160311553
 11
13.1189135666
 21
10.1706629737
  0
SPLINE
  5
479
100
AcDbEntity
  8
0
100
AcDbSpline
 62
9
  6
CONTINUOUS
 70
0
 71
3
 72
9
 73
5
 74
0
 42
0.0000001
 43
0.0000001
 44
0.0000000001
 40
0.0
 40
0.0
 40
0.0
 40
0.0
 40
0.4831442509
 40
1.0
 40
1.0
 40
1.0
 40
1.0
 10
13.1529545148
 20
9.7897243651
 30
0.0
 10
13.1510289555
 20
9.7919037112
 30
0.0
 10
13.1471817323
 20
9.7965374403
 30
0.0
 10
13.1435915643
 20
9.8013735801
 30
0.0
 10
13.1418162081
 20
9.8039283477
 30
0.0
  0
LINE
  5
47A
100
AcDbEntity
  8
0
100
AcDbLine
 62
9
  6
CONTINUOUS
 10
13.1529544995
 20
9.7897241691
 11
13.1189131605
 21
9.7789405936
  0
SPLINE
  5
47B
100
AcDbEntity
  8
0
100
AcDbSpline
 62
9
  6
CONTINUOUS
 70
0
 71
3
 72
15
 73
11
 74
0
 42
0.0000001
 43
0.0000001
 44
0.0000000001
 40
0.0
 40
0.0
 40
0.0
 40
0.0
 40
0.2301305954
 40
0.3504008412
 40
0.4740815113
 40
0.6012658303
 40
0.7321230363
 40
0.7990281294
 40
0.8663431422
 40
1.0
 40
1.0
 40
1.0
 40
1.0
 10
12.822779262
 20
10.1706633525
 30
0.0
 10
12.8165488229
 20
10.1673770495
 30
0.0
 10
12.8069763439
 20
10.1625315799
 30
0.0
 10
12.7938071293
 20
10.1564329512
 30
0.0
 10
12.7833399102
 20
10.1520118273
 30
0.0
 10
12.772382826
 20
10.1479384766
 30
0.0
 10
12.7628225955
 20
10.1451479901
 30
0.0
 10
12.7548859913
 20
10.1434399081
 30
0.0
 10
12.7467814341
 20
10.1421896545
 30
0.0
 10
12.7405956559
 20
10.141903622
 30
0.0
 10
12.7365112623
 20
10.1421372998
 30
0.0
  0
LINE
  5
47C
100
AcDbEntity
  8
0
100
AcDbLine
 62
9
  6
CONTINUOUS
 10
12.7365114449
 20
10.1421372697
 11
12.7099292177
 21
10.1484687493
  0
SPLINE
  5
47D
100
AcDbEntity
  8
0
100
AcDbSpline
 62
9
  6
CONTINUOUS
 70
0
 71
3
 72
22
 73
18
 74
0
 42
0.0000001
 43
0.0000001
 44
0.0000000001
 40
0.0
 40
0.0
 40
0.0
 40
0.0
 40
0.0043256181
 40
0.0105027349
 40
0.0186297972
 40
0.0287778983
 40
0.0553742268
 40
0.0907370455
 40
0.1351190764
 40
0.1881092059
 40
0.2491273129
 40
0.3175906975
 40
0.3927876955
 40
0.4734946242
 40
0.6460272974
 40
0.8246546841
 40
1.0
 40
1.0
 40
1.0
 40
1.0
 10
12.736511441
 20
10.1421372665
 30
0.0
 10
12.7365382092
 20
10.1420863184
 30
0.0
 10
12.7365853725
 20
10.1419537821
 30
0.0
 10
12.7366440927
 20
10.1417130327
 30
0.0
 10
12.7367010011
 20
10.1413924511
 30
0.0
 10
12.7367812622
 20
10.1408008114
 30
0.0
 10
12.7368673603
 20
10.1398448828
 30
0.0
 10
12.7369510085
 20
10.1384324357
 30
0.0
 10
12.7370177446
 20
10.1366675427
 30
0.0
 10
12.7370672098
 20
10.1345607101
 30
0.0
 10
12.7370974599
 20
10.1321330795
 30
0.0
 10
12.7371071043
 20
10.1294098309
 30
0.0
 10
12.7370949419
 20
10.1264246358
 30
0.0
 10
12.7370502372
 20
10.1220550125
 30
0.0
 10
12.7369457498
 20
10.116309893
 30
0.0
 10
12.736757108
 20
10.1093072403
 30
0.0
 10
12.7365958516
 20
10.1046003668
 30
0.0
 10
12.7365076606
 20
10.1022690739
 30
0.0
  0
SPLINE
  5
47E
100
AcDbEntity
  8
0
100
AcDbSpline
 62
9
  6
CONTINUOUS
 70
0
 71
3
 72
17
 73
13
 74
0
 42
0.0000001
 43
0.0000001
 44
0.0000000001
 40
0.0
 40
0.0
 40
0.0
 40
0.0
 40
0.0676786138
 40
0.1351770907
 40
0.2021721419
 40
0.2684528284
 40
0.398441815
 40
0.5251536
 40
0.6486954913
 40
0.769116399
 40
0.8863173444
 40
1.0
 40
1.0
 40
1.0
 40
1.0
 10
12.7365076597
 20
10.1022690839
 30
0.0
 10
12.7391093312
 20
10.1021299898
 30
0.0
 10
12.7443373581
 20
10.1022866731
 30
0.0
 10
12.7520165865
 20
10.1036930227
 30
0.0
 10
12.7593918808
 20
10.1060693886
 30
0.0
 10
12.7686426603
 20
10.11025003
 30
0.0
 10
12.7791849616
 20
10.1169623066
 30
0.0
 10
12.7903273623
 20
10.1265066337
 30
0.0
 10
12.8001077286
 20
10.1369288812
 30
0.0
 10
12.8087026742
 20
10.1478762808
 30
0.0
 10
12.8162483003
 20
10.1591120168
 30
0.0
 10
12.8207086793
 20
10.1668083835
 30
0.0
 10
12.8227787976
 20
10.1706641987
 30
0.0
  0
SPLINE
  5
47F
100
AcDbEntity
  8
0
100
AcDbSpline
 62
9
  6
CONTINUOUS
 70
0
 71
3
 72
17
 73
13
 74
0
 42
0.0000001
 43
0.0000001
 44
0.0000000001
 40
0.0
 40
0.0
 40
0.0
 40
0.0
 40
0.067632785
 40
0.1350053
 40
0.2018287048
 40
0.2679256902
 40
0.3976063956
 40
0.5241399855
 40
0.6476617878
 40
0.7682315469
 40
0.8857646723
 40
1.0
 40
1.0
 40
1.0
 40
1.0
 10
12.7383197643
 20
9.8490625555
 30
0.0
 10
12.7409083846
 20
9.849087767
 30
0.0
 10
12.7460875054
 20
9.8487146759
 30
0.0
 10
12.753650948
 20
9.8470350237
 30
0.0
 10
12.760881775
 20
9.8444330068
 30
0.0
 10
12.7699282302
 20
9.8400166698
 30
0.0
 10
12.7802167861
 20
9.8331017238
 30
0.0
 10
12.7910847854
 20
9.8234033644
 30
0.0
 10
12.800626925
 20
9.8128767064
 30
0.0
 10
12.8090185129
 20
9.8018512065
 30
0.0
 10
12.8163933944
 20
9.790548272
 30
0.0
 10
12.8207537599
 20
9.7828145785
 30
0.0
 10
12.8227787976
 20
9.7789392487
 30
0.0
  0
SPLINE
  5
480
100
AcDbEntity
  8
0
100
AcDbSpline
 62
9
  6
CONTINUOUS
 70
0
 71
3
 72
15
 73
11
 74
0
 42
0.0000001
 43
0.0000001
 44
0.0000000001
 40
0.0
 40
0.0
 40
0.0
 40
0.0
 40
0.1334832676
 40
0.2005618507
 40
0.2672027207
 40
0.3976169218
 40
0.5245223168
 40
0.6481487451
 40
0.7686376445
 40
1.0
 40
1.0
 40
1.0
 40
1.0
 10
12.7377650889
 20
9.8091626901
 30
0.0
 10
12.7418194765
 20
9.8092710733
 30
0.0
 10
12.7479352638
 20
9.808823666
 30
0.0
 10
12.7559277654
 20
9.8073906746
 30
0.0
 10
12.7637370024
 20
9.8055209929
 30
0.0
 10
12.7731368095
 20
9.8025581663
 30
0.0
 10
12.7839079539
 20
9.798305051
 30
0.0
 10
12.7942047794
 20
9.7937091322
 30
0.0
 10
12.8071907482
 20
9.7873739115
 30
0.0
 10
12.816633047
 20
9.7823519909
 30
0.0
 10
12.8227791365
 20
9.778939599
 30
0.0
  0
SPLINE
  5
481
100
AcDbEntity
  8
0
100
AcDbSpline
 62
9
  6
CONTINUOUS
 70
0
 71
3
 72
19
 73
15
 74
0
 42
0.0000001
 43
0.0000001
 44
0.0000000001
 40
0.0
 40
0.0
 40
0.0
 40
0.0
 40
0.0379053583
 40
0.0802767432
 40
0.1275593324
 40
0.179555882
 40
0.2357568865
 40
0.2955643046
 40
0.3584188561
 40
0.4238060535
 40
0.5605676054
 40
0.7032661512
 40
0.8501560297
 40
1.0
 40
1.0
 40
1.0
 40
1.0
 10
13.1992867203
 20
10.1022689798
 30
0.0
 10
13.1983669796
 20
10.1021641183
 30
0.0
 10
13.1963850086
 20
10.1022173267
 30
0.0
 10
13.1933394193
 20
10.1029323979
 30
0.0
 10
13.1901119534
 20
10.1042018517
 30
0.0
 10
13.1867374265
 20
10.105952852
 30
0.0
 10
13.1832475269
 20
10.1081158541
 30
0.0
 10
13.1796707393
 20
10.1106262633
 30
0.0
 10
13.1760306475
 20
10.1134281454
 30
0.0
 10
13.1710404897
 20
10.1175505409
 30
0.0
 10
13.1647722107
 20
10.1231796539
 30
0.0
 10
13.1572731372
 20
10.1304044613
 30
0.0
 10
13.149722239
 20
10.1380310262
 30
0.0
 10
13.1447033112
 20
10.1432585067
 30
0.0
 10
13.1421808956
 20
10.145909647
 30
0.0
  0
SPLINE
  5
482
100
AcDbEntity
  8
0
100
AcDbSpline
 62
9
  6
CONTINUOUS
 70
0
 71
3
 72
9
 73
5
 74
0
 42
0.0000001
 43
0.0000001
 44
0.0000000001
 40
0.0
 40
0.0
 40
0.0
 40
0.0
 40
0.5169726131
 40
1.0
 40
1.0
 40
1.0
 40
1.0
 10
13.1421727316
 20
10.1459181097
 30
0.0
 10
13.143924453
 20
10.1485076114
 30
0.0
 10
13.1474741546
 20
10.1534086573
 30
0.0
 10
13.1512908602
 20
10.1581042098
 30
0.0
 10
13.1532039282
 20
10.1603116518
 30
0.0
  0
SPLINE
  5
483
100
AcDbEntity
  8
0
100
AcDbSpline
 62
9
  6
CONTINUOUS
 70
0
 71
3
 72
22
 73
18
 74
0
 42
0.0000001
 43
0.0000001
 44
0.0000000001
 40
0.0
 40
0.0
 40
0.0
 40
0.0
 40
0.1754959489
 40
0.3543226194
 40
0.5270720935
 40
0.6078798258
 40
0.6831640576
 40
0.7516944398
 40
0.8127544208
 40
0.8657561945
 40
0.9101127502
 40
0.9454031119
 40
0.9718666903
 40
0.9819169096
 40
0.9899164581
 40
0.9959220371
 40
1.0
 40
1.0
 40
1.0
 40
1.0
 10
12.7383197627
 20
9.8490625563
 30
0.0
 10
12.7383360474
 20
9.8467274496
 30
0.0
 10
12.7383596204
 20
9.8420128485
 30
0.0
 10
12.7383662978
 20
9.8349995668
 30
0.0
 10
12.7383439287
 20
9.8292462439
 30
0.0
 10
12.7383076573
 20
9.824870797
 30
0.0
 10
12.7382726988
 20
9.8218821506
 30
0.0
 10
12.7382293203
 20
9.8191564088
 30
0.0
 10
12.7381786625
 20
9.8167273374
 30
0.0
 10
12.7381218459
 20
9.814620165
 30
0.0
 10
12.7380602676
 20
9.8128561655
 30
0.0
 10
12.7379942431
 20
9.8114457822
 30
0.0
 10
12.7379333015
 20
9.8104921571
 30
0.0
 10
12.7378805384
 20
9.8099022105
 30
0.0
 10
12.7378447139
 20
9.8095840361
 30
0.0
 10
12.7378089365
 20
9.8093461587
 30
0.0
 10
12.7377812138
 20
9.8092145078
 30
0.0
 10
12.737765122
 20
9.8091626871
 30
0.0
  0
SPLINE
  5
484
100
AcDbEntity
  8
0
100
AcDbSpline
 62
9
  6
CONTINUOUS
 70
0
 71
3
 72
22
 73
18
 74
0
 42
0.0000001
 43
0.0000001
 44
0.0000000001
 40
0.0
 40
0.0
 40
0.0
 40
0.0
 40
0.1741023215
 40
0.3516044688
 40
0.523226066
 40
0.603585538
 40
0.6785224521
 40
0.7468271409
 40
0.8077987793
 40
0.8608676073
 40
0.9054742088
 40
0.9412432311
 40
0.9684858254
 40
0.979084123
 40
0.9877788257
 40
0.9946892347
 40
1.0
 40
1.0
 40
1.0
 40
1.0
 10
12.7322549308
 20
9.8490745978
 30
0.0
 10
12.7322615363
 20
9.8467389323
 30
0.0
 10
12.7322403487
 20
9.8420218231
 30
0.0
 10
12.7321035136
 20
9.8350035218
 30
0.0
 10
12.7318879601
 20
9.8292453832
 30
0.0
 10
12.73165265
 20
9.824865838
 30
0.0
 10
12.7314540553
 20
9.8218725903
 30
0.0
 10
12.7312302565
 20
9.8191419943
 30
0.0
 10
12.7309862171
 20
9.8167077647
 30
0.0
 10
12.7307267018
 20
9.8145951312
 30
0.0
 10
12.7304570368
 20
9.8128248696
 30
0.0
 10
12.7301789508
 20
9.8114077954
 30
0.0
 10
12.7299296904
 20
9.8104507626
 30
0.0
 10
12.729721353
 20
9.8098618737
 30
0.0
 10
12.7295790911
 20
9.8095397826
 30
0.0
 10
12.7294382736
 20
9.8092965216
 30
0.0
 10
12.7293320117
 20
9.8091692358
 30
0.0
 10
12.7292780182
 20
9.8091227515
 30
0.0
  0
SPLINE
  5
485
100
AcDbEntity
  8
0
100
AcDbSpline
 62
9
  6
CONTINUOUS
 70
0
 71
3
 72
14
 73
10
 74
0
 42
0.0000001
 43
0.0000001
 44
0.0000000001
 40
0.0
 40
0.0
 40
0.0
 40
0.0
 40
0.2500587162
 40
0.3754155819
 40
0.5005827076
 40
0.6256390627
 40
0.7505517395
 40
0.8753006335
 40
1.0
 40
1.0
 40
1.0
 40
1.0
 10
11.6920195942
 20
9.8074789802
 30
0.0
 10
11.6877985617
 20
9.807440867
 30
0.0
 10
11.6813934237
 20
9.8083989566
 30
0.0
 10
11.6735434436
 20
9.8115919799
 30
0.0
 10
11.6680930138
 20
9.81488687
 30
0.0
 10
11.6632434191
 20
9.8189993737
 30
0.0
 10
11.6591034259
 20
9.8238178003
 30
0.0
 10
11.6557893665
 20
9.8292287707
 30
0.0
 10
11.6541791856
 20
9.8331426241
 30
0.0
 10
11.6535375674
 20
9.8351474893
 30
0.0
  0
SPLINE
  5
486
100
AcDbEntity
  8
0
100
AcDbSpline
 62
9
  6
CONTINUOUS
 70
0
 71
3
 72
20
 73
16
 74
0
 42
0.0000001
 43
0.0000001
 44
0.0000000001
 40
0.0
 40
0.0
 40
0.0
 40
0.0
 40
0.1802641836
 40
0.3549559836
 40
0.5179650318
 40
0.6641474007
 40
0.7294645192
 40
0.7888660372
 40
0.8418869545
 40
0.8881489652
 40
0.9272855845
 40
0.9590085363
 40
0.9832095961
 40
0.9925100312
 40
1.0
 40
1.0
 40
1.0
 40
1.0
 10
11.6949777025
 20
9.847183897
 30
0.0
 10
11.694975461
 20
9.8447834901
 30
0.0
 10
11.6949429275
 20
9.8400568091
 30
0.0
 10
11.6947783722
 20
9.833161071
 30
0.0
 10
11.6944978664
 20
9.8267234879
 30
0.0
 10
11.6942053889
 20
9.8217447448
 30
0.0
 10
11.6939248847
 20
9.8181481995
 30
0.0
 10
11.693699293
 20
9.8157920323
 30
0.0
 10
11.6934515771
 20
9.8136933329
 30
0.0
 10
11.6931886423
 20
9.8118687966
 30
0.0
 10
11.6929171613
 20
9.8103324915
 30
0.0
 10
11.6926417198
 20
9.8090968394
 30
0.0
 10
11.6923950182
 20
9.8082619725
 30
0.0
 10
11.6921838452
 20
9.8077581554
 30
0.0
 10
11.6920757376
 20
9.8075614141
 30
0.0
 10
11.6920195942
 20
9.8074789802
 30
0.0
  0
LINE
  5
487
100
AcDbEntity
  8
0
100
AcDbLine
 62
9
  6
CONTINUOUS
 10
12.7112151059
 20
9.8036958633
 11
12.7377651188
 21
9.8091626887
  0
SPLINE
  5
488
100
AcDbEntity
  8
0
100
AcDbSpline
 62
9
  6
CONTINUOUS
 70
0
 71
3
 72
22
 73
18
 74
0
 42
0.0000001
 43
0.0000001
 44
0.0000000001
 40
0.0
 40
0.0
 40
0.0
 40
0.0
 40
0.0366928117
 40
0.0778623694
 40
0.1233676559
 40
0.1730624209
 40
0.2267803294
 40
0.2842775054
 40
0.3452870123
 40
0.4095397259
 40
0.4767528299
 40
0.5465875931
 40
0.618685697
 40
0.6926838313
 40
0.7682109708
 40
0.8448752312
 40
1.0
 40
1.0
 40
1.0
 40
1.0
 10
13.513274085
 20
10.1706637425
 30
0.0
 10
13.5090125125
 20
10.1719380837
 30
0.0
 10
13.4998898503
 20
10.1743788815
 30
0.0
 10
13.4852779859
 20
10.1775830692
 30
0.0
 10
13.4689986008
 20
10.1804803658
 30
0.0
 10
13.4511202836
 20
10.1830061913
 30
0.0
 10
13.4317233753
 20
10.1850966302
 30
0.0
 10
13.4109062678
 20
10.1867210369
 30
0.0
 10
13.3887775944
 20
10.1878457975
 30
0.0
 10
13.365450157
 20
10.188437446
 30
0.0
 10
13.3410456667
 20
10.188463728
 30
0.0
 10
13.3156958575
 20
10.1879436485
 30
0.0
 10
13.2895394569
 20
10.1868948682
 30
0.0
 10
13.2627174546
 20
10.1853354407
 30
0.0
 10
13.2353736537
 20
10.1832841246
 30
0.0
 10
13.1982677189
 20
10.1799564113
 30
0.0
 10
13.1703312943
 20
10.1769165721
 30
0.0
 10
13.1516568259
 20
10.1747068446
 30
0.0
  0
SPLINE
  5
489
100
AcDbEntity
  8
0
100
AcDbSpline
 62
9
  6
CONTINUOUS
 70
0
 71
3
 72
14
 73
10
 74
0
 42
0.0000001
 43
0.0000001
 44
0.0000000001
 40
0.0
 40
0.0
 40
0.0
 40
0.0
 40
0.2500368381
 40
0.3753947262
 40
0.5005610219
 40
0.6256249815
 40
0.750548161
 40
0.8752966149
 40
1.0
 40
1.0
 40
1.0
 40
1.0
 10
11.6932968027
 20
10.1773770572
 30
0.0
 10
11.6890471737
 20
10.1775502705
 30
0.0
 10
11.6825649572
 20
10.1767813607
 30
0.0
 10
11.6745653611
 20
10.1737935239
 30
0.0
 10
11.6689828361
 20
10.1706264847
 30
0.0
 10
11.6639876921
 20
10.166612741
 30
0.0
 10
11.6596936681
 20
10.1618643707
 30
0.0
 10
11.6562223837
 20
10.1564941996
 30
0.0
 10
11.6545092398
 20
10.1525884609
 30
0.0
 10
11.653817463
 20
10.150583213
 30
0.0
  0
SPLINE
  5
48A
100
AcDbEntity
  8
0
100
AcDbSpline
 62
9
  6
CONTINUOUS
 70
0
 71
3
 72
19
 73
15
 74
0
 42
0.0000001
 43
0.0000001
 44
0.0000000001
 40
0.0
 40
0.0
 40
0.0
 40
0.0
 40
0.0075066985
 40
0.0168346434
 40
0.0410782372
 40
0.0727970229
 40
0.1118743194
 40
0.1580559245
 40
0.2110158744
 40
0.3357044772
 40
0.4818603509
 40
0.6448394538
 40
0.819605352
 40
1.0
 40
1.0
 40
1.0
 40
1.0
 10
11.6932967587
 20
10.1773770269
 30
0.0
 10
11.6933501868
 20
10.1772928561
 30
0.0
 10
11.6934527829
 20
10.1770932777
 30
0.0
 10
11.6936517115
 20
10.1765848159
 30
0.0
 10
11.6938781549
 20
10.1757456308
 30
0.0
 10
11.6941162191
 20
10.174505691
 30
0.0
 10
11.6943278568
 20
10.1729659692
 30
0.0
 10
11.6945167016
 20
10.1711398743
 30
0.0
 10
11.6947547086
 20
10.168176568
 30
0.0
 10
11.6950001926
 20
10.1638825757
 30
0.0
 10
11.695178147
 20
10.1581230818
 30
0.0
 10
11.695215363
 20
10.1516960871
 30
0.0
 10
11.6951571262
 20
10.1448148242
 30
0.0
 10
11.6950521148
 20
10.140098888
 30
0.0
 10
11.6949777884
 20
10.137704232
 30
0.0
  0
SPLINE
  5
48B
100
AcDbEntity
  8
0
100
AcDbSpline
 62
9
  6
CONTINUOUS
 70
0
 71
3
 72
22
 73
18
 74
0
 42
0.0000001
 43
0.0000001
 44
0.0000000001
 40
0.0
 40
0.0
 40
0.0
 40
0.0
 40
0.0053119434
 40
0.0122224908
 40
0.0209161895
 40
0.031512199
 40
0.0587456627
 40
0.094498187
 40
0.1390799866
 40
0.1921176287
 40
0.2530543274
 40
0.3213229376
 40
0.3962256547
 40
0.4765574985
 40
0.6481639864
 40
0.8257333774
 40
1.0
 40
1.0
 40
1.0
 40
1.0
 10
12.730560153
 20
10.1423528678
 30
0.0
 10
12.7306125143
 20
10.1423048082
 30
0.0
 10
12.7307144218
 20
10.1421745459
 30
0.0
 10
12.7308470838
 20
10.1419275835
 30
0.0
 10
12.7309786541
 20
10.1416020321
 30
0.0
 10
12.7311675651
 20
10.1410085404
 30
0.0
 10
12.731385499
 20
10.1400469647
 30
0.0
 10
12.7316174592
 20
10.1386261799
 30
0.0
 10
12.7318297355
 20
10.1368538862
 30
0.0
 10
12.7320209548
 20
10.1347408727
 30
0.0
 10
12.7321864869
 20
10.1323079252
 30
0.0
 10
12.7323224024
 20
10.1295802359
 30
0.0
 10
12.7324248443
 20
10.1265914331
 30
0.0
 10
12.7325196916
 20
10.122219268
 30
0.0
 10
12.732550904
 20
10.1164721448
 30
0.0
 10
12.732463523
 20
10.1094687878
 30
0.0
 10
12.7323342675
 20
10.1047628264
 30
0.0
 10
12.7322532291
 20
10.1024325602
 30
0.0
  0
SPLINE
  5
48C
100
AcDbEntity
  8
0
100
AcDbSpline
 62
9
  6
CONTINUOUS
 70
0
 71
3
 72
18
 73
14
 74
0
 42
0.0000001
 43
0.0000001
 44
0.0000000001
 40
0.0
 40
0.0
 40
0.0
 40
0.0
 40
0.0409453184
 40
0.0829938273
 40
0.1271113634
 40
0.1740631288
 40
0.2782249
 40
0.3361347865
 40
0.3979113334
 40
0.5324093753
 40
0.679847213
 40
0.8371849322
 40
1.0
 40
1.0
 40
1.0
 40
1.0
 10
14.0877343661
 20
10.1773127293
 30
0.0
 10
14.0883494622
 20
10.1772256921
 30
0.0
 10
14.0895823338
 20
10.176929552
 30
0.0
 10
14.0913515571
 20
10.1761375632
 30
0.0
 10
14.0930330938
 20
10.1750021853
 30
0.0
 10
14.0952128864
 20
10.1729829744
 30
0.0
 10
14.0970733819
 20
10.1703718446
 30
0.0
 10
14.0986240341
 20
10.1673483759
 30
0.0
 10
14.1000804124
 20
10.1637721026
 30
0.0
 10
14.1014693007
 20
10.1587265924
 30
0.0
 10
14.1024357178
 20
10.1521184908
 30
0.0
 10
14.1027048227
 20
10.1450174632
 30
0.0
 10
14.1024224856
 20
10.1401599376
 30
0.0
 10
14.1021651364
 20
10.1377031445
 30
0.0
  0
SPLINE
  5
48D
100
AcDbEntity
  8
0
100
AcDbSpline
 62
7
  6
CONTINUOUS
 70
0
 71
3
 72
23
 73
19
 74
0
 42
0.0000001
 43
0.0000001
 44
0.0000000001
 40
0.0
 40
0.0
 40
0.0
 40
0.0
 40
0.0573539507
 40
0.1165708552
 40
0.1773887608
 40
0.2395478592
 40
0.3027914784
 40
0.3668670958
 40
0.4315274299
 40
0.4965316636
 40
0.5616458297
 40
0.6266342895
 40
0.6912543133
 40
0.7552574914
 40
0.8183909506
 40
0.8803984516
 40
0.9410214243
 40
1.0
 40
1.0
 40
1.0
 40
1.0
 10
7.786222589
 20
10.0673847502
 30
0.0
 10
7.814127086
 20
10.071285662
 30
0.0
 10
7.8709468414
 20
10.0784840519
 30
0.0
 10
7.9576511951
 20
10.0873116386
 30
0.0
 10
8.0468982416
 20
10.0942182493
 30
0.0
 10
8.138262047
 20
10.0990639992
 30
0.0
 10
8.2313176232
 20
10.1017092713
 30
0.0
 10
8.3256397977
 20
10.102014553
 30
0.0
 10
8.4208034103
 20
10.0998404569
 30
0.0
 10
8.5163835693
 20
10.095047602
 30
0.0
 10
8.6119472696
 20
10.0874974469
 30
0.0
 10
8.7070799275
 20
10.0773603735
 30
0.0
 10
8.8013725362
 20
10.0648061491
 30
0.0
 10
8.8944153234
 20
10.0500047682
 30
0.0
 10
8.9857985243
 20
10.033126328
 30
0.0
 10
9.0751126013
 20
10.0143410095
 30
0.0
 10
9.1619470532
 20
9.9938194005
 30
0.0
 10
9.2187762366
 20
9.9788668086
 30
0.0
 10
9.246696426
 20
9.971123855
 30
0.0
  0
SPLINE
  5
48E
100
AcDbEntity
  8
0
100
AcDbSpline
 62
7
  6
CONTINUOUS
 70
0
 71
3
 72
14
 73
10
 74
0
 42
0.0000001
 43
0.0000001
 44
0.0000000001
 40
0.0
 40
0.0
 40
0.0
 40
0.0
 40
0.2436194974
 40
0.3680659829
 40
0.4936134168
 40
0.6198855774
 40
0.7465912339
 40
0.8734287134
 40
1.0
 40
1.0
 40
1.0
 40
1.0
 10
12.1372322759
 20
9.2178843294
 30
0.0
 10
12.1311113329
 20
9.2139603813
 30
0.0
 10
12.1213622471
 20
9.2087713418
 30
0.0
 10
12.107641012
 20
9.2033836681
 30
0.0
 10
12.0968871774
 20
9.2001059705
 30
0.0
 10
12.0858398098
 20
9.1976856012
 30
0.0
 10
12.0745890438
 20
9.1961958605
 30
0.0
 10
12.0632468743
 20
9.1956346013
 30
0.0
 10
12.0556781352
 20
9.1958623978
 30
0.0
 10
12.0519098048
 20
9.1961249253
 30
0.0
  0
SPLINE
  5
48F
100
AcDbEntity
  8
0
100
AcDbSpline
 62
7
  6
CONTINUOUS
 70
0
 71
3
 72
11
 73
7
 74
0
 42
0.0000001
 43
0.0000001
 44
0.0000000001
 40
0.0
 40
0.0
 40
0.0
 40
0.0
 40
0.2505954292
 40
0.5048987076
 40
0.7565643595
 40
1.0
 40
1.0
 40
1.0
 40
1.0
 10
7.2752865353
 20
9.9415966326
 30
0.0
 10
7.2764178887
 20
9.9444227235
 30
0.0
 10
7.2793877439
 20
9.9498584811
 30
0.0
 10
7.2855084026
 20
9.9568219423
 30
0.0
 10
7.2930354961
 20
9.9620820574
 30
0.0
 10
7.2986458923
 20
9.9643999545
 30
0.0
 10
7.3014904913
 20
9.9652080689
 30
0.0
  0
SPLINE
  5
490
100
AcDbEntity
  8
0
100
AcDbSpline
 62
7
  6
CONTINUOUS
 70
0
 71
3
 72
15
 73
11
 74
0
 42
0.0000001
 43
0.0000001
 44
0.0000000001
 40
0.0
 40
0.0
 40
0.0
 40
0.0
 40
0.1231443295
 40
0.244874722
 40
0.3358316227
 40
0.4269523662
 40
0.5186467065
 40
0.6113218122
 40
0.8012414969
 40
1.0
 40
1.0
 40
1.0
 40
1.0
 10
7.3014904911
 20
9.9652080693
 30
0.0
 10
7.3210662632
 20
9.9707692976
 30
0.0
 10
7.3600854975
 20
9.981505624
 30
0.0
 10
7.413842262
 20
9.9953104963
 30
0.0
 10
7.4626535576
 20
10.0070686033
 30
0.0
 10
7.5067696689
 20
10.0171066659
 30
0.0
 10
7.5512822163
 20
10.0266670726
 30
0.0
 10
7.6119137516
 20
10.0389089776
 30
0.0
 10
7.6901931395
 20
10.0531073151
 30
0.0
 10
7.7536928038
 20
10.0628372461
 30
0.0
 10
7.786222589
 20
10.0673847502
 30
0.0
  0
SPLINE
  5
491
100
AcDbEntity
  8
0
100
AcDbSpline
 62
7
  6
CONTINUOUS
 70
0
 71
3
 72
15
 73
11
 74
0
 42
0.0000001
 43
0.0000001
 44
0.0000000001
 40
0.0
 40
0.0
 40
0.0
 40
0.0
 40
0.2426980153
 40
0.3062606712
 40
0.3705208476
 40
0.4999999899
 40
0.6294791336
 40
0.6937393118
 40
0.75730197
 40
1.0
 40
1.0
 40
1.0
 40
1.0
 10
12.1280339793
 20
8.1678695456
 30
0.0
 10
12.1280339839
 20
8.1886797957
 30
0.0
 10
12.1237906538
 20
8.2152249959
 30
0.0
 10
12.1125555828
 20
8.2449510607
 30
0.0
 10
12.1030713907
 20
8.2648985781
 30
0.0
 10
12.0880912855
 20
8.2883839074
 30
0.0
 10
12.0692833323
 20
8.3089320252
 30
0.0
 10
12.0524701967
 20
8.3232558461
 30
0.0
 10
12.0266648689
 20
8.3418017595
 30
0.0
 10
12.0021224256
 20
8.3527709012
 30
0.0
 10
11.9820212643
 20
8.3581569824
 30
0.0
  0
SPLINE
  5
492
100
AcDbEntity
  8
0
100
AcDbSpline
 62
7
  6
CONTINUOUS
 70
0
 71
3
 72
21
 73
17
 74
0
 42
0.0000001
 43
0.0000001
 44
0.0000000001
 40
0.0
 40
0.0
 40
0.0
 40
0.0
 40
0.1141654905
 40
0.174152013
 40
0.2358218918
 40
0.2990866107
 40
0.3635892369
 40
0.4945292293
 40
0.5605369373
 40
0.6264569323
 40
0.6918941888
 40
0.7564129089
 40
0.8196507118
 40
0.88147285
 40
0.9416875153
 40
1.0
 40
1.0
 40
1.0
 40
1.0
 10
8.4451296821
 20
9.3058642984
 30
0.0
 10
8.4348738989
 20
9.3086136204
 30
0.0
 10
8.4187944606
 20
9.3113704803
 30
0.0
 10
8.3968509815
 20
9.3120870693
 30
0.0
 10
8.3796580053
 20
9.3109663769
 30
0.0
 10
8.3622552869
 20
9.3080168107
 30
0.0
 10
8.3390256738
 20
9.3016425208
 30
0.0
 10
8.3166155416
 20
9.2916628274
 30
0.0
 10
8.2961733445
 20
9.2781842038
 30
0.0
 10
8.281958902
 20
9.2665164668
 30
0.0
 10
8.2691022083
 20
9.2535669642
 30
0.0
 10
8.2577838261
 20
9.2395697952
 30
0.0
 10
8.2481866981
 20
9.2247411978
 30
0.0
 10
8.2403073674
 20
9.209385631
 30
0.0
 10
8.2341067161
 20
9.1937749245
 30
0.0
 10
8.2310077541
 20
9.1831761507
 30
0.0
 10
8.2297355793
 20
9.1779041492
 30
0.0
  0
SPLINE
  5
493
100
AcDbEntity
  8
0
100
AcDbSpline
 62
7
  6
CONTINUOUS
 70
0
 71
3
 72
9
 73
5
 74
0
 42
0.0000001
 43
0.0000001
 44
0.0000000001
 40
0.0
 40
0.0
 40
0.0
 40
0.0
 40
0.2510384088
 40
1.0
 40
1.0
 40
1.0
 40
1.0
 10
14.1695382278
 20
9.2150732516
 30
0.0
 10
14.1690807397
 20
9.2155377271
 30
0.0
 10
14.1671683085
 20
9.2172969893
 30
0.0
 10
14.1649135495
 20
9.2186845109
 30
0.0
 10
14.1631245154
 20
9.2194477765
 30
0.0
  0
SPLINE
  5
494
100
AcDbEntity
  8
0
100
AcDbSpline
 62
7
  6
CONTINUOUS
 70
0
 71
3
 72
17
 73
13
 74
0
 42
0.0000001
 43
0.0000001
 44
0.0000000001
 40
0.0
 40
0.0
 40
0.0
 40
0.0
 40
0.1249326065
 40
0.187500237
 40
0.2500476408
 40
0.375017338
 40
0.499994591
 40
0.6249721099
 40
0.7499448664
 40
0.8124949643
 40
0.8750650353
 40
1.0
 40
1.0
 40
1.0
 40
1.0
 10
12.140187951
 20
9.2194492137
 30
0.0
 10
12.1546951124
 20
9.225635572
 30
0.0
 10
12.1758710781
 20
9.2364207774
 30
0.0
 10
12.202425998
 20
9.2535171501
 30
0.0
 10
12.2277679355
 20
9.2723805595
 30
0.0
 10
12.2569593835
 20
9.2991081163
 30
0.0
 10
12.2873164012
 20
9.3356046447
 30
0.0
 10
12.3124887917
 20
9.3758530168
 30
0.0
 10
12.3287469253
 20
9.4119395485
 30
0.0
 10
12.3387388389
 20
9.4419106914
 30
0.0
 10
12.346672979
 20
9.4724812407
 30
0.0
 10
12.3502948111
 20
9.4959685481
 30
0.0
 10
12.3516338271
 20
9.5116830378
 30
0.0
  0
SPLINE
  5
495
100
AcDbEntity
  8
0
100
AcDbSpline
 62
9
  6
CONTINUOUS
 70
0
 71
3
 72
13
 73
9
 74
0
 42
0.0000001
 43
0.0000001
 44
0.0000000001
 40
0.0
 40
0.0
 40
0.0
 40
0.0
 40
0.3227618856
 40
0.6094960384
 40
0.7328455552
 40
0.8401578531
 40
0.9297545541
 40
1.0
 40
1.0
 40
1.0
 40
1.0
 10
11.670246405
 20
9.170151864
 30
0.0
 10
11.6711698917
 20
9.1733798344
 30
0.0
 10
11.6729697862
 20
9.1794595473
 30
0.0
 10
11.6752827046
 20
9.1867244853
 30
0.0
 10
11.6770346581
 20
9.1918137024
 30
0.0
 10
11.6781788111
 20
9.1949428589
 30
0.0
 10
11.6791994641
 20
9.1975278637
 30
0.0
 10
11.6798668765
 20
9.1990518603
 30
0.0
 10
11.6801858822
 20
9.1997092648
 30
0.0
  0
LINE
  5
496
100
AcDbEntity
  8
0
100
AcDbLine
 62
9
  6
CONTINUOUS
 10
7.7776332206
 20
10.011251301
 11
7.7733573829
 21
10.0108762761
  0
SPLINE
  5
497
100
AcDbEntity
  8
0
100
AcDbSpline
 62
9
  6
CONTINUOUS
 70
0
 71
3
 72
42
 73
38
 74
0
 42
0.0000001
 43
0.0000001
 44
0.0000000001
 40
0.0
 40
0.0
 40
0.0
 40
0.0
 40
0.1845860727
 40
0.2735394357
 40
0.3596267675
 40
0.442519529
 40
0.5218835128
 40
0.5973830574
 40
0.6686824667
 40
0.7353883363
 40
0.7668272574
 40
0.7968765314
 40
0.8254450132
 40
0.8524178908
 40
0.8776744322
 40
0.9010939027
 40
0.9225402789
 40
0.9418163914
 40
0.9505742064
 40
0.9587097845
 40
0.9661965688
 40
0.9730080023
 40
0.9791175279
 40
0.9844985888
 40
0.9891246278
 40
0.9929690879
 40
0.9945899269
 40
0.9960054122
 40
0.9972122244
 40
0.9982070437
 40
0.9989865505
 40
0.9992945244
 40
0.9995474253
 40
0.9997448382
 40
0.9998863483
 40
0.9999715405
 40
1.0
 40
1.0
 40
1.0
 40
1.0
 10
7.7733562318
 20
10.0108732055
 30
0.0
 10
7.7443064879
 20
10.0082373068
 30
0.0
 10
7.7012601199
 20
10.0043016993
 30
0.0
 10
7.6446734816
 20
9.9990504133
 30
0.0
 10
7.6040921944
 20
9.9952402128
 30
0.0
 10
7.565024379
 20
9.9915213963
 30
0.0
 10
7.527626498
 20
9.9879158914
 30
0.0
 10
7.4920560986
 20
9.9844459393
 30
0.0
 10
7.4584800304
 20
9.981134613
 30
0.0
 10
7.4318356012
 20
9.9784803719
 30
0.0
 10
7.4116791006
 20
9.9764572348
 30
0.0
 10
7.3975198074
 20
9.9750289871
 30
0.0
 10
7.384063379
 20
9.9736648005
 30
0.0
 10
7.371361003
 20
9.972371627
 30
0.0
 10
7.359468515
 20
9.971156911
 30
0.0
 10
7.3484450867
 20
9.9700284105
 30
0.0
 10
7.3383618992
 20
9.968995166
 30
0.0
 10
7.3305836098
 20
9.9681974229
 30
0.0
 10
7.3248978111
 20
9.9676139221
 30
0.0
 10
7.3210652946
 20
9.9672204609
 30
0.0
 10
7.3175387593
 20
9.9668582783
 30
0.0
 10
7.3143307262
 20
9.9665286892
 30
0.0
 10
7.3114537161
 20
9.9662330081
 30
0.0
 10
7.3089202518
 20
9.9659725504
 30
0.0
 10
7.3067428491
 20
9.9657486289
 30
0.0
 10
7.3051565509
 20
9.9655854522
 30
0.0
 10
7.304074917
 20
9.9654741618
 30
0.0
 10
7.3034079502
 20
9.9654055387
 30
0.0
 10
7.302839272
 20
9.9653469937
 30
0.0
 10
7.3023709029
 20
9.9652988533
 30
0.0
 10
7.302043005
 20
9.9652649611
 30
0.0
 10
7.3018331853
 20
9.9652435902
 30
0.0
 10
7.3017121286
 20
9.9652306627
 30
0.0
 10
7.3016239177
 20
9.9652228062
 30
0.0
 10
7.3015462933
 20
9.9652120502
 30
0.0
 10
7.3015254706
 20
9.9652147916
 30
0.0
 10
7.3014875916
 20
9.9652058368
 30
0.0
 10
7.3014913465
 20
9.9652083118
 30
0.0
  0
SPLINE
  5
498
100
AcDbEntity
  8
0
100
AcDbSpline
 62
9
  6
CONTINUOUS
 70
0
 71
3
 72
13
 73
9
 74
0
 42
0.0000001
 43
0.0000001
 44
0.0000000001
 40
0.0
 40
0.0
 40
0.0
 40
0.0
 40
0.3160612414
 40
0.6072772525
 40
0.7327324009
 40
0.8411722548
 40
0.930837247
 40
1.0
 40
1.0
 40
1.0
 40
1.0
 10
11.7903336542
 20
9.1368930406
 30
0.0
 10
11.7912412109
 20
9.1400758052
 30
0.0
 10
11.7930430462
 20
9.146174628
 30
0.0
 10
11.795358672
 20
9.1534906636
 30
0.0
 10
11.7971440294
 20
9.1586916937
 30
0.0
 10
11.7983053712
 20
9.1618749548
 30
0.0
 10
11.7993293268
 20
9.1644797668
 30
0.0
 10
11.7999913215
 20
9.166006494
 30
0.0
 10
11.8003041439
 20
9.1666596867
 30
0.0
  0
SPLINE
  5
499
100
AcDbEntity
  8
0
100
AcDbSpline
 62
9
  6
CONTINUOUS
 70
0
 71
3
 72
15
 73
11
 74
0
 42
0.0000001
 43
0.0000001
 44
0.0000000001
 40
0.0
 40
0.0
 40
0.0
 40
0.0
 40
0.338292865
 40
0.4956374912
 40
0.6382620905
 40
0.7616861442
 40
0.8639406427
 40
0.9437353126
 40
0.9748610484
 40
1.0
 40
1.0
 40
1.0
 40
1.0
 10
7.7731607518
 20
9.9820144497
 30
0.0
 10
7.7729448803
 20
9.9852696164
 30
0.0
 10
7.7726926376
 20
9.9900435825
 30
0.0
 10
7.7725188788
 20
9.9961964552
 30
0.0
 10
7.7724858912
 20
10.0002796466
 30
0.0
 10
7.7725555833
 20
10.0038314073
 30
0.0
 10
7.7727192743
 20
10.0067731045
 30
0.0
 10
7.7729328063
 20
10.0088197584
 30
0.0
 10
7.7731586756
 20
10.0101126608
 30
0.0
 10
7.7732859551
 20
10.0106409227
 30
0.0
 10
7.7733561521
 20
10.0108729638
 30
0.0
  0
SPLINE
  5
49A
100
AcDbEntity
  8
0
100
AcDbSpline
 62
7
  6
CONTINUOUS
 70
0
 71
3
 72
26
 73
22
 74
0
 42
0.0000001
 43
0.0000001
 44
0.0000000001
 40
0.0
 40
0.0
 40
0.0
 40
0.0
 40
0.0625103253
 40
0.1250582932
 40
0.1875730883
 40
0.2500787236
 40
0.3125840348
 40
0.3750953895
 40
0.5000221345
 40
0.6249798307
 40
0.6874977087
 40
0.7500004296
 40
0.781243019
 40
0.8124788372
 40
0.8437186947
 40
0.8749759419
 40
0.8906164121
 40
0.9062659798
 40
0.9375618815
 40
0.9688115096
 40
1.0
 40
1.0
 40
1.0
 40
1.0
 10
8.4139332259
 20
9.4173540606
 30
0.0
 10
8.3994008923
 20
9.4212478875
 30
0.0
 10
8.3698855517
 20
9.4274754162
 30
0.0
 10
8.324915061
 20
9.4322035045
 30
0.0
 10
8.279699242
 20
9.4324320873
 30
0.0
 10
8.2346836509
 20
9.4283823812
 30
0.0
 10
8.1902222629
 20
9.4202869506
 30
0.0
 10
8.1321104093
 20
9.4045037186
 30
0.0
 10
8.0621600372
 20
9.3760882942
 30
0.0
 10
7.997004525
 20
9.3381005503
 30
0.0
 10
7.9481321067
 20
9.3029589602
 30
0.0
 10
7.9189886032
 20
9.279144648
 30
0.0
 10
7.896571915
 20
9.2590815831
 30
0.0
 10
7.8802223023
 20
9.243536967
 30
0.0
 10
7.8643603911
 20
9.2274903011
 30
0.0
 10
7.8515683981
 20
9.2137001661
 30
0.0
 10
7.8416027102
 20
9.2024164774
 30
0.0
 10
7.8318164462
 20
9.1909647448
 30
0.0
 10
7.8199851906
 20
9.1763212631
 30
0.0
 10
7.8066297112
 20
9.1581284205
 30
0.0
 10
7.7984243751
 20
9.1455251772
 30
0.0
 10
7.7945391615
 20
9.1391024361
 30
0.0
  0
SPLINE
  5
49B
100
AcDbEntity
  8
0
100
AcDbSpline
 62
7
  6
CONTINUOUS
 70
0
 71
3
 72
11
 73
7
 74
0
 42
0.0000001
 43
0.0000001
 44
0.0000000001
 40
0.0
 40
0.0
 40
0.0
 40
0.0
 40
0.2492312395
 40
0.4994944718
 40
0.750010279
 40
1.0
 40
1.0
 40
1.0
 40
1.0
 10
7.7560252051
 20
9.1379094577
 30
0.0
 10
7.7516796278
 20
9.1765827574
 30
0.0
 10
7.7434279917
 20
9.2541416458
 30
0.0
 10
7.7324203084
 20
9.3707378053
 30
0.0
 10
7.7228981667
 20
9.487583986
 30
0.0
 10
7.7176801711
 20
9.5655658389
 30
0.0
 10
7.7154042034
 20
9.6045345482
 30
0.0
  0
SPLINE
  5
49C
100
AcDbEntity
  8
0
100
AcDbSpline
 62
9
  6
CONTINUOUS
 70
0
 71
3
 72
11
 73
7
 74
0
 42
0.0000001
 43
0.0000001
 44
0.0000000001
 40
0.0
 40
0.0
 40
0.0
 40
0.0
 40
0.2498183232
 40
0.4997149983
 40
0.7497700106
 40
1.0
 40
1.0
 40
1.0
 40
1.0
 10
7.7773432027
 20
9.9823457625
 30
0.0
 10
7.8974584065
 20
9.9916895521
 30
0.0
 10
8.1385571158
 20
10.0017018021
 30
0.0
 10
8.5002101487
 20
9.9848789338
 30
0.0
 10
8.859239594
 20
9.9366226541
 30
0.0
 10
9.0947218547
 20
9.8823256707
 30
0.0
 10
9.2110349684
 20
9.8501681694
 30
0.0
  0
SPLINE
  5
49D
100
AcDbEntity
  8
0
100
AcDbSpline
 62
9
  6
CONTINUOUS
 70
0
 71
3
 72
13
 73
9
 74
0
 42
0.0000001
 43
0.0000001
 44
0.0000000001
 40
0.0
 40
0.0
 40
0.0
 40
0.0
 40
0.2500225237
 40
0.3750262469
 40
0.5000260409
 40
0.6250225821
 40
0.7500165479
 40
1.0
 40
1.0
 40
1.0
 40
1.0
 10
11.6702511719
 20
9.1701685255
 30
0.0
 10
11.4654927919
 20
9.2269065482
 30
0.0
 10
11.1583574674
 20
9.3119977098
 30
0.0
 10
10.7488197636
 20
9.4253376152
 30
0.0
 10
10.4416647108
 20
9.5102740613
 30
0.0
 10
10.1345050821
 20
9.5951628307
 30
0.0
 10
9.7249593053
 20
9.7083074533
 30
0.0
 10
9.4177882151
 20
9.7931136337
 30
0.0
 10
9.2129972014
 20
9.8496090263
 30
0.0
  0
SPLINE
  5
49E
100
AcDbEntity
  8
0
100
AcDbSpline
 62
9
  6
CONTINUOUS
 70
0
 71
3
 72
14
 73
10
 74
0
 42
0.0000001
 43
0.0000001
 44
0.0000000001
 40
0.0
 40
0.0
 40
0.0
 40
0.0
 40
0.3235033431
 40
0.4776681906
 40
0.6197831182
 40
0.7451978271
 40
0.8515505028
 40
0.9370591784
 40
1.0
 40
1.0
 40
1.0
 40
1.0
 10
9.2130017272
 20
9.8496246419
 30
0.0
 10
9.2139758294
 20
9.8529854922
 30
0.0
 10
9.2154653542
 20
9.8579333959
 30
0.0
 10
9.2175081562
 20
9.8643185682
 30
0.0
 10
9.2189581897
 20
9.8686434455
 30
0.0
 10
9.2203151063
 20
9.8724533167
 30
0.0
 10
9.2215393575
 20
9.8756599641
 30
0.0
 10
9.2226011473
 20
9.8782033292
 30
0.0
 10
9.2232851178
 20
9.8796580536
 30
0.0
 10
9.2236090763
 20
9.8802568337
 30
0.0
  0
SPLINE
  5
49F
100
AcDbEntity
  8
0
100
AcDbSpline
 62
9
  6
CONTINUOUS
 70
0
 71
3
 72
11
 73
7
 74
0
 42
0.0000001
 43
0.0000001
 44
0.0000000001
 40
0.0
 40
0.0
 40
0.0
 40
0.0
 40
0.2446636994
 40
0.4945759103
 40
0.7472159578
 40
1.0
 40
1.0
 40
1.0
 40
1.0
 10
11.612356077
 20
8.5603535373
 30
0.0
 10
11.6137722656
 20
8.6103178687
 30
0.0
 10
11.6186069976
 20
8.7112694352
 30
0.0
 10
11.6310175458
 20
8.8634428006
 30
0.0
 10
11.6481631184
 20
9.0168220792
 30
0.0
 10
11.6624441357
 20
9.1191012783
 30
0.0
 10
11.670246405
 20
9.170151864
 30
0.0
  0
SPLINE
  5
4A0
100
AcDbEntity
  8
0
100
AcDbSpline
 62
9
  6
CONTINUOUS
 70
0
 71
3
 72
11
 73
7
 74
0
 42
0.0000001
 43
0.0000001
 44
0.0000000001
 40
0.0
 40
0.0
 40
0.0
 40
0.0
 40
0.2452045841
 40
0.4951604287
 40
0.7475508602
 40
1.0
 40
1.0
 40
1.0
 40
1.0
 10
11.7834739532
 20
8.5179464501
 30
0.0
 10
11.7841819737
 20
8.5678333475
 30
0.0
 10
11.7874836455
 20
8.6685536394
 30
0.0
 10
11.7973371553
 20
8.8203603247
 30
0.0
 10
11.8116699991
 20
8.9732875379
 30
0.0
 10
11.8239249494
 20
9.0752866134
 30
0.0
 10
11.8306763181
 20
9.1262069675
 30
0.0
  0
SPLINE
  5
4A1
100
AcDbEntity
  8
0
100
AcDbSpline
 62
9
  6
CONTINUOUS
 70
0
 71
3
 72
34
 73
30
 74
0
 42
0.0000001
 43
0.0000001
 44
0.0000000001
 40
0.0
 40
0.0
 40
0.0
 40
0.0
 40
0.22456
 40
0.3274238567
 40
0.4237260711
 40
0.5132695286
 40
0.5958132339
 40
0.6711155595
 40
0.7390193302
 40
0.7993942
 40
0.852075634
 40
0.8754752262
 40
0.8968947419
 40
0.9163309792
 40
0.9337810088
 40
0.9492418887
 40
0.9627098969
 40
0.9741649941
 40
0.983571589
 40
0.9874953876
 40
0.9908934935
 40
0.9937613952
 40
0.9960945964
 40
0.9978886352
 40
0.9985821011
 40
0.9991391597
 40
0.999559331
 40
0.9998422631
 40
1.0
 40
1.0
 40
1.0
 40
1.0
 10
12.2766330183
 20
8.4001458455
 30
0.0
 10
12.2545568828
 20
8.397167
 30
0.0
 10
12.2223725166
 20
8.3927927294
 30
0.0
 10
12.1807321849
 20
8.387058121
 30
0.0
 10
12.1523646712
 20
8.3831182774
 30
0.0
 10
12.1259974067
 20
8.3794294236
 30
0.0
 10
12.1016976765
 20
8.375997492
 30
0.0
 10
12.0795292855
 20
8.3728250034
 30
0.0
 10
12.0595433415
 20
8.3699259497
 30
0.0
 10
12.0417830167
 20
8.3673155946
 30
0.0
 10
12.0283944621
 20
8.3653207806
 30
0.0
 10
12.0188305627
 20
8.3638788209
 30
0.0
 10
12.0125287636
 20
8.3629215639
 30
0.0
 10
12.0068112883
 20
8.3620475346
 30
0.0
 10
12.0016787115
 20
8.3612589519
 30
0.0
 10
11.9971316829
 20
8.3605578863
 30
0.0
 10
11.9931724306
 20
8.3599472206
 30
0.0
 10
11.9898067528
 20
8.3594281427
 30
0.0
 10
11.9873769961
 20
8.3590517499
 30
0.0
 10
11.98573752
 20
8.3587953524
 30
0.0
 10
11.9847389519
 20
8.3586376462
 30
0.0
 10
11.9838969919
 20
8.3585028601
 30
0.0
 10
11.9832112684
 20
8.3583903414
 30
0.0
 10
11.9827418943
 20
8.3583111757
 30
0.0
 10
11.9824414248
 20
8.3582568206
 30
0.0
 10
11.98228497
 20
8.3582285575
 30
0.0
 10
11.9821465943
 20
8.3581979181
 30
0.0
 10
11.9820966994
 20
8.3581910795
 30
0.0
 10
11.9820061487
 20
8.3581610275
 30
0.0
 10
11.982021263
 20
8.3581569777
 30
0.0
  0
SPLINE
  5
4A2
100
AcDbEntity
  8
0
100
AcDbSpline
 62
9
  6
CONTINUOUS
 70
0
 71
3
 72
15
 73
11
 74
0
 42
0.0000001
 43
0.0000001
 44
0.0000000001
 40
0.0
 40
0.0
 40
0.0
 40
0.0
 40
0.2207809726
 40
0.4185819812
 40
0.5908128738
 40
0.7351988906
 40
0.8496990706
 40
0.9327602398
 40
0.9830927815
 40
1.0
 40
1.0
 40
1.0
 40
1.0
 10
11.8003039083
 20
9.1666598487
 30
0.0
 10
11.7710163623
 20
9.1826195676
 30
0.0
 10
11.7152996227
 20
9.2125302963
 30
0.0
 10
11.6362188359
 20
9.25391749
 30
0.0
 10
11.5670813346
 20
9.2894079239
 30
0.0
 10
11.5089630242
 20
9.3188043844
 30
0.0
 10
11.4627951296
 20
9.3419806117
 30
0.0
 10
11.4292918823
 20
9.3587143221
 30
0.0
 10
11.4089958578
 20
9.3688948878
 30
0.0
 10
11.3999222063
 20
9.3734615559
 30
0.0
 10
11.3976426124
 20
9.3746136845
 30
0.0
  0
SPLINE
  5
4A3
100
AcDbEntity
  8
0
100
AcDbSpline
 62
9
  6
CONTINUOUS
 70
0
 71
3
 72
12
 73
8
 74
0
 42
0.0000001
 43
0.0000001
 44
0.0000000001
 40
0.0
 40
0.0
 40
0.0
 40
0.0
 40
0.3119593896
 40
0.6005935913
 40
0.8356758313
 40
0.9275493287
 40
1.0
 40
1.0
 40
1.0
 40
1.0
 10
11.8306757663
 20
9.1262071102
 30
0.0
 10
11.8314903962
 20
9.1293217044
 30
0.0
 10
11.8331108848
 20
9.1353045698
 30
0.0
 10
11.8355173383
 20
9.1435864621
 30
0.0
 10
11.8374508267
 20
9.1496395911
 30
0.0
 10
11.8388361805
 20
9.1535218569
 30
0.0
 10
11.8394538394
 20
9.1551018342
 30
0.0
 10
11.8397467004
 20
9.1557897696
 30
0.0
  0
SPLINE
  5
4A4
100
AcDbEntity
  8
0
100
AcDbSpline
 62
9
  6
CONTINUOUS
 70
0
 71
3
 72
44
 73
40
 74
0
 42
0.0000001
 43
0.0000001
 44
0.0000000001
 40
0.0
 40
0.0
 40
0.0
 40
0.0
 40
0.0000249322
 40
0.0001039927
 40
0.0002382803
 40
0.0004276269
 40
0.0006717399
 40
0.0009702938
 40
0.001729367
 40
0.0027020944
 40
0.0038856887
 40
0.0052773506
 40
0.0068742756
 40
0.008673656
 40
0.0106726725
 40
0.0152568095
 40
0.0205993195
 40
0.026672422
 40
0.0334483356
 40
0.0408993792
 40
0.0489981905
 40
0.0577174679
 40
0.0769095667
 40
0.0982834738
 40
0.1216687284
 40
0.1468999543
 40
0.1738434604
 40
0.2023795776
 40
0.2323921127
 40
0.2637852379
 40
0.3303761987
 40
0.4015873082
 40
0.4769764391
 40
0.5562086046
 40
0.638992071
 40
0.7250684635
 40
0.814222199
 40
0.9061333591
 40
1.0
 40
1.0
 40
1.0
 40
1.0
 10
7.2752865352
 20
9.9415966326
 30
0.0
 10
7.2752849923
 20
9.9415927785
 30
0.0
 10
7.2753146795
 20
9.9415917101
 30
0.0
 10
7.27534192
 20
9.941589788
 30
0.0
 10
7.2754162261
 20
9.9415918538
 30
0.0
 10
7.2755074434
 20
9.9415954429
 30
0.0
 10
7.2756304261
 20
9.9416020035
 30
0.0
 10
7.2758461827
 20
9.9416150872
 30
0.0
 10
7.2761838567
 20
9.941638433
 30
0.0
 10
7.2766677853
 20
9.9416746103
 30
0.0
 10
7.2772568162
 20
9.9417209073
 30
0.0
 10
7.2779492353
 20
9.9417771619
 30
0.0
 10
7.2787437542
 20
9.9418432756
 30
0.0
 10
7.2796389352
 20
9.9419191144
 30
0.0
 10
7.2810296121
 20
9.9420385891
 30
0.0
 10
7.2830078399
 20
9.9422115572
 30
0.0
 10
7.2856615291
 20
9.9424475589
 30
0.0
 10
7.2886784061
 20
9.9427196388
 30
0.0
 10
7.2920446286
 20
9.9430269244
 30
0.0
 10
7.2957464328
 20
9.9433684443
 30
0.0
 10
7.2997702325
 20
9.9437421836
 30
0.0
 10
7.3057404723
 20
9.9442990518
 30
0.0
 10
7.3139114442
 20
9.9450632091
 30
0.0
 10
7.3245139325
 20
9.9460541745
 30
0.0
 10
7.3361178349
 20
9.9471367257
 30
0.0
 10
7.3486454987
 20
9.9483015374
 30
0.0
 10
7.3620275982
 20
9.9495410654
 30
0.0
 10
7.3762029547
 20
9.9508485957
 30
0.0
 10
7.3911166544
 20
9.9522181312
 30
0.0
 10
7.4123416022
 20
9.9541542068
 30
0.0
 10
7.4404015494
 20
9.956677466
 30
0.0
 10
7.4757645371
 20
9.9597828683
 30
0.0
 10
7.5132320044
 20
9.9629843983
 30
0.0
 10
7.5526272156
 20
9.966257582
 30
0.0
 10
7.593806057
 20
9.969553861
 30
0.0
 10
7.6366445331
 20
9.9728180388
 30
0.0
 10
7.6810115445
 20
9.9760219085
 30
0.0
 10
7.7266856453
 20
9.9791300953
 30
0.0
 10
7.7575588845
 20
9.9810768003
 30
0.0
 10
7.7731607237
 20
9.9820144479
 30
0.0
  0
SPLINE
  5
4A5
100
AcDbEntity
  8
0
100
AcDbSpline
 62
9
  6
CONTINUOUS
 70
0
 71
3
 72
28
 73
24
 74
0
 42
0.0000001
 43
0.0000001
 44
0.0000000001
 40
0.0
 40
0.0
 40
0.0
 40
0.0
 40
0.0864759297
 40
0.1739320356
 40
0.2615630207
 40
0.3485449088
 40
0.4340211431
 40
0.5170486539
 40
0.5966538899
 40
0.6718537375
 40
0.7416636156
 40
0.8051167217
 40
0.8612463265
 40
0.8862614007
 40
0.9090808456
 40
0.9295866573
 40
0.9476770273
 40
0.9632540509
 40
0.9762196379
 40
0.9864755253
 40
0.9939232886
 40
0.9984643524
 40
1.0
 40
1.0
 40
1.0
 40
1.0
 10
7.7154041235
 20
9.6045342028
 30
0.0
 10
7.7004237182
 20
9.6085481928
 30
0.0
 10
7.670159992
 20
9.6161309387
 30
0.0
 10
7.6243495058
 20
9.6262488961
 30
0.0
 10
7.5782126699
 20
9.6352397153
 30
0.0
 10
7.5322366549
 20
9.6431334333
 30
0.0
 10
7.4869252855
 20
9.6499582092
 30
0.0
 10
7.4428093531
 20
9.6557830652
 30
0.0
 10
7.400435353
 20
9.6606741834
 30
0.0
 10
7.3603523014
 20
9.6646978344
 30
0.0
 10
7.3231039579
 20
9.6679202962
 30
0.0
 10
7.2892296783
 20
9.6704270656
 30
0.0
 10
7.2633469946
 20
9.6720492139
 30
0.0
 10
7.2447299588
 20
9.6730657028
 30
0.0
 10
7.2324872024
 20
9.6736730934
 30
0.0
 10
7.221488228
 20
9.6741663578
 30
0.0
 10
7.2117666098
 20
9.6745570396
 30
0.0
 10
7.2034498988
 20
9.6748555459
 30
0.0
 10
7.1963782008
 20
9.6750763066
 30
0.0
 10
7.1911867353
 20
9.6752226644
 30
0.0
 10
7.1864892864
 20
9.6753261325
 30
0.0
 10
7.1853315039
 20
9.6753563927
 30
0.0
 10
7.1829121687
 20
9.6753929809
 30
0.0
 10
7.1831875509
 20
9.6753892328
 30
0.0
  0
SPLINE
  5
4A6
100
AcDbEntity
  8
0
100
AcDbSpline
 62
9
  6
CONTINUOUS
 70
0
 71
3
 72
51
 73
47
 74
0
 42
0.0000001
 43
0.0000001
 44
0.0000000001
 40
0.0
 40
0.0
 40
0.0
 40
0.0
 40
0.0016576551
 40
0.0033166877
 40
0.005192933
 40
0.0074438798
 40
0.0134884406
 40
0.0220166467
 40
0.027331307
 40
0.0334011518
 40
0.047006089
 40
0.0539630657
 40
0.0573918014
 40
0.0607916038
 40
0.0676850052
 40
0.0749287969
 40
0.0827254901
 40
0.0913164425
 40
0.1009236238
 40
0.1117521991
 40
0.1240437705
 40
0.1380225041
 40
0.1534758462
 40
0.1698780138
 40
0.1866673044
 40
0.2033187014
 40
0.2195734179
 40
0.2353402755
 40
0.2505680728
 40
0.2653029924
 40
0.2947605791
 40
0.3102076009
 40
0.3265056744
 40
0.3436332215
 40
0.3614991597
 40
0.3990363878
 40
0.4383861414
 40
0.4789711408
 40
0.5206373822
 40
0.5633542713
 40
0.6071703902
 40
0.6983046358
 40
0.7943148372
 40
0.8440873207
 40
0.8949705641
 40
1.0
 40
1.0
 40
1.0
 40
1.0
 10
8.2297260775
 20
9.17790644
 30
0.0
 10
8.2297033991
 20
9.1778257361
 30
0.0
 10
8.22963777
 20
9.1776685505
 30
0.0
 10
8.2294687432
 20
9.1774636753
 30
0.0
 10
8.2292362171
 20
9.1772837242
 30
0.0
 10
8.2287928999
 20
9.1770219037
 30
0.0
 10
8.2280289687
 20
9.1766464888
 30
0.0
 10
8.2271392628
 20
9.1761773515
 30
0.0
 10
8.2262646435
 20
9.175677695
 30
0.0
 10
8.2251900633
 20
9.1750131673
 30
0.0
 10
8.2240400379
 20
9.1743070597
 30
0.0
 10
8.2229241006
 20
9.173821631
 30
0.0
 10
8.2222565174
 20
9.1736179128
 30
0.0
 10
8.221576544
 20
9.1734753758
 30
0.0
 10
8.2206931861
 20
9.1733819338
 30
0.0
 10
8.2195863934
 20
9.1733145778
 30
0.0
 10
8.2183959724
 20
9.1731974173
 30
0.0
 10
8.2171049009
 20
9.1729348484
 30
0.0
 10
8.2157072665
 20
9.1724752273
 30
0.0
 10
8.2142014061
 20
9.1717803465
 30
0.0
 10
8.2125902061
 20
9.1708118396
 30
0.0
 10
8.2109015869
 20
9.1695424692
 30
0.0
 10
8.2091306444
 20
9.1680465858
 30
0.0
 10
8.2072794014
 20
9.1664265877
 30
0.0
 10
8.2053652778
 20
9.1647861607
 30
0.0
 10
8.2033898204
 20
9.1632308402
 30
0.0
 10
8.2013695274
 20
9.1618217513
 30
0.0
 10
8.1993182601
 20
9.1605922204
 30
0.0
 10
8.1972401276
 20
9.1595691023
 30
0.0
 10
8.1944140653
 20
9.1585330498
 30
0.0
 10
8.1914822558
 20
9.1578125786
 30
0.0
 10
8.1885086023
 20
9.1569514274
 30
0.0
 10
8.1861790353
 20
9.1561215819
 30
0.0
 10
8.1837736064
 20
9.1551498188
 30
0.0
 10
8.1804174479
 20
9.1536686198
 30
0.0
 10
8.1760996499
 20
9.151589181
 30
0.0
 10
8.1707709296
 20
9.1489632336
 30
0.0
 10
8.1652036853
 20
9.1463501071
 30
0.0
 10
8.1594320317
 20
9.1437746966
 30
0.0
 10
8.1534599473
 20
9.1412506651
 30
0.0
 10
8.1451309789
 20
9.1378800623
 30
0.0
 10
8.134226706
 20
9.1336929127
 30
0.0
 10
8.1230046773
 20
9.129495623
 30
0.0
 10
8.1136573474
 20
9.1260977429
 30
0.0
 10
8.1038520818
 20
9.1226256707
 30
0.0
 10
8.0963886103
 20
9.1200818173
 30
0.0
 10
8.0913495473
 20
9.1184026545
 30
0.0
  0
SPLINE
  5
4A7
100
AcDbEntity
  8
0
100
AcDbSpline
 62
9
  6
CONTINUOUS
 70
0
 71
3
 72
9
 73
5
 74
0
 42
0.0000001
 43
0.0000001
 44
0.0000000001
 40
0.0
 40
0.0
 40
0.0
 40
0.0
 40
0.4861184651
 40
1.0
 40
1.0
 40
1.0
 40
1.0
 10
8.0913495473
 20
9.1184026545
 30
0.0
 10
8.0828372537
 20
9.1155661098
 30
0.0
 10
8.0652613452
 20
9.1099352787
 30
0.0
 10
8.0475574228
 20
9.1046754161
 30
0.0
 10
8.0383571173
 20
9.102369409
 30
0.0
  0
SPLINE
  5
4A8
100
AcDbEntity
  8
0
100
AcDbSpline
 62
9
  6
CONTINUOUS
 70
0
 71
3
 72
47
 73
43
 74
0
 42
0.0000001
 43
0.0000001
 44
0.0000000001
 40
0.0
 40
0.0
 40
0.0
 40
0.0
 40
0.0002311985
 40
0.0009647156
 40
0.0022517362
 40
0.0041351334
 40
0.0065659312
 40
0.009209987
 40
0.0122242588
 40
0.0160783379
 40
0.020885002
 40
0.0264678618
 40
0.0325313953
 40
0.0387056745
 40
0.0447277896
 40
0.0477269936
 40
0.0508917423
 40
0.0544384437
 40
0.0583777526
 40
0.0625512117
 40
0.0667608196
 40
0.074825172
 40
0.0826725535
 40
0.0911135114
 40
0.1003734673
 40
0.1100355128
 40
0.1199846356
 40
0.1407996579
 40
0.1631265866
 40
0.1871688239
 40
0.2131205899
 40
0.2411425207
 40
0.271378556
 40
0.3038633799
 40
0.3385792918
 40
0.3754892085
 40
0.4557909275
 40
0.5449160832
 40
0.6432274381
 40
0.7514946618
 40
0.8704640283
 40
1.0
 40
1.0
 40
1.0
 40
1.0
 10
8.4451426487
 20
9.3058607455
 30
0.0
 10
8.4451337246
 20
9.3058631548
 30
0.0
 10
8.4451656838
 20
9.3059188615
 30
0.0
 10
8.4452043873
 20
9.3059703602
 30
0.0
 10
8.4453184546
 20
9.3060988104
 30
0.0
 10
8.4454776555
 20
9.3062464601
 30
0.0
 10
8.445691378
 20
9.3064278529
 30
0.0
 10
8.4458816346
 20
9.3067023438
 30
0.0
 10
8.4459023776
 20
9.3070969185
 30
0.0
 10
8.4457877685
 20
9.3075507598
 30
0.0
 10
8.4455726033
 20
9.3080792533
 30
0.0
 10
8.4452995555
 20
9.3086772839
 30
0.0
 10
8.445016253
 20
9.309331879
 30
0.0
 10
8.4447935244
 20
9.3100277828
 30
0.0
 10
8.444721977
 20
9.3106425352
 30
0.0
 10
8.4448230677
 20
9.3111243079
 30
0.0
 10
8.4450036611
 20
9.3114737893
 30
0.0
 10
8.4452930365
 20
9.3117901428
 30
0.0
 10
8.4456457568
 20
9.3120948954
 30
0.0
 10
8.4460298012
 20
9.3124036676
 30
0.0
 10
8.4465286717
 20
9.3128320024
 30
0.0
 10
8.4470597344
 20
9.3134489125
 30
0.0
 10
8.4474339922
 20
9.3143733921
 30
0.0
 10
8.4474351677
 20
9.3154086986
 30
0.0
 10
8.4473042961
 20
9.3164923906
 30
0.0
 10
8.4472108302
 20
9.3176439855
 30
0.0
 10
8.4471512959
 20
9.3192596732
 30
0.0
 10
8.447233298
 20
9.3213825943
 30
0.0
 10
8.4473843525
 20
9.3240638243
 30
0.0
 10
8.4474881947
 20
9.3269542823
 30
0.0
 10
8.447442762
 20
9.3300746375
 30
0.0
 10
8.4472103504
 20
9.3334352453
 30
0.0
 10
8.4467534637
 20
9.3370360983
 30
0.0
 10
8.4460848021
 20
9.340875036
 30
0.0
 10
8.4452147523
 20
9.3449464458
 30
0.0
 10
8.4437594499
 20
9.3508445226
 30
0.0
 10
8.4414622243
 20
9.3587719068
 30
0.0
 10
8.4379799168
 20
9.3688982693
 30
0.0
 10
8.4336120229
 20
9.3798895134
 30
0.0
 10
8.4281817827
 20
9.3917255475
 30
0.0
 10
8.4215462767
 20
9.4043589234
 30
0.0
 10
8.4165387235
 20
9.4129439649
 30
0.0
 10
8.413847193
 20
9.4173686579
 30
0.0
  0
SPLINE
  5
4A9
100
AcDbEntity
  8
0
100
AcDbSpline
 62
9
  6
CONTINUOUS
 70
0
 71
3
 72
17
 73
13
 74
0
 42
0.0000001
 43
0.0000001
 44
0.0000000001
 40
0.0
 40
0.0
 40
0.0
 40
0.0
 40
0.2157663065
 40
0.4117467004
 40
0.5842575629
 40
0.7301301945
 40
0.8465057073
 40
0.931270929
 40
0.9612237578
 40
0.98271435
 40
0.9956656096
 40
1.0
 40
1.0
 40
1.0
 40
1.0
 10
11.6123758797
 20
8.56034827
 30
0.0
 10
11.5819864742
 20
8.5619976864
 30
0.0
 10
11.5239738311
 20
8.5647781941
 30
0.0
 10
11.4416160172
 20
8.5677632706
 30
0.0
 10
11.369087108
 20
8.5696317222
 30
0.0
 10
11.3077708693
 20
8.5706223544
 30
0.0
 10
11.2588248542
 20
8.5709770821
 30
0.0
 10
11.2262283855
 20
8.5709410299
 30
0.0
 10
11.207016504
 20
8.570790291
 30
0.0
 10
11.1979341821
 20
8.5706812416
 30
0.0
 10
11.1924653851
 20
8.5705958141
 30
0.0
 10
11.1900276961
 20
8.5705476315
 30
0.0
 10
11.1894164582
 20
8.570534795
 30
0.0
  0
SPLINE
  5
4AA
100
AcDbEntity
  8
0
100
AcDbSpline
 62
9
  6
CONTINUOUS
 70
0
 71
3
 72
29
 73
25
 74
0
 42
0.0000001
 43
0.0000001
 44
0.0000000001
 40
0.0
 40
0.0
 40
0.0
 40
0.0
 40
0.0002519043
 40
0.00100559
 40
0.0022604744
 40
0.0040159752
 40
0.0062715104
 40
0.0090264983
 40
0.0160325072
 40
0.0250293552
 40
0.0360124006
 40
0.0489770073
 40
0.0639185445
 40
0.0808323866
 40
0.0997139136
 40
0.1433615641
 40
0.1948246482
 40
0.2540664023
 40
0.321046037
 40
0.3956937448
 40
0.4779272096
 40
0.5676640927
 40
0.7693188532
 40
1.0
 40
1.0
 40
1.0
 40
1.0
 10
12.1280339793
 20
8.1678695986
 30
0.0
 10
12.1280422224
 20
8.167868766
 30
0.0
 10
12.1280743054
 20
8.1678815181
 30
0.0
 10
12.1281474183
 20
8.1678906753
 30
0.0
 10
12.1282685072
 20
8.1679189636
 30
0.0
 10
12.128438236
 20
8.1679523343
 30
0.0
 10
12.1286562097
 20
8.167997579
 30
0.0
 10
12.1290434336
 20
8.1680764787
 30
0.0
 10
12.1296479504
 20
8.1681998047
 30
0.0
 10
12.1305178134
 20
8.1683761052
 30
0.0
 10
12.1315799374
 20
8.1685904775
 30
0.0
 10
12.1328339536
 20
8.1688423255
 30
0.0
 10
12.1342794835
 20
8.1691312451
 30
0.0
 10
12.1359161517
 20
8.1694567659
 30
0.0
 10
12.1384792999
 20
8.1699640447
 30
0.0
 10
12.1421582211
 20
8.1706864824
 30
0.0
 10
12.147141548
 20
8.1716552741
 30
0.0
 10
12.1528802719
 20
8.1727595743
 30
0.0
 10
12.1593701897
 20
8.173995459
 30
0.0
 10
12.1666054033
 20
8.1753598607
 30
0.0
 10
12.1745786379
 20
8.1768496263
 30
0.0
 10
12.1866616412
 20
8.1790872922
 30
0.0
 10
12.2035528724
 20
8.1821736776
 30
0.0
 10
12.2175481426
 20
8.1846887126
 30
0.0
 10
12.2250173757
 20
8.1860206063
 30
0.0
  0
LINE
  5
4AB
100
AcDbEntity
  8
0
100
AcDbLine
 62
9
  6
CONTINUOUS
 10
12.2702994143
 20
8.1939854805
 11
12.2758875992
 21
8.1949558185
  0
SPLINE
  5
4AC
100
AcDbEntity
  8
0
100
AcDbSpline
 62
9
  6
CONTINUOUS
 70
0
 71
3
 72
11
 73
7
 74
0
 42
0.0000001
 43
0.0000001
 44
0.0000000001
 40
0.0
 40
0.0
 40
0.0
 40
0.0
 40
0.3637837338
 40
0.6543715657
 40
0.8675962014
 40
1.0
 40
1.0
 40
1.0
 40
1.0
 10
12.2957845663
 20
9.2140290393
 30
0.0
 10
12.2774828762
 20
9.2145990093
 30
0.0
 10
12.2445589985
 20
9.215531475
 30
0.0
 10
12.2009024243
 20
9.2165887095
 30
0.0
 10
12.1688863413
 20
9.2172595677
 30
0.0
 10
12.1514931407
 20
9.2176104845
 30
0.0
 10
12.1448300662
 20
9.2177417047
 30
0.0
  0
LINE
  5
4AD
100
AcDbEntity
  8
0
100
AcDbLine
 62
9
  6
CONTINUOUS
 10
12.1448300662
 20
9.2177417047
 11
12.1372397099
 21
9.2178890971
  0
SPLINE
  5
4AE
100
AcDbEntity
  8
0
100
AcDbSpline
 62
9
  6
CONTINUOUS
 70
0
 71
3
 72
11
 73
7
 74
0
 42
0.0000001
 43
0.0000001
 44
0.0000000001
 40
0.0
 40
0.0
 40
0.0
 40
0.0
 40
0.3021392405
 40
0.4397698561
 40
0.5685662131
 40
1.0
 40
1.0
 40
1.0
 40
1.0
 10
12.2417694958
 20
9.1534119668
 30
0.0
 10
12.227838241
 20
9.1568225246
 30
0.0
 10
12.2075521317
 20
9.161750896
 30
0.0
 10
12.1812873188
 20
9.1679660612
 30
0.0
 10
12.1490125055
 20
9.1754346201
 30
0.0
 10
12.1230361434
 20
9.1811445556
 30
0.0
 10
12.1029883688
 20
9.1853314336
 30
0.0
  0
SPLINE
  5
4AF
100
AcDbEntity
  8
0
100
AcDbSpline
 62
9
  6
CONTINUOUS
 70
0
 71
3
 72
18
 73
14
 74
0
 42
0.0000001
 43
0.0000001
 44
0.0000000001
 40
0.0
 40
0.0
 40
0.0
 40
0.0
 40
0.1248562064
 40
0.2497397775
 40
0.312198265
 40
0.3746664426
 40
0.4996304647
 40
0.5621369005
 40
0.6246581468
 40
0.6871916191
 40
0.7497360161
 40
0.8748467861
 40
1.0
 40
1.0
 40
1.0
 40
1.0
 10
7.777634667
 20
10.0112546806
 30
0.0
 10
7.8380718456
 20
10.0165442558
 30
0.0
 10
7.9591909043
 20
10.0246630189
 30
0.0
 10
8.1109004638
 20
10.0282106582
 30
0.0
 10
8.2322873922
 20
10.0269398791
 30
0.0
 10
8.3536514922
 20
10.0228984189
 30
0.0
 10
8.4748730088
 20
10.01475912
 30
0.0
 10
8.5957432879
 20
10.0026091701
 30
0.0
 10
8.686206475
 20
9.9914816602
 30
0.0
 10
8.7764092676
 20
9.9782806365
 30
0.0
 10
8.8962621043
 20
9.9578761078
 30
0.0
 10
9.0451711223
 20
9.9271189143
 30
0.0
 10
9.1630572184
 20
9.8970896426
 30
0.0
 10
9.221648044
 20
9.8808022519
 30
0.0
  0
SPLINE
  5
4B0
100
AcDbEntity
  8
0
100
AcDbSpline
 62
9
  6
CONTINUOUS
 70
0
 71
3
 72
15
 73
11
 74
0
 42
0.0000001
 43
0.0000001
 44
0.0000000001
 40
0.0
 40
0.0
 40
0.0
 40
0.0
 40
0.3368826806
 40
0.4939747404
 40
0.6366326425
 40
0.7603465964
 40
0.8630469403
 40
0.9433258951
 40
0.9746724394
 40
1.0
 40
1.0
 40
1.0
 40
1.0
 10
7.7773432037
 20
9.9823457626
 30
0.0
 10
7.7771375122
 20
9.9855937904
 30
0.0
 10
7.7768999254
 20
9.9903609923
 30
0.0
 10
7.7767448021
 20
9.9965096411
 30
0.0
 10
7.7767242628
 20
10.0006009093
 30
0.0
 10
7.7768053014
 20
10.0041662261
 30
0.0
 10
7.7769791742
 20
10.0071244306
 30
0.0
 10
7.7772007132
 20
10.0091851392
 30
0.0
 10
7.777432695
 20
10.0104881201
 30
0.0
 10
7.7775629548
 20
10.0110207425
 30
0.0
 10
7.777634667
 20
10.0112546806
 30
0.0
  0
SPLINE
  5
4B1
100
AcDbEntity
  8
0
100
AcDbSpline
 62
9
  6
CONTINUOUS
 70
0
 71
3
 72
14
 73
10
 74
0
 42
0.0000001
 43
0.0000001
 44
0.0000000001
 40
0.0
 40
0.0
 40
0.0
 40
0.0
 40
0.3234367063
 40
0.4775897374
 40
0.6197079628
 40
0.7451344552
 40
0.8515019896
 40
0.9370309612
 40
1.0
 40
1.0
 40
1.0
 40
1.0
 10
9.2110353053
 20
9.8501693248
 30
0.0
 10
9.2120094718
 20
9.8535296947
 30
0.0
 10
9.2134992545
 20
9.858477064
 30
0.0
 10
9.2155426436
 20
9.8648617529
 30
0.0
 10
9.2169933364
 20
9.8691868282
 30
0.0
 10
9.2183510503
 20
9.8729971005
 30
0.0
 10
9.2195762178
 20
9.8762042343
 30
0.0
 10
9.2206389912
 20
9.87874817
 30
0.0
 10
9.2213237043
 20
9.8802032697
 30
0.0
 10
9.221648044
 20
9.8808022519
 30
0.0
  0
ENDSEC
  0
SECTION
  2
OBJECTS
  0
DICTIONARY
  5
C
100
AcDbDictionary
280
0
281
1
  3
ACAD_GROUP
350
D
  3
ACAD_MLINESTYLE
350
17
  3
ACAD_LAYOUT
350
1A
  3
ACAD_PLOTSETTINGS
350
19
  3
ACAD_PLOTSTYLENAME
350
E
  0
DICTIONARY
  5
D
102
{ACAD_REACTORS
330
C
102
}
100
AcDbDictionary
280
0
281
1
  0
ACDBDICTIONARYWDFLT
  5
E
102
{ACAD_REACTORS
330
C
102
}
100
AcDbDictionary
281
1
  3
Normal
350
F
100
AcDbDictionaryWithDefault
340
F
  0
DICTIONARY
  5
17
102
{ACAD_REACTORS
330
C
102
}
100
AcDbDictionary
280
0
281
1
  3
Standard
350
18
  0
DICTIONARY
  5
19
102
{ACAD_REACTORS
330
C
102
}
100
AcDbDictionary
281
1
  0
DICTIONARY
  5
1A
102
{ACAD_REACTORS
330
C
102
}
100
AcDbDictionary
281
1
  3
Model
350
4B2
  3
Layout1
350
4B3
  0
ACDBPLACEHOLDER
  5
F
102
{ACAD_REACTORS
330
E
102
}
  0
MLINESTYLE
  5
18
102
{ACAD_REACTORS
330
17
102
}
100
AcDbMlineStyle
  2
STANDARD
 70
0
  3

 62
256
 51
90.0
 52
90.0
 71
2
 49
0.5
 62
256
  6
BYLAYER
 49
-0.5
 62
256
  6
BYLAYER
  0
LAYOUT
  5
4B2
102
{ACAD_REACTORS
330
1A
102
}
100
AcDbPlotSettings
  1

  2
none_device
  4
ANSI_C_(22.00_x_17.00_Inches)
  6

 40
0.0
 41
0.0
 42
0.0
 43
0.0
 44
558.8
 45
431.8
 46
0.0
 47
0.0
 48
0.0
 49
0.0
140
0.0
141
0.0
142
1.0
143
1.0
 70
1024
 72
0
 73
0
 74
0
  7

 75
0
147
1.0
148
0.0
149
0.0
100
AcDbLayout
  1
Model
 70
0
 71
0
 10
0.0
 20
0.0
 11
22.0
 21
17.0
 12
0.0
 22
0.0
 32
0.0
 14
0.0
 24
0.0
 34
0.0
 15
0.0
 25
0.0
 35
0.0
146
0.0
 13
0.0
 23
0.0
 33
0.0
 16
1.0
 26
0.0
 36
0.0
 17
0.0
 27
1.0
 37
0.0
 76
0
330
202
345
0
346
0
  0
LAYOUT
  5
4B3
102
{ACAD_REACTORS
330
1A
102
}
100
AcDbPlotSettings
  1

  2
none_device
  4
ANSI_C_(22.00_x_17.00_Inches)
  6

 40
0.0
 41
0.0
 42
0.0
 43
0.0
 44
558.8
 45
431.8
 46
0.0
 47
0.0
 48
0.0
 49
0.0
140
0.0
141
0.0
142
1.0
143
1.0
 70
0
 72
0
 73
0
 74
0
  7

 75
0
147
1.0
148
0.0
149
0.0
100
AcDbLayout
  1
Layout1
 70
0
 71
1
 10
0.0
 20
0.0
 11
22.0
 21
17.0
 12
0.0
 22
0.0
 32
0.0
 14
0.0
 24
0.0
 34
0.0
 15
0.0
 25
0.0
 35
0.0
146
0.0
 13
0.0
 23
0.0
 33
0.0
 16
1.0
 26
0.0
 36
0.0
 17
0.0
 27
1.0
 37
0.0
 76
0
330
203
345
0
346
0
  0
ENDSEC
  0
EOF
