  0
SECTION
  2
HEADER
  9
$ACADVER
  1
AC1015
  9
$DWGCODEPAGE
  3
ANSI_1252
  9
$EXTMAX
 10
11.6929133858
 20
16.5354330709
 30
0.0
  9
$EXTMIN
 10
0.0
 20
0.0
 30
0.0
  9
$LIMMIN
 10
0.0
 20
0.0
  9
$LIMMAX
 10
11.6929133858
 20
16.5354330709
  9
$VIEWCTR
 10
5.8464566929
 20
8.2677165354
  9
$VIEWSIZE
 40
16.5354330709
  9
$CLAYER
  8
0
  9
$LTSCALE
 40
1.0778652668
  9
$CELTYPE
  6
BYLAYER
  9
$DIMSCALE
 40
1.0
  9
$DIMASZ
 40
0.1875
  9
$DIMEXO
 40
0.1224846894
  9
$DIMDLI
 40
0.7447069116
  9
$DIMEXE
 40
0.3527559055
  9
$DIMCEN
 40
0.1763779528
  9
$DIMLFAC
 40
1.0
  9
$DIMBLK
  1
_CLOSED
  9
$DIMTXT
 40
0.15625
  9
$DIMTOL
 70
0
  9
$DIMLIM
 70
0
  9
$DIMTFAC
 40
1.0
  9
$PDMODE
 70
3
  9
$PDSIZE
 40
0.3125
  9
$HANDSEED
  5
43D
  9
$TILEMODE
 70
1
  9
$MEASUREMENT
 70
0
  9
$INSUNITS
 70
1
  0
ENDSEC
  0
SECTION
  2
CLASSES
  0
CLASS
  1
ACDBDICTIONARYWDFLT
  2
AcDbDictionaryWithDefault
  3
AutoCAD 2000
 90
0
280
0
281
0
  0
CLASS
  1
ACDBPLACEHOLDER
  2
AcDbPlaceHolder
  3
AutoCAD 2000
 90
0
280
0
281
0
  0
CLASS
  1
LAYOUT
  2
AcDbLayout
  3
AutoCAD 2000
 90
0
280
0
281
0
  0
ENDSEC
  0
SECTION
  2
TABLES
  0
TABLE
  2
VPORT
  5
8
100
AcDbSymbolTable
 70
2
  0
VPORT
  5
1F4
100
AcDbSymbolTableRecord
100
AcDbViewportTableRecord
  2
*ACTIVE
 70
0
 10
0.0
 20
0.0
 11
1.0
 21
1.0
 12
5.8464566929
 22
8.2677165354
 13
0.0
 23
0.0
 14
1.0
 24
1.0
 15
0.0
 25
0.0
 16
0.0
 26
0.0
 36
1.0
 17
0.0
 27
0.0
 37
0.0
 40
16.5354330709
 41
0.7071428571
 42
50.0
 43
0.0
 44
0.0
 50
0.0
 51
0.0
 71
0
 72
100
 73
1
 74
1
 75
0
 76
0
 77
0
 78
0
  0
ENDTAB
  0
TABLE
  2
LTYPE
  5
5
100
AcDbSymbolTable
 70
6
  0
LTYPE
  5
14
100
AcDbSymbolTableRecord
100
AcDbLinetypeTableRecord
  2
BYBLOCK
 70
0
  3

 72
65
 73
0
 40
0.0
  0
LTYPE
  5
15
100
AcDbSymbolTableRecord
100
AcDbLinetypeTableRecord
  2
BYLAYER
 70
0
  3

 72
65
 73
0
 40
0.0
  0
LTYPE
  5
16
100
AcDbSymbolTableRecord
100
AcDbLinetypeTableRecord
  2
CONTINUOUS
 70
64
  3
Solid line
 72
65
 73
0
 40
0.0
  0
LTYPE
  5
1F5
100
AcDbSymbolTableRecord
100
AcDbLinetypeTableRecord
  2
CENTER
 70
64
  3
____ _ ____ _ ____ _ ____ _ ____ _ ____ _ ____
 72
65
 73
4
 40
0.6
 49
0.375
 74
0
 49
-0.075
 74
0
 49
0.075
 74
0
 49
-0.075
 74
0
  0
LTYPE
  5
1F6
100
AcDbSymbolTableRecord
100
AcDbLinetypeTableRecord
  2
HIDDEN
 70
64
  3
- - - - - - - - - - - - - - - - - - - -
 72
65
 73
2
 40
0.2
 49
0.1
 74
0
 49
-0.1
 74
0
  0
LTYPE
  5
1F7
100
AcDbSymbolTableRecord
100
AcDbLinetypeTableRecord
  2
PHANTOM
 70
64
  3
_____ _ _ _____ _ _ _____ _ _ _____
 72
65
 73
6
 40
0.8
 49
0.45
 74
0
 49
-0.05
 74
0
 49
0.1
 74
0
 49
-0.05
 74
0
 49
0.1
 74
0
 49
-0.05
 74
0
  0
LTYPE
  5
1F8
100
AcDbSymbolTableRecord
100
AcDbLinetypeTableRecord
  2
DOT
 70
64
  3
. . . . . . . . . . . . . . . . . . . .
 72
65
 73
2
 40
0.2
 49
0.1
 74
0
 49
-0.1
 74
0
  0
LTYPE
  5
1F9
100
AcDbSymbolTableRecord
100
AcDbLinetypeTableRecord
  2
DASHED
 70
64
  3
- - - - - - - - - - - - - - - - - - - -
 72
65
 73
2
 40
0.2
 49
0.1
 74
0
 49
-0.1
 74
0
  0
ENDTAB
  0
TABLE
  2
LAYER
  5
2
100
AcDbSymbolTable
 70
36
  0
LAYER
  5
10
100
AcDbSymbolTableRecord
100
AcDbLayerTableRecord
  2
0
 70
0
 62
7
  6
CONTINUOUS
370
-3
390
F
  0
LAYER
  5
1FA
100
AcDbSymbolTableRecord
100
AcDbLayerTableRecord
  2
DEFAULT_1
 70
0
 62
7
  6
CENTER
370
-3
390
F
  0
LAYER
  5
1FB
100
AcDbSymbolTableRecord
100
AcDbLayerTableRecord
  2
DEFAULT_2
 70
0
 62
8
  6
HIDDEN
370
-3
390
F
  0
LAYER
  5
1FC
100
AcDbSymbolTableRecord
100
AcDbLayerTableRecord
  2
DEFAULT_3
 70
0
 62
7
  6
PHANTOM
370
-3
390
F
  0
LAYER
  5
1FD
100
AcDbSymbolTableRecord
100
AcDbLayerTableRecord
  2
DEFAULT_COORDINATE_SYSTEM
 70
0
 62
7
  6
CONTINUOUS
370
-3
390
F
  0
LAYER
  5
1FE
100
AcDbSymbolTableRecord
100
AcDbLayerTableRecord
  2
DEFAULT_DATUM_AXES
 70
0
 62
7
  6
CONTINUOUS
370
-3
390
F
  0
LAYER
  5
1FF
100
AcDbSymbolTableRecord
100
AcDbLayerTableRecord
  2
DEFAULT_DATUM_CURVES
 70
0
 62
7
  6
CONTINUOUS
370
-3
390
F
  0
LAYER
  5
200
100
AcDbSymbolTableRecord
100
AcDbLayerTableRecord
  2
DEFAULT_DATUM_PLANES
 70
0
 62
7
  6
CONTINUOUS
370
-3
390
F
  0
ENDTAB
  0
TABLE
  2
STYLE
  5
3
100
AcDbSymbolTable
 70
1
  0
STYLE
  5
11
100
AcDbSymbolTableRecord
100
AcDbTextStyleTableRecord
  2
STANDARD
 70
0
 40
0.0
 41
0.8
 50
0.0
 71
0
 42
0.2
  3
txt
  4

  0
STYLE
  5
201
100
AcDbSymbolTableRecord
100
AcDbTextStyleTableRecord
  2
TEXTSTYLE_1
 70
0
 40
0.0
 41
0.8
 50
0.0
 71
0
 42
0.2
  3
gdt
  4

  0
ENDTAB
  0
TABLE
  2
VIEW
  5
6
100
AcDbSymbolTable
 70
0
  0
ENDTAB
  0
TABLE
  2
UCS
  5
7
100
AcDbSymbolTable
 70
0
  0
ENDTAB
  0
TABLE
  2
APPID
  5
9
100
AcDbSymbolTable
 70
1
  0
APPID
  5
202
100
AcDbSymbolTableRecord
100
AcDbRegAppTableRecord
  2
ACAD
 70
0
  0
ENDTAB
  0
TABLE
  2
BLOCK_RECORD
  5
1
100
AcDbSymbolTable
 70
0
  0
BLOCK_RECORD
  5
203
100
AcDbSymbolTableRecord
100
AcDbBlockTableRecord
  2
*Model_Space
  0
BLOCK_RECORD
  5
204
100
AcDbSymbolTableRecord
100
AcDbBlockTableRecord
  2
*Paper_Space
  0
ENDTAB
  0
TABLE
  2
DIMSTYLE
  5
A
100
AcDbSymbolTable
 70
1
100
AcDbDimStyleTable
 71
0
  0
DIMSTYLE
105
205
100
AcDbSymbolTableRecord
100
AcDbDimStyleTableRecord
  2
STANDARD
 70
0
  3

  4

 40
1.0
 41
0.1875
 42
0.0625
 43
0.38
 44
0.18
 45
0.0
 46
0.0
 47
0.01
 48
0.01
140
0.15625
141
0.09
142
0.0
143
25.4
144
1.0
145
0.0
146
1.0
147
0.09
 71
0.0
 72
0.0
 73
1
 74
1
 75
0
 76
0
 77
0
 78
4
170
0
171
2
172
0
173
0
174
0
175
0
176
0
177
0
178
0
270
2
271
2
272
2
273
2
274
2
275
0
280
0
281
0
282
0
283
1
284
4
285
0
286
0
287
3
288
0
340
11
  0
ENDTAB
  0
ENDSEC
  0
SECTION
  2
BLOCKS
  0
BLOCK
  5
20
100
AcDbEntity
  8
0
100
AcDbBlockBegin
  2
*Model_Space
 70
0
 10
0.0
 20
0.0
 30
0.0
  3
*Model_Space
  1

  0
ENDBLK
  5
21
100
AcDbEntity
  8
0
100
AcDbBlockEnd
  0
BLOCK
  5
1C
100
AcDbEntity
  8
0
100
AcDbBlockBegin
  2
*Paper_Space
 70
0
 10
0.0
 20
0.0
 30
0.0
  3
*Paper_Space
  1

  0
ENDBLK
  5
1D
100
AcDbEntity
  8
0
100
AcDbBlockEnd
  0
ENDSEC
  0
SECTION
  2
ENTITIES
  0
LINE
  5
206
100
AcDbEntity
  8
0
100
AcDbLine
 62
9
  6
CONTINUOUS
 10
2.8558025742
 20
11.2277526876
 11
2.8557873565
 21
11.2276898152
  0
LWPOLYLINE
  5
207
100
AcDbEntity
  8
0
100
AcDbPolyline
 62
6
  6
CONTINUOUS
 90
5
 70
0
 10
2.8558102973
 20
11.2277833313
 10
2.8469119215
 20
11.1831955998
 10
2.8417989935
 20
11.1372234449
 10
2.8407673705
 20
11.0911575944
 10
2.8410337987
 20
11.0823873148
  0
LWPOLYLINE
  5
208
100
AcDbEntity
  8
0
100
AcDbPolyline
 62
6
  6
CONTINUOUS
 90
8
 70
0
 10
2.8868641974
 20
10.2550421625
 10
2.8869276765
 20
10.255235428
 10
2.886750369
 20
10.254812915
 10
2.8860182101
 20
10.2533946003
 10
2.8845114898
 20
10.25110392
 10
2.8820547032
 20
10.2482215766
 10
2.8785911055
 20
10.2451525253
 10
2.8741423676
 20
10.2422867866
  0
LWPOLYLINE
  5
209
100
AcDbEntity
  8
0
100
AcDbPolyline
 62
6
  6
CONTINUOUS
 90
3
 70
0
 10
2.8741423676
 20
10.2422867866
 10
2.8687684601
 20
10.2399651213
 10
2.8625880842
 20
10.2385064684
  0
LINE
  5
20A
100
AcDbEntity
  8
0
100
AcDbLine
 62
6
  6
CONTINUOUS
 10
2.6952787652
 20
10.1006604809
 11
2.6952787652
 21
9.5756604809
  0
LINE
  5
20B
100
AcDbEntity
  8
0
100
AcDbLine
 62
9
  6
CONTINUOUS
 10
2.7252787652
 20
10.1006604809
 11
2.7252787652
 21
9.5756604809
  0
LINE
  5
20C
100
AcDbEntity
  8
0
100
AcDbLine
 62
6
  6
CONTINUOUS
 10
2.7452787652
 20
10.1506604809
 11
2.7452787652
 21
9.5256604809
  0
LINE
  5
20D
100
AcDbEntity
  8
0
100
AcDbLine
 62
6
  6
CONTINUOUS
 10
2.8202787652
 20
10.2381604809
 11
2.8202787652
 21
9.4381604809
  0
LWPOLYLINE
  5
20E
100
AcDbEntity
  8
0
100
AcDbPolyline
 62
6
  6
CONTINUOUS
 90
4
 70
0
 10
2.8410334263
 20
8.5939234204
 10
2.8407668215
 20
8.5851376536
 10
2.8418024224
 20
8.5390456418
 10
2.8469240487
 20
8.4930474846
  0
LINE
  5
20F
100
AcDbEntity
  8
0
100
AcDbLine
 62
9
  6
CONTINUOUS
 10
2.841033745
 20
8.59393161
 11
2.8410384939
 21
8.5940535987
  0
LWPOLYLINE
  5
210
100
AcDbEntity
  8
0
100
AcDbPolyline
 62
6
  6
CONTINUOUS
 90
3
 70
0
 10
2.881821439
 20
9.428320493
 10
2.8559598596
 20
8.9256284274
 10
2.8410391233
 20
8.5940534231
  0
LINE
  5
211
100
AcDbEntity
  8
0
100
AcDbLine
 62
9
  6
CONTINUOUS
 10
2.8557873565
 20
11.2276898152
 11
2.855001773
 21
11.2193167533
  0
LWPOLYLINE
  5
212
100
AcDbEntity
  8
0
100
AcDbPolyline
 62
6
  6
CONTINUOUS
 90
6
 70
0
 10
2.854968411
 20
10.0745232034
 10
2.8459076674
 20
9.9816656906
 10
2.8412290257
 20
9.8860982784
 10
2.8412242723
 20
9.7904184559
 10
2.8458933112
 20
9.6948510008
 10
2.8549683847
 20
9.6017977616
  0
LINE
  5
213
100
AcDbEntity
  8
0
100
AcDbLine
 62
9
  6
CONTINUOUS
 10
3.2249032478
 20
9.6018086949
 11
3.2249004265
 21
9.6017991987
  0
LWPOLYLINE
  5
214
100
AcDbEntity
  8
0
100
AcDbPolyline
 62
6
  6
CONTINUOUS
 90
6
 70
0
 10
3.2258441153
 20
9.4194026921
 10
3.2258342036
 20
9.4193710322
 10
3.2260363675
 20
9.4198843778
 10
3.2266618009
 20
9.4211916638
 10
3.2278834381
 20
9.4232493095
 10
3.2282499868
 20
9.4237905691
  0
LINE
  5
215
100
AcDbEntity
  8
0
100
AcDbLine
 62
9
  6
CONTINUOUS
 10
2.8557873691
 20
8.4486310942
 11
2.855001773
 21
8.4570042086
  0
LINE
  5
216
100
AcDbEntity
  8
0
100
AcDbLine
 62
6
  6
CONTINUOUS
 10
2.8559598629
 20
10.7506924682
 11
2.8818207316
 21
10.2480142572
  0
LINE
  5
217
100
AcDbEntity
  8
0
100
AcDbLine
 62
6
  6
CONTINUOUS
 10
2.8410391232
 20
11.0822675392
 11
2.8559598629
 21
10.7506924682
  0
LINE
  5
218
100
AcDbEntity
  8
0
100
AcDbLine
 62
9
  6
CONTINUOUS
 10
2.8410384692
 20
11.0822673643
 11
2.8410340959
 21
11.0823796798
  0
LINE
  5
219
100
AcDbEntity
  8
0
100
AcDbLine
 62
9
  6
CONTINUOUS
 10
2.8946748372
 20
11.2583215795
 11
2.8946748372
 21
11.2353757149
  0
LINE
  5
21A
100
AcDbEntity
  8
0
100
AcDbLine
 62
9
  6
CONTINUOUS
 10
2.8946748372
 20
9.6066324629
 11
2.8946748372
 21
9.5666324629
  0
LINE
  5
21B
100
AcDbEntity
  8
0
100
AcDbLine
 62
9
  6
CONTINUOUS
 10
2.8946748372
 20
8.4179993824
 11
2.8946748372
 21
8.440945247
  0
LINE
  5
21C
100
AcDbEntity
  8
0
100
AcDbLine
 62
9
  6
CONTINUOUS
 10
2.8946748372
 20
10.069688499
 11
2.8946748372
 21
10.109688499
  0
LINE
  5
21D
100
AcDbEntity
  8
0
100
AcDbLine
 62
9
  6
CONTINUOUS
 10
3.1851951724
 20
11.2583215795
 11
3.1851951724
 21
11.2353757149
  0
LINE
  5
21E
100
AcDbEntity
  8
0
100
AcDbLine
 62
9
  6
CONTINUOUS
 10
3.1851951724
 20
9.6066324629
 11
3.1851951724
 21
9.5666324629
  0
LINE
  5
21F
100
AcDbEntity
  8
0
100
AcDbLine
 62
9
  6
CONTINUOUS
 10
3.1851951724
 20
8.4179993824
 11
3.1851951724
 21
8.440945247
  0
LINE
  5
220
100
AcDbEntity
  8
0
100
AcDbLine
 62
9
  6
CONTINUOUS
 10
3.1851951724
 20
10.069688499
 11
3.1851951724
 21
10.109688499
  0
LWPOLYLINE
  5
221
100
AcDbEntity
  8
0
100
AcDbPolyline
 62
6
  6
CONTINUOUS
 90
4
 70
0
 10
3.2292000217
 20
10.2512657914
 10
3.23298878
 20
10.5109207317
 10
3.2372335587
 20
10.8162140507
 10
3.2392164566
 20
11.1017271423
  0
LWPOLYLINE
  5
222
100
AcDbEntity
  8
0
100
AcDbPolyline
 62
6
  6
CONTINUOUS
 90
6
 70
0
 10
3.2249018043
 20
9.601799481
 10
3.2339563222
 20
9.6946572194
 10
3.2386316568
 20
9.7902233531
 10
3.2386364088
 20
9.8859017538
 10
3.2339706734
 20
9.9814679424
 10
3.2249018298
 20
10.0745214828
  0
LINE
  5
223
100
AcDbEntity
  8
0
100
AcDbLine
 62
9
  6
CONTINUOUS
 10
3.224087598
 20
8.4486516965
 11
3.2249004265
 21
8.4558978163
  0
LWPOLYLINE
  5
224
100
AcDbEntity
  8
0
100
AcDbPolyline
 62
6
  6
CONTINUOUS
 90
4
 70
0
 10
3.2240610109
 20
8.4485429831
 10
3.2321850238
 20
8.4883415265
 10
3.2373314944
 20
8.5294834787
 10
3.2392172534
 20
8.5746023799
  0
LINE
  5
225
100
AcDbEntity
  8
0
100
AcDbLine
 62
9
  6
CONTINUOUS
 10
3.2240704208
 20
8.4485806098
 11
3.224087598
 21
8.4486516965
  0
LINE
  5
226
100
AcDbEntity
  8
0
100
AcDbLine
 62
6
  6
CONTINUOUS
 10
4.0756398832
 20
10.4641569951
 11
4.0632787652
 21
10.4456604809
  0
LWPOLYLINE
  5
227
100
AcDbEntity
  8
0
100
AcDbPolyline
 62
6
  6
CONTINUOUS
 90
3
 70
0
 10
3.2327212714
 20
9.4288866974
 10
3.2364723472
 20
9.4318746095
 10
3.2410314424
 20
9.4345289407
  0
LINE
  5
228
100
AcDbEntity
  8
0
100
AcDbLine
 62
9
  6
CONTINUOUS
 10
2.8558025754
 20
8.4485682692
 11
2.8557873691
 21
8.4486310942
  0
LINE
  5
229
100
AcDbEntity
  8
0
100
AcDbLine
 62
6
  6
CONTINUOUS
 10
2.8469240487
 20
8.4930474846
 11
2.8558103225
 21
8.4485376332
  0
LWPOLYLINE
  5
22A
100
AcDbEntity
  8
0
100
AcDbPolyline
 62
6
  6
CONTINUOUS
 90
3
 70
0
 10
3.2392172722
 20
11.1017309219
 10
3.2373270864
 20
11.1468896325
 10
3.2321721506
 20
11.1880574412
  0
LINE
  5
22B
100
AcDbEntity
  8
0
100
AcDbLine
 62
6
  6
CONTINUOUS
 10
3.2329887823
 20
9.1654000792
 11
3.2291998937
 21
9.4250639337
  0
LWPOLYLINE
  5
22C
100
AcDbEntity
  8
0
100
AcDbPolyline
 62
6
  6
CONTINUOUS
 90
3
 70
0
 10
3.2392164566
 20
8.5745938204
 10
3.2372335599
 20
8.8601068083
 10
3.2329887823
 20
9.1654000792
  0
LINE
  5
22D
100
AcDbEntity
  8
0
100
AcDbLine
 62
9
  6
CONTINUOUS
 10
3.2392172531
 20
8.5746025771
 11
3.2392172668
 21
8.5745940167
  0
LINE
  5
22E
100
AcDbEntity
  8
0
100
AcDbLine
 62
6
  6
CONTINUOUS
 10
3.2952787652
 20
10.2381604809
 11
3.2952787652
 21
9.4381604809
  0
LINE
  5
22F
100
AcDbEntity
  8
0
100
AcDbLine
 62
9
  6
CONTINUOUS
 10
3.3152787652
 20
10.1506604809
 11
3.3152787652
 21
9.5256604809
  0
LINE
  5
230
100
AcDbEntity
  8
0
100
AcDbLine
 62
9
  6
CONTINUOUS
 10
3.2392172708
 20
11.1017300507
 11
3.2392172658
 21
11.1017269454
  0
LWPOLYLINE
  5
231
100
AcDbEntity
  8
0
100
AcDbPolyline
 62
6
  6
CONTINUOUS
 90
3
 70
0
 10
3.2410314424
 20
9.4345289407
 10
3.2463499043
 20
9.4366091306
 10
3.2523350209
 20
9.4378785878
  0
LINE
  5
232
100
AcDbEntity
  8
0
100
AcDbLine
 62
7
  6
CONTINUOUS
 10
3.6082787652
 20
10.1506604809
 11
3.6082787652
 21
9.5256604809
  0
LINE
  5
233
100
AcDbEntity
  8
0
100
AcDbLine
 62
6
  6
CONTINUOUS
 10
3.6382787652
 20
9.4881604809
 11
3.6382787652
 21
10.1881604809
  0
LINE
  5
234
100
AcDbEntity
  8
0
100
AcDbLine
 62
9
  6
CONTINUOUS
 10
3.7382787652
 20
9.4604091856
 11
3.7382787652
 21
10.2159117762
  0
LINE
  5
235
100
AcDbEntity
  8
0
100
AcDbLine
 62
9
  6
CONTINUOUS
 10
3.7451717655
 20
9.4409091817
 11
3.7451717655
 21
10.2354117801
  0
LINE
  5
236
100
AcDbEntity
  8
0
100
AcDbLine
 62
9
  6
CONTINUOUS
 10
3.2240875873
 20
11.2276693102
 11
3.2249004265
 21
11.2204231456
  0
LINE
  5
237
100
AcDbEntity
  8
0
100
AcDbLine
 62
9
  6
CONTINUOUS
 10
3.9932787652
 20
9.2616604819
 11
3.9932787652
 21
10.41466048
  0
LINE
  5
238
100
AcDbEntity
  8
0
100
AcDbLine
 62
9
  6
CONTINUOUS
 10
4.0242787652
 20
9.2306604809
 11
4.0242787652
 21
10.4456604809
  0
LINE
  5
239
100
AcDbEntity
  8
0
100
AcDbLine
 62
6
  6
CONTINUOUS
 10
4.0632787652
 20
10.4456604809
 11
4.0632787652
 21
9.2306604809
  0
LINE
  5
23A
100
AcDbEntity
  8
0
100
AcDbLine
 62
6
  6
CONTINUOUS
 10
4.4632787652
 20
9.2164726444
 11
4.459964079
 21
9.2131579582
  0
LINE
  5
23B
100
AcDbEntity
  8
0
100
AcDbLine
 62
9
  6
CONTINUOUS
 10
3.2249032479
 20
10.0745122661
 11
3.2249004265
 21
10.0745217632
  0
LINE
  5
23C
100
AcDbEntity
  8
0
100
AcDbLine
 62
9
  6
CONTINUOUS
 10
3.2240704219
 20
11.2277403478
 11
3.2240875873
 21
11.2276693102
  0
LINE
  5
23D
100
AcDbEntity
  8
0
100
AcDbLine
 62
6
  6
CONTINUOUS
 10
3.2321721506
 20
11.1880574412
 11
3.2240609851
 21
11.2277779782
  0
LINE
  5
23E
100
AcDbEntity
  8
0
100
AcDbLine
 62
6
  6
CONTINUOUS
 10
4.4632787652
 20
9.2164726444
 11
4.4632787652
 21
10.4598483174
  0
LWPOLYLINE
  5
23F
100
AcDbEntity
  8
0
100
AcDbPolyline
 62
6
  6
CONTINUOUS
 90
4
 70
0
 10
3.2258835793
 20
10.2568147053
 10
3.2258341522
 20
10.25694989
 10
3.2259097386
 20
10.2566961816
 10
3.225942351
 20
10.2565673387
  0
LWPOLYLINE
  5
240
100
AcDbEntity
  8
0
100
AcDbPolyline
 62
6
  6
CONTINUOUS
 90
3
 70
0
 10
8.985526088
 20
10.2417920211
 10
8.9802076261
 20
10.2397118313
 10
8.9742225095
 20
10.2384423741
  0
LWPOLYLINE
  5
241
100
AcDbEntity
  8
0
100
AcDbPolyline
 62
6
  6
CONTINUOUS
 90
5
 70
0
 10
3.2282477387
 20
10.2525338214
 10
3.2278814609
 20
10.2530748504
 10
3.2266597264
 20
10.2551333867
 10
3.2260351933
 20
10.256439257
 10
3.2258835793
 20
10.2568147053
  0
LINE
  5
242
100
AcDbEntity
  8
0
100
AcDbLine
 62
6
  6
CONTINUOUS
 10
7.7632787652
 20
10.4598483174
 11
7.7665934514
 21
10.4631630037
  0
LINE
  5
243
100
AcDbEntity
  8
0
100
AcDbLine
 62
9
  6
CONTINUOUS
 10
2.8549636194
 20
9.6018346471
 11
2.855001773
 21
9.6017997629
  0
LINE
  5
244
100
AcDbEntity
  8
0
100
AcDbLine
 62
6
  6
CONTINUOUS
 10
4.0756398832
 20
9.2121639667
 11
4.0632787652
 21
9.2306604809
  0
LINE
  5
245
100
AcDbEntity
  8
0
100
AcDbLine
 62
6
  6
CONTINUOUS
 10
5.6587787652
 20
4.6797980866
 11
5.6587787652
 21
4.5929739977
  0
LINE
  5
246
100
AcDbEntity
  8
0
100
AcDbLine
 62
6
  6
CONTINUOUS
 10
5.7602787652
 20
9.8381604809
 11
5.7602787652
 21
4.6923007554
  0
LWPOLYLINE
  5
247
100
AcDbEntity
  8
0
100
AcDbPolyline
 62
6
  6
CONTINUOUS
 90
3
 70
0
 10
9.3524151628
 20
9.4340341752
 10
9.3577890703
 20
9.4363558406
 10
9.3639694463
 20
9.4378144935
  0
LWPOLYLINE
  5
248
100
AcDbEntity
  8
0
100
AcDbPolyline
 62
6
  6
CONTINUOUS
 90
3
 70
0
 10
8.993836259
 20
10.2474342645
 10
8.9900851832
 20
10.2444463524
 10
8.985526088
 20
10.2417920211
  0
LWPOLYLINE
  5
249
100
AcDbEntity
  8
0
100
AcDbPolyline
 62
6
  6
CONTINUOUS
 90
7
 70
0
 10
2.8738406193
 20
9.4341943215
 10
2.8782325735
 20
9.4314384123
 10
2.8816966971
 20
9.4284617173
 10
2.8842098196
 20
9.4256165319
 10
2.8858066546
 20
9.4232865544
 10
2.8866435462
 20
9.4217387905
 10
2.8868691984
 20
9.4212331136
  0
LINE
  5
24A
100
AcDbEntity
  8
0
100
AcDbLine
 62
6
  6
CONTINUOUS
 10
6.4662787652
 20
9.8381604809
 11
6.4662787652
 21
4.6923007554
  0
LINE
  5
24B
100
AcDbEntity
  8
0
100
AcDbLine
 62
6
  6
CONTINUOUS
 10
2.8685779102
 20
9.4364187691
 11
2.8738406193
 21
9.4341943215
  0
LINE
  5
24C
100
AcDbEntity
  8
0
100
AcDbLine
 62
6
  6
CONTINUOUS
 10
6.5677787652
 20
4.6797980866
 11
6.5677787652
 21
4.5929739977
  0
LINE
  5
24D
100
AcDbEntity
  8
0
100
AcDbLine
 62
6
  6
CONTINUOUS
 10
8.1509176472
 20
9.2121639667
 11
8.1632787652
 21
9.2306604809
  0
LINE
  5
24E
100
AcDbEntity
  8
0
100
AcDbLine
 62
6
  6
CONTINUOUS
 10
9.3318826932
 20
8.4179993824
 11
9.041362358
 21
8.4179993824
  0
LINE
  5
24F
100
AcDbEntity
  8
0
100
AcDbLine
 62
6
  6
CONTINUOUS
 10
3.1851951724
 20
8.4179993824
 11
2.8946748372
 21
8.4179993824
  0
LINE
  5
250
100
AcDbEntity
  8
0
100
AcDbLine
 62
9
  6
CONTINUOUS
 10
9.3318708946
 20
8.440945247
 11
9.0413737984
 21
8.440945247
  0
LINE
  5
251
100
AcDbEntity
  8
0
100
AcDbLine
 62
9
  6
CONTINUOUS
 10
3.1851835765
 20
8.440945247
 11
2.8946864824
 21
8.440945247
  0
LINE
  5
252
100
AcDbEntity
  8
0
100
AcDbLine
 62
6
  6
CONTINUOUS
 10
2.8625538622
 20
9.4378190701
 11
2.8685779102
 21
9.4364187691
  0
LINE
  5
253
100
AcDbEntity
  8
0
100
AcDbLine
 62
6
  6
CONTINUOUS
 10
4.4632787652
 20
10.4598483174
 11
4.459964079
 21
10.4631630037
  0
LWPOLYLINE
  5
254
100
AcDbEntity
  8
0
100
AcDbPolyline
 62
6
  6
CONTINUOUS
 90
4
 70
0
 10
3.2463501653
 20
10.239711508
 10
3.2410313352
 20
10.2417918814
 10
3.2364716851
 20
10.2444467036
 10
3.232731554
 20
10.2474248171
  0
LINE
  5
255
100
AcDbEntity
  8
0
100
AcDbLine
 62
6
  6
CONTINUOUS
 10
7.7632787652
 20
10.4598483174
 11
7.7632787652
 21
9.2164726444
  0
LINE
  5
256
100
AcDbEntity
  8
0
100
AcDbLine
 62
6
  6
CONTINUOUS
 10
9.3639694463
 20
9.4378144935
 11
9.3688227152
 21
9.4381611345
  0
LINE
  5
257
100
AcDbEntity
  8
0
100
AcDbLine
 62
9
  6
CONTINUOUS
 10
6.4662787652
 20
9.2254871059
 11
7.4978611643
 21
9.2615095687
  0
LINE
  5
258
100
AcDbEntity
  8
0
100
AcDbLine
 62
6
  6
CONTINUOUS
 10
6.4662787652
 20
9.2232461952
 11
7.508995673
 21
9.2530381069
  0
LINE
  5
259
100
AcDbEntity
  8
0
100
AcDbLine
 62
6
  6
CONTINUOUS
 10
7.5175636052
 20
9.2531604809
 11
7.508995673
 21
9.2530381069
  0
LINE
  5
25A
100
AcDbEntity
  8
0
100
AcDbLine
 62
6
  6
CONTINUOUS
 10
4.4599666015
 20
9.2131604809
 11
4.0749381677
 21
9.2131604809
  0
LINE
  5
25B
100
AcDbEntity
  8
0
100
AcDbLine
 62
6
  6
CONTINUOUS
 10
7.7665909289
 20
9.2131604809
 11
8.1516193627
 21
9.2131604809
  0
LINE
  5
25C
100
AcDbEntity
  8
0
100
AcDbLine
 62
6
  6
CONTINUOUS
 10
8.2022787652
 20
9.2306604809
 11
8.1632787652
 21
9.2306604809
  0
LINE
  5
25D
100
AcDbEntity
  8
0
100
AcDbLine
 62
6
  6
CONTINUOUS
 10
4.0242787652
 20
9.2306604809
 11
4.0632787652
 21
9.2306604809
  0
LINE
  5
25E
100
AcDbEntity
  8
0
100
AcDbLine
 62
6
  6
CONTINUOUS
 10
4.4632787652
 20
9.2531604809
 11
4.7089939252
 21
9.2531604809
  0
LINE
  5
25F
100
AcDbEntity
  8
0
100
AcDbLine
 62
6
  6
CONTINUOUS
 10
7.5175636052
 20
9.2531604809
 11
7.7632787652
 21
9.2531604809
  0
LINE
  5
260
100
AcDbEntity
  8
0
100
AcDbLine
 62
9
  6
CONTINUOUS
 10
2.9298932494
 20
9.3824736284
 11
3.1833578361
 21
9.3824736284
  0
LINE
  5
261
100
AcDbEntity
  8
0
100
AcDbLine
 62
9
  6
CONTINUOUS
 10
9.0431996944
 20
9.3824736284
 11
9.296664281
 21
9.3824736284
  0
LINE
  5
262
100
AcDbEntity
  8
0
100
AcDbLine
 62
6
  6
CONTINUOUS
 10
4.7175618574
 20
9.2530381069
 11
4.7089939252
 21
9.2531604809
  0
LINE
  5
263
100
AcDbEntity
  8
0
100
AcDbLine
 62
6
  6
CONTINUOUS
 10
5.7602787652
 20
9.2232461952
 11
4.7175618574
 21
9.2530381069
  0
LINE
  5
264
100
AcDbEntity
  8
0
100
AcDbLine
 62
9
  6
CONTINUOUS
 10
5.7602787652
 20
9.2254871059
 11
4.7286963661
 21
9.2615095687
  0
LINE
  5
265
100
AcDbEntity
  8
0
100
AcDbLine
 62
6
  6
CONTINUOUS
 10
2.8577288503
 20
9.4381609122
 11
2.8625538622
 21
9.4378190701
  0
LINE
  5
266
100
AcDbEntity
  8
0
100
AcDbLine
 62
9
  6
CONTINUOUS
 10
9.0024871096
 20
11.2277403521
 11
9.0024699324
 21
11.2276692654
  0
LWPOLYLINE
  5
267
100
AcDbEntity
  8
0
100
AcDbPolyline
 62
6
  6
CONTINUOUS
 90
6
 70
0
 10
9.0007134151
 20
10.2569182697
 10
9.0007233268
 20
10.2569499296
 10
9.000521163
 20
10.2564365841
 10
8.9998957295
 20
10.255129298
 10
8.9986740923
 20
10.2530716523
 10
8.9983075436
 20
10.2525303928
  0
LINE
  5
268
100
AcDbEntity
  8
0
100
AcDbLine
 62
6
  6
CONTINUOUS
 10
3.2523350209
 20
9.4378785878
 11
3.2568003866
 21
9.438160904
  0
LINE
  5
269
100
AcDbEntity
  8
0
100
AcDbLine
 62
6
  6
CONTINUOUS
 10
9.4062787652
 20
9.4381604809
 11
9.368885475
 21
9.4381604809
  0
LINE
  5
26A
100
AcDbEntity
  8
0
100
AcDbLine
 62
6
  6
CONTINUOUS
 10
8.9696973418
 20
9.4381604809
 11
8.9312787652
 21
9.4381604809
  0
LINE
  5
26B
100
AcDbEntity
  8
0
100
AcDbLine
 62
6
  6
CONTINUOUS
 10
3.2952787652
 20
9.4381604809
 11
3.2568842495
 21
9.4381604809
  0
LINE
  5
26C
100
AcDbEntity
  8
0
100
AcDbLine
 62
6
  6
CONTINUOUS
 10
2.8576502674
 20
9.4381604809
 11
2.8202787652
 21
9.4381604809
  0
LINE
  5
26D
100
AcDbEntity
  8
0
100
AcDbLine
 62
9
  6
CONTINUOUS
 10
2.8617191709
 20
9.4395027282
 11
3.253435339
 21
9.4395027282
  0
LINE
  5
26E
100
AcDbEntity
  8
0
100
AcDbLine
 62
9
  6
CONTINUOUS
 10
8.9731216092
 20
9.4395027282
 11
9.3648393931
 21
9.4395027282
  0
LINE
  5
26F
100
AcDbEntity
  8
0
100
AcDbLine
 62
6
  6
CONTINUOUS
 10
8.5882787652
 20
9.4881604809
 11
8.4882787652
 21
9.4881604809
  0
LINE
  5
270
100
AcDbEntity
  8
0
100
AcDbLine
 62
6
  6
CONTINUOUS
 10
3.6382787652
 20
9.4881604809
 11
3.7382787652
 21
9.4881604809
  0
LINE
  5
271
100
AcDbEntity
  8
0
100
AcDbLine
 62
6
  6
CONTINUOUS
 10
8.9112787652
 20
9.5256604809
 11
8.6182787652
 21
9.5256604809
  0
LINE
  5
272
100
AcDbEntity
  8
0
100
AcDbLine
 62
6
  6
CONTINUOUS
 10
3.6082787652
 20
9.5256604809
 11
3.3152787652
 21
9.5256604809
  0
LINE
  5
273
100
AcDbEntity
  8
0
100
AcDbLine
 62
6
  6
CONTINUOUS
 10
2.8946748372
 20
9.5666324629
 11
3.1851951724
 21
9.5666324629
  0
LINE
  5
274
100
AcDbEntity
  8
0
100
AcDbLine
 62
6
  6
CONTINUOUS
 10
9.041362358
 20
9.5666324629
 11
9.3318826932
 21
9.5666324629
  0
LINE
  5
275
100
AcDbEntity
  8
0
100
AcDbLine
 62
9
  6
CONTINUOUS
 10
2.8946866358
 20
9.5667706325
 11
3.185183732
 21
9.5667706325
  0
LINE
  5
276
100
AcDbEntity
  8
0
100
AcDbLine
 62
9
  6
CONTINUOUS
 10
9.0413739539
 20
9.5667706325
 11
9.3318710481
 21
9.5667706325
  0
LINE
  5
277
100
AcDbEntity
  8
0
100
AcDbLine
 62
6
  6
CONTINUOUS
 10
9.5312787652
 20
9.5756604809
 11
9.5012787652
 21
9.5756604809
  0
LINE
  5
278
100
AcDbEntity
  8
0
100
AcDbLine
 62
6
  6
CONTINUOUS
 10
2.7252787652
 20
9.5756604809
 11
2.6952787652
 21
9.5756604809
  0
LINE
  5
279
100
AcDbEntity
  8
0
100
AcDbLine
 62
9
  6
CONTINUOUS
 10
2.8946743761
 20
9.6066324629
 11
3.1851960709
 21
9.6066324629
  0
LINE
  5
27A
100
AcDbEntity
  8
0
100
AcDbLine
 62
9
  6
CONTINUOUS
 10
9.041362672
 20
9.6066324629
 11
9.3318826254
 21
9.6066324629
  0
LINE
  5
27B
100
AcDbEntity
  8
0
100
AcDbLine
 62
7
  6
CONTINUOUS
 10
9.000810027
 20
9.6104767616
 11
8.9731174071
 21
9.6104767616
  0
LINE
  5
27C
100
AcDbEntity
  8
0
100
AcDbLine
 62
7
  6
CONTINUOUS
 10
3.2534407636
 20
9.6104767616
 11
3.2257479222
 21
9.6104767616
  0
LINE
  5
27D
100
AcDbEntity
  8
0
100
AcDbLine
 62
6
  6
CONTINUOUS
 10
8.9697605368
 20
9.4381611271
 11
8.974222291
 21
9.4378788689
  0
LINE
  5
27E
100
AcDbEntity
  8
0
100
AcDbLine
 62
6
  6
CONTINUOUS
 10
3.2523352394
 20
10.2384420929
 11
3.2463501653
 21
10.239711508
  0
LINE
  5
27F
100
AcDbEntity
  8
0
100
AcDbLine
 62
6
  6
CONTINUOUS
 10
8.1632787652
 20
9.2306604809
 11
8.1632787652
 21
10.4456604809
  0
LINE
  5
280
100
AcDbEntity
  8
0
100
AcDbLine
 62
9
  6
CONTINUOUS
 10
8.2022787652
 20
10.4456604809
 11
8.2022787652
 21
9.2306604809
  0
LINE
  5
281
100
AcDbEntity
  8
0
100
AcDbLine
 62
9
  6
CONTINUOUS
 10
8.2332787652
 20
10.41466048
 11
8.2332787652
 21
9.2616604819
  0
LWPOLYLINE
  5
282
100
AcDbEntity
  8
0
100
AcDbPolyline
 62
6
  6
CONTINUOUS
 90
4
 70
0
 10
9.0024965195
 20
11.2277779787
 10
8.9943725066
 20
11.1879794353
 10
8.989226036
 20
11.1468374832
 10
8.987340277
 20
11.101718582
  0
LINE
  5
283
100
AcDbEntity
  8
0
100
AcDbLine
 62
9
  6
CONTINUOUS
 10
9.0016542826
 20
10.074512267
 11
9.0016571039
 21
10.0745217632
  0
LINE
  5
284
100
AcDbEntity
  8
0
100
AcDbLine
 62
9
  6
CONTINUOUS
 10
5.4327787652
 20
9.8381604809
 11
4.6388702282
 21
9.8381604809
  0
LINE
  5
285
100
AcDbEntity
  8
0
100
AcDbLine
 62
6
  6
CONTINUOUS
 10
4.3632787652
 20
9.8381604809
 11
4.1632787652
 21
9.8381604809
  0
LINE
  5
286
100
AcDbEntity
  8
0
100
AcDbLine
 62
9
  6
CONTINUOUS
 10
6.7937787652
 20
9.8381604809
 11
7.5876873022
 21
9.8381604809
  0
LINE
  5
287
100
AcDbEntity
  8
0
100
AcDbLine
 62
6
  6
CONTINUOUS
 10
7.8632787652
 20
9.8381604809
 11
8.0632787652
 21
9.8381604809
  0
LINE
  5
288
100
AcDbEntity
  8
0
100
AcDbLine
 62
9
  6
CONTINUOUS
 10
9.3715893998
 20
9.6017974397
 11
9.3715557574
 21
9.6017997629
  0
LINE
  5
289
100
AcDbEntity
  8
0
100
AcDbLine
 62
9
  6
CONTINUOUS
 10
2.8549681306
 20
10.0745235222
 11
2.855001773
 21
10.0745211989
  0
LINE
  5
28A
100
AcDbEntity
  8
0
100
AcDbLine
 62
6
  6
CONTINUOUS
 10
8.974222291
 20
9.4378788689
 11
8.9802073651
 21
9.4366094538
  0
LINE
  5
28B
100
AcDbEntity
  8
0
100
AcDbLine
 62
6
  6
CONTINUOUS
 10
7.7632787652
 20
9.2164726444
 11
7.7665934514
 21
9.2131579582
  0
LINE
  5
28C
100
AcDbEntity
  8
0
100
AcDbLine
 62
9
  6
CONTINUOUS
 10
8.481385765
 20
10.2354117801
 11
8.481385765
 21
9.4409091817
  0
LINE
  5
28D
100
AcDbEntity
  8
0
100
AcDbLine
 62
9
  6
CONTINUOUS
 10
8.4882787652
 20
10.2159117762
 11
8.4882787652
 21
9.4604091856
  0
LINE
  5
28E
100
AcDbEntity
  8
0
100
AcDbLine
 62
6
  6
CONTINUOUS
 10
8.5882787652
 20
9.4881604809
 11
8.5882787652
 21
10.1881604809
  0
LINE
  5
28F
100
AcDbEntity
  8
0
100
AcDbLine
 62
7
  6
CONTINUOUS
 10
8.6182787652
 20
9.5256604809
 11
8.6182787652
 21
10.1506604809
  0
LWPOLYLINE
  5
290
100
AcDbEntity
  8
0
100
AcDbPolyline
 62
6
  6
CONTINUOUS
 90
6
 70
0
 10
9.0016557261
 20
10.0745214808
 10
8.9926012082
 20
9.9816637425
 10
8.9879258736
 20
9.8860976087
 10
8.9879211216
 20
9.7904192081
 10
8.992586857
 20
9.6948530195
 10
9.0016557006
 20
9.6017994791
  0
LINE
  5
291
100
AcDbEntity
  8
0
100
AcDbLine
 62
9
  6
CONTINUOUS
 10
9.0024699324
 20
11.2276692654
 11
9.0016571039
 21
11.2204231456
  0
LWPOLYLINE
  5
292
100
AcDbEntity
  8
0
100
AcDbPolyline
 62
6
  6
CONTINUOUS
 90
8
 70
0
 10
9.339693333
 20
9.4212787993
 10
9.3396298539
 20
9.4210855339
 10
9.3398071614
 20
9.4215080469
 10
9.3405393203
 20
9.4229263615
 10
9.3420460406
 20
9.4252170419
 10
9.3445028272
 20
9.4280993853
 10
9.3479664249
 20
9.4311684365
 10
9.3524151628
 20
9.4340341752
  0
LINE
  5
293
100
AcDbEntity
  8
0
100
AcDbLine
 62
6
  6
CONTINUOUS
 10
8.9742225095
 20
10.2384423741
 11
8.9697571439
 21
10.2381600579
  0
LINE
  5
294
100
AcDbEntity
  8
0
100
AcDbLine
 62
7
  6
CONTINUOUS
 10
3.2257475034
 20
10.0658442002
 11
3.2534401233
 21
10.0658442002
  0
LINE
  5
295
100
AcDbEntity
  8
0
100
AcDbLine
 62
7
  6
CONTINUOUS
 10
8.9731167668
 20
10.0658442002
 11
9.0008096083
 21
10.0658442002
  0
LINE
  5
296
100
AcDbEntity
  8
0
100
AcDbLine
 62
9
  6
CONTINUOUS
 10
9.3318831543
 20
10.069688499
 11
9.0413614596
 21
10.069688499
  0
LINE
  5
297
100
AcDbEntity
  8
0
100
AcDbLine
 62
9
  6
CONTINUOUS
 10
3.1851948584
 20
10.069688499
 11
2.8946749051
 21
10.069688499
  0
LINE
  5
298
100
AcDbEntity
  8
0
100
AcDbLine
 62
6
  6
CONTINUOUS
 10
9.5312787652
 20
10.1006604809
 11
9.5012787652
 21
10.1006604809
  0
LINE
  5
299
100
AcDbEntity
  8
0
100
AcDbLine
 62
6
  6
CONTINUOUS
 10
2.7252787652
 20
10.1006604809
 11
2.6952787652
 21
10.1006604809
  0
LINE
  5
29A
100
AcDbEntity
  8
0
100
AcDbLine
 62
9
  6
CONTINUOUS
 10
9.3318708946
 20
10.1095503293
 11
9.0413737984
 21
10.1095503293
  0
LINE
  5
29B
100
AcDbEntity
  8
0
100
AcDbLine
 62
9
  6
CONTINUOUS
 10
3.1851835765
 20
10.1095503293
 11
2.8946864824
 21
10.1095503293
  0
LINE
  5
29C
100
AcDbEntity
  8
0
100
AcDbLine
 62
6
  6
CONTINUOUS
 10
9.3318826932
 20
10.109688499
 11
9.041362358
 21
10.109688499
  0
LINE
  5
29D
100
AcDbEntity
  8
0
100
AcDbLine
 62
6
  6
CONTINUOUS
 10
3.1851951724
 20
10.109688499
 11
2.8946748372
 21
10.109688499
  0
LINE
  5
29E
100
AcDbEntity
  8
0
100
AcDbLine
 62
6
  6
CONTINUOUS
 10
8.9112787652
 20
10.1506604809
 11
8.6182787652
 21
10.1506604809
  0
LINE
  5
29F
100
AcDbEntity
  8
0
100
AcDbLine
 62
6
  6
CONTINUOUS
 10
3.6082787652
 20
10.1506604809
 11
3.3152787652
 21
10.1506604809
  0
LINE
  5
2A0
100
AcDbEntity
  8
0
100
AcDbLine
 62
6
  6
CONTINUOUS
 10
8.5882787652
 20
10.1881604809
 11
8.4882787652
 21
10.1881604809
  0
LINE
  5
2A1
100
AcDbEntity
  8
0
100
AcDbLine
 62
6
  6
CONTINUOUS
 10
3.6382787652
 20
10.1881604809
 11
3.7382787652
 21
10.1881604809
  0
LINE
  5
2A2
100
AcDbEntity
  8
0
100
AcDbLine
 62
9
  6
CONTINUOUS
 10
9.3648383596
 20
10.2368182337
 11
8.9731221914
 21
10.2368182337
  0
LINE
  5
2A3
100
AcDbEntity
  8
0
100
AcDbLine
 62
9
  6
CONTINUOUS
 10
3.2534359212
 20
10.2368182337
 11
2.8617181373
 21
10.2368182337
  0
LINE
  5
2A4
100
AcDbEntity
  8
0
100
AcDbLine
 62
6
  6
CONTINUOUS
 10
9.4062787652
 20
10.2381604809
 11
9.3689072631
 21
10.2381604809
  0
LINE
  5
2A5
100
AcDbEntity
  8
0
100
AcDbLine
 62
6
  6
CONTINUOUS
 10
8.9696732809
 20
10.2381604809
 11
8.9312787652
 21
10.2381604809
  0
LINE
  5
2A6
100
AcDbEntity
  8
0
100
AcDbLine
 62
6
  6
CONTINUOUS
 10
3.2952787652
 20
10.2381604809
 11
3.2568864426
 21
10.2381604809
  0
LINE
  5
2A7
100
AcDbEntity
  8
0
100
AcDbLine
 62
6
  6
CONTINUOUS
 10
2.8576433132
 20
10.2381604809
 11
2.8202787652
 21
10.2381604809
  0
LINE
  5
2A8
100
AcDbEntity
  8
0
100
AcDbLine
 62
9
  6
CONTINUOUS
 10
9.296664281
 20
10.2938473335
 11
9.0431996944
 21
10.2938473335
  0
LINE
  5
2A9
100
AcDbEntity
  8
0
100
AcDbLine
 62
9
  6
CONTINUOUS
 10
3.1833578361
 20
10.2938473335
 11
2.9298932494
 21
10.2938473335
  0
LINE
  5
2AA
100
AcDbEntity
  8
0
100
AcDbLine
 62
6
  6
CONTINUOUS
 10
3.2567969936
 20
10.2381598348
 11
3.2523352394
 21
10.2384420929
  0
LWPOLYLINE
  5
2AB
100
AcDbEntity
  8
0
100
AcDbPolyline
 62
6
  6
CONTINUOUS
 90
4
 70
0
 10
8.9802073651
 20
9.4366094538
 10
8.9855261952
 20
9.4345290805
 10
8.9900858454
 20
9.4318742583
 10
8.9938259764
 20
9.4288961448
  0
LWPOLYLINE
  5
2AC
100
AcDbEntity
  8
0
100
AcDbPolyline
 62
6
  6
CONTINUOUS
 90
3
 70
0
 10
8.9873402583
 20
8.57459004
 10
8.9892304441
 20
8.5294313293
 10
8.9943853798
 20
8.4882635207
  0
LINE
  5
2AD
100
AcDbEntity
  8
0
100
AcDbLine
 62
6
  6
CONTINUOUS
 10
8.9935687481
 20
10.5109208827
 11
8.9973576367
 21
10.2512570282
  0
LWPOLYLINE
  5
2AE
100
AcDbEntity
  8
0
100
AcDbPolyline
 62
6
  6
CONTINUOUS
 90
3
 70
0
 10
8.9873410738
 20
11.1017271414
 10
8.9893239705
 20
10.8162141536
 10
8.9935687481
 20
10.5109208827
  0
LINE
  5
2AF
100
AcDbEntity
  8
0
100
AcDbLine
 62
9
  6
CONTINUOUS
 10
8.9873402773
 20
11.1017183847
 11
8.9873402636
 21
11.1017269452
  0
LINE
  5
2B0
100
AcDbEntity
  8
0
100
AcDbLine
 62
9
  6
CONTINUOUS
 10
8.9112787652
 20
9.5256604809
 11
8.9112787652
 21
10.1506604809
  0
LINE
  5
2B1
100
AcDbEntity
  8
0
100
AcDbLine
 62
6
  6
CONTINUOUS
 10
8.9312787652
 20
9.4381604809
 11
8.9312787652
 21
10.2381604809
  0
LINE
  5
2B2
100
AcDbEntity
  8
0
100
AcDbLine
 62
9
  6
CONTINUOUS
 10
9.041362358
 20
11.2583215795
 11
9.041362358
 21
11.2353757149
  0
LINE
  5
2B3
100
AcDbEntity
  8
0
100
AcDbLine
 62
9
  6
CONTINUOUS
 10
9.041362358
 20
9.6066324629
 11
9.041362358
 21
9.5666324629
  0
LINE
  5
2B4
100
AcDbEntity
  8
0
100
AcDbLine
 62
9
  6
CONTINUOUS
 10
9.041362358
 20
8.4179993824
 11
9.041362358
 21
8.440945247
  0
LINE
  5
2B5
100
AcDbEntity
  8
0
100
AcDbLine
 62
9
  6
CONTINUOUS
 10
9.041362358
 20
10.069688499
 11
9.041362358
 21
10.109688499
  0
LINE
  5
2B6
100
AcDbEntity
  8
0
100
AcDbLine
 62
9
  6
CONTINUOUS
 10
8.9873402597
 20
8.5745909112
 11
8.9873402646
 21
8.5745940165
  0
LWPOLYLINE
  5
2B7
100
AcDbEntity
  8
0
100
AcDbPolyline
 62
6
  6
CONTINUOUS
 90
4
 70
0
 10
8.9973575087
 20
9.4250551705
 10
8.9935687504
 20
9.1654002302
 10
8.9893239717
 20
8.8601069112
 10
8.9873410738
 20
8.5745938196
  0
LINE
  5
2B8
100
AcDbEntity
  8
0
100
AcDbLine
 62
9
  6
CONTINUOUS
 10
9.3707549562
 20
8.4485682743
 11
9.370770174
 21
8.4486311466
  0
LINE
  5
2B9
100
AcDbEntity
  8
0
100
AcDbLine
 62
6
  6
CONTINUOUS
 10
2.8625880842
 20
10.2385064684
 11
2.8577348152
 21
10.2381598274
  0
LINE
  5
2BA
100
AcDbEntity
  8
0
100
AcDbLine
 62
9
  6
CONTINUOUS
 10
5.8221659823
 20
10.4529949339
 11
4.7286963661
 21
10.4148113932
  0
LINE
  5
2BB
100
AcDbEntity
  8
0
100
AcDbLine
 62
6
  6
CONTINUOUS
 10
5.826601376
 20
10.4549696984
 11
4.7175618574
 21
10.423282855
  0
LINE
  5
2BC
100
AcDbEntity
  8
0
100
AcDbLine
 62
6
  6
CONTINUOUS
 10
4.7175618574
 20
10.423282855
 11
4.7089939252
 21
10.4231604809
  0
LINE
  5
2BD
100
AcDbEntity
  8
0
100
AcDbLine
 62
6
  6
CONTINUOUS
 10
7.7632787652
 20
10.4231604809
 11
7.5175636052
 21
10.4231604809
  0
LINE
  5
2BE
100
AcDbEntity
  8
0
100
AcDbLine
 62
6
  6
CONTINUOUS
 10
4.7089939252
 20
10.4231604809
 11
4.4632787652
 21
10.4231604809
  0
LINE
  5
2BF
100
AcDbEntity
  8
0
100
AcDbLine
 62
6
  6
CONTINUOUS
 10
8.2022787652
 20
10.4456604809
 11
8.1632787652
 21
10.4456604809
  0
LINE
  5
2C0
100
AcDbEntity
  8
0
100
AcDbLine
 62
6
  6
CONTINUOUS
 10
4.0242787652
 20
10.4456604809
 11
4.0632787652
 21
10.4456604809
  0
LINE
  5
2C1
100
AcDbEntity
  8
0
100
AcDbLine
 62
6
  6
CONTINUOUS
 10
4.0749381677
 20
10.4631604809
 11
4.4599666015
 21
10.4631604809
  0
LINE
  5
2C2
100
AcDbEntity
  8
0
100
AcDbLine
 62
6
  6
CONTINUOUS
 10
7.7665909289
 20
10.4631604809
 11
8.1516193627
 21
10.4631604809
  0
LINE
  5
2C3
100
AcDbEntity
  8
0
100
AcDbLine
 62
6
  6
CONTINUOUS
 10
7.5175636052
 20
10.4231604809
 11
7.508995673
 21
10.423282855
  0
LINE
  5
2C4
100
AcDbEntity
  8
0
100
AcDbLine
 62
6
  6
CONTINUOUS
 10
6.3999561545
 20
10.4549696984
 11
7.508995673
 21
10.423282855
  0
LINE
  5
2C5
100
AcDbEntity
  8
0
100
AcDbLine
 62
9
  6
CONTINUOUS
 10
6.4043915481
 20
10.4529949339
 11
7.4978611643
 21
10.4148113932
  0
LINE
  5
2C6
100
AcDbEntity
  8
0
100
AcDbLine
 62
6
  6
CONTINUOUS
 10
9.3688286801
 20
10.2381600497
 11
9.3640036683
 21
10.2385018918
  0
LINE
  5
2C7
100
AcDbEntity
  8
0
100
AcDbLine
 62
9
  6
CONTINUOUS
 10
9.0024871085
 20
8.4485806141
 11
9.0024699432
 21
8.4486516517
  0
LINE
  5
2C8
100
AcDbEntity
  8
0
100
AcDbLine
 62
6
  6
CONTINUOUS
 10
8.9943853798
 20
8.4882635207
 11
9.0024965453
 21
8.4485429837
  0
LINE
  5
2C9
100
AcDbEntity
  8
0
100
AcDbLine
 62
9
  6
CONTINUOUS
 10
9.0024699432
 20
8.4486516517
 11
9.0016571039
 21
8.4558978163
  0
LINE
  5
2CA
100
AcDbEntity
  8
0
100
AcDbLine
 62
6
  6
CONTINUOUS
 10
9.3705976676
 20
8.9256284937
 11
9.3447367988
 21
9.4283067046
  0
LINE
  5
2CB
100
AcDbEntity
  8
0
100
AcDbLine
 62
6
  6
CONTINUOUS
 10
9.3855184072
 20
8.5940534226
 11
9.3705976676
 21
8.9256284937
  0
LINE
  5
2CC
100
AcDbEntity
  8
0
100
AcDbLine
 62
9
  6
CONTINUOUS
 10
9.3855190612
 20
8.5940535976
 11
9.3855234345
 21
8.593941282
  0
LINE
  5
2CD
100
AcDbEntity
  8
0
100
AcDbLine
 62
9
  6
CONTINUOUS
 10
9.3318826932
 20
11.2583215795
 11
9.3318826932
 21
11.2353757149
  0
LINE
  5
2CE
100
AcDbEntity
  8
0
100
AcDbLine
 62
9
  6
CONTINUOUS
 10
9.3318826932
 20
9.6066324629
 11
9.3318826932
 21
9.5666324629
  0
LINE
  5
2CF
100
AcDbEntity
  8
0
100
AcDbLine
 62
9
  6
CONTINUOUS
 10
9.3318826932
 20
8.4179993824
 11
9.3318826932
 21
8.440945247
  0
LINE
  5
2D0
100
AcDbEntity
  8
0
100
AcDbLine
 62
9
  6
CONTINUOUS
 10
9.3318826932
 20
10.069688499
 11
9.3318826932
 21
10.109688499
  0
LINE
  5
2D1
100
AcDbEntity
  8
0
100
AcDbLine
 62
6
  6
CONTINUOUS
 10
9.4062787652
 20
9.4381604809
 11
9.4062787652
 21
10.2381604809
  0
LWPOLYLINE
  5
2D2
100
AcDbEntity
  8
0
100
AcDbPolyline
 62
6
  6
CONTINUOUS
 90
4
 70
0
 10
9.3855241041
 20
11.0823975415
 10
9.3857907089
 20
11.0911833083
 10
9.3847551081
 20
11.1372753201
 10
9.3796334817
 20
11.1832734773
  0
LINE
  5
2D3
100
AcDbEntity
  8
0
100
AcDbLine
 62
9
  6
CONTINUOUS
 10
9.3855237854
 20
11.0823893519
 11
9.3855190365
 21
11.0822673631
  0
LWPOLYLINE
  5
2D4
100
AcDbEntity
  8
0
100
AcDbPolyline
 62
6
  6
CONTINUOUS
 90
3
 70
0
 10
9.3447360914
 20
10.2480004689
 10
9.3705976709
 20
10.7506925345
 10
9.3855184072
 20
11.0822675388
  0
LINE
  5
2D5
100
AcDbEntity
  8
0
100
AcDbLine
 62
9
  6
CONTINUOUS
 10
9.370770174
 20
8.4486311466
 11
9.3715557574
 21
8.4570042086
  0
LWPOLYLINE
  5
2D6
100
AcDbEntity
  8
0
100
AcDbPolyline
 62
6
  6
CONTINUOUS
 90
6
 70
0
 10
9.3715891195
 20
9.6017977585
 10
9.380649863
 20
9.6946552713
 10
9.3853285047
 20
9.7902226835
 10
9.3853332581
 20
9.885902506
 10
9.3806642192
 20
9.981469961
 10
9.3715891457
 20
10.0745232003
  0
LWPOLYLINE
  5
2D7
100
AcDbEntity
  8
0
100
AcDbPolyline
 62
6
  6
CONTINUOUS
 90
5
 70
0
 10
9.3707472331
 20
8.4485376306
 10
9.379645609
 20
8.493125362
 10
9.3847585369
 20
8.539097517
 10
9.3857901599
 20
8.5851633675
 10
9.3855237317
 20
8.5939336471
  0
LINE
  5
2D8
100
AcDbEntity
  8
0
100
AcDbLine
 62
6
  6
CONTINUOUS
 10
9.3640036683
 20
10.2385018918
 11
9.3579796203
 21
10.2399021927
  0
LINE
  5
2D9
100
AcDbEntity
  8
0
100
AcDbLine
 62
6
  6
CONTINUOUS
 10
8.1509176472
 20
10.4641569951
 11
8.1632787652
 21
10.4456604809
  0
LWPOLYLINE
  5
2DA
100
AcDbEntity
  8
0
100
AcDbPolyline
 62
6
  6
CONTINUOUS
 90
4
 70
0
 10
9.0006739511
 20
9.4195062566
 10
9.0007233782
 20
9.4193710719
 10
9.0006477918
 20
9.4196247803
 10
9.0006151794
 20
9.4197536232
  0
LINE
  5
2DB
100
AcDbEntity
  8
0
100
AcDbLine
 62
9
  6
CONTINUOUS
 10
9.0016542825
 20
9.6018086957
 11
9.0016571039
 21
9.6017991987
  0
LINE
  5
2DC
100
AcDbEntity
  8
0
100
AcDbLine
 62
9
  6
CONTINUOUS
 10
9.3707701613
 20
11.2276898677
 11
9.3715557574
 21
11.2193167533
  0
LINE
  5
2DD
100
AcDbEntity
  8
0
100
AcDbLine
 62
6
  6
CONTINUOUS
 10
9.4812787652
 20
9.5256604809
 11
9.4812787652
 21
10.1506604809
  0
LINE
  5
2DE
100
AcDbEntity
  8
0
100
AcDbLine
 62
9
  6
CONTINUOUS
 10
9.5012787652
 20
9.5756604809
 11
9.5012787652
 21
10.1006604809
  0
LINE
  5
2DF
100
AcDbEntity
  8
0
100
AcDbLine
 62
6
  6
CONTINUOUS
 10
9.5312787652
 20
9.5756604809
 11
9.5312787652
 21
10.1006604809
  0
LINE
  5
2E0
100
AcDbEntity
  8
0
100
AcDbLine
 62
9
  6
CONTINUOUS
 10
2.8946866358
 20
11.2353757149
 11
3.185183732
 21
11.2353757149
  0
LINE
  5
2E1
100
AcDbEntity
  8
0
100
AcDbLine
 62
9
  6
CONTINUOUS
 10
9.0413739539
 20
11.2353757149
 11
9.3318710481
 21
11.2353757149
  0
LINE
  5
2E2
100
AcDbEntity
  8
0
100
AcDbLine
 62
6
  6
CONTINUOUS
 10
2.8946748372
 20
11.2583215795
 11
3.1851951724
 21
11.2583215795
  0
LINE
  5
2E3
100
AcDbEntity
  8
0
100
AcDbLine
 62
6
  6
CONTINUOUS
 10
9.041362358
 20
11.2583215795
 11
9.3318826932
 21
11.2583215795
  0
LINE
  5
2E4
100
AcDbEntity
  8
0
100
AcDbLine
 62
6
  6
CONTINUOUS
 10
9.3579796203
 20
10.2399021927
 11
9.3527169111
 21
10.2421266404
  0
LWPOLYLINE
  5
2E5
100
AcDbEntity
  8
0
100
AcDbPolyline
 62
6
  6
CONTINUOUS
 90
5
 70
0
 10
8.9983097918
 20
9.4237871405
 10
8.9986760696
 20
9.4232461115
 10
8.999897804
 20
9.4211875752
 10
9.0005223372
 20
9.4198817049
 10
9.0006739511
 20
9.4195062566
  0
LWPOLYLINE
  5
2E6
100
AcDbEntity
  8
0
100
AcDbPolyline
 62
6
  6
CONTINUOUS
 90
7
 70
0
 10
9.3527169111
 20
10.2421266404
 10
9.3483249569
 20
10.2448825496
 10
9.3448608333
 20
10.2478592446
 10
9.3423477108
 20
10.25070443
 10
9.3407508759
 20
10.2530344075
 10
9.3399139842
 20
10.2545821714
 10
9.339688332
 20
10.2550878483
  0
LINE
  5
2E7
100
AcDbEntity
  8
0
100
AcDbLine
 62
9
  6
CONTINUOUS
 10
9.371593911
 20
10.0744863148
 11
9.3715557574
 21
10.0745211989
  0
LINE
  5
2E8
100
AcDbEntity
  8
0
100
AcDbLine
 62
6
  6
CONTINUOUS
 10
9.3796334817
 20
11.1832734773
 11
9.3707472079
 21
11.2277833286
  0
LINE
  5
2E9
100
AcDbEntity
  8
0
100
AcDbLine
 62
9
  6
CONTINUOUS
 10
9.370754955
 20
11.2277526926
 11
9.3707701613
 21
11.2276898677
  0
ARC
  5
2EA
100
AcDbEntity
  8
0
100
AcDbCircle
 62
6
  6
CONTINUOUS
 10
6.1038628658
 20
4.6817200188
 40
0.4001393677
100
AcDbArc
 50
149.7061464346
 51
166.8169546973
  0
ARC
  5
2EB
100
AcDbEntity
  8
0
100
AcDbCircle
 62
6
  6
CONTINUOUS
 10
6.1039779862
 20
4.6951417367
 40
0.3974079128
100
AcDbArc
 50
150.5015324375
 51
168.7051571089
  0
ARC
  5
2EC
100
AcDbEntity
  8
0
100
AcDbCircle
 62
9
  6
CONTINUOUS
 10
6.101056944
 20
4.7114284495
 40
0.3407781798
100
AcDbArc
 50
180.0044377776
 51
183.1791895281
  0
ARC
  5
2ED
100
AcDbEntity
  8
0
100
AcDbCircle
 62
9
  6
CONTINUOUS
 10
1.2793305692
 20
9.8381599287
 40
1.9598873415
100
AcDbArc
 50
357.9935502789
 51
2.0051020488
  0
ARC
  5
2EE
100
AcDbEntity
  8
0
100
AcDbCircle
 62
9
  6
CONTINUOUS
 10
1.2802412415
 20
9.8381319584
 40
1.9589762482
100
AcDbArc
 50
357.2147597852
 51
357.9934352963
  0
ARC
  5
2EF
100
AcDbEntity
  8
0
100
AcDbCircle
 62
9
  6
CONTINUOUS
 10
1.2870108261
 20
9.8376861413
 40
1.9521930007
100
AcDbArc
 50
353.0598921318
 51
357.2181742864
  0
ARC
  5
2F0
100
AcDbEntity
  8
0
100
AcDbCircle
 62
9
  6
CONTINUOUS
 10
1.2809280969
 20
9.8381554939
 40
1.918291201
100
AcDbArc
 50
353.067937916
 51
6.932362183
  0
ARC
  5
2F1
100
AcDbEntity
  8
0
100
AcDbCircle
 62
9
  6
CONTINUOUS
 10
1.7249399014
 20
9.3943198848
 40
1.4983220045
100
AcDbArc
 50
0.1565195744
 51
0.4465199321
  0
ARC
  5
2F2
100
AcDbEntity
  8
0
100
AcDbCircle
 62
9
  6
CONTINUOUS
 10
2.4075621873
 20
9.3792443621
 40
0.7758023697
100
AcDbArc
 50
0.2384935511
 51
0.6382195742
  0
ARC
  5
2F3
100
AcDbEntity
  8
0
100
AcDbCircle
 62
9
  6
CONTINUOUS
 10
2.7440465443
 20
8.5741434278
 40
0.4951743676
100
AcDbArc
 50
346.184616844
 51
0.052122601
  0
ARC
  5
2F4
100
AcDbEntity
  8
0
100
AcDbCircle
 62
9
  6
CONTINUOUS
 10
2.9855278382
 20
9.2550399469
 40
0.445098489
100
AcDbArc
 50
52.9925904141
 51
57.0709729545
  0
ARC
  5
2F5
100
AcDbEntity
  8
0
100
AcDbCircle
 62
9
  6
CONTINUOUS
 10
3.0106617753
 20
9.4397134547
 40
0.1261024689
100
AcDbArc
 50
187.809536726
 51
188.6084768711
  0
ARC
  5
2F6
100
AcDbEntity
  8
0
100
AcDbCircle
 62
6
  6
CONTINUOUS
 10
2.7452787652
 20
9.4506604809
 40
0.075
100
AcDbArc
 50
0.0
 51
90.0
  0
ARC
  5
2F7
100
AcDbEntity
  8
0
100
AcDbCircle
 62
9
  6
CONTINUOUS
 10
2.8949238656
 20
9.606853168
 40
0.0402406558
100
AcDbArc
 50
187.2142275382
 51
203.6015753033
  0
ARC
  5
2F8
100
AcDbEntity
  8
0
100
AcDbCircle
 62
6
  6
CONTINUOUS
 10
2.8946748683
 20
8.4579994339
 40
0.0400000515
100
AcDbArc
 50
193.5449561502
 51
269.9999554787
  0
ARC
  5
2F9
100
AcDbEntity
  8
0
100
AcDbCircle
 62
6
  6
CONTINUOUS
 10
2.8946748352
 20
9.6066324029
 40
0.0399999401
100
AcDbArc
 50
186.8886411002
 51
270.0000028784
  0
ARC
  5
2FA
100
AcDbEntity
  8
0
100
AcDbCircle
 62
9
  6
CONTINUOUS
 10
2.894120577
 20
9.6065309259
 40
0.0393755523
100
AcDbArc
 50
203.6398868885
 51
203.8870658994
  0
ARC
  5
2FB
100
AcDbEntity
  8
0
100
AcDbCircle
 62
9
  6
CONTINUOUS
 10
2.8848038777
 20
8.4555924883
 40
0.0298380236
100
AcDbArc
 50
193.6269051404
 51
198.8354396387
  0
ARC
  5
2FC
100
AcDbEntity
  8
0
100
AcDbCircle
 62
9
  6
CONTINUOUS
 10
2.861766453
 20
9.4080210069
 40
0.0285541692
100
AcDbArc
 50
27.9647506705
 51
31.5640005462
  0
ARC
  5
2FD
100
AcDbEntity
  8
0
100
AcDbCircle
 62
6
  6
CONTINUOUS
 10
2.7252787652
 20
9.5556604809
 40
0.02
100
AcDbArc
 50
0.0000000049
 51
90.0
  0
ARC
  5
2FE
100
AcDbEntity
  8
0
100
AcDbCircle
 62
9
  6
CONTINUOUS
 10
1.2801800696
 20
9.8381864325
 40
1.9590374339
100
AcDbArc
 50
2.0051966668
 51
2.7856264244
  0
ARC
  5
2FF
100
AcDbEntity
  8
0
100
AcDbCircle
 62
9
  6
CONTINUOUS
 10
1.2846664154
 20
9.8384363402
 40
1.9545442443
100
AcDbArc
 50
2.7847006947
 51
6.9375794283
  0
ARC
  5
300
100
AcDbEntity
  8
0
100
AcDbCircle
 62
9
  6
CONTINUOUS
 10
1.7244882366
 20
10.2820000082
 40
1.4987736512
100
AcDbArc
 50
359.5536557543
 51
359.8435684396
  0
ARC
  5
301
100
AcDbEntity
  8
0
100
AcDbCircle
 62
9
  6
CONTINUOUS
 10
2.408410854
 20
10.2970745111
 40
0.7749537016
100
AcDbArc
 50
359.3612363752
 51
359.7613996952
  0
ARC
  5
302
100
AcDbEntity
  8
0
100
AcDbCircle
 62
9
  6
CONTINUOUS
 10
2.7440517308
 20
11.1021780477
 40
0.4951691818
100
AcDbArc
 50
359.9481767623
 51
13.8154745745
  0
ARC
  5
303
100
AcDbEntity
  8
0
100
AcDbCircle
 62
9
  6
CONTINUOUS
 10
2.9853738322
 20
10.421491106
 40
0.4453585724
100
AcDbArc
 50
302.9308167161
 51
307.0068967541
  0
ARC
  5
304
100
AcDbEntity
  8
0
100
AcDbCircle
 62
9
  6
CONTINUOUS
 10
3.0086665027
 20
10.2368947666
 40
0.1240867354
100
AcDbArc
 50
171.4035018488
 51
172.1897579744
  0
ARC
  5
305
100
AcDbEntity
  8
0
100
AcDbCircle
 62
6
  6
CONTINUOUS
 10
2.7452787652
 20
10.2256604809
 40
0.075
100
AcDbArc
 50
270.0
 51
360.0
  0
ARC
  5
306
100
AcDbEntity
  8
0
100
AcDbCircle
 62
6
  6
CONTINUOUS
 10
2.8946748683
 20
11.218321528
 40
0.0400000515
100
AcDbArc
 50
90.0000445196
 51
166.4551211584
  0
ARC
  5
307
100
AcDbEntity
  8
0
100
AcDbCircle
 62
6
  6
CONTINUOUS
 10
2.8946746909
 20
10.0696885808
 40
0.0399998448
100
AcDbArc
 50
89.9997893609
 51
173.0574541624
  0
ARC
  5
308
100
AcDbEntity
  8
0
100
AcDbCircle
 62
9
  6
CONTINUOUS
 10
2.8848038017
 20
11.2207284779
 40
0.0298379488
100
AcDbArc
 50
161.1645549637
 51
166.3730784025
  0
ARC
  5
309
100
AcDbEntity
  8
0
100
AcDbCircle
 62
9
  6
CONTINUOUS
 10
2.8620709376
 20
10.2681115212
 40
0.0281959517
100
AcDbArc
 50
328.3059065255
 51
335.1194941189
  0
ARC
  5
30A
100
AcDbEntity
  8
0
100
AcDbCircle
 62
6
  6
CONTINUOUS
 10
2.7252787652
 20
10.1206604809
 40
0.02
100
AcDbArc
 50
270.0
 51
359.9999999937
  0
ARC
  5
30B
100
AcDbEntity
  8
0
100
AcDbCircle
 62
9
  6
CONTINUOUS
 10
4.7970538238
 20
9.8381346947
 40
1.9563885214
100
AcDbArc
 50
182.0217325931
 51
182.7664976834
  0
ARC
  5
30C
100
AcDbEntity
  8
0
100
AcDbCircle
 62
9
  6
CONTINUOUS
 10
4.7926566855
 20
9.8378906449
 40
1.9519847288
100
AcDbArc
 50
182.7655720727
 51
186.9468825241
  0
ARC
  5
30D
100
AcDbEntity
  8
0
100
AcDbCircle
 62
9
  6
CONTINUOUS
 10
4.7977286731
 20
9.838158307
 40
1.9170862979
100
AcDbArc
 50
173.0633456739
 51
186.9365234239
  0
ARC
  5
30E
100
AcDbEntity
  8
0
100
AcDbCircle
 62
7
  6
CONTINUOUS
 10
4.1135003945
 20
9.3528506118
 40
1.2243642094
100
AcDbArc
 50
177.5649249624
 51
177.8152689173
  0
ARC
  5
30F
100
AcDbEntity
  8
0
100
AcDbCircle
 62
7
  6
CONTINUOUS
 10
3.5622274326
 20
9.3484449337
 40
0.6332491383
100
AcDbArc
 50
176.5739514022
 51
176.9196323808
  0
ARC
  5
310
100
AcDbEntity
  8
0
100
AcDbCircle
 62
6
  6
CONTINUOUS
 10
4.0857803056
 20
9.7162813342
 40
0.438
100
AcDbArc
 50
218.9545370084
 51
257.807858722
  0
ARC
  5
311
100
AcDbEntity
  8
0
100
AcDbCircle
 62
9
  6
CONTINUOUS
 10
4.7024493124
 20
8.9617372557
 40
0.300919108
100
AcDbArc
 50
84.9961356132
 51
91.0449182137
  0
ARC
  5
312
100
AcDbEntity
  8
0
100
AcDbCircle
 62
6
  6
CONTINUOUS
 10
4.7089939252
 20
8.9531604809
 40
0.3
100
AcDbArc
 50
88.3634229584
 51
90.0
  0
ARC
  5
313
100
AcDbEntity
  8
0
100
AcDbCircle
 62
9
  6
CONTINUOUS
 10
3.1020097926
 20
9.438291863
 40
0.1259426137
100
AcDbArc
 50
351.8081879347
 51
352.1830119414
  0
ARC
  5
314
100
AcDbEntity
  8
0
100
AcDbCircle
 62
9
  6
CONTINUOUS
 10
3.1108902419
 20
9.4369998588
 40
0.1169686815
100
AcDbArc
 50
351.1375254439
 51
351.8147852993
  0
ARC
  5
315
100
AcDbEntity
  8
0
100
AcDbCircle
 62
9
  6
CONTINUOUS
 10
3.1852153821
 20
9.6068257697
 40
0.0400542062
100
AcDbArc
 50
269.9710916483
 51
319.299810601
  0
ARC
  5
316
100
AcDbEntity
  8
0
100
AcDbCircle
 62
9
  6
CONTINUOUS
 10
3.185189289
 20
9.6067023153
 40
0.0400126854
100
AcDbArc
 50
336.6888705104
 51
352.9613385976
  0
ARC
  5
317
100
AcDbEntity
  8
0
100
AcDbCircle
 62
6
  6
CONTINUOUS
 10
3.1851950865
 20
9.6066325557
 40
0.0400000928
100
AcDbArc
 50
270.0001231314
 51
353.0735649263
  0
ARC
  5
318
100
AcDbEntity
  8
0
100
AcDbCircle
 62
6
  6
CONTINUOUS
 10
3.18519516
 20
8.45799941
 40
0.0400000276
100
AcDbArc
 50
270.0000177835
 51
346.4854237367
  0
ARC
  5
319
100
AcDbEntity
  8
0
100
AcDbCircle
 62
9
  6
CONTINUOUS
 10
3.1854365416
 20
9.6066200158
 40
0.0397512722
100
AcDbArc
 50
319.3167758566
 51
335.7588619182
  0
ARC
  5
31A
100
AcDbEntity
  8
0
100
AcDbCircle
 62
9
  6
CONTINUOUS
 10
3.1857648759
 20
9.6064690276
 40
0.0393917688
100
AcDbArc
 50
335.7789300787
 51
336.6691922507
  0
ARC
  5
31B
100
AcDbEntity
  8
0
100
AcDbCircle
 62
6
  6
CONTINUOUS
 10
4.0242787652
 20
9.2616604809
 40
0.031
100
AcDbArc
 50
179.9999984253
 51
270.0
  0
ARC
  5
31C
100
AcDbEntity
  8
0
100
AcDbCircle
 62
6
  6
CONTINUOUS
 10
3.7692787652
 20
9.4603989884
 40
0.031
100
AcDbArc
 50
179.9999906811
 51
218.9545289266
  0
ARC
  5
31D
100
AcDbEntity
  8
0
100
AcDbCircle
 62
9
  6
CONTINUOUS
 10
3.195010078
 20
8.4556162388
 40
0.029897729
100
AcDbArc
 50
339.5986647912
 51
346.3781453427
  0
ARC
  5
31E
100
AcDbEntity
  8
0
100
AcDbCircle
 62
6
  6
CONTINUOUS
 10
3.3152787652
 20
9.5056604809
 40
0.02
100
AcDbArc
 50
90.0
 51
179.9999999971
  0
ARC
  5
31F
100
AcDbEntity
  8
0
100
AcDbCircle
 62
9
  6
CONTINUOUS
 10
4.7978962354
 20
9.8381610255
 40
1.9572313374
100
AcDbArc
 50
177.976422173
 51
182.0216329256
  0
ARC
  5
320
100
AcDbEntity
  8
0
100
AcDbCircle
 62
9
  6
CONTINUOUS
 10
4.7969932913
 20
9.8381888317
 40
1.9563279746
100
AcDbArc
 50
177.2329719678
 51
177.9763022493
  0
ARC
  5
321
100
AcDbEntity
  8
0
100
AcDbCircle
 62
9
  6
CONTINUOUS
 10
4.790323575
 20
9.8386276988
 40
1.9496448518
100
AcDbArc
 50
173.0505826338
 51
177.236391971
  0
ARC
  5
322
100
AcDbEntity
  8
0
100
AcDbCircle
 62
9
  6
CONTINUOUS
 10
4.1107101056
 20
10.3233509768
 40
1.221571377
100
AcDbArc
 50
182.1841252928
 51
182.4350417765
  0
ARC
  5
323
100
AcDbEntity
  8
0
100
AcDbCircle
 62
9
  6
CONTINUOUS
 10
3.5602361552
 20
10.3277676023
 40
0.6312549117
100
AcDbArc
 50
183.0802528438
 51
183.4270253554
  0
ARC
  5
324
100
AcDbEntity
  8
0
100
AcDbCircle
 62
6
  6
CONTINUOUS
 10
4.0857803056
 20
9.9600396276
 40
0.438
100
AcDbArc
 50
102.192141278
 51
141.0454629916
  0
ARC
  5
325
100
AcDbEntity
  8
0
100
AcDbCircle
 62
9
  6
CONTINUOUS
 10
4.7024493124
 20
10.7145837061
 40
0.300919108
100
AcDbArc
 50
268.9550817863
 51
275.0038643868
  0
ARC
  5
326
100
AcDbEntity
  8
0
100
AcDbCircle
 62
6
  6
CONTINUOUS
 10
4.7089939252
 20
10.7231604809
 40
0.3
100
AcDbArc
 50
270.0
 51
271.6365770416
  0
ARC
  5
327
100
AcDbEntity
  8
0
100
AcDbCircle
 62
9
  6
CONTINUOUS
 10
3.1008082437
 20
10.2378590621
 40
0.1271561697
100
AcDbArc
 50
7.8165803311
 51
8.1802388783
  0
ARC
  5
328
100
AcDbEntity
  8
0
100
AcDbCircle
 62
9
  6
CONTINUOUS
 10
3.1086542917
 20
10.2389862526
 40
0.1192295672
100
AcDbArc
 50
8.1805623651
 51
8.7935920246
  0
ARC
  5
329
100
AcDbEntity
  8
0
100
AcDbCircle
 62
9
  6
CONTINUOUS
 10
3.185215382
 20
10.0694951919
 40
0.0400542062
100
AcDbArc
 50
40.7001895924
 51
90.0289081403
  0
ARC
  5
32A
100
AcDbEntity
  8
0
100
AcDbCircle
 62
9
  6
CONTINUOUS
 10
3.1851892891
 20
10.0696186465
 40
0.0400126854
100
AcDbArc
 50
7.0386613853
 51
23.3111295244
  0
ARC
  5
32B
100
AcDbEntity
  8
0
100
AcDbCircle
 62
6
  6
CONTINUOUS
 10
3.1851950865
 20
10.0696884062
 40
0.0400000928
100
AcDbArc
 50
6.926433444
 51
89.9998768686
  0
ARC
  5
32C
100
AcDbEntity
  8
0
100
AcDbCircle
 62
6
  6
CONTINUOUS
 10
3.18519516
 20
11.2183215519
 40
0.0400000276
100
AcDbArc
 50
13.5146422561
 51
89.9999822151
  0
ARC
  5
32D
100
AcDbEntity
  8
0
100
AcDbCircle
 62
9
  6
CONTINUOUS
 10
3.1854365416
 20
10.069700946
 40
0.0397512723
100
AcDbArc
 50
24.2411380921
 51
40.6832241476
  0
ARC
  5
32E
100
AcDbEntity
  8
0
100
AcDbCircle
 62
9
  6
CONTINUOUS
 10
3.1857648758
 20
10.0698519342
 40
0.0393917688
100
AcDbArc
 50
23.3308077844
 51
24.2210699296
  0
ARC
  5
32F
100
AcDbEntity
  8
0
100
AcDbCircle
 62
6
  6
CONTINUOUS
 10
4.0242787652
 20
10.4146604809
 40
0.031
100
AcDbArc
 50
90.0
 51
180.0000015747
  0
ARC
  5
330
100
AcDbEntity
  8
0
100
AcDbCircle
 62
6
  6
CONTINUOUS
 10
3.7692787652
 20
10.2159219735
 40
0.031
100
AcDbArc
 50
141.0454710734
 51
180.0000093189
  0
ARC
  5
331
100
AcDbEntity
  8
0
100
AcDbCircle
 62
9
  6
CONTINUOUS
 10
3.195010005
 20
11.2207047176
 40
0.0298978012
100
AcDbArc
 50
13.6218233213
 51
20.4013302728
  0
ARC
  5
332
100
AcDbEntity
  8
0
100
AcDbCircle
 62
6
  6
CONTINUOUS
 10
3.2511914743
 20
10.2684901651
 40
0.0279468708
100
AcDbArc
 50
204.7909518329
 51
214.8092819157
  0
ARC
  5
333
100
AcDbEntity
  8
0
100
AcDbCircle
 62
6
  6
CONTINUOUS
 10
3.2510868674
 20
10.2684278607
 40
0.0278257823
100
AcDbArc
 50
204.3693786314
 51
204.764801158
  0
ARC
  5
334
100
AcDbEntity
  8
0
100
AcDbCircle
 62
6
  6
CONTINUOUS
 10
3.3152787652
 20
10.1706604809
 40
0.02
100
AcDbArc
 50
180.0000000079
 51
270.0
  0
ARC
  5
335
100
AcDbEntity
  8
0
100
AcDbCircle
 62
6
  6
CONTINUOUS
 10
6.123670518
 20
4.6779209859
 40
0.4040968677
100
AcDbArc
 50
359.5452112467
 51
0.2336343286
  0
ARC
  5
336
100
AcDbEntity
  8
0
100
AcDbCircle
 62
6
  6
CONTINUOUS
 10
6.1237257544
 20
4.6779206229
 40
0.4040416301
100
AcDbArc
 50
359.3157865601
 51
359.5452005451
  0
ARC
  5
337
100
AcDbEntity
  8
0
100
AcDbCircle
 62
6
  6
CONTINUOUS
 10
6.1239160129
 20
4.6778113089
 40
0.4038589015
100
AcDbArc
 50
0.2493364623
 51
31.3743962247
  0
ARC
  5
338
100
AcDbEntity
  8
0
100
AcDbCircle
 62
9
  6
CONTINUOUS
 10
6.1261173129
 20
4.7114113109
 40
0.3401614524
100
AcDbArc
 50
356.8179317524
 51
359.998440942
  0
ARC
  5
339
100
AcDbEntity
  8
0
100
AcDbCircle
 62
9
  6
CONTINUOUS
 10
7.4286612951
 20
9.8381599364
 40
1.9572313374
100
AcDbArc
 50
357.976422173
 51
2.0216329256
  0
ARC
  5
33A
100
AcDbEntity
  8
0
100
AcDbCircle
 62
9
  6
CONTINUOUS
 10
7.4295642391
 20
9.8381321301
 40
1.9563279746
100
AcDbArc
 50
357.2329719678
 51
357.9763022493
  0
ARC
  5
33B
100
AcDbEntity
  8
0
100
AcDbCircle
 62
9
  6
CONTINUOUS
 10
7.4362339554
 20
9.8376932631
 40
1.9496448518
100
AcDbArc
 50
353.0505826338
 51
357.236391971
  0
ARC
  5
33C
100
AcDbEntity
  8
0
100
AcDbCircle
 62
7
  6
CONTINUOUS
 10
8.1137284203
 20
9.3528779058
 40
1.2236923726
100
AcDbArc
 50
2.1846522445
 51
2.4351314977
  0
ARC
  5
33D
100
AcDbEntity
  8
0
100
AcDbCircle
 62
6
  6
CONTINUOUS
 10
8.1407772248
 20
9.7162813342
 40
0.438
100
AcDbArc
 50
282.192141278
 51
321.0454629916
  0
ARC
  5
33E
100
AcDbEntity
  8
0
100
AcDbCircle
 62
9
  6
CONTINUOUS
 10
7.524108218
 20
8.9617372557
 40
0.300919108
100
AcDbArc
 50
88.9550817863
 51
95.0038643868
  0
ARC
  5
33F
100
AcDbEntity
  8
0
100
AcDbCircle
 62
6
  6
CONTINUOUS
 10
7.5175636052
 20
8.9531604809
 40
0.3
100
AcDbArc
 50
90.0
 51
91.6365770416
  0
ARC
  5
340
100
AcDbEntity
  8
0
100
AcDbCircle
 62
6
  6
CONTINUOUS
 10
8.2022787652
 20
9.2616604809
 40
0.031
100
AcDbArc
 50
270.0
 51
0.0000015747
  0
ARC
  5
341
100
AcDbEntity
  8
0
100
AcDbCircle
 62
6
  6
CONTINUOUS
 10
8.4572787652
 20
9.4603989884
 40
0.031
100
AcDbArc
 50
321.0454710734
 51
0.0000093189
  0
ARC
  5
342
100
AcDbEntity
  8
0
100
AcDbCircle
 62
6
  6
CONTINUOUS
 10
6.1132787652
 20
9.8381604809
 40
1.1
100
AcDbArc
 50
146.9250557238
 51
147.0195258925
  0
ARC
  5
343
100
AcDbEntity
  8
0
100
AcDbCircle
 62
6
  6
CONTINUOUS
 10
6.1132787652
 20
9.8381604809
 40
1.1
100
AcDbArc
 50
251.2458519829
 51
251.274084338
  0
ARC
  5
344
100
AcDbEntity
  8
0
100
AcDbCircle
 62
6
  6
CONTINUOUS
 10
6.1132787652
 20
9.8381604809
 40
1.1
100
AcDbArc
 50
288.7541480171
 51
326.9250557238
  0
ARC
  5
345
100
AcDbEntity
  8
0
100
AcDbCircle
 62
9
  6
CONTINUOUS
 10
6.1132787652
 20
9.8381604809
 40
1.1
100
AcDbArc
 50
90.0
 51
146.9250557238
  0
ARC
  5
346
100
AcDbEntity
  8
0
100
AcDbCircle
 62
9
  6
CONTINUOUS
 10
6.1132787652
 20
9.8381604809
 40
1.1
100
AcDbArc
 50
213.0749442762
 51
251.2458519829
  0
ARC
  5
347
100
AcDbEntity
  8
0
100
AcDbCircle
 62
6
  6
CONTINUOUS
 10
6.1132787652
 20
9.8381604809
 40
1.1
100
AcDbArc
 50
33.0749442762
 51
90.0
  0
ARC
  5
348
100
AcDbEntity
  8
0
100
AcDbCircle
 62
6
  6
CONTINUOUS
 10
6.1132787652
 20
9.8381604809
 40
1.1
100
AcDbArc
 50
212.9804741075
 51
213.0749442762
  0
ARC
  5
349
100
AcDbEntity
  8
0
100
AcDbCircle
 62
9
  6
CONTINUOUS
 10
6.1132787652
 20
9.8381604809
 40
1.0521086554
100
AcDbArc
 50
214.9057741891
 51
250.3459097827
  0
ARC
  5
34A
100
AcDbEntity
  8
0
100
AcDbCircle
 62
9
  6
CONTINUOUS
 10
6.1132787652
 20
9.8381604809
 40
1.0521086554
100
AcDbArc
 50
289.6540902173
 51
325.0942258109
  0
ARC
  5
34B
100
AcDbEntity
  8
0
100
AcDbCircle
 62
9
  6
CONTINUOUS
 10
6.1132787652
 20
9.8381604809
 40
1.0521086554
100
AcDbArc
 50
34.9057741891
 51
145.0942258109
  0
ARC
  5
34C
100
AcDbEntity
  8
0
100
AcDbCircle
 62
9
  6
CONTINUOUS
 10
6.1132787652
 20
9.8381604809
 40
0.7447283614
100
AcDbArc
 50
235.6742547124
 51
241.7010301214
  0
ARC
  5
34D
100
AcDbEntity
  8
0
100
AcDbCircle
 62
9
  6
CONTINUOUS
 10
6.1132787652
 20
9.8381604809
 40
0.7447283614
100
AcDbArc
 50
55.6742547124
 51
124.3257452876
  0
ARC
  5
34E
100
AcDbEntity
  8
0
100
AcDbCircle
 62
9
  6
CONTINUOUS
 10
6.1132787652
 20
9.8381604809
 40
0.7447283614
100
AcDbArc
 50
298.2989698786
 51
304.3257452876
  0
ARC
  5
34F
100
AcDbEntity
  8
0
100
AcDbCircle
 62
6
  6
CONTINUOUS
 10
6.1132787652
 20
9.8381604809
 40
0.6805
100
AcDbArc
 50
301.2661128119
 51
238.7338871881
  0
ARC
  5
350
100
AcDbEntity
  8
0
100
AcDbCircle
 62
6
  6
CONTINUOUS
 10
6.1132787652
 20
9.8381604809
 40
0.624
100
AcDbArc
 50
304.4808427262
 51
235.5191572738
  0
ARC
  5
351
100
AcDbEntity
  8
0
100
AcDbCircle
 62
9
  6
CONTINUOUS
 10
6.1132787652
 20
9.8381604809
 40
0.6145176134
100
AcDbArc
 50
305.0666606181
 51
234.9333393819
  0
ARC
  5
352
100
AcDbEntity
  8
0
100
AcDbCircle
 62
9
  6
CONTINUOUS
 10
6.1132787652
 20
9.8381604809
 40
0.4678088423
100
AcDbArc
 50
318.996199048
 51
221.003800952
  0
ARC
  5
353
100
AcDbEntity
  8
0
100
AcDbCircle
 62
9
  6
CONTINUOUS
 10
6.1132787652
 20
9.8381604809
 40
0.435
100
AcDbArc
 50
324.3580692397
 51
215.6419307603
  0
ARC
  5
354
100
AcDbEntity
  8
0
100
AcDbCircle
 62
9
  6
CONTINUOUS
 10
6.1132787652
 20
9.8381604809
 40
0.4041179644
100
AcDbArc
 50
331.1378899394
 51
208.8621100606
  0
ARC
  5
355
100
AcDbEntity
  8
0
100
AcDbCircle
 62
9
  6
CONTINUOUS
 10
6.1132787652
 20
9.8381604809
 40
0.353
100
AcDbArc
 50
0.0
 51
180.0
  0
ARC
  5
356
100
AcDbEntity
  8
0
100
AcDbCircle
 62
9
  6
CONTINUOUS
 10
7.4295037067
 20
9.8381862672
 40
1.9563885213
100
AcDbArc
 50
2.021732593
 51
2.7664976835
  0
ARC
  5
357
100
AcDbEntity
  8
0
100
AcDbCircle
 62
9
  6
CONTINUOUS
 10
7.4339008449
 20
9.838430317
 40
1.9519847288
100
AcDbArc
 50
2.7655720727
 51
6.9468825241
  0
ARC
  5
358
100
AcDbEntity
  8
0
100
AcDbCircle
 62
9
  6
CONTINUOUS
 10
7.4288288573
 20
9.8381626549
 40
1.9170862979
100
AcDbArc
 50
353.0633456739
 51
6.9365234239
  0
ARC
  5
359
100
AcDbEntity
  8
0
100
AcDbCircle
 62
6
  6
CONTINUOUS
 10
8.1407772248
 20
9.9600396276
 40
0.438
100
AcDbArc
 50
38.9545370084
 51
77.807858722
  0
ARC
  5
35A
100
AcDbEntity
  8
0
100
AcDbCircle
 62
6
  6
CONTINUOUS
 10
8.4572787652
 20
10.2159219735
 40
0.031
100
AcDbArc
 50
359.9999906811
 51
38.9545289266
  0
ARC
  5
35B
100
AcDbEntity
  8
0
100
AcDbCircle
 62
9
  6
CONTINUOUS
 10
8.1152096275
 20
10.3233744304
 40
1.2222095941
100
AcDbArc
 50
357.5651296766
 51
357.8159154944
  0
ARC
  5
35C
100
AcDbEntity
  8
0
100
AcDbCircle
 62
9
  6
CONTINUOUS
 10
7.524108218
 20
10.7145837061
 40
0.300919108
100
AcDbArc
 50
264.9961356132
 51
271.0449182137
  0
ARC
  5
35D
100
AcDbEntity
  8
0
100
AcDbCircle
 62
6
  6
CONTINUOUS
 10
7.5175636052
 20
10.7231604809
 40
0.3
100
AcDbArc
 50
268.3634229584
 51
270.0
  0
ARC
  5
35E
100
AcDbEntity
  8
0
100
AcDbCircle
 62
6
  6
CONTINUOUS
 10
8.2022787652
 20
10.4146604809
 40
0.031
100
AcDbArc
 50
359.9999984253
 51
90.0
  0
ARC
  5
35F
100
AcDbEntity
  8
0
100
AcDbCircle
 62
9
  6
CONTINUOUS
 10
9.4825057954
 20
8.5741429051
 40
0.4951691818
100
AcDbArc
 50
179.9481757083
 51
193.8154736686
  0
ARC
  5
360
100
AcDbEntity
  8
0
100
AcDbCircle
 62
6
  6
CONTINUOUS
 10
9.3318826621
 20
8.4579994339
 40
0.0400000515
100
AcDbArc
 50
270.0000445196
 51
346.4551211584
  0
ARC
  5
361
100
AcDbEntity
  8
0
100
AcDbCircle
 62
6
  6
CONTINUOUS
 10
9.0413623704
 20
8.45799941
 40
0.0400000276
100
AcDbArc
 50
193.5146422561
 51
269.9999822151
  0
ARC
  5
362
100
AcDbEntity
  8
0
100
AcDbCircle
 62
9
  6
CONTINUOUS
 10
9.0315475254
 20
8.4556162443
 40
0.0298978012
100
AcDbArc
 50
193.6218233213
 51
200.4013302728
  0
ARC
  5
363
100
AcDbEntity
  8
0
100
AcDbCircle
 62
9
  6
CONTINUOUS
 10
9.3417537287
 20
8.455592484
 40
0.0298379488
100
AcDbArc
 50
341.1645549635
 51
346.3730784027
  0
ARC
  5
364
100
AcDbEntity
  8
0
100
AcDbCircle
 62
7
  6
CONTINUOUS
 10
8.6663213753
 20
9.3485533595
 40
0.6312549116
100
AcDbArc
 50
3.0802528438
 51
3.4270253554
  0
ARC
  5
365
100
AcDbEntity
  8
0
100
AcDbCircle
 62
9
  6
CONTINUOUS
 10
9.2411836982
 20
9.2548298559
 40
0.4453585724
100
AcDbArc
 50
122.930816716
 51
127.0068967541
  0
ARC
  5
366
100
AcDbEntity
  8
0
100
AcDbCircle
 62
9
  6
CONTINUOUS
 10
9.1257492868
 20
9.4384618998
 40
0.1271561698
100
AcDbArc
 50
187.8165803314
 51
188.1802388782
  0
ARC
  5
367
100
AcDbEntity
  8
0
100
AcDbCircle
 62
9
  6
CONTINUOUS
 10
9.2178910278
 20
9.4394261953
 40
0.1240867354
100
AcDbArc
 50
351.4035018487
 51
352.1897579745
  0
ARC
  5
368
100
AcDbEntity
  8
0
100
AcDbCircle
 62
9
  6
CONTINUOUS
 10
9.1179032387
 20
9.4373347092
 40
0.1192295671
100
AcDbArc
 50
188.1805623649
 51
188.7935920246
  0
ARC
  5
369
100
AcDbEntity
  8
0
100
AcDbCircle
 62
6
  6
CONTINUOUS
 10
9.4812787652
 20
9.4506604809
 40
0.075
100
AcDbArc
 50
90.0
 51
180.0
  0
ARC
  5
36A
100
AcDbEntity
  8
0
100
AcDbCircle
 62
9
  6
CONTINUOUS
 10
9.041342131
 20
9.6068257777
 40
0.0400542062
100
AcDbArc
 50
220.7002142229
 51
270.028933137
  0
ARC
  5
36B
100
AcDbEntity
  8
0
100
AcDbCircle
 62
9
  6
CONTINUOUS
 10
9.0413682414
 20
9.6067023153
 40
0.0400126854
100
AcDbArc
 50
187.0386613853
 51
203.3111295244
  0
ARC
  5
36C
100
AcDbEntity
  8
0
100
AcDbCircle
 62
6
  6
CONTINUOUS
 10
9.0413624439
 20
9.6066325557
 40
0.0400000928
100
AcDbArc
 50
186.926433444
 51
269.9998768686
  0
ARC
  5
36D
100
AcDbEntity
  8
0
100
AcDbCircle
 62
6
  6
CONTINUOUS
 10
9.3318828396
 20
9.606632381
 40
0.0399998448
100
AcDbArc
 50
269.9997893609
 51
353.0574541624
  0
ARC
  5
36E
100
AcDbEntity
  8
0
100
AcDbCircle
 62
9
  6
CONTINUOUS
 10
9.0411209887
 20
9.6066200158
 40
0.0397512721
100
AcDbArc
 50
204.2411380922
 51
220.6832241486
  0
ARC
  5
36F
100
AcDbEntity
  8
0
100
AcDbCircle
 62
9
  6
CONTINUOUS
 10
9.0407926545
 20
9.6064690276
 40
0.0393917688
100
AcDbArc
 50
203.3308077842
 51
204.2210699305
  0
ARC
  5
370
100
AcDbEntity
  8
0
100
AcDbCircle
 62
9
  6
CONTINUOUS
 10
9.3644865929
 20
9.4082094407
 40
0.0281959517
100
AcDbArc
 50
148.3059065256
 51
155.1194941188
  0
ARC
  5
371
100
AcDbEntity
  8
0
100
AcDbCircle
 62
6
  6
CONTINUOUS
 10
8.9753660561
 20
9.4078307968
 40
0.0279468708
100
AcDbArc
 50
24.790951833
 51
34.8092819156
  0
ARC
  5
372
100
AcDbEntity
  8
0
100
AcDbCircle
 62
6
  6
CONTINUOUS
 10
8.9754706628
 20
9.4078931011
 40
0.0278257824
100
AcDbArc
 50
24.3693786319
 51
24.7648011563
  0
ARC
  5
373
100
AcDbEntity
  8
0
100
AcDbCircle
 62
6
  6
CONTINUOUS
 10
9.5012787652
 20
9.5556604809
 40
0.02
100
AcDbArc
 50
90.0
 51
179.9999999951
  0
ARC
  5
374
100
AcDbEntity
  8
0
100
AcDbCircle
 62
6
  6
CONTINUOUS
 10
8.9112787652
 20
9.5056604809
 40
0.02
100
AcDbArc
 50
0.0000000029
 51
90.0
  0
ARC
  5
375
100
AcDbEntity
  8
0
100
AcDbCircle
 62
9
  6
CONTINUOUS
 10
10.9463774608
 20
9.8381345294
 40
1.9590374339
100
AcDbArc
 50
182.0051966668
 51
182.7856264244
  0
ARC
  5
376
100
AcDbEntity
  8
0
100
AcDbCircle
 62
9
  6
CONTINUOUS
 10
10.941891115
 20
9.8378846216
 40
1.9545442443
100
AcDbArc
 50
182.7847006947
 51
186.9375794283
  0
ARC
  5
377
100
AcDbEntity
  8
0
100
AcDbCircle
 62
9
  6
CONTINUOUS
 10
10.5020692929
 20
9.3943209536
 40
1.4987736503
100
AcDbArc
 50
179.5536557542
 51
179.8435684397
  0
ARC
  5
378
100
AcDbEntity
  8
0
100
AcDbCircle
 62
9
  6
CONTINUOUS
 10
9.8181466764
 20
9.3792464508
 40
0.7749537016
100
AcDbArc
 50
179.3612363752
 51
179.7613996952
  0
ARC
  5
379
100
AcDbEntity
  8
0
100
AcDbCircle
 62
9
  6
CONTINUOUS
 10
8.6643300977
 20
10.3278760281
 40
0.6332491384
100
AcDbArc
 50
356.5739514022
 51
356.9196323808
  0
ARC
  5
37A
100
AcDbEntity
  8
0
100
AcDbCircle
 62
9
  6
CONTINUOUS
 10
9.2410296922
 20
10.421281015
 40
0.445098489
100
AcDbArc
 50
232.9925904141
 51
237.0709729545
  0
ARC
  5
37B
100
AcDbEntity
  8
0
100
AcDbCircle
 62
9
  6
CONTINUOUS
 10
9.2158957552
 20
10.2366075072
 40
0.1261024689
100
AcDbArc
 50
7.8095367259
 51
8.6084768712
  0
ARC
  5
37C
100
AcDbEntity
  8
0
100
AcDbCircle
 62
9
  6
CONTINUOUS
 10
9.1245477384
 20
10.2380290988
 40
0.1259426143
100
AcDbArc
 50
171.8081879355
 51
172.1830119404
  0
ARC
  5
37D
100
AcDbEntity
  8
0
100
AcDbCircle
 62
9
  6
CONTINUOUS
 10
9.1156672885
 20
10.2393211031
 40
0.1169686815
100
AcDbArc
 50
171.1375254439
 51
171.8147852993
  0
ARC
  5
37E
100
AcDbEntity
  8
0
100
AcDbCircle
 62
6
  6
CONTINUOUS
 10
9.4812787652
 20
10.2256604809
 40
0.075
100
AcDbArc
 50
180.0
 51
270.0
  0
ARC
  5
37F
100
AcDbEntity
  8
0
100
AcDbCircle
 62
9
  6
CONTINUOUS
 10
9.3316336648
 20
10.0694677939
 40
0.0402406558
100
AcDbArc
 50
7.2142275382
 51
23.6015753033
  0
ARC
  5
380
100
AcDbEntity
  8
0
100
AcDbCircle
 62
9
  6
CONTINUOUS
 10
9.0413421313
 20
10.069495184
 40
0.0400542062
100
AcDbArc
 50
89.97106733
 51
139.2997859096
  0
ARC
  5
381
100
AcDbEntity
  8
0
100
AcDbCircle
 62
9
  6
CONTINUOUS
 10
9.0413682414
 20
10.0696186465
 40
0.0400126854
100
AcDbArc
 50
156.6888705104
 51
172.9613385977
  0
ARC
  5
382
100
AcDbEntity
  8
0
100
AcDbCircle
 62
6
  6
CONTINUOUS
 10
9.0413624439
 20
10.0696884062
 40
0.0400000928
100
AcDbArc
 50
90.0001231314
 51
173.0735649263
  0
ARC
  5
383
100
AcDbEntity
  8
0
100
AcDbCircle
 62
6
  6
CONTINUOUS
 10
9.3318826952
 20
10.0696885589
 40
0.0399999401
100
AcDbArc
 50
6.8886411001
 51
90.0000028784
  0
ARC
  5
384
100
AcDbEntity
  8
0
100
AcDbCircle
 62
9
  6
CONTINUOUS
 10
9.0411209889
 20
10.069700946
 40
0.0397512723
100
AcDbArc
 50
139.316775857
 51
155.7588619182
  0
ARC
  5
385
100
AcDbEntity
  8
0
100
AcDbCircle
 62
9
  6
CONTINUOUS
 10
9.0407926546
 20
10.0698519342
 40
0.0393917688
100
AcDbArc
 50
155.7789300791
 51
156.6691922499
  0
ARC
  5
386
100
AcDbEntity
  8
0
100
AcDbCircle
 62
9
  6
CONTINUOUS
 10
9.3324369532
 20
10.0697900359
 40
0.0393755525
100
AcDbArc
 50
23.6398868901
 51
23.8870658997
  0
ARC
  5
387
100
AcDbEntity
  8
0
100
AcDbCircle
 62
9
  6
CONTINUOUS
 10
9.3647910774
 20
10.268299955
 40
0.0285541692
100
AcDbArc
 50
207.9647506704
 51
211.5640005463
  0
ARC
  5
388
100
AcDbEntity
  8
0
100
AcDbCircle
 62
6
  6
CONTINUOUS
 10
9.5012787652
 20
10.1206604809
 40
0.02
100
AcDbArc
 50
180.0000000063
 51
270.0
  0
ARC
  5
389
100
AcDbEntity
  8
0
100
AcDbCircle
 62
6
  6
CONTINUOUS
 10
8.9112787652
 20
10.1706604809
 40
0.02
100
AcDbArc
 50
270.0
 51
359.9999999921
  0
ARC
  5
38A
100
AcDbEntity
  8
0
100
AcDbCircle
 62
9
  6
CONTINUOUS
 10
9.4825109906
 20
11.1021775251
 40
0.4951743676
100
AcDbArc
 50
166.1846159591
 51
180.0521215609
  0
ARC
  5
38B
100
AcDbEntity
  8
0
100
AcDbCircle
 62
6
  6
CONTINUOUS
 10
9.3318826621
 20
11.218321528
 40
0.0400000515
100
AcDbArc
 50
13.5449561502
 51
89.9999554787
  0
ARC
  5
38C
100
AcDbEntity
  8
0
100
AcDbCircle
 62
6
  6
CONTINUOUS
 10
9.0413623704
 20
11.2183215519
 40
0.0400000276
100
AcDbArc
 50
90.0000177835
 51
166.4854237367
  0
ARC
  5
38D
100
AcDbEntity
  8
0
100
AcDbCircle
 62
9
  6
CONTINUOUS
 10
9.0315474524
 20
11.220704723
 40
0.029897729
100
AcDbArc
 50
159.5986647912
 51
166.3781453425
  0
ARC
  5
38E
100
AcDbEntity
  8
0
100
AcDbCircle
 62
9
  6
CONTINUOUS
 10
9.3417536527
 20
11.2207284736
 40
0.0298380236
100
AcDbArc
 50
13.6269051403
 51
18.8354396387
  0
ARC
  5
38F
100
AcDbEntity
  8
0
100
AcDbCircle
 62
9
  6
CONTINUOUS
 10
10.9472269612
 20
9.8381610332
 40
1.9598873415
100
AcDbArc
 50
177.9935502789
 51
182.0051020488
  0
ARC
  5
390
100
AcDbEntity
  8
0
100
AcDbCircle
 62
9
  6
CONTINUOUS
 10
10.9463162889
 20
9.8381890035
 40
1.9589762483
100
AcDbArc
 50
177.2147597852
 51
177.9934352963
  0
ARC
  5
391
100
AcDbEntity
  8
0
100
AcDbCircle
 62
9
  6
CONTINUOUS
 10
10.9395467043
 20
9.8386348205
 40
1.9521930007
100
AcDbArc
 50
173.0598921318
 51
177.2181742864
  0
ARC
  5
392
100
AcDbEntity
  8
0
100
AcDbCircle
 62
9
  6
CONTINUOUS
 10
10.9456294335
 20
9.838165468
 40
1.918291201
100
AcDbArc
 50
173.067937916
 51
186.932362183
  0
ARC
  5
393
100
AcDbEntity
  8
0
100
AcDbCircle
 62
9
  6
CONTINUOUS
 10
10.5016176287
 20
10.2820010771
 40
1.4983220043
100
AcDbArc
 50
180.1565195744
 51
180.4465199321
  0
ARC
  5
394
100
AcDbEntity
  8
0
100
AcDbCircle
 62
9
  6
CONTINUOUS
 10
9.8189953428
 20
10.2970765998
 40
0.7758023694
100
AcDbArc
 50
180.238493551
 51
180.6382195743
  0
SPLINE
  5
395
100
AcDbEntity
  8
0
100
AcDbSpline
 62
6
  6
CONTINUOUS
 70
0
 71
3
 72
32
 73
28
 74
26
 42
0.0000001
 43
0.0000001
 44
0.0000000001
 12
0.6426177349
 22
0.0066189467
 32
0.0
 13
0.0076742412
 23
0.6426059988
 33
0.0
 40
0.0
 40
0.0
 40
0.0
 40
0.0
 40
0.0628378703
 40
0.0943089465
 40
0.1257878511
 40
0.1572593393
 40
0.1887117103
 40
0.2201439607
 40
0.2515572984
 40
0.3143135472
 40
0.3770067268
 40
0.4083364835
 40
0.4396464493
 40
0.4709352372
 40
0.5022025454
 40
0.5334487918
 40
0.5646740596
 40
0.6270439672
 40
0.6893376114
 40
0.7204672781
 40
0.751579817
 40
0.7826760746
 40
0.8137578411
 40
0.8758665779
 40
0.937935794
 40
0.9689695076
 40
1.0
 40
1.0
 40
1.0
 40
1.0
 10
6.1132787652
 20
4.2666469326
 30
0.0
 10
6.1267390085
 20
4.2667855728
 30
0.0
 10
6.1469475892
 20
4.2679591944
 30
0.0
 10
6.1736769808
 20
4.2714201433
 30
0.0
 10
6.1935993207
 20
4.2749631432
 30
0.0
 10
6.2133265678
 20
4.2794461358
 30
0.0
 10
6.2328073698
 20
4.2848647809
 30
0.0
 10
6.251996141
 20
4.2912022455
 30
0.0
 10
6.2771221981
 20
4.3008496289
 30
0.0
 10
6.3076021672
 20
4.3151251178
 30
0.0
 10
6.3365571675
 20
4.3322494995
 30
0.0
 10
6.3586334528
 20
4.3475444919
 30
0.0
 10
6.3746108146
 20
4.3597881934
 30
0.0
 10
6.3899694754
 20
4.3727783988
 30
0.0
 10
6.4046701191
 20
4.3864888694
 30
0.0
 10
6.4186810603
 20
4.4008849657
 30
0.0
 10
6.4363907967
 20
4.4209355232
 30
0.0
 10
6.4566580041
 20
4.4475469445
 30
0.0
 10
6.4742162319
 20
4.4759950939
 30
0.0
 10
6.4865353245
 20
4.4996681195
 30
0.0
 10
6.4948917059
 20
4.5178419707
 30
0.0
 10
6.5023433572
 20
4.5363941759
 30
0.0
 10
6.5110383703
 20
4.561568328
 30
0.0
 10
6.5195636051
 20
4.5937753257
 30
0.0
 10
6.524884916
 20
4.6266543404
 30
0.0
 10
6.5271722729
 20
4.6531559753
 30
0.0
 10
6.527659197
 20
4.6664489689
 30
0.0
 10
6.5277385755
 20
4.6730957625
 30
0.0
 11
6.1132787652
 21
4.2666469326
 31
0.0
 11
6.1535941575
 21
4.2689804876
 31
0.0
 11
6.1736516846
 21
4.2715774064
 31
0.0
 11
6.1935690126
 21
4.2751202788
 31
0.0
 11
6.213291077
 21
4.2796034992
 31
0.0
 11
6.2327648088
 21
4.2850197752
 31
0.0
 11
6.2519458226
 21
4.2913544753
 31
0.0
 11
6.2707920938
 21
4.2985909726
 31
0.0
 11
6.3073123103
 21
4.3157028508
 31
0.0
 11
6.3419923488
 21
4.3362106506
 31
0.0
 11
6.3585422949
 21
4.3476772228
 31
0.0
 11
6.3745129674
 21
4.3599168561
 31
0.0
 11
6.3898649474
 21
4.37290301
 31
0.0
 11
6.4045600142
 21
4.3866078832
 31
0.0
 11
6.418565264
 21
4.4009980791
 31
0.0
 11
6.431849268
 21
4.4160386486
 31
0.0
 11
6.4561278235
 21
4.4479311127
 31
0.0
 11
6.4771560161
 21
4.4819967277
 31
0.0
 11
6.4863907887
 21
4.4997432904
 31
0.0
 11
6.4947429749
 21
4.5179098038
 31
0.0
 11
6.5021902967
 21
4.5364543532
 31
0.0
 11
6.5087117294
 21
4.5553345467
 31
0.0
 11
6.5189250661
 21
4.5939200172
 31
0.0
 11
6.5252927577
 21
4.6332973765
 31
0.0
 11
6.5270081382
 21
4.6531673419
 31
0.0
 11
6.5277385755
 21
4.6730957625
 31
0.0
  0
SPLINE
  5
396
100
AcDbEntity
  8
0
100
AcDbSpline
 62
6
  6
CONTINUOUS
 70
0
 71
3
 72
39
 73
35
 74
33
 42
0.0000001
 43
0.0000001
 44
0.0000000001
 12
-0.5091001624
 22
-0.7536784905
 32
0.0
 13
0.9094649487
 23
0.0093674664
 33
0.0
 40
0.0
 40
0.0
 40
0.0
 40
0.0
 40
0.031188069
 40
0.0623427652
 40
0.0934722051
 40
0.1245813634
 40
0.1556712166
 40
0.1867431628
 40
0.2178012058
 40
0.2488504957
 40
0.2798958843
 40
0.3109432319
 40
0.3419975931
 40
0.3730628491
 40
0.4041436279
 40
0.4352444749
 40
0.4663680358
 40
0.4975169306
 40
0.5286945788
 40
0.559902686
 40
0.5911419899
 40
0.6224141084
 40
0.6537204478
 40
0.6850611497
 40
0.7164366433
 40
0.7478457229
 40
0.7792845813
 40
0.8107495216
 40
0.8422408128
 40
0.8737608956
 40
0.9053124094
 40
0.9368888433
 40
0.968461944
 40
1.0
 40
1.0
 40
1.0
 40
1.0
 10
5.758446079
 20
4.9156661785
 30
0.0
 10
5.753153462
 20
4.9078309196
 30
0.0
 10
5.7430992842
 20
4.8918063919
 30
0.0
 10
5.729684101
 20
4.866821386
 30
0.0
 10
5.7180069751
 20
4.8410029522
 30
0.0
 10
5.7081189715
 20
4.8144693303
 30
0.0
 10
5.7000588712
 20
4.7873425661
 30
0.0
 10
5.6938709646
 20
4.7597440865
 30
0.0
 10
5.6895912029
 20
4.7317985529
 30
0.0
 10
5.687229175
 20
4.7036342898
 30
0.0
 10
5.6867978307
 20
4.6753774217
 30
0.0
 10
5.6883096926
 20
4.647156165
 30
0.0
 10
5.6917496989
 20
4.6190987426
 30
0.0
 10
5.6971013798
 20
4.5913319347
 30
0.0
 10
5.7043521757
 20
4.5639847981
 30
0.0
 10
5.7134655657
 20
4.5371823189
 30
0.0
 10
5.7243944178
 20
4.5110450717
 30
0.0
 10
5.7370966345
 20
4.4856958973
 30
0.0
 10
5.7515185856
 20
4.461254548
 30
0.0
 10
5.7675852352
 20
4.4378285235
 30
0.0
 10
5.785225631
 20
4.4155266832
 30
0.0
 10
5.8043671231
 20
4.3944588998
 30
0.0
 10
5.8249153271
 20
4.3747167052
 30
0.0
 10
5.8467760995
 20
4.3563895457
 30
0.0
 10
5.8698563128
 20
4.3395710279
 30
0.0
 10
5.8940454454
 20
4.3243352611
 30
0.0
 10
5.9192286381
 20
4.3107484468
 30
0.0
 10
5.9452941112
 20
4.2988816296
 30
0.0
 10
5.972123521
 20
4.2887912974
 30
0.0
 10
5.999595172
 20
4.2805181183
 30
0.0
 10
6.0275870345
 20
4.2741085571
 30
0.0
 10
6.0559635724
 20
4.2695995151
 30
0.0
 10
6.0845725479
 20
4.2669994721
 30
0.0
 10
6.1037178464
 20
4.2665484554
 30
0.0
 10
6.1132787652
 20
4.2666469326
 30
0.0
 11
5.758446079
 21
4.9156661785
 31
0.0
 11
5.7433708757
 21
4.8916377383
 31
0.0
 11
5.7299685998
 21
4.8666720491
 31
0.0
 11
5.7183015623
 21
4.8408750415
 31
0.0
 11
5.7084208397
 21
4.8143621673
 31
0.0
 11
5.7003688756
 21
4.7872561945
 31
0.0
 11
5.6941878128
 21
4.7596800897
 31
0.0
 11
5.6899103383
 21
4.7317581313
 31
0.0
 11
5.6875508519
 21
4.7036171352
 31
0.0
 11
5.6871216632
 21
4.6753842068
 31
0.0
 11
5.6886307602
 21
4.6471865881
 31
0.0
 11
5.6920675201
 21
4.6191521085
 31
0.0
 11
5.6974163106
 21
4.5914087551
 31
0.0
 11
5.7046599834
 21
4.5640842165
 31
0.0
 11
5.7137644769
 21
4.5373028486
 31
0.0
 11
5.7246851458
 21
4.5111869222
 31
0.0
 11
5.7373770343
 21
4.485858606
 31
0.0
 11
5.7517852823
 21
4.4614354106
 31
0.0
 11
5.7678390775
 21
4.438027343
 31
0.0
 11
5.785466163
 21
4.4157437311
 31
0.0
 11
5.804590766
 21
4.3946909422
 31
0.0
 11
5.8251224465
 21
4.3749629943
 31
0.0
 11
5.8469669402
 21
4.356650685
 31
0.0
 11
5.870028603
 21
4.3398433271
 31
0.0
 11
5.8941994265
 21
4.3246169292
 31
0.0
 11
5.9193648832
 21
4.3110404846
 31
0.0
 11
5.9454102613
 21
4.2991823436
 31
0.0
 11
5.9722181435
 21
4.2890983468
 31
0.0
 11
5.9996685026
 21
4.2808322681
 31
0.0
 11
6.0276411092
 21
4.2744273152
 31
0.0
 11
6.0560040023
 21
4.269917573
 31
0.0
 11
6.0846023699
 21
4.2673193567
 31
0.0
 11
6.1132787652
 21
4.2666469326
 31
0.0
  0
SPLINE
  5
397
100
AcDbEntity
  8
0
100
AcDbSpline
 62
6
  6
CONTINUOUS
 70
0
 71
3
 72
9
 73
5
 74
3
 42
0.0000001
 43
0.0000001
 44
0.0000000001
 12
-0.0050013663
 22
-0.0046011905
 32
0.0
 13
-0.003876883
 23
-0.0055816125
 33
0.0
 40
0.0
 40
0.0
 40
0.0
 40
0.0
 40
0.4851846556
 40
1.0
 40
1.0
 40
1.0
 40
1.0
 10
3.2327246024
 20
9.4288898822
 30
0.0
 10
3.2319157403
 20
9.4281457399
 30
0.0
 10
3.2303216884
 20
9.4265302986
 30
0.0
 10
3.2289143439
 20
9.4247472986
 30
0.0
 10
3.228249051
 20
9.4237894654
 30
0.0
 11
3.2327246024
 21
9.4288898822
 31
0.0
 11
3.2304128729
 21
9.4265387212
 31
0.0
 11
3.228249051
 21
9.4237894654
 31
0.0
  0
SPLINE
  5
398
100
AcDbEntity
  8
0
100
AcDbSpline
 62
6
  6
CONTINUOUS
 70
0
 71
3
 72
11
 73
7
 74
5
 42
0.0000001
 43
0.0000001
 44
0.0000000001
 12
-0.0107251052
 22
-0.015441111
 32
0.0
 13
0.0006811046
 23
-0.0187880783
 33
0.0
 40
0.0
 40
0.0
 40
0.0
 40
0.0
 40
0.2046124088
 40
0.4321842088
 40
0.6929848864
 40
1.0
 40
1.0
 40
1.0
 40
1.0
 10
3.228249051
 20
9.4237894654
 30
0.0
 10
3.2275175544
 20
9.4227363178
 30
0.0
 10
3.2261202403
 20
9.420404704
 30
0.0
 10
3.2244535735
 20
9.4163757726
 30
0.0
 10
3.2233228283
 20
9.4114972222
 30
0.0
 10
3.2231465534
 20
9.40791944
 30
0.0
 10
3.2232162566
 20
9.4059966987
 30
0.0
 11
3.228249051
 21
9.4237894654
 31
0.0
 11
3.2262746895
 21
9.4204879868
 31
0.0
 11
3.2246377772
 21
9.4165350622
 31
0.0
 11
3.2235216335
 21
9.4117606278
 31
0.0
 11
3.2232162566
 21
9.4059966987
 31
0.0
  0
SPLINE
  5
399
100
AcDbEntity
  8
0
100
AcDbSpline
 62
7
  6
CONTINUOUS
 70
0
 71
3
 72
19
 73
15
 74
13
 42
0.0000001
 43
0.0000001
 44
0.0000000001
 12
-0.0592759657
 22
0.452835956
 32
0.0
 13
0.0592753634
 23
0.4528360348
 33
0.0
 40
0.0
 40
0.0
 40
0.0
 40
0.0
 40
0.1147738953
 40
0.2382076049
 40
0.3023344206
 40
0.3675902825
 40
0.433604252
 40
0.4999999221
 40
0.5663956049
 40
0.6324095986
 40
0.6976654486
 40
0.7617922031
 40
0.8852258507
 40
1.0
 40
1.0
 40
1.0
 40
1.0
 10
8.9731178252
 20
9.6104775157
 30
0.0
 10
8.9708500474
 20
9.6278020979
 30
0.0
 10
8.9666261688
 20
9.6638235041
 30
0.0
 10
8.9626218101
 20
9.709682534
 30
0.0
 10
8.9602212409
 20
9.7480962249
 30
0.0
 10
8.9588815861
 20
9.7778134542
 30
0.0
 10
8.9580613366
 20
9.8078951095
 30
0.0
 10
8.9577865531
 20
9.8381602728
 30
0.0
 10
8.9580612306
 20
9.8684254409
 30
0.0
 10
8.9588814298
 20
9.8985071019
 30
0.0
 10
8.9602211373
 20
9.9282243222
 30
0.0
 10
8.962621906
 20
9.9666379796
 30
0.0
 10
8.9666261709
 20
10.0124970344
 30
0.0
 10
8.9708499654
 20
10.0485184809
 30
0.0
 10
8.9731177252
 20
10.0658431044
 30
0.0
 11
8.9731178252
 21
9.6104775157
 31
0.0
 11
8.9670278649
 21
9.6625396715
 31
0.0
 11
8.9621408802
 21
9.7186995025
 31
0.0
 11
8.9603158457
 21
9.7479292398
 31
0.0
 11
8.9589745778
 21
9.7777013339
 31
0.0
 11
8.9581540044
 21
9.8078386834
 31
0.0
 11
8.9578783057
 21
9.838160271
 31
0.0
 11
8.9581539075
 21
9.8684818653
 31
0.0
 11
8.958974439
 21
9.8986192271
 31
0.0
 11
8.96031576
 21
9.9283913133
 31
0.0
 11
8.9621409046
 21
9.9576210158
 31
0.0
 11
8.9670278563
 21
10.0137808211
 31
0.0
 11
8.9731177252
 21
10.0658431044
 31
0.0
  0
SPLINE
  5
39A
100
AcDbEntity
  8
0
100
AcDbSpline
 62
6
  6
CONTINUOUS
 70
0
 71
3
 72
11
 73
7
 74
5
 42
0.0000001
 43
0.0000001
 44
0.0000000001
 12
-0.0056647627
 22
0.0125056164
 32
0.0
 13
0.0004970013
 23
0.013719802
 33
0.0
 40
0.0
 40
0.0
 40
0.0
 40
0.0
 40
0.2137883321
 40
0.4480681743
 40
0.7082332971
 40
1.0
 40
1.0
 40
1.0
 40
1.0
 10
3.2257402424
 20
10.2569464515
 30
0.0
 10
3.2253365557
 20
10.2578376364
 30
0.0
 10
3.2245893918
 20
10.2597519365
 30
0.0
 10
3.2237482575
 20
10.2628889596
 30
0.0
 10
3.223226189
 20
10.2664570998
 30
0.0
 10
3.2231678546
 20
10.2689899344
 30
0.0
 10
3.2232161908
 20
10.2703242615
 30
0.0
 11
3.2257402424
 21
10.2569464515
 31
0.0
 11
3.2246725114
 21
10.259680407
 31
0.0
 11
3.223837126
 21
10.2627864077
 31
0.0
 11
3.223315645
 21
10.2663198894
 31
0.0
 11
3.2232161908
 21
10.2703242615
 31
0.0
  0
SPLINE
  5
39B
100
AcDbEntity
  8
0
100
AcDbSpline
 62
6
  6
CONTINUOUS
 70
0
 71
3
 72
9
 73
5
 74
3
 42
0.0000001
 43
0.0000001
 44
0.0000000001
 12
-0.0050131549
 22
0.0046100104
 32
0.0
 13
-0.0038838005
 23
0.0055946414
 33
0.0
 40
0.0
 40
0.0
 40
0.0
 40
0.0
 40
0.4851552126
 40
1.0
 40
1.0
 40
1.0
 40
1.0
 10
3.2327307208
 20
10.2474254481
 30
0.0
 10
3.2319200014
 20
10.2481709716
 30
0.0
 10
3.230322308
 20
10.2497897087
 30
0.0
 10
3.2289120257
 20
10.2515766653
 30
0.0
 10
3.2282455075
 20
10.2525367893
 30
0.0
 11
3.2327307208
 21
10.2474254481
 31
0.0
 11
3.2304138548
 21
10.2497812438
 31
0.0
 11
3.2282455075
 21
10.2525367893
 31
0.0
  0
SPLINE
  5
39C
100
AcDbEntity
  8
0
100
AcDbSpline
 62
6
  6
CONTINUOUS
 70
0
 71
3
 72
9
 73
5
 74
3
 42
0.0000001
 43
0.0000001
 44
0.0000000001
 12
0.0107480579
 22
-0.0052674191
 32
0.0
 13
0.008810482
 23
-0.0081019665
 33
0.0
 40
0.0
 40
0.0
 40
0.0
 40
0.0
 40
0.4864324433
 40
1.0
 40
1.0
 40
1.0
 40
1.0
 10
8.9839021536
 20
9.4355315639
 30
0.0
 10
8.9856448883
 20
9.4346774827
 30
0.0
 10
8.9891326511
 20
9.4327192383
 30
0.0
 10
8.9923185504
 20
9.4302824828
 30
0.0
 10
8.9938268096
 20
9.4288955138
 30
0.0
 11
8.9839021536
 21
9.4355315639
 31
0.0
 11
8.9889665844
 21
9.4326591519
 31
0.0
 11
8.9938268096
 21
9.4288955138
 31
0.0
  0
SPLINE
  5
39D
100
AcDbEntity
  8
0
100
AcDbSpline
 62
7
  6
CONTINUOUS
 70
0
 71
3
 72
22
 73
18
 74
16
 42
0.0000001
 43
0.0000001
 44
0.0000000001
 12
-0.0077645361
 22
-0.0450634173
 32
0.0
 13
-0.0457048284
 23
-0.0014381444
 33
0.0
 40
0.0
 40
0.0
 40
0.0
 40
0.0
 40
0.0361751856
 40
0.0749244293
 40
0.1170498492
 40
0.1630983188
 40
0.2134068276
 40
0.2680755772
 40
0.3270456468
 40
0.3901646246
 40
0.4572018455
 40
0.5278087913
 40
0.6015819464
 40
0.6780945548
 40
0.7568674424
 40
0.8372509498
 40
1.0
 40
1.0
 40
1.0
 40
1.0
 10
9.3365313609
 20
9.3995252258
 30
0.0
 10
9.3364377331
 20
9.3989818333
 30
0.0
 10
9.3361178155
 20
9.3978756454
 30
0.0
 10
9.3353017675
 20
9.3962794725
 30
0.0
 10
9.3341507797
 20
9.3947154544
 30
0.0
 10
9.3326754018
 20
9.3931981513
 30
0.0
 10
9.3308866288
 20
9.3917423561
 30
0.0
 10
9.32880326
 20
9.3903565691
 30
0.0
 10
9.3264436562
 20
9.3890508212
 30
0.0
 10
9.3238270226
 20
9.3878360147
 30
0.0
 10
9.3209743042
 20
9.3867236787
 30
0.0
 10
9.3179100205
 20
9.3857214427
 30
0.0
 10
9.314659725
 20
9.3848377305
 30
0.0
 10
9.3112500038
 20
9.3840812436
 30
0.0
 10
9.3077105686
 20
9.3834608519
 30
0.0
 10
9.3028454773
 20
9.3828167025
 30
0.0
 10
9.2991437534
 20
9.3825516476
 30
0.0
 10
9.296664281
 20
9.3824736287
 30
0.0
 11
9.3365313609
 21
9.3995252258
 31
0.0
 11
9.336081614
 21
9.3979333395
 31
0.0
 11
9.3352863807
 21
9.3963499103
 31
0.0
 11
9.334154446
 21
9.3947912862
 31
0.0
 11
9.3326945947
 21
9.3932738152
 31
0.0
 11
9.3309174564
 21
9.391812998
 31
0.0
 11
9.3288410397
 21
9.3904209469
 31
0.0
 11
9.3264851982
 21
9.3891089266
 31
0.0
 11
9.3238697852
 21
9.387888202
 31
0.0
 11
9.3210157347
 21
9.3867695757
 31
0.0
 11
9.3179483027
 21
9.3857620011
 31
0.0
 11
9.3146938259
 21
9.3848739694
 31
0.0
 11
9.3112786407
 21
9.3841139715
 31
0.0
 11
9.307731064
 21
9.3834897095
 31
0.0
 11
9.3040873333
 21
9.383005728
 31
0.0
 11
9.296664281
 21
9.3824736287
 31
0.0
  0
SPLINE
  5
39E
100
AcDbEntity
  8
0
100
AcDbSpline
 62
7
  6
CONTINUOUS
 70
0
 71
3
 72
9
 73
5
 74
3
 42
0.0000001
 43
0.0000001
 44
0.0000000001
 12
-0.0006648039
 22
-0.0043156695
 32
0.0
 13
-0.0023269161
 23
-0.0036949194
 33
0.0
 40
0.0
 40
0.0
 40
0.0
 40
0.0
 40
0.4822113044
 40
1.0
 40
1.0
 40
1.0
 40
1.0
 10
9.336315577
 20
9.4048706632
 30
0.0
 10
9.3362087184
 20
9.404176975
 30
0.0
 10
9.3358128247
 20
9.402762075
 30
0.0
 10
9.3351375539
 20
9.4014621082
 30
0.0
 10
9.3347359369
 20
9.4008243791
 30
0.0
 11
9.336315577
 21
9.4048706632
 31
0.0
 11
9.3357619466
 21
9.4028391386
 31
0.0
 11
9.3347359369
 21
9.4008243791
 31
0.0
  0
SPLINE
  5
39F
100
AcDbEntity
  8
0
100
AcDbSpline
 62
7
  6
CONTINUOUS
 70
0
 71
3
 72
19
 73
15
 74
13
 42
0.0000001
 43
0.0000001
 44
0.0000000001
 12
-0.0225100388
 22
-0.0357437806
 32
0.0
 13
-0.0422174854
 23
-0.0014154964
 33
0.0
 40
0.0
 40
0.0
 40
0.0
 40
0.0
 40
0.0869325252
 40
0.1350435579
 40
0.1863630343
 40
0.2408849524
 40
0.2985430392
 40
0.4227271789
 40
0.4889018022
 40
0.5574478033
 40
0.7005195658
 40
0.7744015988
 40
0.8492546376
 40
1.0
 40
1.0
 40
1.0
 40
1.0
 10
9.3347359369
 20
9.4008243791
 30
0.0
 10
9.3340836521
 20
9.3997886134
 30
0.0
 10
9.332851101
 20
9.3983130838
 30
0.0
 10
9.3308964815
 20
9.3965607001
 30
0.0
 10
9.3291620212
 20
9.3952556243
 30
0.0
 10
9.3272219628
 20
9.394012932
 30
0.0
 10
9.3243038518
 20
9.3924084022
 30
0.0
 10
9.3210935144
 20
9.3910124294
 30
0.0
 10
9.3176525149
 20
9.3898063672
 30
0.0
 10
9.313903817
 20
9.3886853633
 30
0.0
 10
9.3099788146
 20
9.3877914024
 30
0.0
 10
9.305924947
 20
9.3871174174
 30
0.0
 10
9.3017411749
 20
9.3865846791
 30
0.0
 10
9.2985688043
 20
9.3863591547
 30
0.0
 10
9.296447441
 20
9.3862880282
 30
0.0
 11
9.3347359369
 21
9.4008243791
 31
0.0
 11
9.3324206013
 21
9.3979741517
 31
0.0
 11
9.3309120218
 21
9.3966124242
 31
0.0
 11
9.3291831798
 21
9.3953045833
 31
0.0
 11
9.3272464569
 21
9.3940582913
 31
0.0
 11
9.3251142346
 21
9.3928812107
 31
0.0
 11
9.3203145606
 21
9.3907645215
 31
0.0
 11
9.3176774009
 21
9.3898376619
 31
0.0
 11
9.3149038902
 21
9.3890061804
 31
0.0
 11
9.3090139754
 21
9.3876522646
 31
0.0
 11
9.3059355811
 21
9.3871391411
 31
0.0
 11
9.3027991153
 21
9.3867390344
 31
0.0
 11
9.296447441
 21
9.3862880282
 31
0.0
  0
SPLINE
  5
3A0
100
AcDbEntity
  8
0
100
AcDbSpline
 62
6
  6
CONTINUOUS
 70
0
 71
3
 72
9
 73
5
 74
3
 42
0.0000001
 43
0.0000001
 44
0.0000000001
 12
0.0107554546
 22
0.0052713404
 32
0.0
 13
0.0088148664
 23
0.0081095599
 33
0.0
 40
0.0
 40
0.0
 40
0.0
 40
0.0
 40
0.4864081704
 40
1.0
 40
1.0
 40
1.0
 40
1.0
 10
8.9839019231
 20
10.2407895815
 30
0.0
 10
8.9856457701
 20
10.2416442559
 30
0.0
 10
8.9891359372
 20
10.2436039291
 30
0.0
 10
8.9923238469
 20
10.2460427451
 30
0.0
 10
8.993832928
 20
10.2474310796
 30
0.0
 11
8.9839019231
 21
10.2407895815
 31
0.0
 11
8.9889695497
 21
10.2436640198
 31
0.0
 11
8.993832928
 21
10.2474310796
 31
0.0
  0
SPLINE
  5
3A1
100
AcDbEntity
  8
0
100
AcDbSpline
 62
7
  6
CONTINUOUS
 70
0
 71
3
 72
19
 73
15
 74
13
 42
0.0000001
 43
0.0000001
 44
0.0000000001
 12
0.0592759657
 22
-0.452835956
 32
0.0
 13
-0.0592753634
 23
-0.4528360348
 33
0.0
 40
0.0
 40
0.0
 40
0.0
 40
0.0
 40
0.1147738953
 40
0.2382076049
 40
0.3023344206
 40
0.3675902825
 40
0.433604252
 40
0.4999999221
 40
0.5663956049
 40
0.6324095986
 40
0.6976654486
 40
0.7617922031
 40
0.8852258507
 40
1.0
 40
1.0
 40
1.0
 40
1.0
 10
3.2534397052
 20
10.0658434461
 30
0.0
 10
3.2557074831
 20
10.0485188639
 30
0.0
 10
3.2599313617
 20
10.0124974578
 30
0.0
 10
3.2639357204
 20
9.9666384279
 30
0.0
 10
3.2663362896
 20
9.928224737
 30
0.0
 10
3.2676759443
 20
9.8985075077
 30
0.0
 10
3.2684961938
 20
9.8684258523
 30
0.0
 10
3.2687709774
 20
9.8381606891
 30
0.0
 10
3.2684962998
 20
9.807895521
 30
0.0
 10
3.2676761006
 20
9.77781386
 30
0.0
 10
3.2663363931
 20
9.7480966396
 30
0.0
 10
3.2639356244
 20
9.7096829823
 30
0.0
 10
3.2599313595
 20
9.6638239275
 30
0.0
 10
3.255707565
 20
9.627802481
 30
0.0
 10
3.2534398052
 20
9.6104778574
 30
0.0
 11
3.2534397052
 21
10.0658434461
 31
0.0
 11
3.2595296655
 21
10.0137812903
 31
0.0
 11
3.2644166502
 21
9.9576214594
 31
0.0
 11
3.2662416847
 21
9.928391722
 31
0.0
 11
3.2675829526
 21
9.898619628
 31
0.0
 11
3.268403526
 21
9.8684822785
 31
0.0
 11
3.2686792247
 21
9.8381606908
 31
0.0
 11
3.268403623
 21
9.8078390965
 31
0.0
 11
3.2675830914
 21
9.7777017348
 31
0.0
 11
3.2662417704
 21
9.7479296485
 31
0.0
 11
3.2644166258
 21
9.7186999461
 31
0.0
 11
3.2595296741
 21
9.6625401407
 31
0.0
 11
3.2534398052
 21
9.6104778574
 31
0.0
  0
SPLINE
  5
3A2
100
AcDbEntity
  8
0
100
AcDbSpline
 62
6
  6
CONTINUOUS
 70
0
 71
3
 72
9
 73
5
 74
3
 42
0.0000001
 43
0.0000001
 44
0.0000000001
 12
-0.0107480579
 22
0.0052674191
 32
0.0
 13
-0.008810482
 23
0.0081019665
 33
0.0
 40
0.0
 40
0.0
 40
0.0
 40
0.0
 40
0.4864324433
 40
1.0
 40
1.0
 40
1.0
 40
1.0
 10
3.2426553768
 20
10.240789398
 30
0.0
 10
3.2409126421
 20
10.2416434791
 30
0.0
 10
3.2374248793
 20
10.2436017235
 30
0.0
 10
3.23423898
 20
10.246038479
 30
0.0
 10
3.2327307208
 20
10.2474254481
 30
0.0
 11
3.2426553768
 21
10.240789398
 31
0.0
 11
3.2375909461
 21
10.24366181
 31
0.0
 11
3.2327307208
 21
10.2474254481
 31
0.0
  0
SPLINE
  5
3A3
100
AcDbEntity
  8
0
100
AcDbSpline
 62
7
  6
CONTINUOUS
 70
0
 71
3
 72
22
 73
18
 74
16
 42
0.0000001
 43
0.0000001
 44
0.0000000001
 12
-0.0457048264
 22
0.0014381452
 32
0.0
 13
-0.0077645354
 23
0.0450634154
 33
0.0
 40
0.0
 40
0.0
 40
0.0
 40
0.0
 40
0.1627490514
 40
0.2431325592
 40
0.3219054469
 40
0.3984180552
 40
0.4721912101
 40
0.5427981557
 40
0.6098353763
 40
0.6729543539
 40
0.7319244231
 40
0.7865931725
 40
0.8369016811
 40
0.8829501506
 40
0.9250755705
 40
0.9638248142
 40
1.0
 40
1.0
 40
1.0
 40
1.0
 10
2.9298932494
 20
9.3824736288
 30
0.0
 10
2.9274137771
 20
9.3825516478
 30
0.0
 10
2.9237120533
 20
9.3828167028
 30
0.0
 10
2.9188469623
 20
9.3834608521
 30
0.0
 10
2.9153075272
 20
9.3840812439
 30
0.0
 10
2.9118978062
 20
9.3848377308
 30
0.0
 10
2.9086475109
 20
9.3857214431
 30
0.0
 10
2.9055832273
 20
9.386723679
 30
0.0
 10
2.9027305091
 20
9.387836015
 30
0.0
 10
2.9001138756
 20
9.3890508216
 30
0.0
 10
2.8977542719
 20
9.3903565694
 30
0.0
 10
2.8956709032
 20
9.3917423563
 30
0.0
 10
2.8938821303
 20
9.3931981515
 30
0.0
 10
2.8924067525
 20
9.3947154546
 30
0.0
 10
2.8912557648
 20
9.3962794727
 30
0.0
 10
2.8904397169
 20
9.3978756455
 30
0.0
 10
2.8901197993
 20
9.3989818333
 30
0.0
 10
2.8900261715
 20
9.3995252258
 30
0.0
 11
2.9298932494
 21
9.3824736288
 31
0.0
 11
2.9224701973
 21
9.3830057282
 31
0.0
 11
2.9188264668
 21
9.3834897097
 31
0.0
 11
2.9152788903
 21
9.3841139718
 31
0.0
 11
2.9118637053
 21
9.3848739697
 31
0.0
 11
2.9086092286
 21
9.3857620015
 31
0.0
 11
2.9055417968
 21
9.3867695761
 31
0.0
 11
2.9026877464
 21
9.3878882024
 31
0.0
 11
2.9000723336
 21
9.3891089269
 31
0.0
 11
2.8977164922
 21
9.3904209472
 31
0.0
 11
2.8956400757
 21
9.3918129983
 31
0.0
 11
2.8938629375
 21
9.3932738154
 31
0.0
 11
2.8924030863
 21
9.3947912864
 31
0.0
 11
2.8912711516
 21
9.3963499105
 31
0.0
 11
2.8904759184
 21
9.3979333396
 31
0.0
 11
2.8900261715
 21
9.3995252258
 31
0.0
  0
SPLINE
  5
3A4
100
AcDbEntity
  8
0
100
AcDbSpline
 62
7
  6
CONTINUOUS
 70
0
 71
3
 72
19
 73
15
 74
13
 42
0.0000001
 43
0.0000001
 44
0.0000000001
 12
-0.0422174759
 22
0.0014154868
 32
0.0
 13
-0.0225101387
 23
0.0357437062
 33
0.0
 40
0.0
 40
0.0
 40
0.0
 40
0.0
 40
0.1507452608
 40
0.2255982559
 40
0.2994802515
 40
0.4425519626
 40
0.5110979509
 40
0.5772725704
 40
0.7014567298
 40
0.7591148391
 40
0.8136367876
 40
0.8649563017
 40
0.9130673784
 40
1.0
 40
1.0
 40
1.0
 40
1.0
 10
2.9301100611
 20
9.3862880407
 30
0.0
 10
2.9279886996
 20
9.3863591667
 30
0.0
 10
2.9248163318
 20
9.3865846899
 30
0.0
 10
2.920632563
 20
9.3871174261
 30
0.0
 10
2.9165786979
 20
9.3877914089
 30
0.0
 10
2.9126536974
 20
9.3886853673
 30
0.0
 10
2.9089050006
 20
9.3898063684
 30
0.0
 10
2.905464001
 20
9.391012428
 30
0.0
 10
2.9022536627
 20
9.392408398
 30
0.0
 10
2.8993355498
 20
9.3940129247
 30
0.0
 10
2.8973954892
 20
9.3952556149
 30
0.0
 10
2.895661026
 20
9.3965606886
 30
0.0
 10
2.8937064019
 20
9.39831307
 30
0.0
 10
2.8924738465
 20
9.3997885977
 30
0.0
 10
2.891821558
 20
9.4008243624
 30
0.0
 11
2.9301100611
 21
9.3862880407
 31
0.0
 11
2.9237583923
 21
9.3867390446
 31
0.0
 11
2.920621929
 21
9.3871391498
 31
0.0
 11
2.9175435368
 21
9.3876522715
 31
0.0
 11
2.9116536248
 21
9.3890061835
 31
0.0
 11
2.9088801147
 21
9.389837663
 31
0.0
 11
2.9062429552
 21
9.3907645205
 31
0.0
 11
2.9014432796
 21
9.3928812054
 31
0.0
 11
2.8993110557
 21
9.3940582839
 31
0.0
 11
2.8973743306
 21
9.3953045737
 31
0.0
 11
2.8956454857
 21
9.3966124126
 31
0.0
 11
2.8941369026
 21
9.3979741382
 31
0.0
 11
2.891821558
 21
9.4008243624
 31
0.0
  0
SPLINE
  5
3A5
100
AcDbEntity
  8
0
100
AcDbSpline
 62
7
  6
CONTINUOUS
 70
0
 71
3
 72
9
 73
5
 74
3
 42
0.0000001
 43
0.0000001
 44
0.0000000001
 12
-0.0023269405
 22
0.0036949341
 32
0.0
 13
-0.0006648162
 23
0.0043156934
 33
0.0
 40
0.0
 40
0.0
 40
0.0
 40
0.0
 40
0.5177888835
 40
1.0
 40
1.0
 40
1.0
 40
1.0
 10
2.891821558
 20
9.4008243624
 30
0.0
 10
2.8914199367
 20
9.4014620944
 30
0.0
 10
2.8907446582
 20
9.4027620668
 30
0.0
 10
2.8903487587
 20
9.4041769742
 30
0.0
 10
2.8902418981
 20
9.404870666
 30
0.0
 11
2.891821558
 21
9.4008243624
 31
0.0
 11
2.8907955363
 21
9.4028391316
 31
0.0
 11
2.8902418981
 21
9.404870666
 31
0.0
  0
SPLINE
  5
3A6
100
AcDbEntity
  8
0
100
AcDbSpline
 62
6
  6
CONTINUOUS
 70
0
 71
3
 72
9
 73
5
 74
3
 42
0.0000001
 43
0.0000001
 44
0.0000000001
 12
-0.0107554546
 22
-0.0052713404
 32
0.0
 13
-0.0088148664
 23
-0.0081095599
 33
0.0
 40
0.0
 40
0.0
 40
0.0
 40
0.0
 40
0.4864081704
 40
1.0
 40
1.0
 40
1.0
 40
1.0
 10
3.2426556074
 20
9.4355313803
 30
0.0
 10
3.2409117604
 20
9.434676706
 30
0.0
 10
3.2374215932
 20
9.4327170328
 30
0.0
 10
3.2342336835
 20
9.4302782168
 30
0.0
 10
3.2327246024
 20
9.4288898822
 30
0.0
 11
3.2426556074
 21
9.4355313803
 31
0.0
 11
3.2375879807
 21
9.4326569421
 31
0.0
 11
3.2327246024
 21
9.4288898822
 31
0.0
  0
SPLINE
  5
3A7
100
AcDbEntity
  8
0
100
AcDbSpline
 62
6
  6
CONTINUOUS
 70
0
 71
3
 72
16
 73
12
 74
10
 42
0.0000001
 43
0.0000001
 44
0.0000000001
 12
0.0
 22
0.3046279954
 32
0.0
 13
0.1931509248
 23
0.2355651414
 33
0.0
 40
0.0
 40
0.0
 40
0.0
 40
0.0
 40
0.1247184378
 40
0.1871185292
 40
0.2495201816
 40
0.3743265839
 40
0.4992188354
 40
0.6242146643
 40
0.7493324898
 40
0.8745903573
 40
1.0
 40
1.0
 40
1.0
 40
1.0
 10
5.6587787652
 20
4.6797980866
 30
0.0
 10
5.6587787652
 20
4.6924623291
 30
0.0
 10
5.6595999886
 20
4.7114760869
 30
0.0
 10
5.6623248856
 20
4.736671701
 30
0.0
 10
5.666135219
 20
4.7617366893
 30
0.0
 10
5.6729202053
 20
4.7927367792
 30
0.0
 10
5.684233804
 20
4.8291113678
 30
0.0
 10
5.6986396423
 20
4.8644110257
 30
0.0
 10
5.716033758
 20
4.8983799805
 30
0.0
 10
5.7362883391
 20
4.930771142
 30
0.0
 10
5.7515977724
 20
4.9511514808
 30
0.0
 10
5.7596721019
 20
4.9609988608
 30
0.0
 11
5.6587787652
 21
4.6797980866
 31
0.0
 11
5.6604164592
 21
4.7177555011
 31
0.0
 11
5.6624604221
 21
4.7366541056
 31
0.0
 11
5.6653172652
 21
4.7554474971
 31
0.0
 11
5.6734457413
 21
4.7925879345
 31
0.0
 11
5.6847438189
 21
4.8289173568
 31
0.0
 11
5.6991299125
 21
4.8641723659
 31
0.0
 11
5.7165000082
 21
4.8980985605
 31
0.0
 11
5.7367292692
 21
4.9304518864
 31
0.0
 11
5.7596721019
 21
4.9609988608
 31
0.0
  0
SPLINE
  5
3A8
100
AcDbEntity
  8
0
100
AcDbSpline
 62
6
  6
CONTINUOUS
 70
0
 71
3
 72
16
 73
12
 74
10
 42
0.0000001
 43
0.0000001
 44
0.0000000001
 12
0.1931509248
 22
-0.2355651414
 32
0.0
 13
0.0
 23
-0.3046279954
 33
0.0
 40
0.0
 40
0.0
 40
0.0
 40
0.0
 40
0.1254096427
 40
0.2506675102
 40
0.3757853357
 40
0.5007811646
 40
0.6256734161
 40
0.7504798184
 40
0.8128814708
 40
0.8752815622
 40
1.0
 40
1.0
 40
1.0
 40
1.0
 10
6.4668854285
 20
4.9609988608
 30
0.0
 10
6.474959758
 20
4.9511514808
 30
0.0
 10
6.4902691914
 20
4.930771142
 30
0.0
 10
6.5105237724
 20
4.8983799805
 30
0.0
 10
6.5279178882
 20
4.8644110257
 30
0.0
 10
6.5423237264
 20
4.8291113678
 30
0.0
 10
6.5536373251
 20
4.7927367792
 30
0.0
 10
6.5604223114
 20
4.7617366893
 30
0.0
 10
6.5642326449
 20
4.736671701
 30
0.0
 10
6.5669575419
 20
4.7114760869
 30
0.0
 10
6.5677787652
 20
4.6924623291
 30
0.0
 10
6.5677787652
 20
4.6797980866
 30
0.0
 11
6.4668854285
 21
4.9609988608
 31
0.0
 11
6.4898282612
 21
4.9304518864
 31
0.0
 11
6.5100575222
 21
4.8980985605
 31
0.0
 11
6.527427618
 21
4.8641723659
 31
0.0
 11
6.5418137116
 21
4.8289173568
 31
0.0
 11
6.5531117891
 21
4.7925879345
 31
0.0
 11
6.5612402652
 21
4.7554474971
 31
0.0
 11
6.5640971084
 21
4.7366541056
 31
0.0
 11
6.5661410712
 21
4.7177555011
 31
0.0
 11
6.5677787652
 21
4.6797980866
 31
0.0
  0
SPLINE
  5
3A9
100
AcDbEntity
  8
0
100
AcDbSpline
 62
6
  6
CONTINUOUS
 70
0
 71
3
 72
47
 73
43
 74
41
 42
0.0000001
 43
0.0000001
 44
0.0000000001
 12
0.0
 22
-1.4260906927
 32
0.0
 13
-0.0
 23
1.4260906927
 33
0.0
 40
0.0
 40
0.0
 40
0.0
 40
0.0
 40
0.0156261954
 40
0.0312540681
 40
0.0468808034
 40
0.0625077038
 40
0.0937524988
 40
0.1249975602
 40
0.1406249908
 40
0.1562525367
 40
0.1718802085
 40
0.1875080156
 40
0.2187546719
 40
0.250001943
 40
0.2812498941
 40
0.3124984754
 40
0.3437477062
 40
0.3749974831
 40
0.4062477592
 40
0.4374984063
 40
0.4687493289
 40
0.500000376
 40
0.531251416
 40
0.5625023181
 40
0.5937529298
 40
0.6250031593
 40
0.6562528795
 40
0.6875020466
 40
0.7187505562
 40
0.7499984337
 40
0.7812456319
 40
0.8124922179
 40
0.8281199913
 40
0.8437476311
 40
0.8593751473
 40
0.8750025503
 40
0.9062475652
 40
0.9374923246
 40
0.9531192135
 40
0.9687459391
 40
0.9843738056
 40
1.0
 40
1.0
 40
1.0
 40
1.0
 10
6.5677787652
 20
4.5929739977
 30
0.0
 10
6.5677787652
 20
4.5855458738
 30
0.0
 10
6.567412905
 20
4.5706862148
 30
0.0
 10
6.5657688126
 20
4.5484530452
 30
0.0
 10
6.5630324991
 20
4.5263263209
 30
0.0
 10
6.5579388224
 20
4.4970466417
 30
0.0
 10
6.548879158
 20
4.460968979
 30
0.0
 10
6.5363174466
 20
4.4259562518
 30
0.0
 10
6.52424694
 20
4.3987975113
 30
0.0
 10
6.5142016698
 20
4.3788931224
 30
0.0
 10
6.5031902675
 20
4.359506241
 30
0.0
 10
6.4872599633
 20
4.3344150741
 30
0.0
 10
6.4650619094
 20
4.3045622009
 30
0.0
 10
6.4350455037
 20
4.271532202
 30
0.0
 10
6.4019342022
 20
4.2416010299
 30
0.0
 10
6.3660495547
 20
4.2150576321
 30
0.0
 10
6.3277374452
 20
4.1921550805
 30
0.0
 10
6.2873670234
 20
4.1731120598
 30
0.0
 10
6.2453266294
 20
4.1581097662
 30
0.0
 10
6.2020200482
 20
4.1472908655
 30
0.0
 10
6.1578627851
 20
4.1407582479
 30
0.0
 10
6.1132782306
 20
4.1385738682
 30
0.0
 10
6.0686936927
 20
4.1407583652
 30
0.0
 10
6.0245364719
 20
4.1472910604
 30
0.0
 10
5.9812299611
 20
4.158110044
 30
0.0
 10
5.9391896651
 20
4.1731124156
 30
0.0
 10
5.8988193541
 20
4.1921554825
 30
0.0
 10
5.8605073539
 20
4.2150580384
 30
0.0
 10
5.8246228317
 20
4.2416014388
 30
0.0
 10
5.7915116513
 20
4.271532589
 30
0.0
 10
5.7614953463
 20
4.3045625389
 30
0.0
 10
5.7392973639
 20
4.3344153605
 30
0.0
 10
5.7233671181
 20
4.3595064878
 30
0.0
 10
5.712355748
 20
4.3788933352
 30
0.0
 10
5.7023105031
 20
4.3987976894
 30
0.0
 10
5.6902400334
 20
4.4259563922
 30
0.0
 10
5.6776783442
 20
4.4609690714
 30
0.0
 10
5.6686186971
 20
4.4970466926
 30
0.0
 10
5.6635250281
 20
4.5263263456
 30
0.0
 10
5.6607887168
 20
4.5484530571
 30
0.0
 10
5.6591446252
 20
4.5706862186
 30
0.0
 10
5.6587787652
 20
4.5855458742
 30
0.0
 10
5.6587787652
 20
4.5929739977
 30
0.0
 11
6.5677787652
 21
4.5929739977
 31
0.0
 11
6.5672303921
 21
4.5706963741
 31
0.0
 11
6.5655867251
 21
4.5484703039
 31
0.0
 11
6.562851753
 21
4.5263536253
 31
0.0
 11
6.5590320805
 21
4.5043980306
 31
0.0
 11
6.5481788423
 21
4.4611821227
 31
0.0
 11
6.5331328388
 21
4.4192409843
 31
0.0
 11
6.524081811
 21
4.3988755568
 31
0.0
 11
6.5140406902
 21
4.3789794527
 31
0.0
 11
6.5030339728
 21
4.3596006178
 31
0.0
 11
6.491088327
 21
4.3407858041
 31
0.0
 11
6.4644987786
 21
4.3050277289
 31
0.0
 11
6.4345300248
 21
4.2720490092
 31
0.0
 11
6.4014723298
 21
4.2421659472
 31
0.0
 11
6.3656453549
 21
4.2156646916
 31
0.0
 11
6.3273947405
 21
4.1927985215
 31
0.0
 11
6.2870890176
 21
4.1737856485
 31
0.0
 11
6.2451158537
 21
4.1588070766
 31
0.0
 11
6.2018784562
 21
4.1480052843
 31
0.0
 11
6.1577916597
 21
4.1414829642
 31
0.0
 11
6.1132782283
 21
4.1393020154
 31
0.0
 11
6.0687648127
 21
4.1414830758
 31
0.0
 11
6.0246780586
 21
4.1480054821
 31
0.0
 11
5.9814407334
 21
4.1588073559
 31
0.0
 11
5.9394676665
 21
4.1737860016
 31
0.0
 11
5.8991620538
 21
4.192798919
 31
0.0
 11
5.860911552
 21
4.2156651005
 31
0.0
 11
5.825084702
 21
4.2421663531
 31
0.0
 11
5.7920271271
 21
4.2720493914
 31
0.0
 11
5.7620584756
 21
4.3050280636
 31
0.0
 11
5.7354690157
 21
4.3407860795
 31
0.0
 11
5.7235234115
 21
4.3596008628
 31
0.0
 11
5.7125167272
 21
4.3789796639
 31
0.0
 11
5.7024756333
 21
4.3988757342
 31
0.0
 11
5.6934246319
 21
4.4192411303
 31
0.0
 11
5.6783786609
 21
4.46118221
 31
0.0
 11
5.6675254415
 21
4.5043980702
 31
0.0
 11
5.663705774
 21
4.5263536492
 31
0.0
 11
5.6609708042
 21
4.5484703141
 31
0.0
 11
5.6593271382
 21
4.5706963755
 31
0.0
 11
5.6587787652
 21
4.5929739977
 31
0.0
  0
SPLINE
  5
3AA
100
AcDbEntity
  8
0
100
AcDbSpline
 62
6
  6
CONTINUOUS
 70
0
 71
3
 72
9
 73
5
 74
3
 42
0.0000001
 43
0.0000001
 44
0.0000000001
 12
0.0050131549
 22
-0.0046100104
 32
0.0
 13
0.0038838005
 23
-0.0055946414
 33
0.0
 40
0.0
 40
0.0
 40
0.0
 40
0.0
 40
0.4851552126
 40
1.0
 40
1.0
 40
1.0
 40
1.0
 10
8.9938268096
 20
9.4288955138
 30
0.0
 10
8.9946375291
 20
9.4281499903
 30
0.0
 10
8.9962352224
 20
9.4265312532
 30
0.0
 10
8.9976455047
 20
9.4247442966
 30
0.0
 10
8.9983120229
 20
9.4237841726
 30
0.0
 11
8.9938268096
 21
9.4288955138
 31
0.0
 11
8.9961436756
 21
9.426539718
 31
0.0
 11
8.9983120229
 21
9.4237841726
 31
0.0
  0
SPLINE
  5
3AB
100
AcDbEntity
  8
0
100
AcDbSpline
 62
6
  6
CONTINUOUS
 70
0
 71
3
 72
11
 73
7
 74
5
 42
0.0000001
 43
0.0000001
 44
0.0000000001
 12
0.0056647627
 22
-0.0125056164
 32
0.0
 13
-0.0004970013
 23
-0.013719802
 33
0.0
 40
0.0
 40
0.0
 40
0.0
 40
0.0
 40
0.2137883321
 40
0.4480681743
 40
0.7082332971
 40
1.0
 40
1.0
 40
1.0
 40
1.0
 10
9.000817288
 20
9.4193745104
 30
0.0
 10
9.0012209748
 20
9.4184833255
 30
0.0
 10
9.0019681386
 20
9.4165690253
 30
0.0
 10
9.002809273
 20
9.4134320023
 30
0.0
 10
9.0033313415
 20
9.4098638621
 30
0.0
 10
9.0033896758
 20
9.4073310275
 30
0.0
 10
9.0033413396
 20
9.4059967003
 30
0.0
 11
9.000817288
 21
9.4193745104
 31
0.0
 11
9.001885019
 21
9.4166405549
 31
0.0
 11
9.0027204045
 21
9.4135345542
 31
0.0
 11
9.0032418854
 21
9.4100010725
 31
0.0
 11
9.0033413396
 21
9.4059967003
 31
0.0
  0
SPLINE
  5
3AC
100
AcDbEntity
  8
0
100
AcDbSpline
 62
6
  6
CONTINUOUS
 70
0
 71
3
 72
11
 73
7
 74
5
 42
0.0000001
 43
0.0000001
 44
0.0000000001
 12
0.0107251052
 22
0.015441111
 32
0.0
 13
-0.0006811046
 23
0.0187880783
 33
0.0
 40
0.0
 40
0.0
 40
0.0
 40
0.0
 40
0.2046124088
 40
0.4321842088
 40
0.6929848864
 40
1.0
 40
1.0
 40
1.0
 40
1.0
 10
8.9983084794
 20
10.2525314965
 30
0.0
 10
8.999039976
 20
10.2535846441
 30
0.0
 10
9.0004372901
 20
10.2559162579
 30
0.0
 10
9.0021039569
 20
10.2599451893
 30
0.0
 10
9.0032347021
 20
10.2648237397
 30
0.0
 10
9.003410977
 20
10.2684015219
 30
0.0
 10
9.0033412738
 20
10.2703242632
 30
0.0
 11
8.9983084794
 21
10.2525314965
 31
0.0
 11
9.000282841
 21
10.255832975
 31
0.0
 11
9.0019197532
 21
10.2597858997
 31
0.0
 11
9.0030358969
 21
10.264560334
 31
0.0
 11
9.0033412738
 21
10.2703242632
 31
0.0
  0
SPLINE
  5
3AD
100
AcDbEntity
  8
0
100
AcDbSpline
 62
6
  6
CONTINUOUS
 70
0
 71
3
 72
9
 73
5
 74
3
 42
0.0000001
 43
0.0000001
 44
0.0000000001
 12
0.0050013663
 22
0.0046011905
 32
0.0
 13
0.003876883
 23
0.0055816125
 33
0.0
 40
0.0
 40
0.0
 40
0.0
 40
0.0
 40
0.4851846556
 40
1.0
 40
1.0
 40
1.0
 40
1.0
 10
8.993832928
 20
10.2474310796
 30
0.0
 10
8.9946417901
 20
10.248175222
 30
0.0
 10
8.9962358421
 20
10.2497906633
 30
0.0
 10
8.9976431865
 20
10.2515736632
 30
0.0
 10
8.9983084794
 20
10.2525314965
 30
0.0
 11
8.993832928
 21
10.2474310796
 31
0.0
 11
8.9961446575
 21
10.2497822406
 31
0.0
 11
8.9983084794
 21
10.2525314965
 31
0.0
  0
SPLINE
  5
3AE
100
AcDbEntity
  8
0
100
AcDbSpline
 62
9
  6
CONTINUOUS
 70
0
 71
3
 72
22
 73
18
 74
16
 42
0.0000001
 43
0.0000001
 44
0.0000000001
 12
0.0067709898
 22
0.0461621923
 32
0.0
 13
0.0466552559
 23
0.0002853122
 33
0.0
 40
0.0
 40
0.0
 40
0.0
 40
0.0
 40
0.0394056161
 40
0.0808422386
 40
0.1250475608
 40
0.1725648367
 40
0.2237668967
 40
0.2788204431
 40
0.3377358424
 40
0.4004247295
 40
0.4667165317
 40
0.5363220901
 40
0.6088924242
 40
0.6840511984
 40
0.761368255
 40
0.8402438004
 40
1.0
 40
1.0
 40
1.0
 40
1.0
 10
9.0033411243
 20
10.2703244079
 30
0.0
 10
9.0034300626
 20
10.2709307577
 30
0.0
 10
9.0037373921
 20
10.2721589498
 30
0.0
 10
9.0045411303
 20
10.273939267
 30
0.0
 10
9.0056834853
 20
10.2756757712
 30
0.0
 10
9.0071537637
 20
10.277351037
 30
0.0
 10
9.008940762
 20
10.2789478122
 30
0.0
 10
9.0110246673
 20
10.2804562861
 30
0.0
 10
9.0133866619
 20
10.2818656753
 30
0.0
 10
9.0160073589
 20
10.2831643105
 30
0.0
 10
9.0188657334
 20
10.2843398462
 30
0.0
 10
9.0219369678
 20
10.2853843711
 30
0.0
 10
9.0251953817
 20
10.2862891607
 30
0.0
 10
9.0286142678
 20
10.2870451711
 30
0.0
 10
9.0321637821
 20
10.287643226
 30
0.0
 10
9.0370435588
 20
10.2882291242
 30
0.0
 10
9.0407566142
 20
10.288419891
 30
0.0
 10
9.043241103
 20
10.2884350845
 30
0.0
 11
9.0033411243
 21
10.2703244079
 31
0.0
 11
9.0037801082
 21
10.2721097439
 31
0.0
 11
9.0045664671
 21
10.2738758645
 31
0.0
 11
9.0056914654
 21
10.2756044695
 31
0.0
 11
9.0071463676
 21
10.2772772592
 31
0.0
 11
9.008920569
 21
10.2788769479
 31
0.0
 11
9.0109959901
 21
10.2803903077
 31
0.0
 11
9.0133526823
 21
10.281805125
 31
0.0
 11
9.015970697
 21
10.2831091861
 31
0.0
 11
9.0188289927
 21
10.2842908343
 31
0.0
 11
9.0219021559
 21
10.2853406402
 31
0.0
 11
9.0251636799
 21
10.2862497311
 31
0.0
 11
9.0285870584
 21
10.2870092345
 31
0.0
 11
9.0321437866
 21
10.2876112335
 31
0.0
 11
9.0357973671
 21
10.2880516338
 31
0.0
 11
9.043241103
 21
10.2884350845
 31
0.0
  0
SPLINE
  5
3AF
100
AcDbEntity
  8
0
100
AcDbSpline
 62
9
  6
CONTINUOUS
 70
0
 71
3
 72
18
 73
14
 74
12
 42
0.0000001
 43
0.0000001
 44
0.0000000001
 12
0.0668773411
 22
0.0203078651
 32
0.0
 13
-0.0007753491
 23
0.0698883894
 33
0.0
 40
0.0
 40
0.0
 40
0.0
 40
0.0
 40
0.120580462
 40
0.2414144771
 40
0.3625671433
 40
0.4843143917
 40
0.6072822475
 40
0.6696423722
 40
0.7328396774
 40
0.7971539738
 40
0.8629071301
 40
0.9304326744
 40
1.0
 40
1.0
 40
1.0
 40
1.0
 10
8.9981028436
 20
10.2414361722
 30
0.0
 10
9.0007908772
 20
10.2422524161
 30
0.0
 10
9.006111018
 20
10.2441002926
 30
0.0
 10
9.0138261867
 20
10.2475684218
 30
0.0
 10
9.0211783812
 20
10.2518171542
 30
0.0
 10
9.0280119989
 20
10.2569507829
 30
0.0
 10
9.0330684973
 20
10.2620617182
 30
0.0
 10
9.0365564686
 20
10.2666930664
 30
0.0
 10
9.0388564416
 20
10.2704813753
 30
0.0
 10
9.0407606018
 20
10.274572346
 30
0.0
 10
9.0421952007
 20
10.2789591253
 30
0.0
 10
9.0430824623
 20
10.2836139981
 30
0.0
 10
9.0432590826
 20
10.2868144409
 30
0.0
 10
9.043241103
 20
10.2884350903
 30
0.0
 11
8.9981028436
 21
10.2414361722
 31
0.0
 11
9.0060597729
 21
10.244213452
 31
0.0
 11
9.013755076
 21
10.2476930115
 31
0.0
 11
9.021073589
 21
10.2519522449
 31
0.0
 11
9.0278552688
 21
10.2570918978
 31
0.0
 11
9.0338680764
 21
10.2632329487
 31
0.0
 11
9.0364852099
 21
10.2667182438
 31
0.0
 11
9.0387721018
 21
10.2704971691
 31
0.0
 11
9.0406639888
 21
10.2745747517
 31
0.0
 11
9.0420887024
 21
10.2789439997
 31
0.0
 11
9.0429709
 21
10.2835803564
 31
0.0
 11
9.043241103
 21
10.2884350903
 31
0.0
  0
SPLINE
  5
3B0
100
AcDbEntity
  8
0
100
AcDbSpline
 62
9
  6
CONTINUOUS
 70
0
 71
3
 72
13
 73
9
 74
7
 42
0.0000001
 43
0.0000001
 44
0.0000000001
 12
0.0111751128
 22
0.0027677995
 32
0.0
 13
0.0103350074
 23
0.0050726209
 33
0.0
 40
0.0
 40
0.0
 40
0.0
 40
0.0
 40
0.1229847396
 40
0.2449134198
 40
0.3681211049
 40
0.4924618449
 40
0.7440625637
 40
1.0
 40
1.0
 40
1.0
 40
1.0
 10
8.9731183818
 20
10.2368179525
 30
0.0
 10
8.9735765046
 20
10.2369314182
 30
0.0
 10
8.9744838412
 20
10.2371775311
 30
0.0
 10
8.9758366079
 20
10.2375849642
 30
0.0
 10
8.9771850857
 20
10.2380236287
 30
0.0
 10
8.9789922452
 20
10.2386592736
 30
0.0
 10
8.9812490898
 20
10.2395491347
 30
0.0
 10
8.9830223752
 20
10.24035754
 30
0.0
 10
8.9839040803
 20
10.2407902978
 30
0.0
 11
8.9731183818
 21
10.2368179525
 31
0.0
 11
8.9744859048
 21
10.237184885
 31
0.0
 11
8.9758303859
 21
10.2375884286
 31
0.0
 11
8.977179159
 21
10.2380275693
 31
0.0
 11
8.9785294945
 21
10.238502758
 31
0.0
 11
8.9812239038
 21
10.2395660416
 31
0.0
 11
8.9839040803
 21
10.2407902978
 31
0.0
  0
SPLINE
  5
3B1
100
AcDbEntity
  8
0
100
AcDbSpline
 62
9
  6
CONTINUOUS
 70
0
 71
3
 72
13
 73
9
 74
7
 42
0.0000001
 43
0.0000001
 44
0.0000000001
 12
0.0253876164
 22
0.0018191426
 32
0.0
 13
0.0243531915
 23
0.0074001626
 33
0.0
 40
0.0
 40
0.0
 40
0.0
 40
0.0
 40
0.1248372441
 40
0.2490305841
 40
0.3736543798
 40
0.4985671018
 40
0.7489597789
 40
1.0
 40
1.0
 40
1.0
 40
1.0
 10
8.9731221914
 20
10.2368182337
 30
0.0
 10
8.9741786315
 20
10.2368939326
 30
0.0
 10
8.9762835877
 20
10.2370806349
 30
0.0
 10
8.9794329983
 20
10.2374455589
 30
0.0
 10
8.9825725929
 20
10.2378921834
 30
0.0
 10
8.986754864
 20
10.2386012015
 30
0.0
 10
8.9919564482
 20
10.2397021231
 30
0.0
 10
8.9960649667
 20
10.2408169261
 30
0.0
 10
8.9981028436
 20
10.2414361722
 30
0.0
 11
8.9731221914
 21
10.2368182337
 31
0.0
 11
8.9762875329
 21
10.2370953182
 31
0.0
 11
8.9794276365
 21
10.2374586776
 31
0.0
 11
8.9825679886
 21
10.2379057294
 31
0.0
 11
8.9857025939
 21
10.2384373539
 31
0.0
 11
8.9919371794
 21
10.2397591941
 31
0.0
 11
8.9981028436
 21
10.2414361722
 31
0.0
  0
SPLINE
  5
3B2
100
AcDbEntity
  8
0
100
AcDbSpline
 62
9
  6
CONTINUOUS
 70
0
 71
3
 72
35
 73
31
 74
29
 42
0.0000001
 43
0.0000001
 44
0.0000000001
 12
0.0000818765
 22
0.5824564885
 32
0.0
 13
0.4002651495
 23
0.4231351767
 33
0.0
 40
0.0
 40
0.0
 40
0.0
 40
0.0
 40
0.090170075
 40
0.1796128309
 40
0.2674721528
 40
0.3530168647
 40
0.4355386922
 40
0.5143479135
 40
0.5888314647
 40
0.6584357774
 40
0.6912613386
 40
0.7226953707
 40
0.752689559
 40
0.7812039427
 40
0.808199737
 40
0.8336400796
 40
0.8574975597
 40
0.8797502773
 40
0.9003783481
 40
0.9193665875
 40
0.9367103653
 40
0.9447668769
 40
0.9524145653
 40
0.9596556777
 40
0.9664946149
 40
0.9729420836
 40
0.9790131455
 40
0.9847271291
 40
0.9901087578
 40
1.0
 40
1.0
 40
1.0
 40
1.0
 10
7.4474948333
 20
9.8381604809
 30
0.0
 10
7.4474972942
 20
9.855667196
 30
0.0
 10
7.4476117451
 20
9.89053951
 30
0.0
 10
7.4481243885
 20
9.9424676619
 30
0.0
 10
7.44899354
 20
9.9934930287
 30
0.0
 10
7.4502432247
 20
10.0431664878
 30
0.0
 10
7.4518902058
 20
10.0910704218
 30
0.0
 10
7.4539493725
 20
10.1368090101
 30
0.0
 10
7.4564221481
 20
10.1800154285
 30
0.0
 10
7.4588712799
 20
10.2142776685
 30
0.0
 10
7.4610542411
 20
10.2401760974
 30
0.0
 10
7.4627580567
 20
10.258396469
 30
0.0
 10
7.4645592039
 20
10.2757662122
 30
0.0
 10
7.4664569285
 20
10.2922586371
 30
0.0
 10
7.4684504466
 20
10.3078488881
 30
0.0
 10
7.4705394087
 20
10.3225139988
 30
0.0
 10
7.4727229477
 20
10.3362337282
 30
0.0
 10
7.4750001842
 20
10.3489903168
 30
0.0
 10
7.4773702552
 20
10.3607673621
 30
0.0
 10
7.4798332064
 20
10.3715499573
 30
0.0
 10
7.4820204968
 20
10.3798881009
 30
0.0
 10
7.4838392969
 20
10.3860417323
 30
0.0
 10
7.4851989052
 20
10.3902845315
 30
0.0
 10
7.486588917
 20
10.3942679761
 30
0.0
 10
7.4880109549
 20
10.3979918113
 30
0.0
 10
7.4894750696
 20
10.4014542529
 30
0.0
 10
7.4909916308
 20
10.4046540593
 30
0.0
 10
7.4925718219
 20
10.4075911204
 30
0.0
 10
7.4947164754
 20
10.4110564578
 30
0.0
 10
7.4965414557
 20
10.4134162628
 30
0.0
 10
7.4978611622
 20
10.4148113737
 30
0.0
 11
7.4474948333
 21
9.8381604809
 31
0.0
 11
7.4476701246
 21
9.8906803341
 31
0.0
 11
7.448190144
 21
9.9427742527
 31
0.0
 11
7.4490713648
 21
9.9939408975
 31
0.0
 11
7.450335851
 21
10.0437509228
 31
0.0
 11
7.4520019629
 21
10.0917874119
 31
0.0
 11
7.454082831
 21
10.1376431655
 31
0.0
 11
7.4565821555
 21
10.1809545406
 31
0.0
 11
7.4594969592
 21
10.2213911062
 31
0.0
 11
7.4611066058
 21
10.2404426898
 31
0.0
 11
7.4628154291
 21
10.2586717271
 31
0.0
 11
7.4646221886
 21
10.2760483591
 31
0.0
 11
7.4665262534
 21
10.2925472406
 31
0.0
 11
7.4685270302
 21
10.3081433028
 31
0.0
 11
7.4706239311
 21
10.3228120776
 31
0.0
 11
7.4728164141
 21
10.3365339683
 31
0.0
 11
7.4751039595
 21
10.3492917453
 31
0.0
 11
7.4774860489
 21
10.3610681949
 31
0.0
 11
7.4799642139
 21
10.3718468029
 31
0.0
 11
7.4825463395
 21
10.3816132225
 31
0.0
 11
7.4838792348
 21
10.3861125091
 31
0.0
 11
7.4852415371
 21
10.3903535255
 31
0.0
 11
7.4866343852
 21
10.3943345306
 31
0.0
 11
7.4880604657
 21
10.3980538904
 31
0.0
 11
7.4895285881
 21
10.4015103945
 31
0.0
 11
7.4910490763
 21
10.4047029369
 31
0.0
 11
7.4926322539
 21
10.4076304119
 31
0.0
 11
7.494288445
 21
10.4102917136
 31
0.0
 11
7.4978611622
 21
10.4148113737
 31
0.0
  0
SPLINE
  5
3B3
100
AcDbEntity
  8
0
100
AcDbSpline
 62
9
  6
CONTINUOUS
 70
0
 71
3
 72
34
 73
30
 74
28
 42
0.0000001
 43
0.0000001
 44
0.0000000001
 12
-0.0000918631
 22
0.5819711007
 32
0.0
 13
0.3795919378
 23
0.4411352755
 33
0.0
 40
0.0
 40
0.0
 40
0.0
 40
0.0
 40
0.0875313522
 40
0.1744420477
 40
0.2600030566
 40
0.3435889911
 40
0.4245824756
 40
0.5023698558
 40
0.5763772868
 40
0.6460616068
 40
0.7109244741
 40
0.7414015852
 40
0.7705060892
 40
0.7981876448
 40
0.8243977007
 40
0.8490957574
 40
0.8722451856
 40
0.8938110317
 40
0.9137642651
 40
0.9320881732
 40
0.9406360358
 40
0.948773316
 40
0.9564999532
 40
0.9638184545
 40
0.9707384455
 40
0.9772736282
 40
0.9834417748
 40
0.9892658645
 40
1.0
 40
1.0
 40
1.0
 40
1.0
 10
4.6388702282
 20
9.8381604809
 30
0.0
 10
4.6388675479
 20
9.8551407201
 30
0.0
 10
4.639031225
 20
9.8889810553
 30
0.0
 10
4.6397696318
 20
9.9394145069
 30
0.0
 10
4.6409926814
 20
9.9890730519
 30
0.0
 10
4.6427056028
 20
10.0375686299
 30
0.0
 10
4.6449052466
 20
10.084535109
 30
0.0
 10
4.6475863889
 20
10.1296154365
 30
0.0
 10
4.6507317688
 20
10.1724665393
 30
0.0
 10
4.6543216929
 20
10.2127662837
 30
0.0
 10
4.6577254984
 20
10.2446001654
 30
0.0
 10
4.6606720449
 20
10.268561129
 30
0.0
 10
4.6629265854
 20
10.2853389367
 30
0.0
 10
4.6652661214
 20
10.3012689427
 30
0.0
 10
4.6676849652
 20
10.3163219982
 30
0.0
 10
4.6701800657
 20
10.3304707616
 30
0.0
 10
4.6727489746
 20
10.3436897478
 30
0.0
 10
4.6753891497
 20
10.3559548765
 30
0.0
 10
4.6780992597
 20
10.3672442908
 30
0.0
 10
4.680469265
 20
10.3760150308
 30
0.0
 10
4.6824149058
 20
10.3825221537
 30
0.0
 10
4.6838595449
 20
10.3870324306
 30
0.0
 10
4.6853238103
 20
10.3912849464
 30
0.0
 10
4.6868094286
 20
10.395279142
 30
0.0
 10
4.6883293428
 20
10.3990122898
 30
0.0
 10
4.6898962117
 20
10.402482634
 30
0.0
 10
4.6915235355
 20
10.4056894551
 30
0.0
 10
4.6937306101
 20
10.4095065046
 30
0.0
 10
4.6956034785
 20
10.4121362152
 30
0.0
 10
4.6969616756
 20
10.4137146171
 30
0.0
 11
4.6388702282
 21
9.8381604809
 31
0.0
 11
4.6391153328
 21
9.8891006093
 31
0.0
 11
4.6398582734
 21
9.9396746664
 31
0.0
 11
4.6410917646
 21
9.9894534213
 31
0.0
 11
4.6428179303
 21
10.0380673838
 31
0.0
 11
4.6450352271
 21
10.0851510714
 31
0.0
 11
4.6477369221
 21
10.1303403893
 31
0.0
 11
4.6509079595
 21
10.1732936837
 31
0.0
 11
4.6545278543
 21
10.2136860647
 31
0.0
 11
4.6585694001
 21
10.2512174006
 31
0.0
 11
4.6607381952
 21
10.2688211029
 31
0.0
 11
4.6629984393
 21
10.2856075997
 31
0.0
 11
4.6653444221
 21
10.3015457343
 31
0.0
 11
4.6677708137
 21
10.3166050086
 31
0.0
 11
4.6702745349
 21
10.3307588235
 31
0.0
 11
4.6728533316
 21
10.3439820089
 31
0.0
 11
4.6755049545
 21
10.3562494026
 31
0.0
 11
4.6782284555
 21
10.3675377087
 31
0.0
 11
4.6810260623
 21
10.3778281886
 31
0.0
 11
4.6824535002
 21
10.3825936011
 31
0.0
 11
4.6839004783
 21
10.387102786
 31
0.0
 11
4.6853673369
 21
10.3913534864
 31
0.0
 11
4.6868571843
 21
10.3953435699
 31
0.0
 11
4.688381278
 21
10.3990712715
 31
0.0
 11
4.6899523675
 21
10.402534893
 31
0.0
 11
4.6915832024
 21
10.4057327363
 31
0.0
 11
4.6932865323
 21
10.4086631035
 31
0.0
 11
4.6969616756
 21
10.4137146171
 31
0.0
  0
SPLINE
  5
3B4
100
AcDbEntity
  8
0
100
AcDbSpline
 62
9
  6
CONTINUOUS
 70
0
 71
3
 72
35
 73
31
 74
29
 42
0.0000001
 43
0.0000001
 44
0.0000000001
 12
-0.0000818765
 22
0.5824564885
 32
0.0
 13
-0.4002651495
 23
0.4231351767
 33
0.0
 40
0.0
 40
0.0
 40
0.0
 40
0.0
 40
0.090170075
 40
0.1796128309
 40
0.2674721528
 40
0.3530168647
 40
0.4355386922
 40
0.5143479135
 40
0.5888314647
 40
0.6584357774
 40
0.6912613386
 40
0.7226953707
 40
0.752689559
 40
0.7812039427
 40
0.808199737
 40
0.8336400796
 40
0.8574975597
 40
0.8797502773
 40
0.9003783481
 40
0.9193665875
 40
0.9367103653
 40
0.9447668769
 40
0.9524145653
 40
0.9596556777
 40
0.9664946149
 40
0.9729420836
 40
0.9790131455
 40
0.9847271291
 40
0.9901087578
 40
1.0
 40
1.0
 40
1.0
 40
1.0
 10
4.7790626972
 20
9.8381604809
 30
0.0
 10
4.7790602362
 20
9.855667196
 30
0.0
 10
4.7789457853
 20
9.89053951
 30
0.0
 10
4.778433142
 20
9.9424676619
 30
0.0
 10
4.7775639904
 20
9.9934930287
 30
0.0
 10
4.7763143057
 20
10.0431664878
 30
0.0
 10
4.7746673247
 20
10.0910704218
 30
0.0
 10
4.772608158
 20
10.1368090101
 30
0.0
 10
4.7701353823
 20
10.1800154285
 30
0.0
 10
4.7676862505
 20
10.2142776685
 30
0.0
 10
4.7655032893
 20
10.2401760974
 30
0.0
 10
4.7637994737
 20
10.258396469
 30
0.0
 10
4.7619983265
 20
10.2757662122
 30
0.0
 10
4.7601006019
 20
10.2922586371
 30
0.0
 10
4.7581070838
 20
10.3078488881
 30
0.0
 10
4.7560181217
 20
10.3225139988
 30
0.0
 10
4.7538345827
 20
10.3362337282
 30
0.0
 10
4.7515573462
 20
10.3489903168
 30
0.0
 10
4.7491872752
 20
10.3607673621
 30
0.0
 10
4.746724324
 20
10.3715499573
 30
0.0
 10
4.7445370336
 20
10.3798881009
 30
0.0
 10
4.7427182335
 20
10.3860417323
 30
0.0
 10
4.7413586252
 20
10.3902845315
 30
0.0
 10
4.7399686135
 20
10.3942679761
 30
0.0
 10
4.7385465755
 20
10.3979918113
 30
0.0
 10
4.7370824608
 20
10.4014542529
 30
0.0
 10
4.7355658996
 20
10.4046540593
 30
0.0
 10
4.7339857085
 20
10.4075911204
 30
0.0
 10
4.731841055
 20
10.4110564578
 30
0.0
 10
4.7300160747
 20
10.4134162628
 30
0.0
 10
4.7286963682
 20
10.4148113737
 30
0.0
 11
4.7790626972
 21
9.8381604809
 31
0.0
 11
4.7788874058
 21
9.8906803341
 31
0.0
 11
4.7783673865
 21
9.9427742527
 31
0.0
 11
4.7774861657
 21
9.9939408975
 31
0.0
 11
4.7762216794
 21
10.0437509228
 31
0.0
 11
4.7745555675
 21
10.0917874119
 31
0.0
 11
4.7724746994
 21
10.1376431655
 31
0.0
 11
4.7699753749
 21
10.1809545406
 31
0.0
 11
4.7670605713
 21
10.2213911062
 31
0.0
 11
4.7654509246
 21
10.2404426898
 31
0.0
 11
4.7637421014
 21
10.2586717271
 31
0.0
 11
4.7619353419
 21
10.2760483591
 31
0.0
 11
4.760031277
 21
10.2925472406
 31
0.0
 11
4.7580305002
 21
10.3081433028
 31
0.0
 11
4.7559335993
 21
10.3228120776
 31
0.0
 11
4.7537411163
 21
10.3365339683
 31
0.0
 11
4.7514535709
 21
10.3492917453
 31
0.0
 11
4.7490714816
 21
10.3610681949
 31
0.0
 11
4.7465933165
 21
10.3718468029
 31
0.0
 11
4.7440111909
 21
10.3816132225
 31
0.0
 11
4.7426782956
 21
10.3861125091
 31
0.0
 11
4.7413159934
 21
10.3903535255
 31
0.0
 11
4.7399231452
 21
10.3943345306
 31
0.0
 11
4.7384970647
 21
10.3980538904
 31
0.0
 11
4.7370289423
 21
10.4015103945
 31
0.0
 11
4.7355084542
 21
10.4047029369
 31
0.0
 11
4.7339252765
 21
10.4076304119
 31
0.0
 11
4.7322690854
 21
10.4102917136
 31
0.0
 11
4.7286963682
 21
10.4148113737
 31
0.0
  0
SPLINE
  5
3B5
100
AcDbEntity
  8
0
100
AcDbSpline
 62
9
  6
CONTINUOUS
 70
0
 71
3
 72
37
 73
33
 74
31
 42
0.0000001
 43
0.0000001
 44
0.0000000001
 12
-0.009079031
 22
0.0107636457
 32
0.0
 13
-0.0140808238
 23
-0.0001235825
 33
0.0
 40
0.0
 40
0.0
 40
0.0
 40
0.0
 40
0.0977563944
 40
0.1950422087
 40
0.2426981168
 40
0.2892063154
 40
0.334194437
 40
0.3775669413
 40
0.4603367475
 40
0.5393938436
 40
0.5781650754
 40
0.6165453613
 40
0.690923244
 40
0.7598821476
 40
0.8211224381
 40
0.8488664504
 40
0.8748654434
 40
0.8992528491
 40
0.9220968697
 40
0.9429478105
 40
0.9611166154
 40
0.975915571
 40
0.9818454965
 40
0.9867004728
 40
0.9905199208
 40
0.9934594598
 40
0.9956763734
 40
0.9973164981
 40
0.998503015
 40
0.9993214376
 40
0.9998096019
 40
1.0
 40
1.0
 40
1.0
 40
1.0
 10
4.7286963593
 20
10.4148114558
 30
0.0
 10
4.7284005149
 20
10.4151621942
 30
0.0
 10
4.7277733196
 20
10.41583103
 30
0.0
 10
4.7269392428
 20
10.4166074634
 30
0.0
 10
4.7262650003
 20
10.4172015646
 30
0.0
 10
4.7257703494
 20
10.4176281017
 30
0.0
 10
4.7252904046
 20
10.4180408954
 30
0.0
 10
4.7246821647
 20
10.4185655419
 30
0.0
 10
4.7239483231
 20
10.419189411
 30
0.0
 10
4.7232114744
 20
10.4197761892
 30
0.0
 10
4.7226184363
 20
10.4202075556
 30
0.0
 10
4.7220308383
 20
10.4206084544
 30
0.0
 10
4.7213100818
 20
10.421064957
 30
0.0
 10
4.7204856025
 20
10.4215572092
 30
0.0
 10
4.7198488796
 20
10.4219369333
 30
0.0
 10
4.7193831127
 20
10.4222096091
 30
0.0
 10
4.7190646737
 20
10.4223915199
 30
0.0
 10
4.7187636394
 20
10.4225574843
 30
0.0
 10
4.7184803116
 20
10.4227053367
 30
0.0
 10
4.7182209526
 20
10.4228359301
 30
0.0
 10
4.7179953506
 20
10.4229495482
 30
0.0
 10
4.7178337383
 20
10.4230346317
 30
0.0
 10
4.7177302655
 20
10.4230956308
 30
0.0
 10
4.7176731964
 20
10.4231337222
 30
0.0
 10
4.7176306141
 20
10.4231678811
 30
0.0
 10
4.7176006784
 20
10.423197702
 30
0.0
 10
4.7175812565
 20
10.4232230834
 30
0.0
 10
4.7175699682
 20
10.4232441908
 30
0.0
 10
4.7175650015
 20
10.4232603473
 30
0.0
 10
4.7175631328
 20
10.4232725779
 30
0.0
 10
4.7175638822
 20
10.423278613
 30
0.0
 10
4.7175627498
 20
10.4232829053
 30
0.0
 10
4.7175618562
 20
10.4232828974
 30
0.0
 11
4.7286963593
 21
10.4148114558
 31
0.0
 11
4.7277609785
 21
10.415821374
 31
0.0
 11
4.7267631245
 21
10.416759969
 31
0.0
 11
4.726260163
 21
10.4172042118
 31
0.0
 11
4.7257648547
 21
10.4176326535
 31
0.0
 11
4.725284755
 21
10.4180459563
 31
0.0
 11
4.7248218645
 21
10.4184443791
 31
0.0
 11
4.7239309382
 21
10.4191958234
 31
0.0
 11
4.7230569595
 21
10.4198853496
 31
0.0
 11
4.7226153674
 21
10.4202063791
 31
0.0
 11
4.7221692719
 21
10.4205114719
 31
0.0
 11
4.7212861259
 21
10.4210744806
 31
0.0
 11
4.7204544523
 21
10.4215757082
 31
0.0
 11
4.7197130273
 21
10.4220160844
 31
0.0
 11
4.719375686
 21
10.4222131294
 31
0.0
 11
4.7190576352
 21
10.4223944408
 31
0.0
 11
4.7187566556
 21
10.4225597901
 31
0.0
 11
4.7184716485
 21
10.4227089402
 31
0.0
 11
4.7182097139
 21
10.4228415936
 31
0.0
 11
4.7179815959
 21
10.4229574258
 31
0.0
 11
4.7177980551
 21
10.423056112
 31
0.0
 11
4.7177263639
 21
10.4230989239
 31
0.0
 11
4.7176698053
 21
10.4231373278
 31
0.0
 11
4.7176281031
 21
10.4231712917
 31
0.0
 11
4.7175990685
 21
10.4232007934
 31
0.0
 11
4.7175803976
 21
10.4232258115
 31
0.0
 11
4.7175697862
 21
10.4232463246
 31
0.0
 11
4.7175649304
 21
10.4232623112
 31
0.0
 11
4.7175635261
 21
10.4232737498
 31
0.0
 11
4.7175632694
 21
10.4232806191
 31
0.0
 11
4.7175618562
 21
10.4232828974
 31
0.0
  0
SPLINE
  5
3B6
100
AcDbEntity
  8
0
100
AcDbSpline
 62
6
  6
CONTINUOUS
 70
0
 71
3
 72
29
 73
25
 74
23
 42
0.0000001
 43
0.0000001
 44
0.0000000001
 12
-0.3309494991
 22
-0.5732213472
 32
0.0
 13
0.3309494991
 23
-0.5732213472
 33
0.0
 40
0.0
 40
0.0
 40
0.0
 40
0.0
 40
0.0635266886
 40
0.126756295
 40
0.1896644209
 40
0.2522447356
 40
0.3145118316
 40
0.3455448909
 40
0.3765164487
 40
0.4074349702
 40
0.4383135262
 40
0.469164289
 40
0.5000000485
 40
0.5308358041
 40
0.5616865626
 40
0.592565119
 40
0.6234836325
 40
0.6544551769
 40
0.6854882307
 40
0.747755305
 40
0.8103356053
 40
0.8732437102
 40
0.93647331
 40
1.0
 40
1.0
 40
1.0
 40
1.0
 10
7.8632787652
 20
9.8381604809
 30
0.0
 10
7.8562707233
 20
9.8260221963
 30
0.0
 10
7.8427413042
 20
9.8015356567
 30
0.0
 10
7.8241297339
 20
9.7640394327
 30
0.0
 10
7.8075248275
 20
9.7258333683
 30
0.0
 10
7.7932566825
 20
9.6869155753
 30
0.0
 10
7.7835788537
 20
9.6538798802
 30
0.0
 10
7.7773525908
 20
9.6271717978
 30
0.0
 10
7.7734757061
 20
9.6070341627
 30
0.0
 10
7.7704197759
 20
9.5867899246
 30
0.0
 10
7.7682196381
 20
9.5664613128
 30
0.0
 10
7.7668894564
 20
9.5460754987
 30
0.0
 10
7.7664417035
 20
9.5256604497
 30
0.0
 10
7.7668894472
 20
9.5052454009
 30
0.0
 10
7.7682196537
 20
9.4848595902
 30
0.0
 10
7.7704197827
 20
9.4645309804
 30
0.0
 10
7.773475706
 20
9.4442867456
 30
0.0
 10
7.7773526042
 20
9.4241491192
 30
0.0
 10
7.7835788629
 20
9.3974410453
 30
0.0
 10
7.7932566901
 20
9.364405359
 30
0.0
 10
7.8075248353
 20
9.3254875796
 30
0.0
 10
7.8241297363
 20
9.287281523
 30
0.0
 10
7.8427413052
 20
9.2497853047
 30
0.0
 10
7.8562707231
 20
9.2252987659
 30
0.0
 10
7.8632787652
 20
9.2131604809
 30
0.0
 11
7.8632787652
 21
9.8381604809
 31
0.0
 11
7.8429836142
 21
9.8013343719
 31
0.0
 11
7.8244196114
 21
9.7638252354
 31
0.0
 11
7.8078742518
 21
9.7256147281
 31
0.0
 11
7.7936691638
 21
9.6867047688
 31
0.0
 11
7.7821376542
 21
9.6471363263
 31
0.0
 11
7.7774796763
 21
9.6271306849
 31
0.0
 11
7.773609575
 21
9.6069992646
 31
0.0
 11
7.7705606853
 21
9.5867627142
 31
0.0
 11
7.7683638187
 21
9.5664426389
 31
0.0
 11
7.7670362932
 21
9.5460657473
 31
0.0
 11
7.7665909287
 21
9.5256604487
 31
0.0
 11
7.7670362896
 21
9.5052551526
 31
0.0
 11
7.7683638286
 21
9.4848782647
 31
0.0
 11
7.7705606926
 21
9.4645581889
 31
0.0
 11
7.7736095785
 21
9.4443216432
 31
0.0
 11
7.7774796865
 21
9.4241902333
 31
0.0
 11
7.782137665
 21
9.4041845957
 31
0.0
 11
7.7936691713
 21
9.3646161673
 31
0.0
 11
7.807874259
 21
9.325706218
 31
0.0
 11
7.8244196129
 21
9.2874957234
 31
0.0
 11
7.842983614
 21
9.2499865908
 31
0.0
 11
7.8632787652
 21
9.2131604809
 31
0.0
  0
SPLINE
  5
3B7
100
AcDbEntity
  8
0
100
AcDbSpline
 62
6
  6
CONTINUOUS
 70
0
 71
3
 72
31
 73
27
 74
25
 42
0.0000001
 43
0.0000001
 44
0.0000000001
 12
0.37309554
 22
0.5433845846
 32
0.0
 13
-0.37309554
 23
0.5433845846
 33
0.0
 40
0.0
 40
0.0
 40
0.0
 40
0.0
 40
0.0639674142
 40
0.1272868089
 40
0.19007091
 40
0.221312612
 40
0.2524708839
 40
0.314571546
 40
0.3455471095
 40
0.3764830006
 40
0.4073878298
 40
0.4382707386
 40
0.469139152
 40
0.4999999968
 40
0.5308608334
 40
0.5617292183
 40
0.5926120797
 40
0.62351687
 40
0.6544527441
 40
0.6854282898
 40
0.7475291012
 40
0.7786875141
 40
0.809929418
 40
0.8727141443
 40
0.9360330267
 40
1.0
 40
1.0
 40
1.0
 40
1.0
 10
8.0632787652
 20
9.2131604809
 30
0.0
 10
8.0712340842
 20
9.2247467832
 30
0.0
 10
8.0859402428
 20
9.2485945614
 30
0.0
 10
8.1045172232
 20
9.2860530685
 30
0.0
 10
8.1171859396
 20
9.3182647989
 30
0.0
 10
8.1257209949
 20
9.3444175071
 30
0.0
 10
8.1332157497
 20
9.3707308697
 30
0.0
 10
8.1392572157
 20
9.397377404
 30
0.0
 10
8.1439214067
 20
9.4242259597
 30
0.0
 10
8.1467525039
 20
9.444425374
 30
0.0
 10
8.1489364253
 20
9.464683956
 30
0.0
 10
8.1504840983
 20
9.4849861499
 30
0.0
 10
8.151409352
 20
9.5053163898
 30
0.0
 10
8.1517182764
 20
9.5256604788
 30
0.0
 10
8.151409339
 20
9.5460045609
 30
0.0
 10
8.1504841119
 20
9.5663347835
 30
0.0
 10
8.1489364192
 20
9.5866369512
 30
0.0
 10
8.1467524852
 20
9.6068955082
 30
0.0
 10
8.1439214463
 20
9.6270949145
 30
0.0
 10
8.1392572209
 20
9.6539434903
 30
0.0
 10
8.1332157567
 20
9.680590085
 30
0.0
 10
8.1257209951
 20
9.7069035585
 30
0.0
 10
8.1171858451
 20
9.7330564608
 30
0.0
 10
8.1045170246
 20
9.7652682218
 30
0.0
 10
8.0859401465
 20
9.8027266995
 30
0.0
 10
8.0712340294
 20
9.8265742585
 30
0.0
 10
8.0632787652
 20
9.8381604809
 30
0.0
 11
8.0632787652
 21
9.2131604809
 31
0.0
 11
8.0854429519
 21
9.2490284935
 31
0.0
 11
8.1040219938
 21
9.2864015852
 31
0.0
 11
8.119208453
 21
9.3248979832
 31
0.0
 11
8.1256018384
 21
9.344473059
 31
0.0
 11
8.1312326287
 21
9.3642237886
 31
0.0
 11
8.1403142665
 21
9.404136729
 31
0.0
 11
8.1438127317
 21
9.4242520373
 31
0.0
 11
8.1466459084
 21
9.4444453746
 31
0.0
 11
8.1488310609
 21
9.4646984806
 31
0.0
 11
8.1503806611
 21
9.4849956106
 31
0.0
 11
8.1513067134
 21
9.5053211679
 31
0.0
 11
8.1516153079
 21
9.5256604805
 31
0.0
 11
8.1513067068
 21
9.5459997876
 31
0.0
 11
8.1503806666
 21
9.5663253266
 31
0.0
 11
8.1488310563
 21
9.5866224246
 31
0.0
 11
8.1466459023
 21
9.6068755047
 31
0.0
 11
8.1438127582
 21
9.6270688351
 31
0.0
 11
8.1403142896
 21
9.6471841309
 31
0.0
 11
8.1312326408
 21
9.6870971697
 31
0.0
 11
8.1256018354
 21
9.7068479917
 31
0.0
 11
8.1192083912
 21
9.7264231883
 31
0.0
 11
8.1040217209
 21
9.7649199461
 31
0.0
 11
8.0854428386
 21
9.8022927399
 31
0.0
 11
8.0632787652
 21
9.8381604809
 31
0.0
  0
SPLINE
  5
3B8
100
AcDbEntity
  8
0
100
AcDbSpline
 62
9
  6
CONTINUOUS
 70
0
 71
3
 72
34
 73
30
 74
28
 42
0.0000001
 43
0.0000001
 44
0.0000000001
 12
0.0100134416
 22
0.0116977661
 32
0.0
 13
-0.0153969886
 23
0.0001987077
 33
0.0
 40
0.0
 40
0.0
 40
0.0
 40
0.0
 40
0.0981891226
 40
0.1927978252
 40
0.2847251004
 40
0.3748413132
 40
0.4626372659
 40
0.5466848385
 40
0.625528816
 40
0.6987039919
 40
0.766356773
 40
0.8281680515
 40
0.8814155447
 40
0.9037438484
 40
0.9227559096
 40
0.9388122452
 40
0.9525018773
 40
0.9644027547
 40
0.9698695903
 40
0.975116568
 40
0.9801321795
 40
0.9848194034
 40
0.9890737979
 40
0.9927874915
 40
0.9958500284
 40
0.9981489842
 40
0.9989765697
 40
0.9995704554
 40
1.0
 40
1.0
 40
1.0
 40
1.0
 10
4.6969616756
 20
10.4137146171
 30
0.0
 10
4.6972894126
 20
10.4140974816
 30
0.0
 10
4.6979403689
 20
10.41484299
 30
0.0
 10
4.6989360018
 20
10.415913203
 30
0.0
 10
4.6999470783
 20
10.4169111381
 30
0.0
 10
4.7009866788
 20
10.4178273614
 30
0.0
 10
4.7020376681
 20
10.4186666245
 30
0.0
 10
4.7030712132
 20
10.4194333389
 30
0.0
 10
4.7040604206
 20
10.4201332183
 30
0.0
 10
4.7049953245
 20
10.4207636915
 30
0.0
 10
4.7058740276
 20
10.4213205948
 30
0.0
 10
4.7066837829
 20
10.4217938806
 30
0.0
 10
4.7072969057
 20
10.4221422222
 30
0.0
 10
4.7077139503
 20
10.4223908915
 30
0.0
 10
4.7079614994
 20
10.4225507402
 30
0.0
 10
4.7081671629
 20
10.422693388
 30
0.0
 10
4.7083409675
 20
10.4228178101
 30
0.0
 10
4.7084720147
 20
10.4229086525
 30
0.0
 10
4.708570338
 20
10.4229704014
 30
0.0
 10
4.7086405585
 20
10.4230102967
 30
0.0
 10
4.7087089298
 20
10.4230451952
 30
0.0
 10
4.7087738588
 20
10.4230754352
 30
0.0
 10
4.7088336669
 20
10.4231010228
 30
0.0
 10
4.7088860329
 20
10.4231218645
 30
0.0
 10
4.7089304232
 20
10.423138242
 30
0.0
 10
4.7089588095
 20
10.4231484219
 30
0.0
 10
4.7089791009
 20
10.4231550467
 30
0.0
 10
4.7089842476
 20
10.4231572572
 30
0.0
 10
4.7089961298
 20
10.4231604525
 30
0.0
 10
4.7089939252
 20
10.4231604809
 30
0.0
 11
4.6969616756
 21
10.4137146171
 31
0.0
 11
4.6979584812
 21
10.4148514326
 31
0.0
 11
4.6989529532
 21
10.4159160085
 31
0.0
 11
4.6999628875
 21
10.4169078416
 31
0.0
 11
4.7010028922
 21
10.4178264916
 31
0.0
 11
4.7020576774
 21
10.4186721142
 31
0.0
 11
4.7030955953
 21
10.4194451906
 31
0.0
 11
4.704086855
 21
10.420146153
 31
0.0
 11
4.7050218837
 21
10.4207749093
 31
0.0
 11
4.7059027373
 21
10.4213310663
 31
0.0
 11
4.7067227614
 21
10.4218142418
 31
0.0
 11
4.7074328766
 21
10.4222241249
 31
0.0
 11
4.7077274126
 21
10.4224014912
 31
0.0
 11
4.7079732691
 21
10.4225604215
 31
0.0
 11
4.7081767579
 21
10.4227008488
 31
0.0
 11
4.708348771
 21
10.4228226959
 31
0.0
 11
4.7085002091
 21
10.4229258858
 31
0.0
 11
4.7085716189
 21
10.4229704602
 31
0.0
 11
4.7086418841
 21
10.4230103417
 31
0.0
 11
4.7087106355
 21
10.4230455268
 31
0.0
 11
4.708776054
 21
10.4230760174
 31
0.0
 11
4.7088362709
 21
10.4231018152
 31
0.0
 11
4.7088894174
 21
10.4231229222
 31
0.0
 11
4.7089336249
 21
10.4231393404
 31
0.0
 11
4.7089670245
 21
10.4231510716
 31
0.0
 11
4.7089790874
 21
10.4231551803
 31
0.0
 11
4.7089877475
 21
10.4231581178
 31
0.0
 11
4.7089939252
 21
10.4231604809
 31
0.0
  0
SPLINE
  5
3B9
100
AcDbEntity
  8
0
100
AcDbSpline
 62
9
  6
CONTINUOUS
 70
0
 71
3
 72
25
 73
21
 74
19
 42
0.0000001
 43
0.0000001
 44
0.0000000001
 12
0.0000402123
 22
0.6108144744
 32
0.0
 13
0.5209462836
 23
0.3189189447
 33
0.0
 40
0.0
 40
0.0
 40
0.0
 40
0.0
 40
0.0638852325
 40
0.127755903
 40
0.1915083801
 40
0.255093961
 40
0.2868185737
 40
0.3184899341
 40
0.3816483642
 40
0.4131346473
 40
0.4445508572
 40
0.507165118
 40
0.5694968873
 40
0.6315534274
 40
0.6933607903
 40
0.7549431715
 40
0.8163491313
 40
0.8776252984
 40
0.9388231053
 40
1.0
 40
1.0
 40
1.0
 40
1.0
 10
5.3703403369
 20
9.8381604809
 30
0.0
 10
5.3703411932
 20
9.8511678225
 30
0.0
 10
5.3712134965
 20
9.8771875878
 30
0.0
 10
5.3751000758
 20
9.916012894
 30
0.0
 10
5.3815428259
 20
9.9544357868
 30
0.0
 10
5.3890100111
 20
9.9859756524
 30
0.0
 10
5.3962188566
 20
10.0108087864
 30
0.0
 10
5.4042236668
 20
10.0353049163
 30
0.0
 10
5.4134227135
 20
10.0593458637
 30
0.0
 10
5.4237703738
 20
10.0828381992
 30
0.0
 10
5.4348372488
 20
10.1058779683
 30
0.0
 10
5.4500212247
 20
10.1338875964
 30
0.0
 10
5.4703110798
 20
10.1661362003
 30
0.0
 10
5.492535736
 20
10.1968807066
 30
0.0
 10
5.5165645747
 20
10.2260379944
 30
0.0
 10
5.5422817301
 20
10.2535356334
 30
0.0
 10
5.5695647608
 20
10.2793216906
 30
0.0
 10
5.5983006162
 20
10.3033556535
 30
0.0
 10
5.6283800387
 20
10.3256034006
 30
0.0
 10
5.649260264
 20
10.339228868
 30
0.0
 10
5.659883556
 20
10.3457323582
 30
0.0
 11
5.3703403369
 21
9.8381604809
 31
0.0
 11
5.3716438058
 21
9.8771607295
 31
0.0
 11
5.3755308135
 21
9.9159797389
 31
0.0
 11
5.3819713654
 21
9.9543843711
 31
0.0
 11
5.3909225428
 21
9.9921778073
 31
0.0
 11
5.3963247717
 21
10.0107874043
 31
0.0
 11
5.4023333159
 21
10.0291759608
 31
0.0
 11
5.4161194951
 21
10.0652066391
 31
0.0
 11
5.4238720437
 21
10.0828071644
 31
0.0
 11
5.432180309
 21
10.1001048147
 31
0.0
 11
5.4504061365
 21
10.1337285049
 31
0.0
 11
5.4706801971
 21
10.1659546897
 31
0.0
 11
5.4928829518
 21
10.1966764932
 31
0.0
 11
5.5168907039
 21
10.2258124532
 31
0.0
 11
5.5425806906
 21
10.253288691
 31
0.0
 11
5.5698363354
 21
10.2790559875
 31
0.0
 11
5.5985431256
 21
10.3030727123
 31
0.0
 11
5.628592779
 21
10.3253060337
 31
0.0
 11
5.659883556
 21
10.3457323582
 31
0.0
  0
SPLINE
  5
3BA
100
AcDbEntity
  8
0
100
AcDbSpline
 62
9
  6
CONTINUOUS
 70
0
 71
3
 72
34
 73
30
 74
28
 42
0.0000001
 43
0.0000001
 44
0.0000000001
 12
0.0000918631
 22
0.5819711007
 32
0.0
 13
-0.3795919378
 23
0.4411352755
 33
0.0
 40
0.0
 40
0.0
 40
0.0
 40
0.0
 40
0.0875313522
 40
0.1744420477
 40
0.2600030566
 40
0.3435889911
 40
0.4245824756
 40
0.5023698558
 40
0.5763772868
 40
0.6460616068
 40
0.7109244741
 40
0.7414015852
 40
0.7705060892
 40
0.7981876448
 40
0.8243977007
 40
0.8490957574
 40
0.8722451856
 40
0.8938110317
 40
0.9137642651
 40
0.9320881732
 40
0.9406360358
 40
0.948773316
 40
0.9564999532
 40
0.9638184545
 40
0.9707384455
 40
0.9772736282
 40
0.9834417748
 40
0.9892658645
 40
1.0
 40
1.0
 40
1.0
 40
1.0
 10
7.5876873022
 20
9.8381604809
 30
0.0
 10
7.5876899825
 20
9.8551407201
 30
0.0
 10
7.5875263055
 20
9.8889810553
 30
0.0
 10
7.5867878986
 20
9.9394145069
 30
0.0
 10
7.585564849
 20
9.9890730519
 30
0.0
 10
7.5838519276
 20
10.0375686299
 30
0.0
 10
7.5816522838
 20
10.084535109
 30
0.0
 10
7.5789711415
 20
10.1296154365
 30
0.0
 10
7.5758257617
 20
10.1724665393
 30
0.0
 10
7.5722358375
 20
10.2127662837
 30
0.0
 10
7.568832032
 20
10.2446001654
 30
0.0
 10
7.5658854855
 20
10.268561129
 30
0.0
 10
7.563630945
 20
10.2853389367
 30
0.0
 10
7.561291409
 20
10.3012689427
 30
0.0
 10
7.5588725652
 20
10.3163219982
 30
0.0
 10
7.5563774647
 20
10.3304707616
 30
0.0
 10
7.5538085558
 20
10.3436897478
 30
0.0
 10
7.5511683807
 20
10.3559548765
 30
0.0
 10
7.5484582707
 20
10.3672442908
 30
0.0
 10
7.5460882655
 20
10.3760150308
 30
0.0
 10
7.5441426246
 20
10.3825221537
 30
0.0
 10
7.5426979855
 20
10.3870324306
 30
0.0
 10
7.5412337201
 20
10.3912849464
 30
0.0
 10
7.5397481018
 20
10.395279142
 30
0.0
 10
7.5382281876
 20
10.3990122898
 30
0.0
 10
7.5366613187
 20
10.402482634
 30
0.0
 10
7.5350339949
 20
10.4056894551
 30
0.0
 10
7.5328269203
 20
10.4095065046
 30
0.0
 10
7.5309540519
 20
10.4121362152
 30
0.0
 10
7.5295958548
 20
10.4137146171
 30
0.0
 11
7.5876873022
 21
9.8381604809
 31
0.0
 11
7.5874421976
 21
9.8891006093
 31
0.0
 11
7.586699257
 21
9.9396746664
 31
0.0
 11
7.5854657658
 21
9.9894534213
 31
0.0
 11
7.5837396001
 21
10.0380673838
 31
0.0
 11
7.5815223033
 21
10.0851510714
 31
0.0
 11
7.5788206083
 21
10.1303403893
 31
0.0
 11
7.5756495709
 21
10.1732936837
 31
0.0
 11
7.5720296761
 21
10.2136860647
 31
0.0
 11
7.5679881304
 21
10.2512174006
 31
0.0
 11
7.5658193352
 21
10.2688211029
 31
0.0
 11
7.5635590911
 21
10.2856075997
 31
0.0
 11
7.5612131083
 21
10.3015457343
 31
0.0
 11
7.5587867167
 21
10.3166050086
 31
0.0
 11
7.5562829955
 21
10.3307588235
 31
0.0
 11
7.5537041989
 21
10.3439820089
 31
0.0
 11
7.5510525759
 21
10.3562494026
 31
0.0
 11
7.5483290749
 21
10.3675377087
 31
0.0
 11
7.5455314681
 21
10.3778281886
 31
0.0
 11
7.5441040303
 21
10.3825936011
 31
0.0
 11
7.5426570521
 21
10.387102786
 31
0.0
 11
7.5411901935
 21
10.3913534864
 31
0.0
 11
7.5397003461
 21
10.3953435699
 31
0.0
 11
7.5381762525
 21
10.3990712715
 31
0.0
 11
7.536605163
 21
10.402534893
 31
0.0
 11
7.534974328
 21
10.4057327363
 31
0.0
 11
7.5332709981
 21
10.4086631035
 31
0.0
 11
7.5295958548
 21
10.4137146171
 31
0.0
  0
SPLINE
  5
3BB
100
AcDbEntity
  8
0
100
AcDbSpline
 62
9
  6
CONTINUOUS
 70
0
 71
3
 72
13
 73
9
 74
7
 42
0.0000001
 43
0.0000001
 44
0.0000000001
 12
-0.0071989307
 22
-0.0149809289
 32
0.0
 13
-0.0024853432
 23
-0.0164339862
 33
0.0
 40
0.0
 40
0.0
 40
0.0
 40
0.0
 40
0.095680146
 40
0.1994363168
 40
0.311467951
 40
0.4319280866
 40
0.6985484825
 40
1.0
 40
1.0
 40
1.0
 40
1.0
 10
2.8902419582
 20
10.2714503832
 30
0.0
 10
2.89001236
 20
10.2709725907
 30
0.0
 10
2.8895657772
 20
10.2699611297
 30
0.0
 10
2.8889526187
 20
10.2683474543
 30
0.0
 10
2.8883703482
 20
10.2665772744
 30
0.0
 10
2.8876106868
 20
10.2639178289
 30
0.0
 10
2.8867590944
 20
10.2601966734
 30
0.0
 10
2.8862235542
 20
10.2570939704
 30
0.0
 10
2.8859738174
 20
10.2554426204
 30
0.0
 11
2.8902419582
 21
10.2714503832
 31
0.0
 11
2.8895962833
 21
10.2699970721
 31
0.0
 11
2.8889807303
 21
10.2683861559
 31
0.0
 11
2.8883962613
 21
10.2666181996
 31
0.0
 11
2.8878438379
 21
10.2646937685
 31
0.0
 11
2.8868389757
 21
10.2603777425
 31
0.0
 11
2.8859738174
 21
10.2554426204
 31
0.0
  0
SPLINE
  5
3BC
100
AcDbEntity
  8
0
100
AcDbSpline
 62
6
  6
CONTINUOUS
 70
0
 71
3
 72
29
 73
25
 74
23
 42
0.0000001
 43
0.0000001
 44
0.0000000001
 12
-0.3309494991
 22
-0.5732213472
 32
0.0
 13
0.3309494991
 23
-0.5732213472
 33
0.0
 40
0.0
 40
0.0
 40
0.0
 40
0.0
 40
0.0635266886
 40
0.126756295
 40
0.1896644209
 40
0.2522447356
 40
0.3145118316
 40
0.3455448909
 40
0.3765164487
 40
0.4074349702
 40
0.4383135262
 40
0.469164289
 40
0.5000000485
 40
0.5308358041
 40
0.5616865626
 40
0.592565119
 40
0.6234836325
 40
0.6544551769
 40
0.6854882307
 40
0.747755305
 40
0.8103356053
 40
0.8732437102
 40
0.93647331
 40
1.0
 40
1.0
 40
1.0
 40
1.0
 10
7.8632787652
 20
10.4631604809
 30
0.0
 10
7.8562707233
 20
10.4510221963
 30
0.0
 10
7.8427413042
 20
10.4265356567
 30
0.0
 10
7.8241297339
 20
10.3890394327
 30
0.0
 10
7.8075248275
 20
10.3508333683
 30
0.0
 10
7.7932566825
 20
10.3119155753
 30
0.0
 10
7.7835788537
 20
10.2788798802
 30
0.0
 10
7.7773525908
 20
10.2521717978
 30
0.0
 10
7.7734757061
 20
10.2320341627
 30
0.0
 10
7.7704197759
 20
10.2117899246
 30
0.0
 10
7.7682196381
 20
10.1914613128
 30
0.0
 10
7.7668894564
 20
10.1710754987
 30
0.0
 10
7.7664417035
 20
10.1506604497
 30
0.0
 10
7.7668894472
 20
10.1302454009
 30
0.0
 10
7.7682196537
 20
10.1098595902
 30
0.0
 10
7.7704197827
 20
10.0895309804
 30
0.0
 10
7.773475706
 20
10.0692867456
 30
0.0
 10
7.7773526042
 20
10.0491491192
 30
0.0
 10
7.7835788629
 20
10.0224410453
 30
0.0
 10
7.7932566901
 20
9.989405359
 30
0.0
 10
7.8075248353
 20
9.9504875796
 30
0.0
 10
7.8241297363
 20
9.912281523
 30
0.0
 10
7.8427413052
 20
9.8747853047
 30
0.0
 10
7.8562707231
 20
9.8502987659
 30
0.0
 10
7.8632787652
 20
9.8381604809
 30
0.0
 11
7.8632787652
 21
10.4631604809
 31
0.0
 11
7.8429836142
 21
10.4263343719
 31
0.0
 11
7.8244196114
 21
10.3888252354
 31
0.0
 11
7.8078742518
 21
10.3506147281
 31
0.0
 11
7.7936691638
 21
10.3117047688
 31
0.0
 11
7.7821376542
 21
10.2721363263
 31
0.0
 11
7.7774796763
 21
10.2521306849
 31
0.0
 11
7.773609575
 21
10.2319992646
 31
0.0
 11
7.7705606853
 21
10.2117627142
 31
0.0
 11
7.7683638187
 21
10.1914426389
 31
0.0
 11
7.7670362932
 21
10.1710657473
 31
0.0
 11
7.7665909287
 21
10.1506604487
 31
0.0
 11
7.7670362896
 21
10.1302551526
 31
0.0
 11
7.7683638286
 21
10.1098782647
 31
0.0
 11
7.7705606926
 21
10.0895581889
 31
0.0
 11
7.7736095785
 21
10.0693216432
 31
0.0
 11
7.7774796865
 21
10.0491902333
 31
0.0
 11
7.782137665
 21
10.0291845957
 31
0.0
 11
7.7936691713
 21
9.9896161673
 31
0.0
 11
7.807874259
 21
9.950706218
 31
0.0
 11
7.8244196129
 21
9.9124957234
 31
0.0
 11
7.842983614
 21
9.8749865908
 31
0.0
 11
7.8632787652
 21
9.8381604809
 31
0.0
  0
SPLINE
  5
3BD
100
AcDbEntity
  8
0
100
AcDbSpline
 62
9
  6
CONTINUOUS
 70
0
 71
3
 72
11
 73
7
 74
5
 42
0.0000001
 43
0.0000001
 44
0.0000000001
 12
0.0051121928
 22
0.0123964185
 32
0.0
 13
0.0020664469
 23
0.0132489812
 33
0.0
 40
0.0
 40
0.0
 40
0.0
 40
0.0
 40
0.2036297389
 40
0.437788495
 40
0.7031169283
 40
1.0
 40
1.0
 40
1.0
 40
1.0
 10
3.223216253
 20
9.4059966131
 30
0.0
 10
3.2235632512
 20
9.4068380396
 30
0.0
 10
3.2242190986
 20
9.4086844614
 30
0.0
 10
3.2250621643
 20
9.4117137603
 30
0.0
 10
3.2258272936
 20
9.4151916141
 30
0.0
 10
3.2262579343
 20
9.4176681454
 30
0.0
 10
3.226462432
 20
9.4189792782
 30
0.0
 11
3.223216253
 21
9.4059966131
 31
0.0
 11
3.2241450387
 21
9.4085642995
 31
0.0
 11
3.224998635
 21
9.411585918
 31
0.0
 11
3.225772585
 21
9.4150585504
 31
0.0
 11
3.226462432
 21
9.4189792782
 31
0.0
  0
SPLINE
  5
3BE
100
AcDbEntity
  8
0
100
AcDbSpline
 62
9
  6
CONTINUOUS
 70
0
 71
3
 72
11
 73
7
 74
5
 42
0.0000001
 43
0.0000001
 44
0.0000000001
 12
-0.0036340028
 22
0.0023268155
 32
0.0
 13
-0.0043150951
 23
0.0000011669
 33
0.0
 40
0.0
 40
0.0
 40
0.0
 40
0.0
 40
0.2764502216
 40
0.5322986047
 40
0.7717490522
 40
1.0
 40
1.0
 40
1.0
 40
1.0
 10
2.861715268
 20
10.2368182337
 30
0.0
 10
2.8613803944
 20
10.2370326499
 30
0.0
 10
2.8607138824
 20
10.2374133336
 30
0.0
 10
2.8596861584
 20
10.2378414672
 30
0.0
 10
2.8586742236
 20
10.2381006334
 30
0.0
 10
2.8580003636
 20
10.2381603922
 30
0.0
 10
2.8576720554
 20
10.2381604809
 30
0.0
 11
2.861715268
 21
10.2368182337
 31
0.0
 11
2.8606766658
 21
10.2374050363
 31
0.0
 11
2.8596554817
 21
10.2378245855
 31
0.0
 11
2.8586533843
 21
10.2380763978
 31
0.0
 11
2.8576720554
 21
10.2381604809
 31
0.0
  0
SPLINE
  5
3BF
100
AcDbEntity
  8
0
100
AcDbSpline
 62
9
  6
CONTINUOUS
 70
0
 71
3
 72
37
 73
33
 74
31
 42
0.0000001
 43
0.0000001
 44
0.0000000001
 12
0.009079031
 22
0.0107636457
 32
0.0
 13
0.0140808237
 23
-0.0001235825
 33
0.0
 40
0.0
 40
0.0
 40
0.0
 40
0.0
 40
0.0977563944
 40
0.1950422087
 40
0.2426981168
 40
0.2892063154
 40
0.334194437
 40
0.3775669413
 40
0.4603367475
 40
0.5393938436
 40
0.5781650754
 40
0.6165453613
 40
0.690923244
 40
0.7598821476
 40
0.8211224381
 40
0.8488664504
 40
0.8748654434
 40
0.8992528491
 40
0.9220968697
 40
0.9429478105
 40
0.9611166154
 40
0.975915571
 40
0.9818454965
 40
0.9867004728
 40
0.9905199208
 40
0.9934594598
 40
0.9956763734
 40
0.9973164981
 40
0.998503015
 40
0.9993214376
 40
0.9998096019
 40
1.0
 40
1.0
 40
1.0
 40
1.0
 10
7.4978611711
 20
10.4148114558
 30
0.0
 10
7.4981570155
 20
10.4151621942
 30
0.0
 10
7.4987842108
 20
10.41583103
 30
0.0
 10
7.4996182876
 20
10.4166074634
 30
0.0
 10
7.5002925301
 20
10.4172015646
 30
0.0
 10
7.500787181
 20
10.4176281017
 30
0.0
 10
7.5012671258
 20
10.4180408954
 30
0.0
 10
7.5018753658
 20
10.4185655419
 30
0.0
 10
7.5026092073
 20
10.419189411
 30
0.0
 10
7.5033460561
 20
10.4197761892
 30
0.0
 10
7.5039390942
 20
10.4202075556
 30
0.0
 10
7.5045266921
 20
10.4206084544
 30
0.0
 10
7.5052474486
 20
10.421064957
 30
0.0
 10
7.5060719279
 20
10.4215572092
 30
0.0
 10
7.5067086508
 20
10.4219369333
 30
0.0
 10
7.5071744177
 20
10.4222096091
 30
0.0
 10
7.5074928567
 20
10.4223915199
 30
0.0
 10
7.5077938911
 20
10.4225574843
 30
0.0
 10
7.5080772188
 20
10.4227053367
 30
0.0
 10
7.5083365778
 20
10.4228359301
 30
0.0
 10
7.5085621798
 20
10.4229495482
 30
0.0
 10
7.5087237921
 20
10.4230346317
 30
0.0
 10
7.5088272649
 20
10.4230956308
 30
0.0
 10
7.508884334
 20
10.4231337222
 30
0.0
 10
7.5089269163
 20
10.4231678811
 30
0.0
 10
7.5089568521
 20
10.423197702
 30
0.0
 10
7.5089762739
 20
10.4232230834
 30
0.0
 10
7.5089875622
 20
10.4232441908
 30
0.0
 10
7.5089925289
 20
10.4232603473
 30
0.0
 10
7.5089943977
 20
10.4232725779
 30
0.0
 10
7.5089936483
 20
10.423278613
 30
0.0
 10
7.5089947806
 20
10.4232829053
 30
0.0
 10
7.5089956743
 20
10.4232828974
 30
0.0
 11
7.4978611711
 21
10.4148114558
 31
0.0
 11
7.4987965519
 21
10.415821374
 31
0.0
 11
7.4997944059
 21
10.416759969
 31
0.0
 11
7.5002973674
 21
10.4172042118
 31
0.0
 11
7.5007926757
 21
10.4176326535
 31
0.0
 11
7.5012727754
 21
10.4180459563
 31
0.0
 11
7.5017356659
 21
10.4184443791
 31
0.0
 11
7.5026265922
 21
10.4191958234
 31
0.0
 11
7.5035005709
 21
10.4198853496
 31
0.0
 11
7.503942163
 21
10.4202063791
 31
0.0
 11
7.5043882585
 21
10.4205114719
 31
0.0
 11
7.5052714045
 21
10.4210744806
 31
0.0
 11
7.5061030781
 21
10.4215757082
 31
0.0
 11
7.5068445031
 21
10.4220160844
 31
0.0
 11
7.5071818444
 21
10.4222131294
 31
0.0
 11
7.5074998953
 21
10.4223944408
 31
0.0
 11
7.5078008748
 21
10.4225597901
 31
0.0
 11
7.5080858819
 21
10.4227089402
 31
0.0
 11
7.5083478165
 21
10.4228415936
 31
0.0
 11
7.5085759345
 21
10.4229574258
 31
0.0
 11
7.5087594753
 21
10.423056112
 31
0.0
 11
7.5088311666
 21
10.4230989239
 31
0.0
 11
7.5088877251
 21
10.4231373278
 31
0.0
 11
7.5089294273
 21
10.4231712917
 31
0.0
 11
7.5089584619
 21
10.4232007934
 31
0.0
 11
7.5089771328
 21
10.4232258115
 31
0.0
 11
7.5089877442
 21
10.4232463246
 31
0.0
 11
7.5089926
 21
10.4232623112
 31
0.0
 11
7.5089940043
 21
10.4232737498
 31
0.0
 11
7.508994261
 21
10.4232806191
 31
0.0
 11
7.5089956743
 21
10.4232828974
 31
0.0
  0
SPLINE
  5
3C0
100
AcDbEntity
  8
0
100
AcDbSpline
 62
9
  6
CONTINUOUS
 70
0
 71
3
 72
11
 73
7
 74
5
 42
0.0000001
 43
0.0000001
 44
0.0000000001
 12
0.0043151222
 22
0.0000012762
 32
0.0
 13
0.0036340684
 23
0.0023267634
 33
0.0
 40
0.0
 40
0.0
 40
0.0
 40
0.0
 40
0.2282554605
 40
0.4677082049
 40
0.7235554787
 40
1.0
 40
1.0
 40
1.0
 40
1.0
 10
2.8576720554
 20
9.4381604809
 30
0.0
 10
2.8580003721
 20
9.438160578
 30
0.0
 10
2.8586742447
 20
9.4382203343
 30
0.0
 10
2.8596861996
 20
9.438479487
 30
0.0
 10
2.8607139177
 20
9.4389076386
 30
0.0
 10
2.861380423
 20
9.4392883212
 30
0.0
 10
2.8617152958
 20
9.4395027282
 30
0.0
 11
2.8576720554
 21
9.4381604809
 31
0.0
 11
2.8586534096
 21
9.4382445694
 31
0.0
 11
2.8596555253
 21
9.4384963763
 31
0.0
 11
2.8606767075
 21
9.4389159356
 31
0.0
 11
2.8617152958
 21
9.4395027282
 31
0.0
  0
SPLINE
  5
3C1
100
AcDbEntity
  8
0
100
AcDbSpline
 62
9
  6
CONTINUOUS
 70
0
 71
3
 72
11
 73
7
 74
5
 42
0.0000001
 43
0.0000001
 44
0.0000000001
 12
0.0029743708
 22
-0.002261808
 32
0.0
 13
0.0037366636
 23
-0.0000013584
 33
0.0
 40
0.0
 40
0.0
 40
0.0
 40
0.0
 40
0.2821210351
 40
0.5389487645
 40
0.7759131773
 40
1.0
 40
1.0
 40
1.0
 40
1.0
 10
3.253439331
 20
9.4395027282
 30
0.0
 10
3.2537190419
 20
9.439290027
 30
0.0
 10
3.2542760383
 20
9.4389117964
 30
0.0
 10
3.25514561
 20
9.4384818543
 30
0.0
 10
3.2560054948
 20
9.4382208814
 30
0.0
 10
3.2565810763
 20
9.4381605824
 30
0.0
 10
3.2568601886
 20
9.4381604809
 30
0.0
 11
3.253439331
 21
9.4395027282
 31
0.0
 11
3.2543150594
 21
9.4389158555
 31
0.0
 11
3.2551781707
 21
9.4384963051
 31
0.0
 11
3.2560270821
 21
9.4382445466
 31
0.0
 11
3.2568601886
 21
9.4381604809
 31
0.0
  0
SPLINE
  5
3C2
100
AcDbEntity
  8
0
100
AcDbSpline
 62
6
  6
CONTINUOUS
 70
0
 71
3
 72
31
 73
27
 74
25
 42
0.0000001
 43
0.0000001
 44
0.0000000001
 12
0.3730955451
 22
0.543384592
 32
0.0
 13
-0.3730955451
 23
0.543384592
 33
0.0
 40
0.0
 40
0.0
 40
0.0
 40
0.0
 40
0.0639664924
 40
0.1272842234
 40
0.1900689505
 40
0.2213109999
 40
0.2524695896
 40
0.3145705749
 40
0.3455463333
 40
0.3764823667
 40
0.4073873382
 40
0.4382704058
 40
0.4691389909
 40
0.5000000225
 40
0.5308610647
 40
0.5617296858
 40
0.5926128124
 40
0.6235178327
 40
0.6544538866
 40
0.6854296663
 40
0.7475304878
 40
0.7786889218
 40
0.8099307527
 40
0.8727147851
 40
0.9360330266
 40
1.0
 40
1.0
 40
1.0
 40
1.0
 10
8.0632787652
 20
9.8381604809
 30
0.0
 10
8.0712339697
 20
9.8497466164
 30
0.0
 10
8.0859400001
 20
9.8735938115
 30
0.0
 10
8.1045165921
 20
9.9110520285
 30
0.0
 10
8.1171855286
 20
9.9432635032
 30
0.0
 10
8.1257207088
 20
9.969416473
 30
0.0
 10
8.1332155183
 20
9.9957300447
 30
0.0
 10
8.1392571211
 20
10.0223767384
 30
0.0
 10
8.1439212912
 20
10.0492254452
 30
0.0
 10
8.1467524921
 20
10.0694249511
 30
0.0
 10
8.1489364145
 20
10.0896836324
 30
0.0
 10
8.1504840735
 20
10.1099859314
 30
0.0
 10
8.1514093632
 20
10.1303162834
 30
0.0
 10
8.1517183188
 20
10.1506604963
 30
0.0
 10
8.1514093771
 20
10.1710047177
 30
0.0
 10
8.1504840566
 20
10.1913350915
 30
0.0
 10
8.1489364189
 20
10.2116374232
 30
0.0
 10
8.1467525118
 20
10.2318961354
 30
0.0
 10
8.1439212405
 20
10.2520956515
 30
0.0
 10
8.1392571042
 20
10.278944336
 30
0.0
 10
8.1332155034
 20
10.3055909647
 30
0.0
 10
8.1257206969
 20
10.331904414
 30
0.0
 10
8.1171856167
 20
10.358057168
 30
0.0
 10
8.1045167998
 20
10.3902685976
 30
0.0
 10
8.0859401008
 20
10.4277268341
 30
0.0
 10
8.0712340295
 20
10.4515742584
 30
0.0
 10
8.0632787652
 20
10.4631604809
 30
0.0
 11
8.0632787652
 21
9.8381604809
 31
0.0
 11
8.0854427243
 21
9.8740279207
 31
0.0
 11
8.1040212513
 21
9.9114000442
 31
0.0
 11
8.1192080536
 21
9.9498967511
 31
0.0
 11
8.1256015477
 21
9.9694720326
 31
0.0
 11
8.131232405
 21
9.9892229612
 31
0.0
 11
8.1403141527
 21
10.0291360956
 31
0.0
 11
8.143812638
 21
10.0492515311
 31
0.0
 11
8.1466458797
 21
10.0694449543
 31
0.0
 11
8.1488310472
 21
10.0896981533
 31
0.0
 11
8.1503806443
 21
10.1099953888
 31
0.0
 11
8.1513067237
 21
10.1303210584
 31
0.0
 11
8.1516153443
 21
10.150660494
 31
0.0
 11
8.1513067304
 21
10.1709999367
 31
0.0
 11
8.1503806365
 21
10.1913256294
 31
0.0
 11
8.1488310503
 21
10.2116229048
 31
0.0
 11
8.1466458842
 21
10.2318761363
 31
0.0
 11
8.1438126021
 21
10.2520695674
 31
0.0
 11
8.1403141177
 21
10.2721850173
 31
0.0
 11
8.1312323826
 21
10.3120980439
 31
0.0
 11
8.1256015395
 21
10.3318488699
 31
0.0
 11
8.1192081064
 21
10.3514240197
 31
0.0
 11
8.1040215367
 21
10.3899203261
 31
0.0
 11
8.0854428489
 21
10.4272927455
 31
0.0
 11
8.0632787652
 21
10.4631604809
 31
0.0
  0
SPLINE
  5
3C3
100
AcDbEntity
  8
0
100
AcDbSpline
 62
9
  6
CONTINUOUS
 70
0
 71
3
 72
22
 73
18
 74
16
 42
0.0000001
 43
0.0000001
 44
0.0000000001
 12
-0.05778238
 22
-0.0002686271
 32
0.0
 13
-0.0071465711
 23
-0.0573393593
 33
0.0
 40
0.0
 40
0.0
 40
0.0
 40
0.0
 40
0.0623997807
 40
0.1249935209
 40
0.187646493
 40
0.2502588948
 40
0.3128289017
 40
0.3753798632
 40
0.4379279588
 40
0.5004749947
 40
0.5630063978
 40
0.6255113993
 40
0.6879970443
 40
0.7504750498
 40
0.8129531116
 40
0.875426046
 40
1.0
 40
1.0
 40
1.0
 40
1.0
 10
2.8946748372
 20
10.1095503293
 30
0.0
 10
2.8934729679
 20
10.1095447419
 30
0.0
 10
2.8910646576
 20
10.1094264094
 30
0.0
 10
2.8874800066
 20
10.1089310541
 30
0.0
 10
2.8839489631
 20
10.1081184868
 30
0.0
 10
2.8805071328
 20
10.1069873455
 30
0.0
 10
2.8771840824
 20
10.1055493351
 30
0.0
 10
2.8740047521
 20
10.1038192596
 30
0.0
 10
2.8709943935
 20
10.1018102906
 30
0.0
 10
2.8681767804
 20
10.0995395856
 30
0.0
 10
2.8655740352
 20
10.097026621
 30
0.0
 10
2.8632095363
 20
10.094289714
 30
0.0
 10
2.8611040875
 20
10.0913501388
 30
0.0
 10
2.8592718225
 20
10.0882338072
 30
0.0
 10
2.8577278958
 20
10.0849645752
 30
0.0
 10
2.8560758091
 20
10.0804467721
 30
0.0
 10
2.8552985319
 20
10.0769021958
 30
0.0
 10
2.855001773
 20
10.0745211989
 30
0.0
 11
2.8946748372
 21
10.1095503293
 31
0.0
 11
2.8910735119
 21
10.1093738498
 31
0.0
 11
2.8874907411
 21
10.1088784822
 31
0.0
 11
2.8839630096
 21
10.1080651464
 31
0.0
 11
2.8805258585
 21
10.1069357972
 31
0.0
 11
2.8772075178
 21
10.1055004116
 31
0.0
 11
2.8740328023
 21
10.1037727129
 31
0.0
 11
2.8710264517
 21
10.1017666172
 31
0.0
 11
2.8682122645
 21
10.0994989154
 31
0.0
 11
2.8656132582
 21
10.0969887842
 31
0.0
 11
2.8632523723
 21
10.0942555099
 31
0.0
 11
2.8611494884
 21
10.091320485
 31
0.0
 11
2.85931986
 21
10.0882082889
 31
0.0
 11
2.8577783525
 21
10.0849437701
 31
0.0
 11
2.8565384179
 21
10.0815535265
 31
0.0
 11
2.855001773
 21
10.0745211989
 31
0.0
  0
SPLINE
  5
3C4
100
AcDbEntity
  8
0
100
AcDbSpline
 62
9
  6
CONTINUOUS
 70
0
 71
3
 72
16
 73
12
 74
10
 42
0.0000001
 43
0.0000001
 44
0.0000000001
 12
0.0186654614
 22
-0.0421466792
 32
0.0
 13
0.0460948789
 23
-0.0000645049
 33
0.0
 40
0.0
 40
0.0
 40
0.0
 40
0.0
 40
0.1248831722
 40
0.2497479657
 40
0.3747352516
 40
0.499769986
 40
0.6247878755
 40
0.6873571729
 40
0.7499541958
 40
0.8751164681
 40
1.0
 40
1.0
 40
1.0
 40
1.0
 10
2.8581177223
 20
9.5905863791
 30
0.0
 10
2.858894723
 20
9.5888319088
 30
0.0
 10
2.8607079695
 20
9.58543191
 30
0.0
 10
2.8641303335
 20
9.5807780754
 30
0.0
 10
2.8681873646
 20
9.5766609375
 30
0.0
 10
2.8727899201
 20
9.5731614063
 30
0.0
 10
2.8770097011
 20
9.5708286721
 30
0.0
 10
2.8805564837
 20
9.5693392122
 30
0.0
 10
2.8842030355
 20
9.5681064674
 30
0.0
 10
2.8889093561
 20
9.5670626132
 30
0.0
 10
2.8927560068
 20
9.5667733177
 30
0.0
 10
2.8946748372
 20
9.5667706325
 30
0.0
 11
2.8581177223
 21
9.5905863791
 31
0.0
 11
2.8608250301
 21
9.5855062659
 31
0.0
 11
2.8642346279
 21
9.5808692458
 31
0.0
 11
2.8682774597
 21
9.5767646322
 31
0.0
 11
2.8728667694
 21
9.5732781177
 31
0.0
 11
2.8779091784
 21
9.5704883671
 31
0.0
 11
2.8805683007
 21
9.5693715603
 31
0.0
 11
2.8833017921
 21
9.5684476626
 31
0.0
 11
2.8889342543
 21
9.5671983766
 31
0.0
 11
2.8946748372
 21
9.5667706325
 31
0.0
  0
SPLINE
  5
3C5
100
AcDbEntity
  8
0
100
AcDbSpline
 62
9
  6
CONTINUOUS
 70
0
 71
3
 72
12
 73
8
 74
6
 42
0.0000001
 43
0.0000001
 44
0.0000000001
 12
-0.0216111118
 22
-0.0562877177
 32
0.0
 13
-0.022345913
 23
-0.0560000669
 33
0.0
 40
0.0
 40
0.0
 40
0.0
 40
0.0
 40
0.2623936719
 40
0.5183727042
 40
0.7657832918
 40
0.8849821472
 40
1.0
 40
1.0
 40
1.0
 40
1.0
 10
3.2534396869
 20
10.0658434206
 30
0.0
 10
3.2515494806
 20
10.0609202403
 30
0.0
 10
3.2477713263
 20
10.051211079
 30
0.0
 10
3.2420915793
 20
10.0369066827
 30
0.0
 10
3.2374161498
 20
10.0253002256
 30
0.0
 10
3.2337935233
 20
10.0163239539
 30
0.0
 10
3.2320384669
 20
10.0119560814
 30
0.0
 10
3.2311817406
 20
10.0098090789
 30
0.0
 11
3.2534396869
 21
10.0658434206
 31
0.0
 11
3.2477075163
 21
10.0510976593
 31
0.0
 11
3.2420159547
 21
10.0367514673
 31
0.0
 11
3.2364513233
 21
10.0229108837
 31
0.0
 11
3.2337637944
 21
10.0162453352
 31
0.0
 11
3.2311817406
 21
10.0098090789
 31
0.0
  0
SPLINE
  5
3C6
100
AcDbEntity
  8
0
100
AcDbSpline
 62
9
  6
CONTINUOUS
 70
0
 71
3
 72
34
 73
30
 74
28
 42
0.0000001
 43
0.0000001
 44
0.0000000001
 12
-0.0100134416
 22
0.0116977661
 32
0.0
 13
0.0153969886
 23
0.0001987077
 33
0.0
 40
0.0
 40
0.0
 40
0.0
 40
0.0
 40
0.0981891226
 40
0.1927978252
 40
0.2847251004
 40
0.3748413132
 40
0.4626372659
 40
0.5466848385
 40
0.625528816
 40
0.6987039919
 40
0.766356773
 40
0.8281680515
 40
0.8814155447
 40
0.9037438484
 40
0.9227559096
 40
0.9388122452
 40
0.9525018773
 40
0.9644027547
 40
0.9698695903
 40
0.975116568
 40
0.9801321795
 40
0.9848194034
 40
0.9890737979
 40
0.9927874915
 40
0.9958500284
 40
0.9981489842
 40
0.9989765697
 40
0.9995704554
 40
1.0
 40
1.0
 40
1.0
 40
1.0
 10
7.5295958548
 20
10.4137146171
 30
0.0
 10
7.5292681178
 20
10.4140974816
 30
0.0
 10
7.5286171615
 20
10.41484299
 30
0.0
 10
7.5276215286
 20
10.415913203
 30
0.0
 10
7.5266104521
 20
10.4169111381
 30
0.0
 10
7.5255708516
 20
10.4178273614
 30
0.0
 10
7.5245198623
 20
10.4186666245
 30
0.0
 10
7.5234863172
 20
10.4194333389
 30
0.0
 10
7.5224971098
 20
10.4201332183
 30
0.0
 10
7.5215622059
 20
10.4207636915
 30
0.0
 10
7.5206835028
 20
10.4213205948
 30
0.0
 10
7.5198737475
 20
10.4217938806
 30
0.0
 10
7.5192606247
 20
10.4221422222
 30
0.0
 10
7.5188435802
 20
10.4223908915
 30
0.0
 10
7.518596031
 20
10.4225507402
 30
0.0
 10
7.5183903675
 20
10.422693388
 30
0.0
 10
7.518216563
 20
10.4228178101
 30
0.0
 10
7.5180855157
 20
10.4229086525
 30
0.0
 10
7.5179871924
 20
10.4229704014
 30
0.0
 10
7.5179169719
 20
10.4230102967
 30
0.0
 10
7.5178486006
 20
10.4230451952
 30
0.0
 10
7.5177836717
 20
10.4230754352
 30
0.0
 10
7.5177238635
 20
10.4231010228
 30
0.0
 10
7.5176714975
 20
10.4231218645
 30
0.0
 10
7.5176271072
 20
10.423138242
 30
0.0
 10
7.517598721
 20
10.4231484219
 30
0.0
 10
7.5175784295
 20
10.4231550467
 30
0.0
 10
7.5175732828
 20
10.4231572572
 30
0.0
 10
7.5175614007
 20
10.4231604525
 30
0.0
 10
7.5175636052
 20
10.4231604809
 30
0.0
 11
7.5295958548
 21
10.4137146171
 31
0.0
 11
7.5285990492
 21
10.4148514326
 31
0.0
 11
7.5276045772
 21
10.4159160085
 31
0.0
 11
7.5265946429
 21
10.4169078416
 31
0.0
 11
7.5255546382
 21
10.4178264916
 31
0.0
 11
7.524499853
 21
10.4186721142
 31
0.0
 11
7.5234619351
 21
10.4194451906
 31
0.0
 11
7.5224706754
 21
10.420146153
 31
0.0
 11
7.5215356467
 21
10.4207749093
 31
0.0
 11
7.5206547932
 21
10.4213310663
 31
0.0
 11
7.519834769
 21
10.4218142418
 31
0.0
 11
7.5191246538
 21
10.4222241249
 31
0.0
 11
7.5188301178
 21
10.4224014912
 31
0.0
 11
7.5185842613
 21
10.4225604215
 31
0.0
 11
7.5183807725
 21
10.4227008488
 31
0.0
 11
7.5182087594
 21
10.4228226959
 31
0.0
 11
7.5180573213
 21
10.4229258858
 31
0.0
 11
7.5179859115
 21
10.4229704602
 31
0.0
 11
7.5179156463
 21
10.4230103417
 31
0.0
 11
7.5178468949
 21
10.4230455268
 31
0.0
 11
7.5177814765
 21
10.4230760174
 31
0.0
 11
7.5177212596
 21
10.4231018152
 31
0.0
 11
7.517668113
 21
10.4231229222
 31
0.0
 11
7.5176239056
 21
10.4231393404
 31
0.0
 11
7.517590506
 21
10.4231510716
 31
0.0
 11
7.5175784431
 21
10.4231551803
 31
0.0
 11
7.5175697829
 21
10.4231581178
 31
0.0
 11
7.5175636052
 21
10.4231604809
 31
0.0
  0
SPLINE
  5
3C7
100
AcDbEntity
  8
0
100
AcDbSpline
 62
9
  6
CONTINUOUS
 70
0
 71
3
 72
12
 73
8
 74
6
 42
0.0000001
 43
0.0000001
 44
0.0000000001
 12
-0.0216049113
 22
0.0562816482
 32
0.0
 13
-0.0223415376
 23
0.0559933194
 33
0.0
 40
0.0
 40
0.0
 40
0.0
 40
0.0
 40
0.2623905514
 40
0.5183688534
 40
0.7657788949
 40
0.8849787547
 40
1.0
 40
1.0
 40
1.0
 40
1.0
 10
3.2534397596
 20
9.6104779586
 30
0.0
 10
3.2515501181
 20
9.6154005495
 30
0.0
 10
3.2477718769
 20
9.6251081336
 30
0.0
 10
3.242093062
 20
9.6394106363
 30
0.0
 10
3.2374178497
 20
9.651015411
 30
0.0
 10
3.2337957675
 20
9.6599906198
 30
0.0
 10
3.2320409847
 20
9.664358034
 30
0.0
 10
3.2311844009
 20
9.6665048411
 30
0.0
 11
3.2534397596
 21
9.6104779586
 31
0.0
 11
3.2477082686
 21
9.6252215615
 31
0.0
 11
3.2420173409
 21
9.6395657852
 31
0.0
 11
3.2364532202
 21
9.653404435
 31
0.0
 11
3.2337660686
 21
9.6600691872
 31
0.0
 11
3.2311844009
 21
9.6665048411
 31
0.0
  0
LINE
  5
3C8
100
AcDbEntity
  8
0
100
AcDbLine
 62
9
  6
CONTINUOUS
 10
2.8946748372
 20
10.0696884988
 11
2.8549685848
 21
10.0745234837
  0
LINE
  5
3C9
100
AcDbEntity
  8
0
100
AcDbLine
 62
9
  6
CONTINUOUS
 10
2.8946748372
 20
9.6066324631
 11
2.8549642196
 21
9.6018335548
  0
LINE
  5
3CA
100
AcDbEntity
  8
0
100
AcDbLine
 62
9
  6
CONTINUOUS
 10
3.1851951724
 20
10.0696884988
 11
3.2249032197
 21
10.0745122791
  0
LINE
  5
3CB
100
AcDbEntity
  8
0
100
AcDbLine
 62
9
  6
CONTINUOUS
 10
3.1851951724
 20
9.6066324631
 11
3.2249032196
 21
9.6018086816
  0
SPLINE
  5
3CC
100
AcDbEntity
  8
0
100
AcDbSpline
 62
9
  6
CONTINUOUS
 70
0
 71
3
 72
14
 73
10
 74
8
 42
0.0000001
 43
0.0000001
 44
0.0000000001
 12
0.0026271822
 22
0.9425135596
 32
0.0
 13
-0.0009007861
 23
0.9425167906
 33
0.0
 40
0.0
 40
0.0
 40
0.0
 40
0.0
 40
0.125062324
 40
0.2501330628
 40
0.3751963856
 40
0.5002386114
 40
0.6252492349
 40
0.7502182084
 40
1.0
 40
1.0
 40
1.0
 40
1.0
 10
3.2232563456
 20
10.2779079941
 30
0.0
 10
3.2233658661
 20
10.3171989728
 30
0.0
 10
3.2235986835
 20
10.3957835351
 30
0.0
 10
3.2239571257
 20
10.5136593414
 30
0.0
 10
3.2242908794
 20
10.6315289085
 30
0.0
 10
3.2245731426
 20
10.7493797255
 30
0.0
 10
3.2247911254
 20
10.8672010415
 30
0.0
 10
3.2249749885
 20
11.0242121783
 30
0.0
 10
3.2249754449
 20
11.1419486062
 30
0.0
 10
3.2249004449
 20
11.2204231171
 30
0.0
 11
3.2232563456
 21
10.2779079941
 31
0.0
 11
3.2236002121
 21
10.3957808866
 31
0.0
 11
3.2239530207
 21
10.5136616838
 31
0.0
 11
3.2242823229
 21
10.6315355593
 31
0.0
 11
3.2245624604
 21
10.7493896775
 31
0.0
 11
3.2247778118
 21
10.8672141462
 31
0.0
 11
3.2249137886
 21
10.9849994773
 31
0.0
 11
3.2249004449
 21
11.2204231171
 31
0.0
  0
SPLINE
  5
3CD
100
AcDbEntity
  8
0
100
AcDbSpline
 62
9
  6
CONTINUOUS
 70
0
 71
3
 72
22
 73
18
 74
16
 42
0.0000001
 43
0.0000001
 44
0.0000000001
 12
0.045433684
 22
-0.000112061
 32
0.0
 13
0.0074928496
 23
-0.0448117106
 33
0.0
 40
0.0
 40
0.0
 40
0.0
 40
0.0
 40
0.1639060414
 40
0.2447166645
 40
0.3238083438
 40
0.4005280823
 40
0.4743984799
 40
0.5449967167
 40
0.611924907
 40
0.6748432152
 40
0.7335349835
 40
0.7878668693
 40
0.8378059905
 40
0.8834890695
 40
0.925301677
 40
0.9638495286
 40
1.0
 40
1.0
 40
1.0
 40
1.0
 10
3.1833578361
 20
10.2938473336
 30
0.0
 10
3.1858401212
 20
10.2938412111
 30
0.0
 10
3.1895482098
 20
10.2936834104
 30
0.0
 10
3.1944270318
 20
10.2931784736
 30
0.0
 10
3.1979739908
 20
10.2926590978
 30
0.0
 10
3.2013905632
 20
10.2919994101
 30
0.0
 10
3.2046468285
 20
10.2912074771
 30
0.0
 10
3.2077160655
 20
10.290291285
 30
0.0
 10
3.2105726192
 20
10.2892585606
 30
0.0
 10
3.2131919082
 20
10.288116232
 30
0.0
 10
3.215552898
 20
10.2868752694
 30
0.0
 10
3.2176363504
 20
10.2855460247
 30
0.0
 10
3.2194238914
 20
10.2841379296
 30
0.0
 10
3.2208965985
 20
10.2826588189
 30
0.0
 10
3.2220432759
 20
10.2811231465
 30
0.0
 10
3.2228530269
 20
10.2795452602
 30
0.0
 10
3.2231660556
 20
10.2784479823
 30
0.0
 10
3.2232563456
 20
10.2779079941
 30
0.0
 11
3.1833578361
 21
10.2938473336
 31
0.0
 11
3.1907979253
 21
10.2935294291
 31
0.0
 11
3.1944497853
 21
10.2931498359
 31
0.0
 11
3.1980049398
 21
10.2926267025
 31
0.0
 11
3.201426946
 21
10.2919635468
 31
0.0
 11
3.2046873385
 21
10.2911672954
 31
0.0
 11
3.2077596463
 21
10.2902457275
 31
0.0
 11
3.2106173982
 21
10.289206622
 31
0.0
 11
3.2132352132
 21
10.2880582543
 31
0.0
 11
3.2155920717
 21
10.286810886
 31
0.0
 11
3.217668044
 21
10.285475275
 31
0.0
 11
3.2194432008
 21
10.2840621791
 31
0.0
 11
3.2208994758
 21
10.2825832608
 31
0.0
 11
3.2220262573
 21
10.2810538006
 31
0.0
 11
3.2228147967
 21
10.2794899834
 31
0.0
 11
3.2232563456
 21
10.2779079941
 31
0.0
  0
SPLINE
  5
3CE
100
AcDbEntity
  8
0
100
AcDbSpline
 62
9
  6
CONTINUOUS
 70
0
 71
3
 72
13
 73
9
 74
7
 42
0.0000001
 43
0.0000001
 44
0.0000000001
 12
0.0028369053
 22
0.9415266975
 32
0.0
 13
-0.0010172593
 23
0.9415304219
 33
0.0
 40
0.0
 40
0.0
 40
0.0
 40
0.0
 40
0.2500000935
 40
0.3750001385
 40
0.5000001564
 40
0.6250001447
 40
0.750000133
 40
1.0
 40
1.0
 40
1.0
 40
1.0
 10
3.1833578361
 20
10.2938473335
 30
0.0
 10
3.1835942449
 20
10.372307921
 30
0.0
 10
3.1839982502
 20
10.4899986464
 30
0.0
 10
3.184495008
 20
10.6469197396
 30
0.0
 10
3.184815869
 20
10.7646106946
 30
0.0
 10
3.1850655407
 20
10.8823018111
 30
0.0
 10
3.1852726447
 20
11.039223464
 30
0.0
 10
3.1852685036
 20
11.1569148881
 30
0.0
 10
3.185183732
 20
11.2353757149
 30
0.0
 11
3.1833578361
 21
10.2938473335
 31
0.0
 11
3.1841189467
 21
10.5292289339
 31
0.0
 11
3.1844863901
 21
10.646919774
 31
0.0
 11
3.1848040041
 21
10.7646107338
 31
0.0
 11
3.1850498167
 21
10.8823018375
 31
0.0
 11
3.1852031499
 21
10.999993098
 31
0.0
 11
3.185183732
 21
11.2353757149
 31
0.0
  0
SPLINE
  5
3CF
100
AcDbEntity
  8
0
100
AcDbSpline
 62
9
  6
CONTINUOUS
 70
0
 71
3
 72
24
 73
20
 74
18
 42
0.0000001
 43
0.0000001
 44
0.0000000001
 12
0.0445165859
 22
0.0006736426
 32
0.0
 13
0.0128665509
 23
-0.0426219671
 33
0.0
 40
0.0
 40
0.0
 40
0.0
 40
0.0
 40
0.0811167183
 40
0.1618979622
 40
0.2416852355
 40
0.3197845098
 40
0.3956790265
 40
0.4689625013
 40
0.5045150838
 40
0.5392829838
 40
0.6062655501
 40
0.669527981
 40
0.7286915543
 40
0.7835703581
 40
0.8342841403
 40
0.8811453889
 40
0.9244652895
 40
0.964136272
 40
1.0
 40
1.0
 40
1.0
 40
1.0
 10
3.1851951724
 20
11.2353757149
 30
0.0
 10
3.1863988522
 20
11.2353939294
 30
0.0
 10
3.188802622
 20
11.2353626623
 30
0.0
 10
3.1923837446
 20
11.2351427446
 30
0.0
 10
3.1959077248
 20
11.2347778212
 30
0.0
 10
3.1993446416
 20
11.2342983909
 30
0.0
 10
3.2026654374
 20
11.233702348
 30
0.0
 10
3.2053404404
 20
11.2330966577
 30
0.0
 10
3.2073988374
 20
11.2325435283
 30
0.0
 10
3.209351246
 20
11.231959564
 30
0.0
 10
3.2116674066
 20
11.2311597647
 30
0.0
 10
3.2142665997
 20
11.2300849488
 30
0.0
 10
3.2166308736
 20
11.2289254046
 30
0.0
 10
3.2187428699
 20
11.2276880197
 30
0.0
 10
3.2205851559
 20
11.2263679265
 30
0.0
 10
3.2221387506
 20
11.2249601017
 30
0.0
 10
3.2233814027
 20
11.2234786686
 30
0.0
 10
3.2243137219
 20
11.2219742638
 30
0.0
 10
3.2247466124
 20
11.2209326732
 30
0.0
 10
3.2249004265
 20
11.2204231456
 30
0.0
 11
3.1851951724
 21
11.2353757149
 31
0.0
 11
3.1888063781
 21
11.2353334648
 31
0.0
 11
3.1923963556
 21
11.2351166809
 31
0.0
 11
3.1959300769
 21
11.2347542026
 31
0.0
 11
3.199373481
 21
11.2342712224
 31
0.0
 11
3.2026985434
 21
11.233670162
 31
0.0
 11
3.2058795652
 21
11.2329446724
 31
0.0
 11
3.2074080332
 21
11.232533292
 31
0.0
 11
3.2088909834
 21
11.2320895221
 31
0.0
 11
3.2117088218
 21
11.2311132211
 31
0.0
 11
3.2143101578
 21
11.2300334044
 31
0.0
 11
3.2166721836
 21
11.2288675931
 31
0.0
 11
3.2187753061
 21
11.2276239795
 31
0.0
 11
3.2206038344
 21
11.2262994309
 31
0.0
 11
3.2221423238
 21
11.2248902213
 31
0.0
 11
3.2233773033
 21
11.2234087989
 31
0.0
 11
3.224299558
 21
11.221902487
 31
0.0
 11
3.2249004265
 21
11.2204231456
 31
0.0
  0
SPLINE
  5
3D0
100
AcDbEntity
  8
0
100
AcDbSpline
 62
9
  6
CONTINUOUS
 70
0
 71
3
 72
22
 73
18
 74
16
 42
0.0000001
 43
0.0000001
 44
0.0000000001
 12
0.04665529
 22
-0.0002852924
 32
0.0
 13
0.0067709792
 23
-0.0461622283
 33
0.0
 40
0.0
 40
0.0
 40
0.0
 40
0.0
 40
0.1597562027
 40
0.2386317545
 40
0.3159488196
 40
0.3911076033
 40
0.4636779471
 40
0.5332835147
 40
0.5995753245
 40
0.6622642169
 40
0.7211796186
 40
0.7762331639
 40
0.8274352186
 40
0.8749524853
 40
0.9191577945
 40
0.9605944011
 40
1.0
 40
1.0
 40
1.0
 40
1.0
 10
3.1833163968
 20
10.2884350888
 30
0.0
 10
3.1858008874
 20
10.2884198964
 30
0.0
 10
3.1895139457
 20
10.288229131
 30
0.0
 10
3.1943937265
 20
10.2876432342
 30
0.0
 10
3.197943244
 20
10.2870451802
 30
0.0
 10
3.2013621333
 20
10.2862891704
 30
0.0
 10
3.2046205504
 20
10.2853843813
 30
0.0
 10
3.2076917877
 20
10.2843398567
 30
0.0
 10
3.2105501652
 20
10.2831643211
 30
0.0
 10
3.2131708647
 20
10.2818656858
 30
0.0
 10
3.2155328617
 20
10.2804562963
 30
0.0
 10
3.2176167689
 20
10.2789478221
 30
0.0
 10
3.2194037689
 20
10.2773510465
 30
0.0
 10
3.2208740484
 20
10.2756757801
 30
0.0
 10
3.2220164041
 20
10.2739392753
 30
0.0
 10
3.2228201426
 20
10.2721589574
 30
0.0
 10
3.2231274719
 20
10.2709307649
 30
0.0
 10
3.2232164101
 20
10.2703244148
 30
0.0
 11
3.1833163968
 21
10.2884350888
 31
0.0
 11
3.1907601384
 21
10.288051641
 31
0.0
 11
3.194413722
 21
10.2876112418
 31
0.0
 11
3.1979704534
 21
10.2870092437
 31
0.0
 11
3.2013938351
 21
10.2862497409
 31
0.0
 11
3.2046553624
 21
10.2853406504
 31
0.0
 11
3.2077285286
 21
10.2842908448
 31
0.0
 11
3.2105868271
 21
10.2831091966
 31
0.0
 11
3.2132048445
 21
10.2818051354
 31
0.0
 11
3.2155615389
 21
10.2803903179
 31
0.0
 11
3.217636962
 21
10.2788769577
 31
0.0
 11
3.2194111651
 21
10.2772772685
 31
0.0
 11
3.2208660683
 21
10.2756044783
 31
0.0
 11
3.2219910674
 21
10.2738758726
 31
0.0
 11
3.2227774265
 21
10.2721097515
 31
0.0
 11
3.2232164101
 21
10.2703244148
 31
0.0
  0
SPLINE
  5
3D1
100
AcDbEntity
  8
0
100
AcDbSpline
 62
9
  6
CONTINUOUS
 70
0
 71
3
 72
18
 73
14
 74
12
 42
0.0000001
 43
0.0000001
 44
0.0000000001
 12
-0.0668365947
 22
0.0203084437
 32
0.0
 13
0.0007767066
 23
0.0698495526
 33
0.0
 40
0.0
 40
0.0
 40
0.0
 40
0.0
 40
0.1205828094
 40
0.2414132134
 40
0.3625619215
 40
0.4843066497
 40
0.6072737936
 40
0.6696334276
 40
0.7328319193
 40
0.797148623
 40
0.8629034575
 40
0.9304316768
 40
1.0
 40
1.0
 40
1.0
 40
1.0
 10
3.2284175882
 20
10.2414475881
 30
0.0
 10
3.2257311401
 20
10.2422638711
 30
0.0
 10
3.220414686
 20
10.2441128386
 30
0.0
 10
3.2127051934
 20
10.247581785
 30
0.0
 10
3.2053588091
 20
10.2518306866
 30
0.0
 10
3.1985309705
 20
10.2569638099
 30
0.0
 10
3.1934790283
 20
10.2620735016
 30
0.0
 10
3.1899944638
 20
10.2667033746
 30
0.0
 10
3.1876966747
 20
10.2704902044
 30
0.0
 10
3.1857943923
 20
10.2745794103
 30
0.0
 10
3.1843611545
 20
10.2789640912
 30
0.0
 10
3.1834748083
 20
10.2836165758
 30
0.0
 10
3.1832983854
 20
10.2868153246
 30
0.0
 10
3.1833163968
 20
10.2884350967
 30
0.0
 11
3.2284175882
 21
10.2414475881
 31
0.0
 11
3.2204658097
 21
10.244225917
 31
0.0
 11
3.2127762939
 21
10.247706277
 31
0.0
 11
3.2054636184
 21
10.25196564
 31
0.0
 11
3.1986876639
 21
10.2571047302
 31
0.0
 11
3.1926802631
 21
10.2632443242
 31
0.0
 11
3.1900656711
 21
10.2667284573
 31
0.0
 11
3.1877809631
 21
10.2705059334
 31
0.0
 11
3.1858908967
 21
10.2745817938
 31
0.0
 11
3.1844675676
 21
10.2789489317
 31
0.0
 11
3.1835862543
 21
10.2835829785
 31
0.0
 11
3.1833163968
 21
10.2884350967
 31
0.0
  0
SPLINE
  5
3D2
100
AcDbEntity
  8
0
100
AcDbSpline
 62
9
  6
CONTINUOUS
 70
0
 71
3
 72
12
 73
8
 74
6
 42
0.0000001
 43
0.0000001
 44
0.0000000001
 12
-0.0254216777
 22
0.0018831119
 32
0.0
 13
-0.0243892852
 23
0.0074142143
 33
0.0
 40
0.0
 40
0.0
 40
0.0
 40
0.0
 40
0.1244464212
 40
0.2488469907
 40
0.4984799815
 40
0.7489227878
 40
1.0
 40
1.0
 40
1.0
 40
1.0
 10
3.2534359212
 20
10.2368182337
 30
0.0
 10
3.2523813756
 20
10.2368963492
 30
0.0
 10
3.2502748129
 20
10.2370830132
 30
0.0
 10
3.2460667834
 20
10.237568957
 30
0.0
 10
3.2408209871
 20
10.2383859407
 30
0.0
 10
3.2345738888
 20
10.2397087736
 30
0.0
 10
3.2304587861
 20
10.2408270747
 30
0.0
 10
3.2284175882
 20
10.2414475881
 30
0.0
 11
3.2534359212
 21
10.2368182337
 31
0.0
 11
3.2502758917
 21
10.237097034
 31
0.0
 11
3.2471256741
 21
10.2374606691
 31
0.0
 11
3.2408382117
 21
10.2384413066
 31
0.0
 11
3.2345930992
 21
10.2397662801
 31
0.0
 11
3.2284175882
 21
10.2414475881
 31
0.0
  0
SPLINE
  5
3D3
100
AcDbEntity
  8
0
100
AcDbSpline
 62
9
  6
CONTINUOUS
 70
0
 71
3
 72
11
 73
7
 74
5
 42
0.0000001
 43
0.0000001
 44
0.0000000001
 12
-0.0111530701
 22
0.0028500536
 32
0.0
 13
-0.0103345323
 23
0.0050706232
 33
0.0
 40
0.0
 40
0.0
 40
0.0
 40
0.0
 40
0.2444607249
 40
0.4922609801
 40
0.743993642
 40
1.0
 40
1.0
 40
1.0
 40
1.0
 10
3.253439313
 20
10.2368179803
 30
0.0
 10
3.2525304838
 20
10.2370502223
 30
0.0
 10
3.250714178
 20
10.2375723795
 30
0.0
 10
3.2480085104
 20
10.2384860409
 30
0.0
 10
3.2453100648
 20
10.2395492173
 30
0.0
 10
3.2435361786
 20
10.2403576626
 30
0.0
 10
3.2426542766
 20
10.2407903665
 30
0.0
 11
3.253439313
 21
10.2368179803
 31
0.0
 11
3.2507329391
 21
10.2375891497
 31
0.0
 11
3.2480308177
 21
10.2385032307
 31
0.0
 11
3.245335045
 21
10.2395663015
 31
0.0
 11
3.2426542766
 21
10.2407903665
 31
0.0
  0
SPLINE
  5
3D4
100
AcDbEntity
  8
0
100
AcDbSpline
 62
9
  6
CONTINUOUS
 70
0
 71
3
 72
13
 73
9
 74
7
 42
0.0000001
 43
0.0000001
 44
0.0000000001
 12
-0.0362038174
 22
0.9414913743
 32
0.0
 13
-0.0323805568
 23
0.9416306197
 33
0.0
 40
0.0
 40
0.0
 40
0.0
 40
0.0
 40
0.2500021562
 40
0.3750031498
 40
0.5000037772
 40
0.6250038864
 40
0.7500033668
 40
1.0
 40
1.0
 40
1.0
 40
1.0
 10
2.9298932494
 20
10.2938473335
 30
0.0
 10
2.9268762386
 20
10.3723056247
 30
0.0
 10
2.9223009031
 20
10.4899911127
 30
0.0
 10
2.9162415465
 20
10.6469065524
 30
0.0
 10
2.9117483532
 20
10.7645947598
 30
0.0
 10
2.9073259501
 20
10.8822851797
 30
0.0
 10
2.9015547026
 20
11.0392091141
 30
0.0
 10
2.8973849792
 20
11.1569075533
 30
0.0
 10
2.8946866358
 20
11.2353757149
 30
0.0
 11
2.9298932494
 21
10.2938473335
 31
0.0
 11
2.9207894851
 21
10.5292201735
 31
0.0
 11
2.9162500939
 21
10.6469069963
 31
0.0
 11
2.9117601424
 21
10.7645953703
 31
0.0
 11
2.9073415981
 21
10.8822859584
 31
0.0
 11
2.9030151261
 21
10.9999793743
 31
0.0
 11
2.8946866358
 21
11.2353757149
 31
0.0
  0
SPLINE
  5
3D5
100
AcDbEntity
  8
0
100
AcDbSpline
 62
9
  6
CONTINUOUS
 70
0
 71
3
 72
22
 73
18
 74
16
 42
0.0000001
 43
0.0000001
 44
0.0000000001
 12
0.0077645361
 22
0.0450634173
 32
0.0
 13
0.0457048284
 23
0.0014381444
 33
0.0
 40
0.0
 40
0.0
 40
0.0
 40
0.0
 40
0.0361751856
 40
0.0749244293
 40
0.1170498492
 40
0.1630983188
 40
0.2134068276
 40
0.2680755772
 40
0.3270456468
 40
0.3901646246
 40
0.4572018455
 40
0.5278087913
 40
0.6015819464
 40
0.6780945548
 40
0.7568674424
 40
0.8372509498
 40
1.0
 40
1.0
 40
1.0
 40
1.0
 10
2.8900261695
 20
10.2767957361
 30
0.0
 10
2.8901197973
 20
10.2773391286
 30
0.0
 10
2.890439715
 20
10.2784453164
 30
0.0
 10
2.8912557629
 20
10.2800414893
 30
0.0
 10
2.8924067507
 20
10.2816055075
 30
0.0
 10
2.8938821286
 20
10.2831228106
 30
0.0
 10
2.8956709016
 20
10.2845786058
 30
0.0
 10
2.8977542704
 20
10.2859643927
 30
0.0
 10
2.9001138742
 20
10.2872701406
 30
0.0
 10
2.9027305078
 20
10.2884849472
 30
0.0
 10
2.9055832262
 20
10.2895972832
 30
0.0
 10
2.90864751
 20
10.2905995191
 30
0.0
 10
2.9118978054
 20
10.2914832314
 30
0.0
 10
2.9153075266
 20
10.2922397183
 30
0.0
 10
2.9188469618
 20
10.29286011
 30
0.0
 10
2.9237120531
 20
10.2935042593
 30
0.0
 10
2.927413777
 20
10.2937693143
 30
0.0
 10
2.9298932494
 20
10.2938473331
 30
0.0
 11
2.8900261695
 21
10.2767957361
 31
0.0
 11
2.8904759164
 21
10.2783876223
 31
0.0
 11
2.8912711497
 21
10.2799710515
 31
0.0
 11
2.8924030844
 21
10.2815296757
 31
0.0
 11
2.8938629358
 21
10.2830471467
 31
0.0
 11
2.8956400741
 21
10.2845079638
 31
0.0
 11
2.8977164907
 21
10.285900015
 31
0.0
 11
2.9000723322
 21
10.2872120353
 31
0.0
 11
2.9026877452
 21
10.2884327599
 31
0.0
 11
2.9055417957
 21
10.2895513861
 31
0.0
 11
2.9086092277
 21
10.2905589607
 31
0.0
 11
2.9118637046
 21
10.2914469925
 31
0.0
 11
2.9152788897
 21
10.2922069904
 31
0.0
 11
2.9188264664
 21
10.2928312524
 31
0.0
 11
2.9224701971
 21
10.2933152339
 31
0.0
 11
2.9298932494
 21
10.2938473331
 31
0.0
  0
SPLINE
  5
3D6
100
AcDbEntity
  8
0
100
AcDbSpline
 62
9
  6
CONTINUOUS
 70
0
 71
3
 72
14
 73
10
 74
8
 42
0.0000001
 43
0.0000001
 44
0.0000000001
 12
-0.0359784401
 22
0.942485681
 32
0.0
 13
-0.0325474544
 23
0.9426104021
 33
0.0
 40
0.0
 40
0.0
 40
0.0
 40
0.0
 40
0.1250626618
 40
0.2501339434
 40
0.3751978099
 40
0.500240418
 40
0.6252511719
 40
0.7502199393
 40
1.0
 40
1.0
 40
1.0
 40
1.0
 10
2.8900261695
 20
10.2767957361
 30
0.0
 10
2.8885263163
 20
10.3160856587
 30
0.0
 10
2.8855129331
 20
10.3946676935
 30
0.0
 10
2.8809836522
 20
10.5125394138
 30
0.0
 10
2.8764786254
 20
10.6304057568
 30
0.0
 10
2.8720245601
 20
10.7482549957
 30
0.0
 10
2.8676341866
 20
10.8660767098
 30
0.0
 10
2.8618872946
 20
11.0230913531
 30
0.0
 10
2.8577116534
 20
11.1408349609
 30
0.0
 10
2.8550017517
 20
11.219316722
 30
0.0
 11
2.8900261695
 21
10.2767957361
 31
0.0
 11
2.8855114965
 21
10.3946649262
 31
0.0
 11
2.8809875652
 21
10.5125418972
 31
0.0
 11
2.876486745
 21
10.630412754
 31
0.0
 11
2.8720346132
 21
10.7482653954
 31
0.0
 11
2.867646677
 21
10.8660903796
 31
0.0
 11
2.8633374082
 21
10.9838786401
 31
0.0
 11
2.8550017517
 21
11.219316722
 31
0.0
  0
SPLINE
  5
3D7
100
AcDbEntity
  8
0
100
AcDbSpline
 62
9
  6
CONTINUOUS
 70
0
 71
3
 72
25
 73
21
 74
19
 42
0.0000001
 43
0.0000001
 44
0.0000000001
 12
0.0131866179
 22
0.0428250141
 32
0.0
 13
0.0448040437
 23
0.0006829317
 33
0.0
 40
0.0
 40
0.0
 40
0.0
 40
0.0
 40
0.0359927654
 40
0.0759263825
 40
0.1195829578
 40
0.1668094873
 40
0.1918502352
 40
0.217895222
 40
0.2449731778
 40
0.2731019782
 40
0.3325200353
 40
0.3959581338
 40
0.4630258069
 40
0.5333256635
 40
0.6064906109
 40
0.6821583941
 40
0.7599208076
 40
0.8392645789
 40
0.9195077376
 40
1.0
 40
1.0
 40
1.0
 40
1.0
 10
2.855001773
 20
11.2193167533
 30
0.0
 10
2.8551599806
 20
11.2198305501
 30
0.0
 10
2.8555997742
 20
11.2208829554
 30
0.0
 10
2.8565369659
 20
11.2224100949
 30
0.0
 10
2.857782423
 20
11.2239235844
 30
0.0
 10
2.8590529791
 20
11.2251067371
 30
0.0
 10
2.860206346
 20
11.2260163058
 30
0.0
 10
2.8611582652
 20
11.2266930602
 30
0.0
 10
2.8621781877
 20
11.2273514518
 30
0.0
 10
2.8636532741
 20
11.2282213057
 30
0.0
 10
2.8656571662
 20
11.2292598711
 30
0.0
 10
2.8682533308
 20
11.230407164
 30
0.0
 10
2.871064048
 20
11.2314586814
 30
0.0
 10
2.8740678665
 20
11.2323943533
 30
0.0
 10
2.8772407818
 20
11.2332030308
 30
0.0
 10
2.8805553151
 20
11.2338924686
 30
0.0
 10
2.8839848541
 20
11.2344683055
 30
0.0
 10
2.8875003576
 20
11.2349322981
 30
0.0
 10
2.8910728345
 20
11.2352548219
 30
0.0
 10
2.8934727109
 20
11.2353573913
 30
0.0
 10
2.8946748372
 20
11.2353757149
 30
0.0
 11
2.855001773
 21
11.2193167533
 31
0.0
 11
2.8556118364
 21
11.2208097284
 31
0.0
 11
2.8565399047
 21
11.2223396385
 31
0.0
 11
2.8577786252
 21
11.2238536932
 31
0.0
 11
2.8593199485
 21
11.2253037148
 31
0.0
 11
2.8602000495
 21
11.2259997279
 31
0.0
 11
2.861150462
 21
11.2266770289
 31
0.0
 11
2.8621691964
 21
11.2273361048
 31
0.0
 11
2.8632542632
 21
11.227977443
 31
0.0
 11
2.865615231
 21
11.2292081432
 31
0.0
 11
2.8682138215
 21
11.2303604359
 31
0.0
 11
2.8710276645
 21
11.2314158162
 31
0.0
 11
2.8740342812
 21
11.2323556477
 31
0.0
 11
2.8772098698
 21
11.2331704963
 31
0.0
 11
2.8805286235
 21
11.2338648696
 31
0.0
 11
2.8839645642
 21
11.2344444208
 31
0.0
 11
2.8874897541
 21
11.2349064178
 31
0.0
 11
2.8910711383
 21
11.2352262342
 31
0.0
 11
2.8946748372
 21
11.2353757149
 31
0.0
  0
SPLINE
  5
3D8
100
AcDbEntity
  8
0
100
AcDbSpline
 62
9
  6
CONTINUOUS
 70
0
 71
3
 72
22
 73
18
 74
16
 42
0.0000001
 43
0.0000001
 44
0.0000000001
 12
0.0070980256
 22
0.0460724236
 32
0.0
 13
0.0465898109
 23
0.0015619542
 33
0.0
 40
0.0
 40
0.0
 40
0.0
 40
0.0
 40
0.0384425488
 40
0.0791827122
 40
0.1229431718
 40
0.1702364726
 40
0.2213969012
 40
0.2765485863
 40
0.33566369
 40
0.3986209866
 40
0.4652211278
 40
0.5351495388
 40
0.6080352231
 40
0.6834822324
 40
0.7610426601
 40
0.8401019549
 40
1.0
 40
1.0
 40
1.0
 40
1.0
 10
2.890241768
 20
10.2714504355
 30
0.0
 10
2.8903327234
 20
10.272040816
 30
0.0
 10
2.89064524
 20
10.2732400163
 30
0.0
 10
2.8914533194
 20
10.2749802788
 30
0.0
 10
2.8925983046
 20
10.2766870326
 30
0.0
 10
2.8940696836
 20
10.2783435514
 30
0.0
 10
2.8958564202
 20
10.2799330968
 30
0.0
 10
2.8979390698
 20
10.2814458198
 30
0.0
 10
2.9002989586
 20
10.2828707336
 30
0.0
 10
2.9029167617
 20
10.2841959876
 30
0.0
 10
2.9057715131
 20
10.2854090585
 30
0.0
 10
2.9088384813
 20
10.2865016086
 30
0.0
 10
2.9120920393
 20
10.2874644935
 30
0.0
 10
2.9155055505
 20
10.2882882504
 30
0.0
 10
2.9190492879
 20
10.2889632156
 30
0.0
 10
2.9239186289
 20
10.2896628093
 30
0.0
 10
2.9276268829
 20
10.2899496847
 30
0.0
 10
2.9301100895
 20
10.2900329359
 30
0.0
 11
2.890241768
 21
10.2714504355
 31
0.0
 11
2.8906851825
 21
10.2731867481
 31
0.0
 11
2.8914750086
 21
10.2749138609
 31
0.0
 11
2.8926024933
 21
10.2766138965
 31
0.0
 11
2.8940588834
 21
10.2782689778
 31
0.0
 11
2.8958335683
 21
10.2798621546
 31
0.0
 11
2.8979085066
 21
10.2813801849
 31
0.0
 11
2.9002637992
 21
10.282810754
 31
0.0
 11
2.9028795473
 21
10.2841415469
 31
0.0
 11
2.9057347646
 21
10.2853607554
 31
0.0
 11
2.9088041163
 21
10.2864585977
 31
0.0
 11
2.9120611806
 21
10.2874257982
 31
0.0
 11
2.9154795354
 21
10.2882530817
 31
0.0
 11
2.9190307692
 21
10.2889320384
 31
0.0
 11
2.9226785124
 21
10.2894577209
 31
0.0
 11
2.9301100895
 21
10.2900329359
 31
0.0
  0
SPLINE
  5
3D9
100
AcDbEntity
  8
0
100
AcDbSpline
 62
9
  6
CONTINUOUS
 70
0
 71
3
 72
12
 73
8
 74
6
 42
0.0000001
 43
0.0000001
 44
0.0000000001
 12
0.0167712826
 22
0.0087849419
 32
0.0
 13
0.0099438404
 23
0.0161112124
 33
0.0
 40
0.0
 40
0.0
 40
0.0
 40
0.0
 40
0.2288211682
 40
0.467820894
 40
0.7218123911
 40
0.8571021525
 40
1.0
 40
1.0
 40
1.0
 40
1.0
 10
2.872066518
 20
10.240871591
 30
0.0
 10
2.8733457262
 20
10.2415416512
 30
0.0
 10
2.8759009311
 20
10.2430313669
 30
0.0
 10
2.8795800271
 20
10.2457332704
 30
0.0
 10
2.8824560987
 20
10.2484852251
 30
0.0
 10
2.8845945092
 20
10.2510792859
 30
0.0
 10
2.8855882426
 20
10.2525304018
 30
0.0
 10
2.8860618938
 20
10.253297821
 30
0.0
 11
2.872066518
 21
10.240871591
 31
0.0
 11
2.8758044959
 21
10.2430615017
 31
0.0
 11
2.8794434397
 21
10.2457509493
 31
0.0
 11
2.8829067627
 21
10.2490870665
 31
0.0
 11
2.8845345908
 21
10.2510646968
 31
0.0
 11
2.8860618938
 21
10.253297821
 31
0.0
  0
SPLINE
  5
3DA
100
AcDbEntity
  8
0
100
AcDbSpline
 62
9
  6
CONTINUOUS
 70
0
 71
3
 72
11
 73
7
 74
5
 42
0.0000001
 43
0.0000001
 44
0.0000000001
 12
0.0065531721
 22
0.0141349297
 32
0.0
 13
-0.0011784019
 23
0.0155354971
 33
0.0
 40
0.0
 40
0.0
 40
0.0
 40
0.0
 40
0.2090812353
 40
0.4408946404
 40
0.702163639
 40
1.0
 40
1.0
 40
1.0
 40
1.0
 10
2.8876499444
 20
10.256248718
 30
0.0
 10
2.8881066595
 20
10.2572338341
 30
0.0
 10
2.8889494852
 20
10.2593692014
 30
0.0
 10
2.8898713712
 20
10.2629069225
 30
0.0
 10
2.8903882547
 20
10.2669934228
 30
0.0
 10
2.8903589437
 20
10.2699079534
 30
0.0
 10
2.8902419534
 20
10.2714502987
 30
0.0
 11
2.8876499444
 21
10.256248718
 31
0.0
 11
2.8888466679
 21
10.2592784434
 31
0.0
 11
2.8897608352
 21
10.2627725161
 31
0.0
 11
2.8902781675
 21
10.2668101122
 31
0.0
 11
2.8902419534
 21
10.2714502987
 31
0.0
  0
SPLINE
  5
3DB
100
AcDbEntity
  8
0
100
AcDbSpline
 62
9
  6
CONTINUOUS
 70
0
 71
3
 72
18
 73
14
 74
12
 42
0.0000001
 43
0.0000001
 44
0.0000000001
 12
0.0670455174
 22
0.0211379516
 32
0.0
 13
-0.0041974368
 23
0.0701733277
 33
0.0
 40
0.0
 40
0.0
 40
0.0
 40
0.0
 40
0.1196931034
 40
0.2397579879
 40
0.3602978726
 40
0.4816424604
 40
0.6045103596
 40
0.6669816842
 40
0.7304200005
 40
0.7951257103
 40
0.8614284121
 40
0.9296412287
 40
1.0
 40
1.0
 40
1.0
 40
1.0
 10
2.8864864395
 20
10.2415628801
 30
0.0
 10
2.8891614015
 20
10.2424062358
 30
0.0
 10
2.8944529333
 20
10.2443184264
 30
0.0
 10
2.9021086866
 20
10.2479084509
 30
0.0
 10
2.9093810135
 20
10.2523097193
 30
0.0
 10
2.9161026424
 20
10.2576303086
 30
0.0
 10
2.9210199337
 20
10.2629238713
 30
0.0
 10
2.9243586445
 20
10.2677130374
 30
0.0
 10
2.9265255495
 20
10.2716291038
 30
0.0
 10
2.9282705081
 20
10.2758495528
 30
0.0
 10
2.9295170484
 20
10.2803614742
 30
0.0
 10
2.9301887111
 20
10.2851285383
 30
0.0
 10
2.9302085316
 20
10.2883871701
 30
0.0
 10
2.9301100895
 20
10.2900329398
 30
0.0
 11
2.8864864395
 21
10.2415628801
 31
0.0
 11
2.8943956161
 21
10.2444342841
 31
0.0
 11
2.9020293159
 21
10.2480352803
 31
0.0
 11
2.9092648785
 21
10.2524457198
 31
0.0
 11
2.9159302169
 21
10.2577693019
 31
0.0
 11
2.9217754564
 21
10.2641284598
 31
0.0
 11
2.9242820475
 21
10.2677345163
 31
0.0
 11
2.9264359579
 21
10.2716395143
 31
0.0
 11
2.9281693487
 21
10.2758450233
 31
0.0
 11
2.9294077525
 21
10.2803384908
 31
0.0
 11
2.9300763953
 21
10.2850869208
 31
0.0
 11
2.9301100895
 21
10.2900329398
 31
0.0
  0
SPLINE
  5
3DC
100
AcDbEntity
  8
0
100
AcDbSpline
 62
9
  6
CONTINUOUS
 70
0
 71
3
 72
13
 73
9
 74
7
 42
0.0000001
 43
0.0000001
 44
0.0000000001
 12
0.0107802148
 22
0.0028053247
 32
0.0
 13
0.0098644815
 23
0.0051744451
 33
0.0
 40
0.0
 40
0.0
 40
0.0
 40
0.0
 40
0.1223216546
 40
0.2437517049
 40
0.3666575187
 40
0.4908808453
 40
0.7428417791
 40
1.0
 40
1.0
 40
1.0
 40
1.0
 10
2.8617154287
 20
10.2368180283
 30
0.0
 10
2.8621549799
 20
10.2369324123
 30
0.0
 10
2.8630254318
 20
10.2371813446
 30
0.0
 10
2.8643227352
 20
10.2375945993
 30
0.0
 10
2.865616586
 20
10.2380408329
 30
0.0
 10
2.8673526289
 20
10.2386897061
 30
0.0
 10
2.8695218127
 20
10.2396009623
 30
0.0
 10
2.8712225726
 20
10.2404290294
 30
0.0
 10
2.8720681501
 20
10.2408725798
 30
0.0
 11
2.8617154287
 21
10.2368180283
 31
0.0
 11
2.863026598
 21
10.2371887516
 31
0.0
 11
2.8643158466
 21
10.237597985
 31
0.0
 11
2.8656099957
 21
10.2380446999
 31
0.0
 11
2.8669061122
 21
10.2385293222
 31
0.0
 11
2.8694934898
 21
10.2396168852
 31
0.0
 11
2.8720681501
 21
10.2408725798
 31
0.0
  0
SPLINE
  5
3DD
100
AcDbEntity
  8
0
100
AcDbSpline
 62
9
  6
CONTINUOUS
 70
0
 71
3
 72
13
 73
9
 74
7
 42
0.0000001
 43
0.0000001
 44
0.0000000001
 12
0.0252027463
 22
0.0018562809
 32
0.0
 13
0.0241001706
 23
0.0076030243
 33
0.0
 40
0.0
 40
0.0
 40
0.0
 40
0.0
 40
0.1246818658
 40
0.2487693569
 40
0.3733312658
 40
0.4982224372
 40
0.7486971917
 40
1.0
 40
1.0
 40
1.0
 40
1.0
 10
2.8617181373
 20
10.2368182337
 30
0.0
 10
2.8627655791
 20
10.2368953819
 30
0.0
 10
2.8648528539
 20
10.2370860379
 30
0.0
 10
2.8679757385
 20
10.2374596495
 30
0.0
 10
2.8710892099
 20
10.2379178332
 30
0.0
 10
2.8752374174
 20
10.2386463003
 30
0.0
 10
2.8803964464
 20
10.2397785496
 30
0.0
 10
2.884467626
 20
10.240925993
 30
0.0
 10
2.8864864395
 20
10.2415628801
 30
0.0
 11
2.8617181373
 21
10.2368182337
 31
0.0
 11
2.8648562483
 21
10.2371011382
 31
0.0
 11
2.8679699193
 21
10.2374731603
 31
0.0
 11
2.8710841382
 21
10.2379317691
 31
0.0
 11
2.8741926664
 21
10.2384778353
 31
0.0
 11
2.8803747569
 21
10.239837066
 31
0.0
 11
2.8864864395
 21
10.2415628801
 31
0.0
  0
LINE
  5
3DE
100
AcDbEntity
  8
0
100
AcDbLine
 62
9
  6
CONTINUOUS
 10
2.9222217302
 20
9.3872476406
 11
2.9220555998
 21
9.3833532638
  0
LINE
  5
3DF
100
AcDbEntity
  8
0
100
AcDbLine
 62
9
  6
CONTINUOUS
 10
2.8848304686
 20
9.4247068968
 11
2.8846868027
 21
9.4213209212
  0
SPLINE
  5
3E0
100
AcDbEntity
  8
0
100
AcDbSpline
 62
9
  6
CONTINUOUS
 70
0
 71
3
 72
11
 73
7
 74
5
 42
0.0000001
 43
0.0000001
 44
0.0000000001
 12
-0.0328407942
 22
0.1340968971
 32
0.0
 13
0.0053534758
 23
0.1379559201
 33
0.0
 40
0.0
 40
0.0
 40
0.0
 40
0.0
 40
0.2519536261
 40
0.5020261293
 40
0.7510691063
 40
1.0
 40
1.0
 40
1.0
 40
1.0
 10
2.8550020729
 20
8.4570039169
 30
0.0
 10
2.8522439538
 20
8.4682659834
 30
0.0
 10
2.8475104979
 20
8.4909010665
 30
0.0
 10
2.842796423
 20
8.5251696256
 30
0.0
 10
2.8405030813
 20
8.5595455768
 30
0.0
 10
2.8405895159
 20
8.5824843553
 30
0.0
 10
2.841033731
 20
8.5939315188
 30
0.0
 11
2.8550020729
 21
8.4570039169
 31
0.0
 11
2.8478913557
 21
8.4910540265
 31
0.0
 11
2.8431922446
 21
8.5252576871
 31
0.0
 11
2.8409061968
 21
8.5595644175
 31
0.0
 11
2.841033731
 21
8.5939315188
 31
0.0
  0
SPLINE
  5
3E1
100
AcDbEntity
  8
0
100
AcDbSpline
 62
9
  6
CONTINUOUS
 70
0
 71
3
 72
14
 73
10
 74
8
 42
0.0000001
 43
0.0000001
 44
0.0000000001
 12
-0.0359783066
 22
-0.9424856868
 32
0.0
 13
-0.0325474648
 23
-0.9426104025
 33
0.0
 40
0.0
 40
0.0
 40
0.0
 40
0.0
 40
0.1250626618
 40
0.2501339433
 40
0.3751978098
 40
0.5002404177
 40
0.6252511715
 40
0.7502199391
 40
1.0
 40
1.0
 40
1.0
 40
1.0
 10
2.8900261715
 20
9.3995252258
 30
0.0
 10
2.8885263239
 20
9.3602353029
 30
0.0
 10
2.8855129432
 20
9.281653268
 30
0.0
 10
2.8809836526
 20
9.163781548
 30
0.0
 10
2.876478616
 20
9.0459152053
 30
0.0
 10
2.872024551
 20
8.9280659665
 30
0.0
 10
2.8676341819
 20
8.8102442522
 30
0.0
 10
2.861887295
 20
8.6532296085
 30
0.0
 10
2.8577116553
 20
8.5354860004
 30
0.0
 10
2.8550017528
 20
8.4570042392
 30
0.0
 11
2.8900261715
 21
9.3995252258
 31
0.0
 11
2.8855115043
 21
9.2816560354
 31
0.0
 11
2.8809875656
 21
9.1637790647
 31
0.0
 11
2.8764867372
 21
9.045908208
 31
0.0
 11
2.8720346048
 21
8.9280555668
 31
0.0
 11
2.8676466722
 21
8.8102305825
 31
0.0
 11
2.8633374071
 21
8.6924423216
 31
0.0
 11
2.8550017528
 21
8.4570042392
 31
0.0
  0
SPLINE
  5
3E2
100
AcDbEntity
  8
0
100
AcDbSpline
 62
9
  6
CONTINUOUS
 70
0
 71
3
 72
13
 73
9
 74
7
 42
0.0000001
 43
0.0000001
 44
0.0000000001
 12
-0.0362035899
 22
-0.9414913886
 32
0.0
 13
-0.0323805606
 23
-0.941630625
 33
0.0
 40
0.0
 40
0.0
 40
0.0
 40
0.0
 40
0.2500021557
 40
0.3750031495
 40
0.5000037767
 40
0.6250038858
 40
0.7500033662
 40
1.0
 40
1.0
 40
1.0
 40
1.0
 10
2.9298932494
 20
9.3824736284
 30
0.0
 10
2.9268762576
 20
9.3040153361
 30
0.0
 10
2.9223009012
 20
9.1863298483
 30
0.0
 10
2.9162415404
 20
9.0294144081
 30
0.0
 10
2.9117483669
 20
8.9117261992
 30
0.0
 10
2.9073259669
 20
8.7940357787
 30
0.0
 10
2.9015546441
 20
8.637111846
 30
0.0
 10
2.8973848261
 20
8.5194134092
 30
0.0
 10
2.8946864824
 20
8.440945247
 30
0.0
 11
2.9298932494
 21
9.3824736284
 31
0.0
 11
2.9207894841
 21
9.1471007875
 31
0.0
 11
2.9162500916
 21
9.0294139639
 31
0.0
 11
2.9117601533
 21
8.9117255888
 31
0.0
 11
2.907341605
 21
8.7940350004
 31
0.0
 11
2.9030150822
 21
8.6763415857
 31
0.0
 11
2.8946864824
 21
8.440945247
 31
0.0
  0
SPLINE
  5
3E3
100
AcDbEntity
  8
0
100
AcDbSpline
 62
9
  6
CONTINUOUS
 70
0
 71
3
 72
25
 73
21
 74
19
 42
0.0000001
 43
0.0000001
 44
0.0000000001
 12
-0.0448040438
 22
0.0006829311
 32
0.0
 13
-0.0131866175
 23
0.0428250144
 33
0.0
 40
0.0
 40
0.0
 40
0.0
 40
0.0
 40
0.0804922621
 40
0.1607354205
 40
0.2400791916
 40
0.3178416048
 40
0.3935093876
 40
0.4666743348
 40
0.5369741912
 40
0.604041864
 40
0.6674799624
 40
0.7268980194
 40
0.7550268198
 40
0.7821047757
 40
0.8081497625
 40
0.8331905105
 40
0.8804170403
 40
0.924073616
 40
0.9640072338
 40
1.0
 40
1.0
 40
1.0
 40
1.0
 10
2.8946748372
 20
8.440945247
 30
0.0
 10
2.8934727109
 20
8.4409635706
 30
0.0
 10
2.8910728345
 20
8.4410661399
 30
0.0
 10
2.8875003576
 20
8.4413886637
 30
0.0
 10
2.8839848541
 20
8.4418526563
 30
0.0
 10
2.8805553151
 20
8.4424284931
 30
0.0
 10
2.8772407818
 20
8.4431179309
 30
0.0
 10
2.8740678665
 20
8.4439266084
 30
0.0
 10
2.871064048
 20
8.4448622803
 30
0.0
 10
2.8682533308
 20
8.4459137977
 30
0.0
 10
2.8656571662
 20
8.4470610905
 30
0.0
 10
2.8636532741
 20
8.448099656
 30
0.0
 10
2.8621781877
 20
8.4489695099
 30
0.0
 10
2.8611582652
 20
8.4496279015
 30
0.0
 10
2.860206346
 20
8.4503046559
 30
0.0
 10
2.8590529791
 20
8.4512142246
 30
0.0
 10
2.857782423
 20
8.4523973773
 30
0.0
 10
2.8565369659
 20
8.4539108669
 30
0.0
 10
2.8555997742
 20
8.4554380065
 30
0.0
 10
2.8551599806
 20
8.4564904117
 30
0.0
 10
2.855001773
 20
8.4570042086
 30
0.0
 11
2.8946748372
 21
8.440945247
 31
0.0
 11
2.8910711383
 21
8.4410947277
 31
0.0
 11
2.8874897541
 21
8.441414544
 31
0.0
 11
2.8839645642
 21
8.441876541
 31
0.0
 11
2.8805286235
 21
8.4424560921
 31
0.0
 11
2.8772098698
 21
8.4431504654
 31
0.0
 11
2.8740342812
 21
8.4439653139
 31
0.0
 11
2.8710276645
 21
8.4449051455
 31
0.0
 11
2.8682138215
 21
8.4459605257
 31
0.0
 11
2.865615231
 21
8.4471128185
 31
0.0
 11
2.8632542632
 21
8.4483435187
 31
0.0
 11
2.8621691964
 21
8.4489848569
 31
0.0
 11
2.861150462
 21
8.4496439328
 31
0.0
 11
2.8602000495
 21
8.4503212338
 31
0.0
 11
2.8593199485
 21
8.451017247
 31
0.0
 11
2.8577786252
 21
8.4524672686
 31
0.0
 11
2.8565399047
 21
8.4539813232
 31
0.0
 11
2.8556118364
 21
8.4555112334
 31
0.0
 11
2.855001773
 21
8.4570042086
 31
0.0
  0
SPLINE
  5
3E4
100
AcDbEntity
  8
0
100
AcDbSpline
 62
9
  6
CONTINUOUS
 70
0
 71
3
 72
22
 73
18
 74
16
 42
0.0000001
 43
0.0000001
 44
0.0000000001
 12
0.0670943892
 22
-0.0211399473
 32
0.0
 13
-0.0042258621
 23
-0.0702189186
 33
0.0
 40
0.0
 40
0.0
 40
0.0
 40
0.0
 40
0.1195751306
 40
0.1795301485
 40
0.2395919149
 40
0.2997670979
 40
0.3600832261
 40
0.4206152371
 40
0.4814275705
 40
0.5426152108
 40
0.6043617233
 40
0.6668194296
 40
0.7302495127
 40
0.7949766459
 40
0.8613131069
 40
0.929656956
 40
1.0
 40
1.0
 40
1.0
 40
1.0
 10
2.8864594045
 20
9.4347666551
 30
0.0
 10
2.8891336779
 20
9.4339240511
 30
0.0
 10
2.8931003954
 20
9.4324934279
 30
0.0
 10
2.8982421323
 20
9.4302254947
 30
0.0
 10
2.9020218133
 20
9.428332629
 30
0.0
 10
2.9057036567
 20
9.4262382049
 30
0.0
 10
2.9092675206
 20
9.4239276604
 30
0.0
 10
2.9126924338
 20
9.4213898151
 30
0.0
 10
2.9159507169
 20
9.4186085236
 30
0.0
 10
2.9190063289
 20
9.4155643099
 30
0.0
 10
2.9218213211
 20
9.4122442026
 30
0.0
 10
2.9243444351
 20
9.4086310423
 30
0.0
 10
2.9265142105
 20
9.4047133774
 30
0.0
 10
2.928264722
 20
9.4004907405
 30
0.0
 10
2.9295157437
 20
9.3959719844
 30
0.0
 10
2.9301855344
 20
9.3911979961
 30
0.0
 10
2.9302091478
 20
9.3879345004
 30
0.0
 10
2.9301100611
 20
9.3862880295
 30
0.0
 11
2.8864594045
 21
9.4347666551
 31
0.0
 11
2.8943671604
 21
9.4318990993
 31
0.0
 11
2.8982253291
 21
9.4301953892
 31
0.0
 11
2.9020019179
 21
9.4283009577
 31
0.0
 11
2.9056796044
 21
9.4262048664
 31
0.0
 11
2.9092381653
 21
9.423894096
 31
0.0
 11
2.9126568652
 21
9.4213554724
 31
0.0
 11
2.9159070064
 21
9.4185739209
 31
0.0
 11
2.9189530132
 21
9.4155327253
 31
0.0
 11
2.9217572015
 21
9.4122155663
 31
0.0
 11
2.9242674027
 21
9.4086095952
 31
0.0
 11
2.9264246442
 21
9.4047036764
 31
0.0
 11
2.9281630768
 21
9.4004953127
 31
0.0
 11
2.9294049063
 21
9.3959970795
 31
0.0
 11
2.9300747106
 21
9.3912362524
 31
0.0
 11
2.9301100611
 21
9.3862880295
 31
0.0
  0
SPLINE
  5
3E5
100
AcDbEntity
  8
0
100
AcDbSpline
 62
9
  6
CONTINUOUS
 70
0
 71
3
 72
14
 73
10
 74
8
 42
0.0000001
 43
0.0000001
 44
0.0000000001
 12
0.0168327302
 22
-0.0088157868
 32
0.0
 13
0.0099440495
 23
-0.0161918122
 33
0.0
 40
0.0
 40
0.0
 40
0.0
 40
0.0
 40
0.1132701287
 40
0.2286966142
 40
0.346662396
 40
0.4676629104
 40
0.7216320166
 40
0.8569601389
 40
1.0
 40
1.0
 40
1.0
 40
1.0
 10
2.8720663651
 20
9.4354494086
 30
0.0
 10
2.8727019136
 20
9.4351165535
 30
0.0
 10
2.8739704588
 20
9.4344159775
 30
0.0
 10
2.8758390005
 20
9.4332611479
 30
0.0
 10
2.87768361
 20
9.4319798577
 30
0.0
 10
2.880142596
 20
9.4300540339
 30
0.0
 10
2.8824839197
 20
9.4278061547
 30
0.0
 10
2.8846284873
 20
9.425200179
 30
0.0
 10
2.8856220721
 20
9.4237397303
 30
0.0
 10
2.8860962039
 20
9.4229677054
 30
0.0
 11
2.8720663651
 21
9.4354494086
 31
0.0
 11
2.8739497036
 21
9.4344075516
 31
0.0
 11
2.8758147467
 21
9.4332533849
 31
0.0
 11
2.8776552048
 21
9.4319738605
 31
0.0
 11
2.8794636579
 21
9.4305540698
 31
0.0
 11
2.882935552
 21
9.4272022999
 31
0.0
 11
2.8845672048
 21
9.4252148307
 31
0.0
 11
2.8860962039
 21
9.4229677054
 31
0.0
  0
SPLINE
  5
3E6
100
AcDbEntity
  8
0
100
AcDbSpline
 62
9
  6
CONTINUOUS
 70
0
 71
3
 72
14
 73
10
 74
8
 42
0.0000001
 43
0.0000001
 44
0.0000000001
 12
0.0080037587
 22
-0.015087941
 32
0.0
 13
-0.0012888445
 23
-0.0170307075
 33
0.0
 40
0.0
 40
0.0
 40
0.0
 40
0.0
 40
0.1004597361
 40
0.205979525
 40
0.4355673715
 40
0.5618057691
 40
0.6972635782
 40
0.8430103622
 40
1.0
 40
1.0
 40
1.0
 40
1.0
 10
2.8869865304
 20
9.421410864
 30
0.0
 10
2.8872545489
 20
9.4209056205
 30
0.0
 10
2.8877723392
 20
9.4198523915
 30
0.0
 10
2.8887230877
 20
9.4175608932
 30
0.0
 10
2.8894857695
 20
9.4150373175
 30
0.0
 10
2.8900091863
 20
9.4122878426
 30
0.0
 10
2.8902753169
 20
9.4099812511
 30
0.0
 10
2.8903747068
 20
9.407486257
 30
0.0
 10
2.8903093432
 20
9.4057618808
 30
0.0
 10
2.8902418981
 20
9.404870666
 30
0.0
 11
2.8869865304
 21
9.421410864
 31
0.0
 11
2.8877434009
 21
9.4198710292
 31
0.0
 11
2.888434677
 21
9.4182066622
 31
0.0
 11
2.889569555
 21
9.414453257
 31
0.0
 11
2.8899742607
 21
9.4123355033
 31
0.0
 11
2.8902407764
 21
9.4100373667
 31
0.0
 11
2.890341092
 21
9.4075501203
 31
0.0
 11
2.8902418981
 21
9.404870666
 31
0.0
  0
SPLINE
  5
3E7
100
AcDbEntity
  8
0
100
AcDbSpline
 62
9
  6
CONTINUOUS
 70
0
 71
3
 72
13
 73
9
 74
7
 42
0.0000001
 43
0.0000001
 44
0.0000000001
 12
0.0251729041
 22
-0.0018617305
 32
0.0
 13
0.0240730293
 23
-0.0075914692
 33
0.0
 40
0.0
 40
0.0
 40
0.0
 40
0.0
 40
0.1246658695
 40
0.2487682442
 40
0.3733323556
 40
0.4982286761
 40
0.7487048334
 40
1.0
 40
1.0
 40
1.0
 40
1.0
 10
2.8617191709
 20
9.4395027282
 30
0.0
 10
2.8627652382
 20
9.4394253634
 30
0.0
 10
2.8648500983
 20
9.4392352509
 30
0.0
 10
2.8679693867
 20
9.4388622101
 30
0.0
 10
2.8710794569
 20
9.4384047687
 30
0.0
 10
2.8752230143
 20
9.4376776731
 30
0.0
 10
2.8803761584
 20
9.4365473655
 30
0.0
 10
2.8844429258
 20
9.4354025549
 30
0.0
 10
2.8864594045
 20
9.4347666551
 30
0.0
 11
2.8617191709
 21
9.4395027282
 31
0.0
 11
2.8648532293
 21
9.4392201386
 31
0.0
 11
2.8679636812
 21
9.4388487162
 31
0.0
 11
2.8710743735
 21
9.4383908798
 31
0.0
 11
2.8741794835
 21
9.4378457976
 31
0.0
 11
2.8803546362
 21
9.4364890943
 31
0.0
 11
2.8864594045
 21
9.4347666551
 31
0.0
  0
SPLINE
  5
3E8
100
AcDbEntity
  8
0
100
AcDbSpline
 62
9
  6
CONTINUOUS
 70
0
 71
3
 72
13
 73
9
 74
7
 42
0.0000001
 43
0.0000001
 44
0.0000000001
 12
0.0107776845
 22
-0.0028157299
 32
0.0
 13
0.0098645229
 23
-0.0051747469
 33
0.0
 40
0.0
 40
0.0
 40
0.0
 40
0.0
 40
0.1222683838
 40
0.2437331852
 40
0.3666444402
 40
0.4908727511
 40
0.7428353358
 40
1.0
 40
1.0
 40
1.0
 40
1.0
 10
2.8617155108
 20
9.4395030058
 30
0.0
 10
2.8621547675
 20
9.4393882476
 30
0.0
 10
2.863025246
 20
9.4391396642
 30
0.0
 10
2.8643225635
 20
9.4387265103
 30
0.0
 10
2.8656166111
 20
9.4382802735
 30
0.0
 10
2.8673527523
 20
9.4376314482
 30
0.0
 10
2.8695220223
 20
9.4367201727
 30
0.0
 10
2.8712228303
 20
9.4358920653
 30
0.0
 10
2.8720684325
 20
9.4354484779
 30
0.0
 11
2.8617155108
 21
9.4395030058
 31
0.0
 11
2.8630260865
 21
9.4391322846
 31
0.0
 11
2.864315774
 21
9.4387230834
 31
0.0
 11
2.8656100227
 21
9.4382764047
 31
0.0
 11
2.8669062308
 21
9.4377918059
 31
0.0
 11
2.8694936797
 21
9.4367042502
 31
0.0
 11
2.8720684325
 21
9.4354484779
 31
0.0
  0
SPLINE
  5
3E9
100
AcDbEntity
  8
0
100
AcDbSpline
 62
9
  6
CONTINUOUS
 70
0
 71
3
 72
13
 73
9
 74
7
 42
0.0000001
 43
0.0000001
 44
0.0000000001
 12
0.0028371454
 22
-0.9415266968
 32
0.0
 13
-0.0010172629
 23
-0.9415304219
 33
0.0
 40
0.0
 40
0.0
 40
0.0
 40
0.0
 40
0.2500000937
 40
0.3750001384
 40
0.5000001562
 40
0.6250001447
 40
0.7500001331
 40
1.0
 40
1.0
 40
1.0
 40
1.0
 10
3.1833578361
 20
9.3824736284
 30
0.0
 10
3.1835942649
 20
9.3040130409
 30
0.0
 10
3.1839982485
 20
9.1863223155
 30
0.0
 10
3.1844950015
 20
9.0294012223
 30
0.0
 10
3.1848158827
 20
8.9117102674
 30
0.0
 10
3.1850655579
 20
8.7940191509
 30
0.0
 10
3.1852725855
 20
8.6370974978
 30
0.0
 10
3.1852683484
 20
8.5194060737
 30
0.0
 10
3.1851835765
 20
8.440945247
 30
0.0
 11
3.1833578361
 21
9.3824736284
 31
0.0
 11
3.1841189458
 21
9.1470920278
 31
0.0
 11
3.1844863876
 21
9.0294011879
 31
0.0
 11
3.1848040151
 21
8.9117102283
 31
0.0
 11
3.1850498239
 21
8.7940191245
 31
0.0
 11
3.1852031056
 21
8.6763278638
 31
0.0
 11
3.1851835765
 21
8.440945247
 31
0.0
  0
SPLINE
  5
3EA
100
AcDbEntity
  8
0
100
AcDbSpline
 62
9
  6
CONTINUOUS
 70
0
 71
3
 72
22
 73
18
 74
16
 42
0.0000001
 43
0.0000001
 44
0.0000000001
 12
-0.0074928499
 22
-0.0448117114
 32
0.0
 13
-0.0454336849
 23
-0.0001120606
 33
0.0
 40
0.0
 40
0.0
 40
0.0
 40
0.0
 40
0.0361504714
 40
0.0746983229
 40
0.1165109304
 40
0.1621940094
 40
0.2121331308
 40
0.2664650167
 40
0.3251567851
 40
0.3880750934
 40
0.4550032838
 40
0.5256015207
 40
0.5994719184
 40
0.6761916569
 40
0.7552833361
 40
0.8360939591
 40
1.0
 40
1.0
 40
1.0
 40
1.0
 10
3.2232563465
 20
9.3984129677
 30
0.0
 10
3.2231660565
 20
9.3978729796
 30
0.0
 10
3.2228530277
 20
9.3967757016
 30
0.0
 10
3.2220432767
 20
9.3951978153
 30
0.0
 10
3.2208965993
 20
9.3936621428
 30
0.0
 10
3.2194238922
 20
9.3921830321
 30
0.0
 10
3.2176363511
 20
9.3907749371
 30
0.0
 10
3.2155528987
 20
9.3894456924
 30
0.0
 10
3.2131919088
 20
9.3882047297
 30
0.0
 10
3.2105726197
 20
9.3870624012
 30
0.0
 10
3.207716066
 20
9.3860296768
 30
0.0
 10
3.2046468289
 20
9.3851134846
 30
0.0
 10
3.2013905636
 20
9.3843215516
 30
0.0
 10
3.1979739911
 20
9.3836618639
 30
0.0
 10
3.194427032
 20
9.3831424881
 30
0.0
 10
3.1895482099
 20
9.3826375514
 30
0.0
 10
3.1858401212
 20
9.3824797507
 30
0.0
 10
3.1833578361
 20
9.3824736283
 30
0.0
 11
3.2232563465
 21
9.3984129677
 31
0.0
 11
3.2228147976
 21
9.3968309785
 31
0.0
 11
3.2220262581
 21
9.3952671612
 31
0.0
 11
3.2208994766
 21
9.393737701
 31
0.0
 11
3.2194432015
 21
9.3922587827
 31
0.0
 11
3.2176680447
 21
9.3908456868
 31
0.0
 11
3.2155920723
 21
9.3895100757
 31
0.0
 11
3.2132352138
 21
9.3882627074
 31
0.0
 11
3.2106173987
 21
9.3871143398
 31
0.0
 11
3.2077596468
 21
9.3860752342
 31
0.0
 11
3.2046873389
 21
9.3851536663
 31
0.0
 11
3.2014269463
 21
9.3843574149
 31
0.0
 11
3.19800494
 21
9.3836942592
 31
0.0
 11
3.1944497855
 21
9.3831711259
 31
0.0
 11
3.1907979254
 21
9.3827915326
 31
0.0
 11
3.1833578361
 21
9.3824736283
 31
0.0
  0
SPLINE
  5
3EB
100
AcDbEntity
  8
0
100
AcDbSpline
 62
9
  6
CONTINUOUS
 70
0
 71
3
 72
14
 73
10
 74
8
 42
0.0000001
 43
0.0000001
 44
0.0000000001
 12
0.0026273228
 22
-0.9425135585
 32
0.0
 13
-0.0009007962
 23
-0.9425167899
 33
0.0
 40
0.0
 40
0.0
 40
0.0
 40
0.0
 40
0.1250623239
 40
0.2501330629
 40
0.3751963857
 40
0.5002386117
 40
0.6252492353
 40
0.7502182086
 40
1.0
 40
1.0
 40
1.0
 40
1.0
 10
3.2232563465
 20
9.3984129677
 30
0.0
 10
3.2233658728
 20
9.3591219891
 30
0.0
 10
3.2235986932
 20
9.2805374268
 30
0.0
 10
3.2239571258
 20
9.1626616206
 30
0.0
 10
3.2242908697
 20
9.0447920534
 30
0.0
 10
3.2245731334
 20
8.9269412364
 30
0.0
 10
3.2247911208
 20
8.8091199204
 30
0.0
 10
3.2249749891
 20
8.6521087839
 30
0.0
 10
3.2249754468
 20
8.5343723562
 30
0.0
 10
3.224900446
 20
8.4558978455
 30
0.0
 11
3.2232563465
 21
9.3984129677
 31
0.0
 11
3.2236002194
 21
9.2805400754
 31
0.0
 11
3.2239530208
 21
9.1626592781
 31
0.0
 11
3.2242823149
 21
9.0447854027
 31
0.0
 11
3.224562452
 21
8.9269312843
 31
0.0
 11
3.224777807
 21
8.8091068156
 31
0.0
 11
3.2249137876
 21
8.6913214848
 31
0.0
 11
3.224900446
 21
8.4558978455
 31
0.0
  0
SPLINE
  5
3EC
100
AcDbEntity
  8
0
100
AcDbSpline
 62
9
  6
CONTINUOUS
 70
0
 71
3
 72
24
 73
20
 74
18
 42
0.0000001
 43
0.0000001
 44
0.0000000001
 12
-0.012866551
 22
-0.042621967
 32
0.0
 13
-0.0445165858
 23
0.0006736424
 33
0.0
 40
0.0
 40
0.0
 40
0.0
 40
0.0
 40
0.0358637276
 40
0.0755347099
 40
0.1188546103
 40
0.1657158588
 40
0.2164296409
 40
0.2713084447
 40
0.3304720181
 40
0.3937344489
 40
0.4607170153
 40
0.4954849154
 40
0.5310374979
 40
0.6043209729
 40
0.6802154897
 40
0.7583147641
 40
0.8381020376
 40
0.9188832816
 40
1.0
 40
1.0
 40
1.0
 40
1.0
 10
3.2249004265
 20
8.4558978163
 30
0.0
 10
3.2247466124
 20
8.4553882887
 30
0.0
 10
3.2243137219
 20
8.4543466981
 30
0.0
 10
3.2233814027
 20
8.4528422933
 30
0.0
 10
3.2221387506
 20
8.4513608602
 30
0.0
 10
3.2205851559
 20
8.4499530355
 30
0.0
 10
3.2187428699
 20
8.4486329423
 30
0.0
 10
3.2166308736
 20
8.4473955573
 30
0.0
 10
3.2142665997
 20
8.4462360132
 30
0.0
 10
3.2116674067
 20
8.4451611973
 30
0.0
 10
3.209351246
 20
8.444361398
 30
0.0
 10
3.2073988374
 20
8.4437774337
 30
0.0
 10
3.2053404404
 20
8.4432243042
 30
0.0
 10
3.2026654374
 20
8.442618614
 30
0.0
 10
3.1993446416
 20
8.442022571
 30
0.0
 10
3.1959077248
 20
8.4415431407
 30
0.0
 10
3.1923837446
 20
8.4411782173
 30
0.0
 10
3.188802622
 20
8.4409582995
 30
0.0
 10
3.1863988522
 20
8.4409270325
 30
0.0
 10
3.1851951724
 20
8.440945247
 30
0.0
 11
3.2249004265
 21
8.4558978163
 31
0.0
 11
3.224299558
 21
8.4544184749
 31
0.0
 11
3.2233773033
 21
8.452912163
 31
0.0
 11
3.2221423238
 21
8.4514307406
 31
0.0
 11
3.2206038344
 21
8.450021531
 31
0.0
 11
3.2187753061
 21
8.4486969824
 31
0.0
 11
3.2166721836
 21
8.4474533688
 31
0.0
 11
3.2143101579
 21
8.4462875576
 31
0.0
 11
3.2117088219
 21
8.4452077409
 31
0.0
 11
3.2088909834
 21
8.4442314398
 31
0.0
 11
3.2074080332
 21
8.44378767
 31
0.0
 11
3.2058795652
 21
8.4433762895
 31
0.0
 11
3.2026985434
 21
8.4426507999
 31
0.0
 11
3.199373481
 21
8.4420497396
 31
0.0
 11
3.1959300769
 21
8.4415667593
 31
0.0
 11
3.1923963556
 21
8.441204281
 31
0.0
 11
3.1888063781
 21
8.4409874971
 31
0.0
 11
3.1851951724
 21
8.440945247
 31
0.0
  0
SPLINE
  5
3ED
100
AcDbEntity
  8
0
100
AcDbSpline
 62
9
  6
CONTINUOUS
 70
0
 71
3
 72
22
 73
18
 74
16
 42
0.0000001
 43
0.0000001
 44
0.0000000001
 12
-0.0067709898
 22
-0.0461621923
 32
0.0
 13
-0.0466552559
 23
-0.0002853122
 33
0.0
 40
0.0
 40
0.0
 40
0.0
 40
0.0
 40
0.0394056161
 40
0.0808422386
 40
0.1250475608
 40
0.1725648367
 40
0.2237668967
 40
0.2788204431
 40
0.3377358424
 40
0.4004247295
 40
0.4667165317
 40
0.5363220901
 40
0.6088924242
 40
0.6840511984
 40
0.761368255
 40
0.8402438004
 40
1.0
 40
1.0
 40
1.0
 40
1.0
 10
3.2232164061
 20
9.405996554
 30
0.0
 10
3.2231274678
 20
9.4053902041
 30
0.0
 10
3.2228201383
 20
9.4041620121
 30
0.0
 10
3.2220164001
 20
9.4023816949
 30
0.0
 10
3.2208740451
 20
9.4006451906
 30
0.0
 10
3.2194037667
 20
9.3989699248
 30
0.0
 10
3.2176167684
 20
9.3973731497
 30
0.0
 10
3.2155328631
 20
9.3958646758
 30
0.0
 10
3.2131708685
 20
9.3944552866
 30
0.0
 10
3.2105501716
 20
9.3931566513
 30
0.0
 10
3.207691797
 20
9.3919811157
 30
0.0
 10
3.2046205626
 20
9.3909365908
 30
0.0
 10
3.2013621487
 20
9.3900318012
 30
0.0
 10
3.1979432626
 20
9.3892757908
 30
0.0
 10
3.1943937483
 20
9.3886777359
 30
0.0
 10
3.1895139716
 20
9.3880918377
 30
0.0
 10
3.1858009162
 20
9.3879010709
 30
0.0
 10
3.1833164274
 20
9.3878858774
 30
0.0
 11
3.2232164061
 21
9.405996554
 31
0.0
 11
3.2227774222
 21
9.4042112179
 31
0.0
 11
3.2219910633
 21
9.4024450974
 31
0.0
 11
3.220866065
 21
9.4007164924
 31
0.0
 11
3.2194111629
 21
9.3990437027
 31
0.0
 11
3.2176369614
 21
9.397444014
 31
0.0
 11
3.2155615403
 21
9.3959306542
 31
0.0
 11
3.2132048481
 21
9.3945158369
 31
0.0
 11
3.2105868334
 21
9.3932117758
 31
0.0
 11
3.2077285377
 21
9.3920301276
 31
0.0
 11
3.2046553746
 21
9.3909803217
 31
0.0
 11
3.2013938505
 21
9.3900712307
 31
0.0
 11
3.197970472
 21
9.3893117273
 31
0.0
 11
3.1944137438
 21
9.3887097284
 31
0.0
 11
3.1907601633
 21
9.388269328
 31
0.0
 11
3.1833164274
 21
9.3878858774
 31
0.0
  0
SPLINE
  5
3EE
100
AcDbEntity
  8
0
100
AcDbSpline
 62
9
  6
CONTINUOUS
 70
0
 71
3
 72
18
 73
14
 74
12
 42
0.0000001
 43
0.0000001
 44
0.0000000001
 12
-0.0668773411
 22
-0.0203078651
 32
0.0
 13
0.0007753491
 23
-0.0698883894
 33
0.0
 40
0.0
 40
0.0
 40
0.0
 40
0.0
 40
0.120580462
 40
0.2414144771
 40
0.3625671433
 40
0.4843143917
 40
0.6072822475
 40
0.6696423722
 40
0.7328396774
 40
0.7971539738
 40
0.8629071301
 40
0.9304326744
 40
1.0
 40
1.0
 40
1.0
 40
1.0
 10
3.2284546868
 20
9.4348847897
 30
0.0
 10
3.2257666533
 20
9.4340685457
 30
0.0
 10
3.2204465124
 20
9.4322206692
 30
0.0
 10
3.2127313437
 20
9.4287525401
 30
0.0
 10
3.2053791493
 20
9.4245038077
 30
0.0
 10
3.1985455316
 20
9.4193701789
 30
0.0
 10
3.1934890331
 20
9.4142592437
 30
0.0
 10
3.1900010618
 20
9.4096278955
 30
0.0
 10
3.1877010889
 20
9.4058395866
 30
0.0
 10
3.1857969287
 20
9.4017486159
 30
0.0
 10
3.1843623297
 20
9.3973618366
 30
0.0
 10
3.1834750681
 20
9.3927069638
 30
0.0
 10
3.1832984478
 20
9.389506521
 30
0.0
 10
3.1833164274
 20
9.3878858715
 30
0.0
 11
3.2284546868
 21
9.4348847897
 31
0.0
 11
3.2204977575
 21
9.4321075099
 31
0.0
 11
3.2128024544
 21
9.4286279504
 31
0.0
 11
3.2054839414
 21
9.4243687169
 31
0.0
 11
3.1987022617
 21
9.4192290641
 31
0.0
 11
3.192689454
 21
9.4130880131
 31
0.0
 11
3.1900723205
 21
9.4096027181
 31
0.0
 11
3.1877854286
 21
9.4058237928
 31
0.0
 11
3.1858935416
 21
9.4017462101
 31
0.0
 11
3.184468828
 21
9.3973769622
 31
0.0
 11
3.1835866305
 21
9.3927406054
 31
0.0
 11
3.1833164274
 21
9.3878858715
 31
0.0
  0
SPLINE
  5
3EF
100
AcDbEntity
  8
0
100
AcDbSpline
 62
9
  6
CONTINUOUS
 70
0
 71
3
 72
13
 73
9
 74
7
 42
0.0000001
 43
0.0000001
 44
0.0000000001
 12
-0.0111751128
 22
-0.0027677995
 32
0.0
 13
-0.0103350074
 23
-0.0050726209
 33
0.0
 40
0.0
 40
0.0
 40
0.0
 40
0.0
 40
0.1229847396
 40
0.2449134198
 40
0.3681211049
 40
0.4924618449
 40
0.7440625637
 40
1.0
 40
1.0
 40
1.0
 40
1.0
 10
3.2534391486
 20
9.4395030094
 30
0.0
 10
3.2529810258
 20
9.4393895437
 30
0.0
 10
3.2520736892
 20
9.4391434308
 30
0.0
 10
3.2507209225
 20
9.4387359977
 30
0.0
 10
3.2493724448
 20
9.4382973332
 30
0.0
 10
3.2475652852
 20
9.4376616883
 30
0.0
 10
3.2453084406
 20
9.4367718272
 30
0.0
 10
3.2435351552
 20
9.4359634219
 30
0.0
 10
3.2426534501
 20
9.435530664
 30
0.0
 11
3.2534391486
 21
9.4395030094
 31
0.0
 11
3.2520716257
 21
9.4391360769
 31
0.0
 11
3.2507271445
 21
9.4387325333
 31
0.0
 11
3.2493783714
 21
9.4382933925
 31
0.0
 11
3.2480280359
 21
9.4378182039
 31
0.0
 11
3.2453336266
 21
9.4367549202
 31
0.0
 11
3.2426534501
 21
9.435530664
 31
0.0
  0
SPLINE
  5
3F0
100
AcDbEntity
  8
0
100
AcDbSpline
 62
9
  6
CONTINUOUS
 70
0
 71
3
 72
13
 73
9
 74
7
 42
0.0000001
 43
0.0000001
 44
0.0000000001
 12
-0.0253876164
 22
-0.0018191426
 32
0.0
 13
-0.0243531915
 23
-0.0074001626
 33
0.0
 40
0.0
 40
0.0
 40
0.0
 40
0.0
 40
0.1248372441
 40
0.2490305841
 40
0.3736543798
 40
0.4985671018
 40
0.7489597789
 40
1.0
 40
1.0
 40
1.0
 40
1.0
 10
3.253435339
 20
9.4395027282
 30
0.0
 10
3.252378899
 20
9.4394270292
 30
0.0
 10
3.2502739427
 20
9.439240327
 30
0.0
 10
3.2471245321
 20
9.438875403
 30
0.0
 10
3.2439849375
 20
9.4384287785
 30
0.0
 10
3.2398026664
 20
9.4377197603
 30
0.0
 10
3.2346010822
 20
9.4366188388
 30
0.0
 10
3.2304925637
 20
9.4355040358
 30
0.0
 10
3.2284546868
 20
9.4348847897
 30
0.0
 11
3.253435339
 21
9.4395027282
 31
0.0
 11
3.2502699975
 21
9.4392256437
 31
0.0
 11
3.247129894
 21
9.4388622843
 31
0.0
 11
3.2439895418
 21
9.4384152324
 31
0.0
 11
3.2408549365
 21
9.437883608
 31
0.0
 11
3.2346203511
 21
9.4365617678
 31
0.0
 11
3.2284546868
 21
9.4348847897
 31
0.0
  0
SPLINE
  5
3F1
100
AcDbEntity
  8
0
100
AcDbSpline
 62
9
  6
CONTINUOUS
 70
0
 71
3
 72
25
 73
21
 74
19
 42
0.0000001
 43
0.0000001
 44
0.0000000001
 12
-0.0000402123
 22
0.6108144744
 32
0.0
 13
-0.5209462836
 23
0.3189189447
 33
0.0
 40
0.0
 40
0.0
 40
0.0
 40
0.0
 40
0.0638852325
 40
0.127755903
 40
0.1915083801
 40
0.255093961
 40
0.2868185737
 40
0.3184899341
 40
0.3816483642
 40
0.4131346473
 40
0.4445508572
 40
0.507165118
 40
0.5694968873
 40
0.6315534274
 40
0.6933607903
 40
0.7549431715
 40
0.8163491313
 40
0.8776252984
 40
0.9388231053
 40
1.0
 40
1.0
 40
1.0
 40
1.0
 10
6.8562171935
 20
9.8381604809
 30
0.0
 10
6.8562163372
 20
9.8511678225
 30
0.0
 10
6.8553440339
 20
9.8771875878
 30
0.0
 10
6.8514574546
 20
9.916012894
 30
0.0
 10
6.8450147046
 20
9.9544357868
 30
0.0
 10
6.8375475193
 20
9.9859756524
 30
0.0
 10
6.8303386738
 20
10.0108087864
 30
0.0
 10
6.8223338637
 20
10.0353049163
 30
0.0
 10
6.8131348169
 20
10.0593458637
 30
0.0
 10
6.8027871566
 20
10.0828381992
 30
0.0
 10
6.7917202817
 20
10.1058779683
 30
0.0
 10
6.7765363058
 20
10.1338875964
 30
0.0
 10
6.7562464507
 20
10.1661362003
 30
0.0
 10
6.7340217944
 20
10.1968807066
 30
0.0
 10
6.7099929557
 20
10.2260379944
 30
0.0
 10
6.6842758004
 20
10.2535356334
 30
0.0
 10
6.6569927696
 20
10.2793216906
 30
0.0
 10
6.6282569143
 20
10.3033556535
 30
0.0
 10
6.5981774918
 20
10.3256034006
 30
0.0
 10
6.5772972664
 20
10.339228868
 30
0.0
 10
6.5666739744
 20
10.3457323582
 30
0.0
 11
6.8562171935
 21
9.8381604809
 31
0.0
 11
6.8549137246
 21
9.8771607295
 31
0.0
 11
6.8510267169
 21
9.9159797389
 31
0.0
 11
6.844586165
 21
9.9543843711
 31
0.0
 11
6.8356349876
 21
9.9921778073
 31
0.0
 11
6.8302327587
 21
10.0107874043
 31
0.0
 11
6.8242242145
 21
10.0291759608
 31
0.0
 11
6.8104380354
 21
10.0652066391
 31
0.0
 11
6.8026854868
 21
10.0828071644
 31
0.0
 11
6.7943772214
 21
10.1001048147
 31
0.0
 11
6.776151394
 21
10.1337285049
 31
0.0
 11
6.7558773333
 21
10.1659546897
 31
0.0
 11
6.7336745786
 21
10.1966764932
 31
0.0
 11
6.7096668265
 21
10.2258124532
 31
0.0
 11
6.6839768398
 21
10.253288691
 31
0.0
 11
6.656721195
 21
10.2790559875
 31
0.0
 11
6.6280144049
 21
10.3030727123
 31
0.0
 11
6.5979647514
 21
10.3253060337
 31
0.0
 11
6.5666739744
 21
10.3457323582
 31
0.0
  0
SPLINE
  5
3F2
100
AcDbEntity
  8
0
100
AcDbSpline
 62
9
  6
CONTINUOUS
 70
0
 71
3
 72
25
 73
21
 74
19
 42
0.0000001
 43
0.0000001
 44
0.0000000001
 12
-0.0000402123
 22
-0.6108144744
 32
0.0
 13
-0.5209462836
 23
-0.3189189447
 33
0.0
 40
0.0
 40
0.0
 40
0.0
 40
0.0
 40
0.0638852325
 40
0.127755903
 40
0.1915083801
 40
0.255093961
 40
0.2868185737
 40
0.3184899341
 40
0.3816483642
 40
0.4131346473
 40
0.4445508572
 40
0.507165118
 40
0.5694968873
 40
0.6315534274
 40
0.6933607903
 40
0.7549431715
 40
0.8163491313
 40
0.8776252984
 40
0.9388231053
 40
1.0
 40
1.0
 40
1.0
 40
1.0
 10
6.8562171935
 20
9.8381604809
 30
0.0
 10
6.8562163372
 20
9.8251531394
 30
0.0
 10
6.8553440339
 20
9.7991333741
 30
0.0
 10
6.8514574546
 20
9.7603080679
 30
0.0
 10
6.8450147046
 20
9.7218851751
 30
0.0
 10
6.8375475193
 20
9.6903453095
 30
0.0
 10
6.8303386738
 20
9.6655121755
 30
0.0
 10
6.8223338637
 20
9.6410160455
 30
0.0
 10
6.8131348169
 20
9.6169750982
 30
0.0
 10
6.8027871566
 20
9.5934827627
 30
0.0
 10
6.7917202817
 20
9.5704429935
 30
0.0
 10
6.7765363058
 20
9.5424333655
 30
0.0
 10
6.7562464507
 20
9.5101847616
 30
0.0
 10
6.7340217944
 20
9.4794402553
 30
0.0
 10
6.7099929557
 20
9.4502829674
 30
0.0
 10
6.6842758004
 20
9.4227853285
 30
0.0
 10
6.6569927696
 20
9.3969992713
 30
0.0
 10
6.6282569143
 20
9.3729653084
 30
0.0
 10
6.5981774918
 20
9.3507175613
 30
0.0
 10
6.5772972664
 20
9.3370920939
 30
0.0
 10
6.5666739744
 20
9.3305886037
 30
0.0
 11
6.8562171935
 21
9.8381604809
 31
0.0
 11
6.8549137246
 21
9.7991602323
 31
0.0
 11
6.8510267169
 21
9.760341223
 31
0.0
 11
6.844586165
 21
9.7219365907
 31
0.0
 11
6.8356349876
 21
9.6841431545
 31
0.0
 11
6.8302327587
 21
9.6655335576
 31
0.0
 11
6.8242242145
 21
9.6471450011
 31
0.0
 11
6.8104380354
 21
9.6111143227
 31
0.0
 11
6.8026854868
 21
9.5935137975
 31
0.0
 11
6.7943772214
 21
9.5762161471
 31
0.0
 11
6.776151394
 21
9.542592457
 31
0.0
 11
6.7558773333
 21
9.5103662721
 31
0.0
 11
6.7336745786
 21
9.4796444687
 31
0.0
 11
6.7096668265
 21
9.4505085087
 31
0.0
 11
6.6839768398
 21
9.4230322709
 31
0.0
 11
6.656721195
 21
9.3972649744
 31
0.0
 11
6.6280144049
 21
9.3732482496
 31
0.0
 11
6.5979647514
 21
9.3510149282
 31
0.0
 11
6.5666739744
 21
9.3305886037
 31
0.0
  0
SPLINE
  5
3F3
100
AcDbEntity
  8
0
100
AcDbSpline
 62
6
  6
CONTINUOUS
 70
0
 71
3
 72
29
 73
25
 74
23
 42
0.0000001
 43
0.0000001
 44
0.0000000001
 12
0.3309494991
 22
0.5732213472
 32
0.0
 13
-0.3309494991
 23
0.5732213472
 33
0.0
 40
0.0
 40
0.0
 40
0.0
 40
0.0
 40
0.0635266886
 40
0.126756295
 40
0.1896644209
 40
0.2522447356
 40
0.3145118316
 40
0.3455448909
 40
0.3765164487
 40
0.4074349702
 40
0.4383135262
 40
0.469164289
 40
0.5000000485
 40
0.5308358041
 40
0.5616865626
 40
0.592565119
 40
0.6234836325
 40
0.6544551769
 40
0.6854882307
 40
0.747755305
 40
0.8103356053
 40
0.8732437102
 40
0.93647331
 40
1.0
 40
1.0
 40
1.0
 40
1.0
 10
4.3632787652
 20
9.2131604809
 30
0.0
 10
4.3702868071
 20
9.2252987656
 30
0.0
 10
4.3838162262
 20
9.2497853052
 30
0.0
 10
4.4024277966
 20
9.2872815292
 30
0.0
 10
4.4190327029
 20
9.3254875935
 30
0.0
 10
4.4333008479
 20
9.3644053866
 30
0.0
 10
4.4429786768
 20
9.3974410817
 30
0.0
 10
4.4492049396
 20
9.4241491641
 30
0.0
 10
4.4530818243
 20
9.4442867991
 30
0.0
 10
4.4561377545
 20
9.4645310372
 30
0.0
 10
4.4583378923
 20
9.4848596491
 30
0.0
 10
4.4596680741
 20
9.5052454631
 30
0.0
 10
4.4601158269
 20
9.5256605122
 30
0.0
 10
4.4596680832
 20
9.546075561
 30
0.0
 10
4.4583378767
 20
9.5664613717
 30
0.0
 10
4.4561377478
 20
9.5867899814
 30
0.0
 10
4.4530818244
 20
9.6070342162
 30
0.0
 10
4.4492049262
 20
9.6271718426
 30
0.0
 10
4.4429786675
 20
9.6538799166
 30
0.0
 10
4.4333008403
 20
9.6869156029
 30
0.0
 10
4.4190326951
 20
9.7258333823
 30
0.0
 10
4.4024277941
 20
9.7640394389
 30
0.0
 10
4.3838162252
 20
9.8015356571
 30
0.0
 10
4.3702868073
 20
9.826022196
 30
0.0
 10
4.3632787652
 20
9.8381604809
 30
0.0
 11
4.3632787652
 21
9.2131604809
 31
0.0
 11
4.3835739163
 21
9.2499865899
 31
0.0
 11
4.402137919
 21
9.2874957265
 31
0.0
 11
4.4186832786
 21
9.3257062337
 31
0.0
 11
4.4328883667
 21
9.364616193
 31
0.0
 11
4.4444198763
 21
9.4041846355
 31
0.0
 11
4.4490778542
 21
9.424190277
 31
0.0
 11
4.4529479554
 21
9.4443216972
 31
0.0
 11
4.4559968452
 21
9.4645582477
 31
0.0
 11
4.4581937117
 21
9.4848783229
 31
0.0
 11
4.4595212373
 21
9.5052552145
 31
0.0
 11
4.4599666017
 21
9.5256605132
 31
0.0
 11
4.4595212408
 21
9.5460658093
 31
0.0
 11
4.4581937018
 21
9.5664426972
 31
0.0
 11
4.4559968378
 21
9.586762773
 31
0.0
 11
4.4529479519
 21
9.6069993186
 31
0.0
 11
4.4490778439
 21
9.6271307286
 31
0.0
 11
4.4444198654
 21
9.6471363661
 31
0.0
 11
4.4328883591
 21
9.6867047946
 31
0.0
 11
4.4186832714
 21
9.7256147439
 31
0.0
 11
4.4021379175
 21
9.7638252385
 31
0.0
 11
4.3835739165
 21
9.8013343711
 31
0.0
 11
4.3632787652
 21
9.8381604809
 31
0.0
  0
SPLINE
  5
3F4
100
AcDbEntity
  8
0
100
AcDbSpline
 62
6
  6
CONTINUOUS
 70
0
 71
3
 72
31
 73
27
 74
25
 42
0.0000001
 43
0.0000001
 44
0.0000000001
 12
-0.3730955451
 22
-0.543384592
 32
0.0
 13
0.3730955451
 23
-0.543384592
 33
0.0
 40
0.0
 40
0.0
 40
0.0
 40
0.0
 40
0.0639664924
 40
0.1272842234
 40
0.1900689505
 40
0.2213109999
 40
0.2524695896
 40
0.3145705749
 40
0.3455463333
 40
0.3764823667
 40
0.4073873382
 40
0.4382704058
 40
0.4691389909
 40
0.5000000225
 40
0.5308610647
 40
0.5617296858
 40
0.5926128124
 40
0.6235178327
 40
0.6544538866
 40
0.6854296663
 40
0.7475304878
 40
0.7786889218
 40
0.8099307527
 40
0.8727147851
 40
0.9360330266
 40
1.0
 40
1.0
 40
1.0
 40
1.0
 10
4.1632787652
 20
9.8381604809
 30
0.0
 10
4.1553235608
 20
9.8265743455
 30
0.0
 10
4.1406175304
 20
9.8027271504
 30
0.0
 10
4.1220409383
 20
9.7652689334
 30
0.0
 10
4.1093720018
 20
9.7330574587
 30
0.0
 10
4.1008368216
 20
9.7069044889
 30
0.0
 10
4.0933420122
 20
9.6805909171
 30
0.0
 10
4.0873004093
 20
9.6539442235
 30
0.0
 10
4.0826362392
 20
9.6270955167
 30
0.0
 10
4.0798050383
 20
9.6068960108
 30
0.0
 10
4.0776211159
 20
9.5866373295
 30
0.0
 10
4.0760734569
 20
9.5663350305
 30
0.0
 10
4.0751481672
 20
9.5460046785
 30
0.0
 10
4.0748392116
 20
9.5256604656
 30
0.0
 10
4.0751481533
 20
9.5053162442
 30
0.0
 10
4.0760734738
 20
9.4849858704
 30
0.0
 10
4.0776211115
 20
9.4646835387
 30
0.0
 10
4.0798050186
 20
9.4444248265
 30
0.0
 10
4.0826362899
 20
9.4242253104
 30
0.0
 10
4.0873004262
 20
9.3973766258
 30
0.0
 10
4.093342027
 20
9.3707299972
 30
0.0
 10
4.1008368336
 20
9.3444165479
 30
0.0
 10
4.1093719137
 20
9.3182637938
 30
0.0
 10
4.1220407306
 20
9.2860523642
 30
0.0
 10
4.1406174296
 20
9.2485941278
 30
0.0
 10
4.1553235009
 20
9.2247467035
 30
0.0
 10
4.1632787652
 20
9.2131604809
 30
0.0
 11
4.1632787652
 21
9.8381604809
 31
0.0
 11
4.1411148061
 21
9.8022930412
 31
0.0
 11
4.1225362791
 21
9.7649209176
 31
0.0
 11
4.1073494768
 21
9.7264242108
 31
0.0
 11
4.1009559827
 21
9.7068489293
 31
0.0
 11
4.0953251255
 21
9.6870980007
 31
0.0
 11
4.0862433778
 21
9.6471848662
 31
0.0
 11
4.0827448925
 21
9.6270694308
 31
0.0
 11
4.0799116507
 21
9.6068760076
 31
0.0
 11
4.0777264832
 21
9.5866228086
 31
0.0
 11
4.0761768861
 21
9.5663255731
 31
0.0
 11
4.0752508067
 21
9.5459999034
 31
0.0
 11
4.0749421861
 21
9.5256604678
 31
0.0
 11
4.0752508
 21
9.5053210251
 31
0.0
 11
4.0761768939
 21
9.4849953324
 31
0.0
 11
4.0777264801
 21
9.4646980571
 31
0.0
 11
4.0799116462
 21
9.4444448255
 31
0.0
 11
4.0827449283
 21
9.4242513945
 31
0.0
 11
4.0862434127
 21
9.4041359445
 31
0.0
 11
4.0953251478
 21
9.364222918
 31
0.0
 11
4.1009559909
 21
9.344472092
 31
0.0
 11
4.107349424
 21
9.3248969421
 31
0.0
 11
4.1225359937
 21
9.2864006358
 31
0.0
 11
4.1411146815
 21
9.2490282164
 31
0.0
 11
4.1632787652
 21
9.2131604809
 31
0.0
  0
SPLINE
  5
3F5
100
AcDbEntity
  8
0
100
AcDbSpline
 62
6
  6
CONTINUOUS
 70
0
 71
3
 72
29
 73
25
 74
23
 42
0.0000001
 43
0.0000001
 44
0.0000000001
 12
0.3309494991
 22
0.5732213472
 32
0.0
 13
-0.3309494991
 23
0.5732213472
 33
0.0
 40
0.0
 40
0.0
 40
0.0
 40
0.0
 40
0.0635266886
 40
0.126756295
 40
0.1896644209
 40
0.2522447356
 40
0.3145118316
 40
0.3455448909
 40
0.3765164487
 40
0.4074349702
 40
0.4383135262
 40
0.469164289
 40
0.5000000485
 40
0.5308358041
 40
0.5616865626
 40
0.592565119
 40
0.6234836325
 40
0.6544551769
 40
0.6854882307
 40
0.747755305
 40
0.8103356053
 40
0.8732437102
 40
0.93647331
 40
1.0
 40
1.0
 40
1.0
 40
1.0
 10
4.3632787652
 20
9.8381604809
 30
0.0
 10
4.3702868071
 20
9.8502987656
 30
0.0
 10
4.3838162262
 20
9.8747853052
 30
0.0
 10
4.4024277966
 20
9.9122815292
 30
0.0
 10
4.4190327029
 20
9.9504875935
 30
0.0
 10
4.4333008479
 20
9.9894053866
 30
0.0
 10
4.4429786768
 20
10.0224410817
 30
0.0
 10
4.4492049396
 20
10.0491491641
 30
0.0
 10
4.4530818243
 20
10.0692867991
 30
0.0
 10
4.4561377545
 20
10.0895310372
 30
0.0
 10
4.4583378923
 20
10.1098596491
 30
0.0
 10
4.4596680741
 20
10.1302454631
 30
0.0
 10
4.4601158269
 20
10.1506605122
 30
0.0
 10
4.4596680832
 20
10.171075561
 30
0.0
 10
4.4583378767
 20
10.1914613717
 30
0.0
 10
4.4561377478
 20
10.2117899814
 30
0.0
 10
4.4530818244
 20
10.2320342162
 30
0.0
 10
4.4492049262
 20
10.2521718426
 30
0.0
 10
4.4429786675
 20
10.2788799166
 30
0.0
 10
4.4333008403
 20
10.3119156029
 30
0.0
 10
4.4190326951
 20
10.3508333823
 30
0.0
 10
4.4024277941
 20
10.3890394389
 30
0.0
 10
4.3838162252
 20
10.4265356571
 30
0.0
 10
4.3702868073
 20
10.451022196
 30
0.0
 10
4.3632787652
 20
10.4631604809
 30
0.0
 11
4.3632787652
 21
9.8381604809
 31
0.0
 11
4.3835739163
 21
9.8749865899
 31
0.0
 11
4.402137919
 21
9.9124957265
 31
0.0
 11
4.4186832786
 21
9.9507062337
 31
0.0
 11
4.4328883667
 21
9.989616193
 31
0.0
 11
4.4444198763
 21
10.0291846355
 31
0.0
 11
4.4490778542
 21
10.049190277
 31
0.0
 11
4.4529479554
 21
10.0693216972
 31
0.0
 11
4.4559968452
 21
10.0895582477
 31
0.0
 11
4.4581937117
 21
10.1098783229
 31
0.0
 11
4.4595212373
 21
10.1302552145
 31
0.0
 11
4.4599666017
 21
10.1506605132
 31
0.0
 11
4.4595212408
 21
10.1710658093
 31
0.0
 11
4.4581937018
 21
10.1914426972
 31
0.0
 11
4.4559968378
 21
10.211762773
 31
0.0
 11
4.4529479519
 21
10.2319993186
 31
0.0
 11
4.4490778439
 21
10.2521307286
 31
0.0
 11
4.4444198654
 21
10.2721363661
 31
0.0
 11
4.4328883591
 21
10.3117047946
 31
0.0
 11
4.4186832714
 21
10.3506147439
 31
0.0
 11
4.4021379175
 21
10.3888252385
 31
0.0
 11
4.3835739165
 21
10.4263343711
 31
0.0
 11
4.3632787652
 21
10.4631604809
 31
0.0
  0
SPLINE
  5
3F6
100
AcDbEntity
  8
0
100
AcDbSpline
 62
6
  6
CONTINUOUS
 70
0
 71
3
 72
31
 73
27
 74
25
 42
0.0000001
 43
0.0000001
 44
0.0000000001
 12
-0.37309554
 22
-0.5433845846
 32
0.0
 13
0.37309554
 23
-0.5433845846
 33
0.0
 40
0.0
 40
0.0
 40
0.0
 40
0.0
 40
0.0639674142
 40
0.1272868089
 40
0.19007091
 40
0.221312612
 40
0.2524708839
 40
0.314571546
 40
0.3455471095
 40
0.3764830006
 40
0.4073878298
 40
0.4382707386
 40
0.469139152
 40
0.4999999968
 40
0.5308608334
 40
0.5617292183
 40
0.5926120797
 40
0.62351687
 40
0.6544527441
 40
0.6854282898
 40
0.7475291012
 40
0.7786875141
 40
0.809929418
 40
0.8727141443
 40
0.9360330267
 40
1.0
 40
1.0
 40
1.0
 40
1.0
 10
4.1632787652
 20
10.4631604809
 30
0.0
 10
4.1553234462
 20
10.4515741787
 30
0.0
 10
4.1406172877
 20
10.4277264005
 30
0.0
 10
4.1220403072
 20
10.3902678934
 30
0.0
 10
4.1093715908
 20
10.358056163
 30
0.0
 10
4.1008365355
 20
10.3319034548
 30
0.0
 10
4.0933417808
 20
10.3055900922
 30
0.0
 10
4.0873003147
 20
10.2789435578
 30
0.0
 10
4.0826361237
 20
10.2520950022
 30
0.0
 10
4.0798050265
 20
10.2318955879
 30
0.0
 10
4.0776211052
 20
10.2116370059
 30
0.0
 10
4.0760734321
 20
10.1913348119
 30
0.0
 10
4.0751481784
 20
10.171004572
 30
0.0
 10
4.074839254
 20
10.1506604831
 30
0.0
 10
4.0751481914
 20
10.130316401
 30
0.0
 10
4.0760734186
 20
10.1099861783
 30
0.0
 10
4.0776211112
 20
10.0896840106
 30
0.0
 10
4.0798050452
 20
10.0694254536
 30
0.0
 10
4.0826360841
 20
10.0492260474
 30
0.0
 10
4.0873003096
 20
10.0223774716
 30
0.0
 10
4.0933417737
 20
9.9957308769
 30
0.0
 10
4.1008365353
 20
9.9694174034
 30
0.0
 10
4.1093716853
 20
9.9432645011
 30
0.0
 10
4.1220405058
 20
9.9110527401
 30
0.0
 10
4.1406173839
 20
9.8735942623
 30
0.0
 10
4.1553235011
 20
9.8497467033
 30
0.0
 10
4.1632787652
 20
9.8381604809
 30
0.0
 11
4.1632787652
 21
10.4631604809
 31
0.0
 11
4.1411145785
 21
10.4272924683
 31
0.0
 11
4.1225355366
 21
10.3899193767
 31
0.0
 11
4.1073490775
 21
10.3514229786
 31
0.0
 11
4.100955692
 21
10.3318479028
 31
0.0
 11
4.0953249017
 21
10.3120971732
 31
0.0
 11
4.0862432639
 21
10.2721842329
 31
0.0
 11
4.0827447988
 21
10.2520689246
 31
0.0
 11
4.079911622
 21
10.2318755873
 31
0.0
 11
4.0777264695
 21
10.2116224813
 31
0.0
 11
4.0761768694
 21
10.1913253513
 31
0.0
 11
4.075250817
 21
10.170999794
 31
0.0
 11
4.0749422226
 21
10.1506604813
 31
0.0
 11
4.0752508236
 21
10.1303211743
 31
0.0
 11
4.0761768638
 21
10.1099956352
 31
0.0
 11
4.0777264742
 21
10.0896985373
 31
0.0
 11
4.0799116281
 21
10.0694454572
 31
0.0
 11
4.0827447722
 21
10.0492521267
 31
0.0
 11
4.0862432408
 21
10.029136831
 31
0.0
 11
4.0953248896
 21
9.9892237922
 31
0.0
 11
4.100955695
 21
9.9694729702
 31
0.0
 11
4.1073491392
 21
9.9498977736
 31
0.0
 11
4.1225358096
 21
9.9114010158
 31
0.0
 11
4.1411146918
 21
9.874028222
 31
0.0
 11
4.1632787652
 21
9.8381604809
 31
0.0
  0
SPLINE
  5
3F7
100
AcDbEntity
  8
0
100
AcDbSpline
 62
9
  6
CONTINUOUS
 70
0
 71
3
 72
11
 73
7
 74
5
 42
0.0000001
 43
0.0000001
 44
0.0000000001
 12
-0.005356412
 22
0.137965491
 32
0.0
 13
0.0328431006
 23
0.1341062959
 33
0.0
 40
0.0
 40
0.0
 40
0.0
 40
0.0
 40
0.2489310331
 40
0.4979739844
 40
0.7480464049
 40
1.0
 40
1.0
 40
1.0
 40
1.0
 10
2.8410340806
 20
11.0823797704
 30
0.0
 10
2.8405896215
 20
11.0938277344
 30
0.0
 10
2.8405028244
 20
11.1167681279
 30
0.0
 10
2.8427959241
 20
11.1511465192
 30
0.0
 10
2.8475100259
 20
11.1854175186
 30
0.0
 10
2.8522437345
 20
11.2080542038
 30
0.0
 10
2.8550020469
 20
11.2193170583
 30
0.0
 11
2.8410340806
 21
11.0823797704
 31
0.0
 11
2.8409059906
 21
11.1167492978
 31
0.0
 11
2.843191791
 21
11.1510584566
 31
0.0
 11
2.8478909415
 21
11.1852645432
 31
0.0
 11
2.8550020469
 21
11.2193170583
 31
0.0
  0
SPLINE
  5
3F8
100
AcDbEntity
  8
0
100
AcDbSpline
 62
6
  6
CONTINUOUS
 70
0
 71
3
 72
35
 73
31
 74
29
 42
0.0000001
 43
0.0000001
 44
0.0000000001
 12
-0.5501882684
 22
0.0
 32
0.0
 13
0.0
 23
0.5501882684
 33
0.0
 40
0.0
 40
0.0
 40
0.0
 40
0.0
 40
0.0629108879
 40
0.0944101746
 40
0.1259105611
 40
0.1573964019
 40
0.1888604209
 40
0.2203040376
 40
0.2517287501
 40
0.283136088
 40
0.3145276654
 40
0.3459026376
 40
0.3772586675
 40
0.408593382
 40
0.4399049423
 40
0.5024385919
 40
0.5648785536
 40
0.5960737703
 40
0.6272471614
 40
0.6583985812
 40
0.6895276524
 40
0.7206343307
 40
0.7517204176
 40
0.7827906463
 40
0.813849934
 40
0.84490338
 40
0.8759562428
 40
0.9070055953
 40
0.9380404107
 40
1.0
 40
1.0
 40
1.0
 40
1.0
 10
6.1132787652
 20
4.3446636185
 30
0.0
 10
6.1017411544
 20
4.3446636185
 30
0.0
 10
6.0844115363
 20
4.3455070228
 30
0.0
 10
6.0614824786
 20
4.3482904122
 30
0.0
 10
6.0443937709
 20
4.3512059083
 30
0.0
 10
6.0274734764
 20
4.3549448401
 30
0.0
 10
6.0107648696
 20
4.3594993951
 30
0.0
 10
5.9943072256
 20
4.3648543892
 30
0.0
 10
5.9781379749
 20
4.3709965698
 30
0.0
 10
5.9622944416
 20
4.3779121459
 30
0.0
 10
5.9468149917
 20
4.3855877204
 30
0.0
 10
5.9317353449
 20
4.3940023724
 30
0.0
 10
5.9170911793
 20
4.403134018
 30
0.0
 10
5.9029178937
 20
4.4129610172
 30
0.0
 10
5.8847076632
 20
4.426953468
 30
0.0
 10
5.8632891329
 20
4.446073154
 30
0.0
 10
5.8438565315
 20
4.4671796839
 30
0.0
 10
5.8296367942
 20
4.4851263424
 30
0.0
 10
5.8196574819
 20
4.4990843426
 30
0.0
 10
5.8103842365
 20
4.5135061927
 30
0.0
 10
5.8018390372
 20
4.52835703
 30
0.0
 10
5.7940442825
 20
4.5436017254
 30
0.0
 10
5.7870212565
 20
4.5592051572
 30
0.0
 10
5.780783625
 20
4.5751294642
 30
0.0
 10
5.7753453859
 20
4.5913378674
 30
0.0
 10
5.7707199967
 20
4.6077934954
 30
0.0
 10
5.76692286
 20
4.6244576922
 30
0.0
 10
5.7639619935
 20
4.6412878817
 30
0.0
 10
5.7611356463
 20
4.6638669524
 30
0.0
 10
5.7602787652
 20
4.680937609
 30
0.0
 10
5.7602787652
 20
4.6923007554
 30
0.0
 11
6.1132787652
 21
4.3446636185
 31
0.0
 11
6.0787065448
 21
4.3463398487
 31
0.0
 11
6.0615022916
 21
4.348428202
 31
0.0
 11
6.0444181667
 21
4.3513438836
 31
0.0
 11
6.0275031878
 21
4.3550821554
 31
0.0
 11
6.0108013202
 21
4.3596344058
 31
0.0
 11
5.994350386
 21
4.3649873131
 31
0.0
 11
5.9781878366
 21
4.3711272713
 31
0.0
 11
5.9623511232
 21
4.3780406745
 31
0.0
 11
5.9468775439
 21
4.3857130518
 31
0.0
 11
5.9318034381
 21
4.3941245242
 31
0.0
 11
5.9171647755
 21
4.4032531271
 31
0.0
 11
5.9029975249
 21
4.4130768915
 31
0.0
 11
5.8893376311
 21
4.4235738221
 31
0.0
 11
5.8636710027
 21
4.4464855551
 31
0.0
 11
5.8404058784
 21
4.4717622846
 31
0.0
 11
5.8297470339
 21
4.4852146419
 31
0.0
 11
5.8197717626
 21
4.4991666594
 31
0.0
 11
5.8105023862
 21
4.5135829342
 31
0.0
 11
5.8019611975
 21
4.5284280371
 31
0.0
 11
5.7941704854
 21
4.5436665384
 31
0.0
 11
5.7871504595
 21
4.5592626501
 31
0.0
 11
5.7809158239
 21
4.5751796349
 31
0.0
 11
5.7754803816
 21
4.5913806005
 31
0.0
 11
5.7708579359
 21
4.6078286544
 31
0.0
 11
5.7670620088
 21
4.6244865492
 31
0.0
 11
5.7641013692
 21
4.6413110296
 31
0.0
 11
5.7619808246
 21
4.658253834
 31
0.0
 11
5.7602787652
 21
4.6923007554
 31
0.0
  0
SPLINE
  5
3F9
100
AcDbEntity
  8
0
100
AcDbSpline
 62
9
  6
CONTINUOUS
 70
0
 71
3
 72
35
 73
31
 74
29
 42
0.0000001
 43
0.0000001
 44
0.0000000001
 12
-0.0000818765
 22
-0.5824564885
 32
0.0
 13
-0.4002651495
 23
-0.4231351767
 33
0.0
 40
0.0
 40
0.0
 40
0.0
 40
0.0
 40
0.090170075
 40
0.1796128309
 40
0.2674721528
 40
0.3530168647
 40
0.4355386922
 40
0.5143479135
 40
0.5888314647
 40
0.6584357774
 40
0.6912613386
 40
0.7226953707
 40
0.752689559
 40
0.7812039427
 40
0.808199737
 40
0.8336400796
 40
0.8574975597
 40
0.8797502773
 40
0.9003783481
 40
0.9193665875
 40
0.9367103653
 40
0.9447668769
 40
0.9524145653
 40
0.9596556777
 40
0.9664946149
 40
0.9729420836
 40
0.9790131455
 40
0.9847271291
 40
0.9901087578
 40
1.0
 40
1.0
 40
1.0
 40
1.0
 10
4.7790626972
 20
9.838160481
 30
0.0
 10
4.7790602362
 20
9.8206537659
 30
0.0
 10
4.7789457853
 20
9.7857814519
 30
0.0
 10
4.778433142
 20
9.7338533
 30
0.0
 10
4.7775639904
 20
9.6828279331
 30
0.0
 10
4.7763143057
 20
9.633154474
 30
0.0
 10
4.7746673247
 20
9.58525054
 30
0.0
 10
4.772608158
 20
9.5395119518
 30
0.0
 10
4.7701353823
 20
9.4963055333
 30
0.0
 10
4.7676862505
 20
9.4620432934
 30
0.0
 10
4.7655032893
 20
9.4361448644
 30
0.0
 10
4.7637994737
 20
9.4179244928
 30
0.0
 10
4.7619983265
 20
9.4005547496
 30
0.0
 10
4.7601006019
 20
9.3840623248
 30
0.0
 10
4.7581070838
 20
9.3684720738
 30
0.0
 10
4.7560181217
 20
9.3538069631
 30
0.0
 10
4.7538345827
 20
9.3400872337
 30
0.0
 10
4.7515573462
 20
9.3273306451
 30
0.0
 10
4.7491872752
 20
9.3155535998
 30
0.0
 10
4.746724324
 20
9.3047710046
 30
0.0
 10
4.7445370336
 20
9.2964328609
 30
0.0
 10
4.7427182335
 20
9.2902792295
 30
0.0
 10
4.7413586252
 20
9.2860364303
 30
0.0
 10
4.7399686135
 20
9.2820529858
 30
0.0
 10
4.7385465755
 20
9.2783291506
 30
0.0
 10
4.7370824608
 20
9.274866709
 30
0.0
 10
4.7355658996
 20
9.2716669025
 30
0.0
 10
4.7339857085
 20
9.2687298415
 30
0.0
 10
4.731841055
 20
9.2652645041
 30
0.0
 10
4.7300160747
 20
9.262904699
 30
0.0
 10
4.7286963682
 20
9.2615095882
 30
0.0
 11
4.7790626972
 21
9.838160481
 31
0.0
 11
4.7788874058
 21
9.7856406277
 31
0.0
 11
4.7783673865
 21
9.7335467091
 31
0.0
 11
4.7774861657
 21
9.6823800644
 31
0.0
 11
4.7762216794
 21
9.632570039
 31
0.0
 11
4.7745555675
 21
9.58453355
 31
0.0
 11
4.7724746994
 21
9.5386777964
 31
0.0
 11
4.7699753749
 21
9.4953664213
 31
0.0
 11
4.7670605713
 21
9.4549298557
 31
0.0
 11
4.7654509246
 21
9.4358782721
 31
0.0
 11
4.7637421014
 21
9.4176492348
 31
0.0
 11
4.7619353419
 21
9.4002726027
 31
0.0
 11
4.760031277
 21
9.3837737213
 31
0.0
 11
4.7580305002
 21
9.368177659
 31
0.0
 11
4.7559335993
 21
9.3535088843
 31
0.0
 11
4.7537411163
 21
9.3397869935
 31
0.0
 11
4.7514535709
 21
9.3270292165
 31
0.0
 11
4.7490714816
 21
9.3152527669
 31
0.0
 11
4.7465933165
 21
9.3044741589
 31
0.0
 11
4.7440111909
 21
9.2947077393
 31
0.0
 11
4.7426782956
 21
9.2902084528
 31
0.0
 11
4.7413159934
 21
9.2859674364
 31
0.0
 11
4.7399231452
 21
9.2819864313
 31
0.0
 11
4.7384970647
 21
9.2782670714
 31
0.0
 11
4.7370289423
 21
9.2748105674
 31
0.0
 11
4.7355084542
 21
9.2716180249
 31
0.0
 11
4.7339252765
 21
9.26869055
 31
0.0
 11
4.7322690854
 21
9.2660292483
 31
0.0
 11
4.7286963682
 21
9.2615095882
 31
0.0
  0
SPLINE
  5
3FA
100
AcDbEntity
  8
0
100
AcDbSpline
 62
9
  6
CONTINUOUS
 70
0
 71
3
 72
34
 73
30
 74
28
 42
0.0000001
 43
0.0000001
 44
0.0000000001
 12
-0.0000918631
 22
-0.5819711007
 32
0.0
 13
0.3795919378
 23
-0.4411352755
 33
0.0
 40
0.0
 40
0.0
 40
0.0
 40
0.0
 40
0.0875313522
 40
0.1744420477
 40
0.2600030566
 40
0.3435889911
 40
0.4245824756
 40
0.5023698558
 40
0.5763772868
 40
0.6460616068
 40
0.7109244741
 40
0.7414015852
 40
0.7705060892
 40
0.7981876448
 40
0.8243977007
 40
0.8490957574
 40
0.8722451856
 40
0.8938110317
 40
0.9137642651
 40
0.9320881732
 40
0.9406360358
 40
0.948773316
 40
0.9564999532
 40
0.9638184545
 40
0.9707384455
 40
0.9772736282
 40
0.9834417748
 40
0.9892658645
 40
1.0
 40
1.0
 40
1.0
 40
1.0
 10
4.6388702282
 20
9.8381604809
 30
0.0
 10
4.6388675479
 20
9.8211802418
 30
0.0
 10
4.639031225
 20
9.7873399066
 30
0.0
 10
4.6397696318
 20
9.736906455
 30
0.0
 10
4.6409926814
 20
9.68724791
 30
0.0
 10
4.6427056028
 20
9.638752332
 30
0.0
 10
4.6449052466
 20
9.5917858528
 30
0.0
 10
4.6475863889
 20
9.5467055254
 30
0.0
 10
4.6507317688
 20
9.5038544225
 30
0.0
 10
4.6543216929
 20
9.4635546782
 30
0.0
 10
4.6577254984
 20
9.4317207965
 30
0.0
 10
4.6606720449
 20
9.4077598328
 30
0.0
 10
4.6629265854
 20
9.3909820252
 30
0.0
 10
4.6652661214
 20
9.3750520192
 30
0.0
 10
4.6676849652
 20
9.3599989636
 30
0.0
 10
4.6701800657
 20
9.3458502002
 30
0.0
 10
4.6727489746
 20
9.3326312141
 30
0.0
 10
4.6753891497
 20
9.3203660853
 30
0.0
 10
4.6780992597
 20
9.3090766711
 30
0.0
 10
4.680469265
 20
9.3003059311
 30
0.0
 10
4.6824149058
 20
9.2937988082
 30
0.0
 10
4.6838595449
 20
9.2892885313
 30
0.0
 10
4.6853238103
 20
9.2850360155
 30
0.0
 10
4.6868094286
 20
9.2810418199
 30
0.0
 10
4.6883293428
 20
9.2773086721
 30
0.0
 10
4.6898962117
 20
9.2738383279
 30
0.0
 10
4.6915235355
 20
9.2706315068
 30
0.0
 10
4.6937306101
 20
9.2668144573
 30
0.0
 10
4.6956034785
 20
9.2641847467
 30
0.0
 10
4.6969616756
 20
9.2626063447
 30
0.0
 11
4.6388702282
 21
9.8381604809
 31
0.0
 11
4.6391153328
 21
9.7872203526
 31
0.0
 11
4.6398582734
 21
9.7366462955
 31
0.0
 11
4.6410917646
 21
9.6868675406
 31
0.0
 11
4.6428179303
 21
9.6382535781
 31
0.0
 11
4.6450352271
 21
9.5911698905
 31
0.0
 11
4.6477369221
 21
9.5459805726
 31
0.0
 11
4.6509079595
 21
9.5030272782
 31
0.0
 11
4.6545278543
 21
9.4626348972
 31
0.0
 11
4.6585694001
 21
9.4251035613
 31
0.0
 11
4.6607381952
 21
9.407499859
 31
0.0
 11
4.6629984393
 21
9.3907133621
 31
0.0
 11
4.6653444221
 21
9.3747752275
 31
0.0
 11
4.6677708137
 21
9.3597159532
 31
0.0
 11
4.6702745349
 21
9.3455621384
 31
0.0
 11
4.6728533316
 21
9.332338953
 31
0.0
 11
4.6755049545
 21
9.3200715593
 31
0.0
 11
4.6782284555
 21
9.3087832531
 31
0.0
 11
4.6810260623
 21
9.2984927733
 31
0.0
 11
4.6824535002
 21
9.2937273608
 31
0.0
 11
4.6839004783
 21
9.2892181759
 31
0.0
 11
4.6853673369
 21
9.2849674755
 31
0.0
 11
4.6868571843
 21
9.2809773919
 31
0.0
 11
4.688381278
 21
9.2772496904
 31
0.0
 11
4.6899523675
 21
9.2737860689
 31
0.0
 11
4.6915832024
 21
9.2705882255
 31
0.0
 11
4.6932865323
 21
9.2676578584
 31
0.0
 11
4.6969616756
 21
9.2626063447
 31
0.0
  0
SPLINE
  5
3FB
100
AcDbEntity
  8
0
100
AcDbSpline
 62
9
  6
CONTINUOUS
 70
0
 71
3
 72
37
 73
33
 74
31
 42
0.0000001
 43
0.0000001
 44
0.0000000001
 12
-0.009079031
 22
-0.0107636457
 32
0.0
 13
-0.0140808238
 23
0.0001235825
 33
0.0
 40
0.0
 40
0.0
 40
0.0
 40
0.0
 40
0.0977563944
 40
0.1950422087
 40
0.2426981168
 40
0.2892063154
 40
0.334194437
 40
0.3775669413
 40
0.4603367475
 40
0.5393938436
 40
0.5781650754
 40
0.6165453613
 40
0.690923244
 40
0.7598821476
 40
0.8211224381
 40
0.8488664504
 40
0.8748654434
 40
0.8992528491
 40
0.9220968697
 40
0.9429478105
 40
0.9611166154
 40
0.975915571
 40
0.9818454965
 40
0.9867004728
 40
0.9905199208
 40
0.9934594598
 40
0.9956763734
 40
0.9973164981
 40
0.998503015
 40
0.9993214376
 40
0.9998096019
 40
1.0
 40
1.0
 40
1.0
 40
1.0
 10
4.7286963593
 20
9.2615095061
 30
0.0
 10
4.7284005149
 20
9.2611587677
 30
0.0
 10
4.7277733196
 20
9.2604899318
 30
0.0
 10
4.7269392428
 20
9.2597134985
 30
0.0
 10
4.7262650003
 20
9.2591193973
 30
0.0
 10
4.7257703494
 20
9.2586928602
 30
0.0
 10
4.7252904046
 20
9.2582800665
 30
0.0
 10
4.7246821647
 20
9.2577554199
 30
0.0
 10
4.7239483231
 20
9.2571315509
 30
0.0
 10
4.7232114744
 20
9.2565447727
 30
0.0
 10
4.7226184363
 20
9.2561134063
 30
0.0
 10
4.7220308383
 20
9.2557125075
 30
0.0
 10
4.7213100818
 20
9.2552560048
 30
0.0
 10
4.7204856025
 20
9.2547637527
 30
0.0
 10
4.7198488796
 20
9.2543840286
 30
0.0
 10
4.7193831127
 20
9.2541113528
 30
0.0
 10
4.7190646737
 20
9.253929442
 30
0.0
 10
4.7187636394
 20
9.2537634776
 30
0.0
 10
4.7184803116
 20
9.2536156252
 30
0.0
 10
4.7182209526
 20
9.2534850318
 30
0.0
 10
4.7179953506
 20
9.2533714136
 30
0.0
 10
4.7178337383
 20
9.2532863301
 30
0.0
 10
4.7177302655
 20
9.2532253311
 30
0.0
 10
4.7176731964
 20
9.2531872397
 30
0.0
 10
4.7176306141
 20
9.2531530808
 30
0.0
 10
4.7176006784
 20
9.2531232598
 30
0.0
 10
4.7175812565
 20
9.2530978785
 30
0.0
 10
4.7175699682
 20
9.253076771
 30
0.0
 10
4.7175650015
 20
9.2530606146
 30
0.0
 10
4.7175631328
 20
9.253048384
 30
0.0
 10
4.7175638822
 20
9.2530423489
 30
0.0
 10
4.7175627498
 20
9.2530380566
 30
0.0
 10
4.7175618562
 20
9.2530380644
 30
0.0
 11
4.7286963593
 21
9.2615095061
 31
0.0
 11
4.7277609785
 21
9.2604995878
 31
0.0
 11
4.7267631245
 21
9.2595609929
 31
0.0
 11
4.726260163
 21
9.2591167501
 31
0.0
 11
4.7257648547
 21
9.2586883083
 31
0.0
 11
4.725284755
 21
9.2582750055
 31
0.0
 11
4.7248218645
 21
9.2578765827
 31
0.0
 11
4.7239309382
 21
9.2571251385
 31
0.0
 11
4.7230569595
 21
9.2564356122
 31
0.0
 11
4.7226153674
 21
9.2561145828
 31
0.0
 11
4.7221692719
 21
9.25580949
 31
0.0
 11
4.7212861259
 21
9.2552464813
 31
0.0
 11
4.7204544523
 21
9.2547452537
 31
0.0
 11
4.7197130273
 21
9.2543048774
 31
0.0
 11
4.719375686
 21
9.2541078325
 31
0.0
 11
4.7190576352
 21
9.253926521
 31
0.0
 11
4.7187566556
 21
9.2537611718
 31
0.0
 11
4.7184716485
 21
9.2536120216
 31
0.0
 11
4.7182097139
 21
9.2534793682
 31
0.0
 11
4.7179815959
 21
9.2533635361
 31
0.0
 11
4.7177980551
 21
9.2532648499
 31
0.0
 11
4.7177263639
 21
9.2532220379
 31
0.0
 11
4.7176698053
 21
9.253183634
 31
0.0
 11
4.7176281031
 21
9.2531496702
 31
0.0
 11
4.7175990685
 21
9.2531201685
 31
0.0
 11
4.7175803976
 21
9.2530951503
 31
0.0
 11
4.7175697862
 21
9.2530746372
 31
0.0
 11
4.7175649304
 21
9.2530586507
 31
0.0
 11
4.7175635261
 21
9.253047212
 31
0.0
 11
4.7175632694
 21
9.2530403428
 31
0.0
 11
4.7175618562
 21
9.2530380644
 31
0.0
  0
SPLINE
  5
3FC
100
AcDbEntity
  8
0
100
AcDbSpline
 62
9
  6
CONTINUOUS
 70
0
 71
3
 72
34
 73
30
 74
28
 42
0.0000001
 43
0.0000001
 44
0.0000000001
 12
0.0100134416
 22
-0.0116977661
 32
0.0
 13
-0.0153969886
 23
-0.0001987077
 33
0.0
 40
0.0
 40
0.0
 40
0.0
 40
0.0
 40
0.0981891226
 40
0.1927978252
 40
0.2847251004
 40
0.3748413132
 40
0.4626372659
 40
0.5466848385
 40
0.625528816
 40
0.6987039919
 40
0.766356773
 40
0.8281680515
 40
0.8814155447
 40
0.9037438484
 40
0.9227559096
 40
0.9388122452
 40
0.9525018773
 40
0.9644027547
 40
0.9698695903
 40
0.975116568
 40
0.9801321795
 40
0.9848194034
 40
0.9890737979
 40
0.9927874915
 40
0.9958500284
 40
0.9981489842
 40
0.9989765697
 40
0.9995704554
 40
1.0
 40
1.0
 40
1.0
 40
1.0
 10
4.6969616756
 20
9.2626063447
 30
0.0
 10
4.6972894126
 20
9.2622234803
 30
0.0
 10
4.6979403689
 20
9.2614779718
 30
0.0
 10
4.6989360018
 20
9.2604077589
 30
0.0
 10
4.6999470783
 20
9.2594098238
 30
0.0
 10
4.7009866788
 20
9.2584936004
 30
0.0
 10
4.7020376681
 20
9.2576543374
 30
0.0
 10
4.7030712132
 20
9.256887623
 30
0.0
 10
4.7040604206
 20
9.2561877436
 30
0.0
 10
4.7049953245
 20
9.2555572704
 30
0.0
 10
4.7058740276
 20
9.255000367
 30
0.0
 10
4.7066837829
 20
9.2545270813
 30
0.0
 10
4.7072969057
 20
9.2541787397
 30
0.0
 10
4.7077139503
 20
9.2539300703
 30
0.0
 10
4.7079614994
 20
9.2537702217
 30
0.0
 10
4.7081671629
 20
9.2536275738
 30
0.0
 10
4.7083409675
 20
9.2535031518
 30
0.0
 10
4.7084720147
 20
9.2534123093
 30
0.0
 10
4.708570338
 20
9.2533505604
 30
0.0
 10
4.7086405585
 20
9.2533106652
 30
0.0
 10
4.7087089298
 20
9.2532757667
 30
0.0
 10
4.7087738588
 20
9.2532455267
 30
0.0
 10
4.7088336669
 20
9.2532199391
 30
0.0
 10
4.7088860329
 20
9.2531990974
 30
0.0
 10
4.7089304232
 20
9.2531827198
 30
0.0
 10
4.7089588095
 20
9.25317254
 30
0.0
 10
4.7089791009
 20
9.2531659152
 30
0.0
 10
4.7089842476
 20
9.2531637047
 30
0.0
 10
4.7089961298
 20
9.2531605094
 30
0.0
 10
4.7089939252
 20
9.2531604809
 30
0.0
 11
4.6969616756
 21
9.2626063447
 31
0.0
 11
4.6979584812
 21
9.2614695293
 31
0.0
 11
4.6989529532
 21
9.2604049533
 31
0.0
 11
4.6999628875
 21
9.2594131203
 31
0.0
 11
4.7010028922
 21
9.2584944703
 31
0.0
 11
4.7020576774
 21
9.2576488476
 31
0.0
 11
4.7030955953
 21
9.2568757712
 31
0.0
 11
4.704086855
 21
9.2561748089
 31
0.0
 11
4.7050218837
 21
9.2555460525
 31
0.0
 11
4.7059027373
 21
9.2549898955
 31
0.0
 11
4.7067227614
 21
9.2545067201
 31
0.0
 11
4.7074328766
 21
9.254096837
 31
0.0
 11
4.7077274126
 21
9.2539194707
 31
0.0
 11
4.7079732691
 21
9.2537605403
 31
0.0
 11
4.7081767579
 21
9.2536201131
 31
0.0
 11
4.708348771
 21
9.2534982659
 31
0.0
 11
4.7085002091
 21
9.253395076
 31
0.0
 11
4.7085716189
 21
9.2533505017
 31
0.0
 11
4.7086418841
 21
9.2533106202
 31
0.0
 11
4.7087106355
 21
9.253275435
 31
0.0
 11
4.708776054
 21
9.2532449445
 31
0.0
 11
4.7088362709
 21
9.2532191467
 31
0.0
 11
4.7088894174
 21
9.2531980396
 31
0.0
 11
4.7089336249
 21
9.2531816215
 31
0.0
 11
4.7089670245
 21
9.2531698902
 31
0.0
 11
4.7089790874
 21
9.2531657816
 31
0.0
 11
4.7089877475
 21
9.253162844
 31
0.0
 11
4.7089939252
 21
9.2531604809
 31
0.0
  0
SPLINE
  5
3FD
100
AcDbEntity
  8
0
100
AcDbSpline
 62
9
  6
CONTINUOUS
 70
0
 71
3
 72
34
 73
30
 74
28
 42
0.0000001
 43
0.0000001
 44
0.0000000001
 12
0.0000918631
 22
-0.5819711007
 32
0.0
 13
-0.3795919378
 23
-0.4411352755
 33
0.0
 40
0.0
 40
0.0
 40
0.0
 40
0.0
 40
0.0875313522
 40
0.1744420477
 40
0.2600030566
 40
0.3435889911
 40
0.4245824756
 40
0.5023698558
 40
0.5763772868
 40
0.6460616068
 40
0.7109244741
 40
0.7414015852
 40
0.7705060892
 40
0.7981876448
 40
0.8243977007
 40
0.8490957574
 40
0.8722451856
 40
0.8938110317
 40
0.9137642651
 40
0.9320881732
 40
0.9406360358
 40
0.948773316
 40
0.9564999532
 40
0.9638184545
 40
0.9707384455
 40
0.9772736282
 40
0.9834417748
 40
0.9892658645
 40
1.0
 40
1.0
 40
1.0
 40
1.0
 10
7.5876873022
 20
9.8381604809
 30
0.0
 10
7.5876899825
 20
9.8211802418
 30
0.0
 10
7.5875263055
 20
9.7873399066
 30
0.0
 10
7.5867878986
 20
9.736906455
 30
0.0
 10
7.585564849
 20
9.68724791
 30
0.0
 10
7.5838519276
 20
9.638752332
 30
0.0
 10
7.5816522838
 20
9.5917858528
 30
0.0
 10
7.5789711415
 20
9.5467055254
 30
0.0
 10
7.5758257617
 20
9.5038544225
 30
0.0
 10
7.5722358375
 20
9.4635546782
 30
0.0
 10
7.568832032
 20
9.4317207965
 30
0.0
 10
7.5658854855
 20
9.4077598328
 30
0.0
 10
7.563630945
 20
9.3909820252
 30
0.0
 10
7.561291409
 20
9.3750520192
 30
0.0
 10
7.5588725652
 20
9.3599989636
 30
0.0
 10
7.5563774647
 20
9.3458502002
 30
0.0
 10
7.5538085558
 20
9.3326312141
 30
0.0
 10
7.5511683807
 20
9.3203660853
 30
0.0
 10
7.5484582707
 20
9.3090766711
 30
0.0
 10
7.5460882655
 20
9.3003059311
 30
0.0
 10
7.5441426246
 20
9.2937988082
 30
0.0
 10
7.5426979855
 20
9.2892885313
 30
0.0
 10
7.5412337201
 20
9.2850360155
 30
0.0
 10
7.5397481018
 20
9.2810418199
 30
0.0
 10
7.5382281876
 20
9.2773086721
 30
0.0
 10
7.5366613187
 20
9.2738383279
 30
0.0
 10
7.5350339949
 20
9.2706315068
 30
0.0
 10
7.5328269203
 20
9.2668144573
 30
0.0
 10
7.5309540519
 20
9.2641847467
 30
0.0
 10
7.5295958548
 20
9.2626063447
 30
0.0
 11
7.5876873022
 21
9.8381604809
 31
0.0
 11
7.5874421976
 21
9.7872203526
 31
0.0
 11
7.586699257
 21
9.7366462955
 31
0.0
 11
7.5854657658
 21
9.6868675406
 31
0.0
 11
7.5837396001
 21
9.6382535781
 31
0.0
 11
7.5815223033
 21
9.5911698905
 31
0.0
 11
7.5788206083
 21
9.5459805726
 31
0.0
 11
7.5756495709
 21
9.5030272782
 31
0.0
 11
7.5720296761
 21
9.4626348972
 31
0.0
 11
7.5679881304
 21
9.4251035613
 31
0.0
 11
7.5658193352
 21
9.407499859
 31
0.0
 11
7.5635590911
 21
9.3907133621
 31
0.0
 11
7.5612131083
 21
9.3747752275
 31
0.0
 11
7.5587867167
 21
9.3597159532
 31
0.0
 11
7.5562829955
 21
9.3455621384
 31
0.0
 11
7.5537041989
 21
9.332338953
 31
0.0
 11
7.5510525759
 21
9.3200715593
 31
0.0
 11
7.5483290749
 21
9.3087832531
 31
0.0
 11
7.5455314681
 21
9.2984927733
 31
0.0
 11
7.5441040303
 21
9.2937273608
 31
0.0
 11
7.5426570521
 21
9.2892181759
 31
0.0
 11
7.5411901935
 21
9.2849674755
 31
0.0
 11
7.5397003461
 21
9.2809773919
 31
0.0
 11
7.5381762525
 21
9.2772496904
 31
0.0
 11
7.536605163
 21
9.2737860689
 31
0.0
 11
7.534974328
 21
9.2705882255
 31
0.0
 11
7.5332709981
 21
9.2676578584
 31
0.0
 11
7.5295958548
 21
9.2626063447
 31
0.0
  0
SPLINE
  5
3FE
100
AcDbEntity
  8
0
100
AcDbSpline
 62
9
  6
CONTINUOUS
 70
0
 71
3
 72
35
 73
31
 74
29
 42
0.0000001
 43
0.0000001
 44
0.0000000001
 12
0.0000818765
 22
-0.5824564885
 32
0.0
 13
0.4002651495
 23
-0.4231351767
 33
0.0
 40
0.0
 40
0.0
 40
0.0
 40
0.0
 40
0.090170075
 40
0.1796128309
 40
0.2674721528
 40
0.3530168647
 40
0.4355386922
 40
0.5143479135
 40
0.5888314647
 40
0.6584357774
 40
0.6912613386
 40
0.7226953707
 40
0.752689559
 40
0.7812039427
 40
0.808199737
 40
0.8336400796
 40
0.8574975597
 40
0.8797502773
 40
0.9003783481
 40
0.9193665875
 40
0.9367103653
 40
0.9447668769
 40
0.9524145653
 40
0.9596556777
 40
0.9664946149
 40
0.9729420836
 40
0.9790131455
 40
0.9847271291
 40
0.9901087578
 40
1.0
 40
1.0
 40
1.0
 40
1.0
 10
7.4474948333
 20
9.838160481
 30
0.0
 10
7.4474972942
 20
9.8206537659
 30
0.0
 10
7.4476117451
 20
9.7857814519
 30
0.0
 10
7.4481243885
 20
9.7338533
 30
0.0
 10
7.44899354
 20
9.6828279331
 30
0.0
 10
7.4502432247
 20
9.633154474
 30
0.0
 10
7.4518902058
 20
9.58525054
 30
0.0
 10
7.4539493725
 20
9.5395119518
 30
0.0
 10
7.4564221481
 20
9.4963055333
 30
0.0
 10
7.4588712799
 20
9.4620432934
 30
0.0
 10
7.4610542411
 20
9.4361448644
 30
0.0
 10
7.4627580567
 20
9.4179244928
 30
0.0
 10
7.4645592039
 20
9.4005547496
 30
0.0
 10
7.4664569285
 20
9.3840623248
 30
0.0
 10
7.4684504466
 20
9.3684720738
 30
0.0
 10
7.4705394087
 20
9.3538069631
 30
0.0
 10
7.4727229477
 20
9.3400872337
 30
0.0
 10
7.4750001842
 20
9.3273306451
 30
0.0
 10
7.4773702552
 20
9.3155535998
 30
0.0
 10
7.4798332064
 20
9.3047710046
 30
0.0
 10
7.4820204968
 20
9.2964328609
 30
0.0
 10
7.4838392969
 20
9.2902792295
 30
0.0
 10
7.4851989052
 20
9.2860364303
 30
0.0
 10
7.486588917
 20
9.2820529858
 30
0.0
 10
7.4880109549
 20
9.2783291506
 30
0.0
 10
7.4894750696
 20
9.274866709
 30
0.0
 10
7.4909916308
 20
9.2716669025
 30
0.0
 10
7.4925718219
 20
9.2687298415
 30
0.0
 10
7.4947164754
 20
9.2652645041
 30
0.0
 10
7.4965414557
 20
9.262904699
 30
0.0
 10
7.4978611622
 20
9.2615095882
 30
0.0
 11
7.4474948333
 21
9.838160481
 31
0.0
 11
7.4476701246
 21
9.7856406277
 31
0.0
 11
7.448190144
 21
9.7335467091
 31
0.0
 11
7.4490713648
 21
9.6823800644
 31
0.0
 11
7.450335851
 21
9.632570039
 31
0.0
 11
7.4520019629
 21
9.58453355
 31
0.0
 11
7.454082831
 21
9.5386777964
 31
0.0
 11
7.4565821555
 21
9.4953664213
 31
0.0
 11
7.4594969592
 21
9.4549298557
 31
0.0
 11
7.4611066058
 21
9.4358782721
 31
0.0
 11
7.4628154291
 21
9.4176492348
 31
0.0
 11
7.4646221886
 21
9.4002726027
 31
0.0
 11
7.4665262534
 21
9.3837737213
 31
0.0
 11
7.4685270302
 21
9.368177659
 31
0.0
 11
7.4706239311
 21
9.3535088843
 31
0.0
 11
7.4728164141
 21
9.3397869935
 31
0.0
 11
7.4751039595
 21
9.3270292165
 31
0.0
 11
7.4774860489
 21
9.3152527669
 31
0.0
 11
7.4799642139
 21
9.3044741589
 31
0.0
 11
7.4825463395
 21
9.2947077393
 31
0.0
 11
7.4838792348
 21
9.2902084528
 31
0.0
 11
7.4852415371
 21
9.2859674364
 31
0.0
 11
7.4866343852
 21
9.2819864313
 31
0.0
 11
7.4880604657
 21
9.2782670714
 31
0.0
 11
7.4895285881
 21
9.2748105674
 31
0.0
 11
7.4910490763
 21
9.2716180249
 31
0.0
 11
7.4926322539
 21
9.26869055
 31
0.0
 11
7.494288445
 21
9.2660292483
 31
0.0
 11
7.4978611622
 21
9.2615095882
 31
0.0
  0
SPLINE
  5
3FF
100
AcDbEntity
  8
0
100
AcDbSpline
 62
9
  6
CONTINUOUS
 70
0
 71
3
 72
25
 73
21
 74
19
 42
0.0000001
 43
0.0000001
 44
0.0000000001
 12
0.0000402123
 22
-0.6108144744
 32
0.0
 13
0.5209462836
 23
-0.3189189447
 33
0.0
 40
0.0
 40
0.0
 40
0.0
 40
0.0
 40
0.0638852325
 40
0.127755903
 40
0.1915083801
 40
0.255093961
 40
0.2868185737
 40
0.3184899341
 40
0.3816483642
 40
0.4131346473
 40
0.4445508572
 40
0.507165118
 40
0.5694968873
 40
0.6315534274
 40
0.6933607903
 40
0.7549431715
 40
0.8163491313
 40
0.8776252984
 40
0.9388231053
 40
1.0
 40
1.0
 40
1.0
 40
1.0
 10
5.3703403369
 20
9.8381604809
 30
0.0
 10
5.3703411932
 20
9.8251531394
 30
0.0
 10
5.3712134965
 20
9.7991333741
 30
0.0
 10
5.3751000758
 20
9.7603080679
 30
0.0
 10
5.3815428259
 20
9.7218851751
 30
0.0
 10
5.3890100111
 20
9.6903453095
 30
0.0
 10
5.3962188566
 20
9.6655121755
 30
0.0
 10
5.4042236668
 20
9.6410160455
 30
0.0
 10
5.4134227135
 20
9.6169750982
 30
0.0
 10
5.4237703738
 20
9.5934827627
 30
0.0
 10
5.4348372488
 20
9.5704429935
 30
0.0
 10
5.4500212247
 20
9.5424333655
 30
0.0
 10
5.4703110798
 20
9.5101847616
 30
0.0
 10
5.492535736
 20
9.4794402553
 30
0.0
 10
5.5165645747
 20
9.4502829674
 30
0.0
 10
5.5422817301
 20
9.4227853285
 30
0.0
 10
5.5695647608
 20
9.3969992713
 30
0.0
 10
5.5983006162
 20
9.3729653084
 30
0.0
 10
5.6283800387
 20
9.3507175613
 30
0.0
 10
5.649260264
 20
9.3370920939
 30
0.0
 10
5.659883556
 20
9.3305886037
 30
0.0
 11
5.3703403369
 21
9.8381604809
 31
0.0
 11
5.3716438058
 21
9.7991602323
 31
0.0
 11
5.3755308135
 21
9.760341223
 31
0.0
 11
5.3819713654
 21
9.7219365907
 31
0.0
 11
5.3909225428
 21
9.6841431545
 31
0.0
 11
5.3963247717
 21
9.6655335576
 31
0.0
 11
5.4023333159
 21
9.6471450011
 31
0.0
 11
5.4161194951
 21
9.6111143227
 31
0.0
 11
5.4238720437
 21
9.5935137975
 31
0.0
 11
5.432180309
 21
9.5762161471
 31
0.0
 11
5.4504061365
 21
9.542592457
 31
0.0
 11
5.4706801971
 21
9.5103662721
 31
0.0
 11
5.4928829518
 21
9.4796444687
 31
0.0
 11
5.5168907039
 21
9.4505085087
 31
0.0
 11
5.5425806906
 21
9.4230322709
 31
0.0
 11
5.5698363354
 21
9.3972649744
 31
0.0
 11
5.5985431256
 21
9.3732482496
 31
0.0
 11
5.628592779
 21
9.3510149282
 31
0.0
 11
5.659883556
 21
9.3305886037
 31
0.0
  0
SPLINE
  5
400
100
AcDbEntity
  8
0
100
AcDbSpline
 62
9
  6
CONTINUOUS
 70
0
 71
3
 72
37
 73
33
 74
31
 42
0.0000001
 43
0.0000001
 44
0.0000000001
 12
0.009079031
 22
-0.0107636457
 32
0.0
 13
0.0140808237
 23
0.0001235825
 33
0.0
 40
0.0
 40
0.0
 40
0.0
 40
0.0
 40
0.0977563944
 40
0.1950422087
 40
0.2426981168
 40
0.2892063154
 40
0.334194437
 40
0.3775669413
 40
0.4603367475
 40
0.5393938436
 40
0.5781650754
 40
0.6165453613
 40
0.690923244
 40
0.7598821476
 40
0.8211224381
 40
0.8488664504
 40
0.8748654434
 40
0.8992528491
 40
0.9220968697
 40
0.9429478105
 40
0.9611166154
 40
0.975915571
 40
0.9818454965
 40
0.9867004728
 40
0.9905199208
 40
0.9934594598
 40
0.9956763734
 40
0.9973164981
 40
0.998503015
 40
0.9993214376
 40
0.9998096019
 40
1.0
 40
1.0
 40
1.0
 40
1.0
 10
7.4978611711
 20
9.2615095061
 30
0.0
 10
7.4981570155
 20
9.2611587677
 30
0.0
 10
7.4987842108
 20
9.2604899318
 30
0.0
 10
7.4996182876
 20
9.2597134985
 30
0.0
 10
7.5002925301
 20
9.2591193973
 30
0.0
 10
7.500787181
 20
9.2586928602
 30
0.0
 10
7.5012671258
 20
9.2582800665
 30
0.0
 10
7.5018753658
 20
9.2577554199
 30
0.0
 10
7.5026092073
 20
9.2571315509
 30
0.0
 10
7.5033460561
 20
9.2565447727
 30
0.0
 10
7.5039390942
 20
9.2561134063
 30
0.0
 10
7.5045266921
 20
9.2557125075
 30
0.0
 10
7.5052474486
 20
9.2552560048
 30
0.0
 10
7.5060719279
 20
9.2547637527
 30
0.0
 10
7.5067086508
 20
9.2543840286
 30
0.0
 10
7.5071744177
 20
9.2541113528
 30
0.0
 10
7.5074928567
 20
9.253929442
 30
0.0
 10
7.5077938911
 20
9.2537634776
 30
0.0
 10
7.5080772188
 20
9.2536156252
 30
0.0
 10
7.5083365778
 20
9.2534850318
 30
0.0
 10
7.5085621798
 20
9.2533714136
 30
0.0
 10
7.5087237921
 20
9.2532863301
 30
0.0
 10
7.5088272649
 20
9.2532253311
 30
0.0
 10
7.508884334
 20
9.2531872397
 30
0.0
 10
7.5089269163
 20
9.2531530808
 30
0.0
 10
7.5089568521
 20
9.2531232598
 30
0.0
 10
7.5089762739
 20
9.2530978785
 30
0.0
 10
7.5089875622
 20
9.253076771
 30
0.0
 10
7.5089925289
 20
9.2530606146
 30
0.0
 10
7.5089943977
 20
9.253048384
 30
0.0
 10
7.5089936483
 20
9.2530423489
 30
0.0
 10
7.5089947806
 20
9.2530380566
 30
0.0
 10
7.5089956743
 20
9.2530380644
 30
0.0
 11
7.4978611711
 21
9.2615095061
 31
0.0
 11
7.4987965519
 21
9.2604995878
 31
0.0
 11
7.4997944059
 21
9.2595609929
 31
0.0
 11
7.5002973674
 21
9.2591167501
 31
0.0
 11
7.5007926757
 21
9.2586883083
 31
0.0
 11
7.5012727754
 21
9.2582750055
 31
0.0
 11
7.5017356659
 21
9.2578765827
 31
0.0
 11
7.5026265922
 21
9.2571251385
 31
0.0
 11
7.5035005709
 21
9.2564356122
 31
0.0
 11
7.503942163
 21
9.2561145828
 31
0.0
 11
7.5043882585
 21
9.25580949
 31
0.0
 11
7.5052714045
 21
9.2552464813
 31
0.0
 11
7.5061030781
 21
9.2547452537
 31
0.0
 11
7.5068445031
 21
9.2543048774
 31
0.0
 11
7.5071818444
 21
9.2541078325
 31
0.0
 11
7.5074998953
 21
9.253926521
 31
0.0
 11
7.5078008748
 21
9.2537611718
 31
0.0
 11
7.5080858819
 21
9.2536120216
 31
0.0
 11
7.5083478165
 21
9.2534793682
 31
0.0
 11
7.5085759345
 21
9.2533635361
 31
0.0
 11
7.5087594753
 21
9.2532648499
 31
0.0
 11
7.5088311666
 21
9.2532220379
 31
0.0
 11
7.5088877251
 21
9.253183634
 31
0.0
 11
7.5089294273
 21
9.2531496702
 31
0.0
 11
7.5089584619
 21
9.2531201685
 31
0.0
 11
7.5089771328
 21
9.2530951503
 31
0.0
 11
7.5089877442
 21
9.2530746372
 31
0.0
 11
7.5089926
 21
9.2530586507
 31
0.0
 11
7.5089940043
 21
9.253047212
 31
0.0
 11
7.508994261
 21
9.2530403428
 31
0.0
 11
7.5089956743
 21
9.2530380644
 31
0.0
  0
SPLINE
  5
401
100
AcDbEntity
  8
0
100
AcDbSpline
 62
9
  6
CONTINUOUS
 70
0
 71
3
 72
11
 73
7
 74
5
 42
0.0000001
 43
0.0000001
 44
0.0000000001
 12
-0.0020712385
 22
0.0133794853
 32
0.0
 13
-0.0051614438
 23
0.0125163955
 33
0.0
 40
0.0
 40
0.0
 40
0.0
 40
0.0
 40
0.297160397
 40
0.562579645
 40
0.7966442901
 40
1.0
 40
1.0
 40
1.0
 40
1.0
 10
3.2264823732
 20
10.2572135099
 30
0.0
 10
3.2262772098
 20
10.2585387943
 30
0.0
 10
3.2258448791
 20
10.2610413975
 30
0.0
 10
3.225075512
 20
10.2645548607
 30
0.0
 10
3.2242269629
 20
10.2676129142
 30
0.0
 10
3.2235660637
 20
10.2694759245
 30
0.0
 10
3.223216194
 20
10.2703243514
 30
0.0
 11
3.2264823732
 21
10.2572135099
 31
0.0
 11
3.2257895209
 21
10.2611766137
 31
0.0
 11
3.2250111619
 21
10.2646847768
 31
0.0
 11
3.2241518638
 21
10.2677350167
 31
0.0
 11
3.223216194
 21
10.2703243514
 31
0.0
  0
SPLINE
  5
402
100
AcDbEntity
  8
0
100
AcDbSpline
 62
9
  6
CONTINUOUS
 70
0
 71
3
 72
13
 73
9
 74
7
 42
0.0000001
 43
0.0000001
 44
0.0000000001
 12
0.0024847349
 22
-0.0163930291
 32
0.0
 13
0.0071815941
 23
-0.0149442302
 33
0.0
 40
0.0
 40
0.0
 40
0.0
 40
0.0
 40
0.3013794006
 40
0.5679765405
 40
0.68844312
 40
0.8004930251
 40
0.9042789932
 40
1.0
 40
1.0
 40
1.0
 40
1.0
 10
2.8859799457
 20
9.4208382319
 30
0.0
 10
2.8862295617
 20
9.4191913915
 30
0.0
 10
2.886764715
 20
9.4160969604
 30
0.0
 10
2.8876152028
 20
9.4123856239
 30
0.0
 10
2.8883736603
 20
9.4097328514
 30
0.0
 10
2.8889549625
 20
9.4079668275
 30
0.0
 10
2.8895670373
 20
9.4063567254
 30
0.0
 10
2.8900127603
 20
9.4053474116
 30
0.0
 10
2.8902419034
 20
9.404870586
 30
0.0
 11
2.8859799457
 21
9.4208382319
 31
0.0
 11
2.88684437
 21
9.4159166169
 31
0.0
 11
2.8878479207
 21
9.4116117922
 31
0.0
 11
2.8883994886
 21
9.409692091
 31
0.0
 11
2.8889829783
 21
9.4079282809
 31
0.0
 11
2.8895974349
 21
9.406320925
 31
0.0
 11
2.8902419034
 21
9.404870586
 31
0.0
  0
SPLINE
  5
403
100
AcDbEntity
  8
0
100
AcDbSpline
 62
9
  6
CONTINUOUS
 70
0
 71
3
 72
53
 73
49
 74
47
 42
0.0000001
 43
0.0000001
 44
0.0000000001
 12
-0.0589026013
 22
-1.0609020111
 32
0.0
 13
-0.0589026013
 23
1.0609020111
 33
0.0
 40
0.0
 40
0.0
 40
0.0
 40
0.0
 40
0.0154965242
 40
0.0310093747
 40
0.0465329218
 40
0.0620616912
 40
0.0775909917
 40
0.0931207364
 40
0.124182659
 40
0.1397281006
 40
0.1552830894
 40
0.1864191461
 40
0.2176020718
 40
0.233214579
 40
0.2488380126
 40
0.2801098337
 40
0.3114250563
 40
0.3271021867
 40
0.3427891893
 40
0.3741823159
 40
0.4056060931
 40
0.4213314821
 40
0.4370622129
 40
0.4685272269
 40
0.5
 40
0.5314727731
 40
0.5629377871
 40
0.5786685179
 40
0.5943939069
 40
0.6258176841
 40
0.6572108107
 40
0.6728978133
 40
0.6885749437
 40
0.7198901663
 40
0.7511619874
 40
0.766785421
 40
0.7823979282
 40
0.8135808539
 40
0.8447169106
 40
0.8602718994
 40
0.875817341
 40
0.9068792636
 40
0.9224090083
 40
0.9379383088
 40
0.9534670782
 40
0.9689906253
 40
0.9845034758
 40
1.0
 40
1.0
 40
1.0
 40
1.0
 10
6.4657542995
 20
4.6925292813
 30
0.0
 10
6.4654500377
 20
4.6870491834
 30
0.0
 10
6.4645772182
 20
4.6760960602
 30
0.0
 10
6.4624825973
 20
4.6597427254
 30
0.0
 10
6.4596064155
 20
4.6434965666
 30
0.0
 10
6.4559539587
 20
4.6274013378
 30
0.0
 10
6.4515280402
 20
4.6114984793
 30
0.0
 10
6.4446118832
 20
4.5906051204
 30
0.0
 10
6.4361966035
 20
4.5702264611
 30
0.0
 10
6.4263545735
 20
4.5505248335
 30
0.0
 10
6.4155684338
 20
4.5312925271
 30
0.0
 10
6.4003591445
 20
4.5082305378
 30
0.0
 10
6.3830211079
 20
4.486697624
 30
0.0
 10
6.3679638215
 20
4.4705007544
 30
0.0
 10
6.3521301057
 20
4.455016846
 30
0.0
 10
6.3309635193
 20
4.4370801969
 30
0.0
 10
6.3081899374
 20
4.4212012269
 30
0.0
 10
6.2891231493
 20
4.4098168113
 30
0.0
 10
6.2695154784
 20
4.3993328473
 30
0.0
 10
6.2440947761
 20
4.3879630536
 30
0.0
 10
6.2177117247
 20
4.3790089317
 30
0.0
 10
6.196164484
 20
4.37335006
 30
0.0
 10
6.1743615227
 20
4.36870471
 30
0.0
 10
6.1467281243
 20
4.3648111791
 30
0.0
 10
6.1132787652
 20
4.3632417231
 30
0.0
 10
6.0798294061
 20
4.3648111791
 30
0.0
 10
6.0521960078
 20
4.36870471
 30
0.0
 10
6.0303930464
 20
4.37335006
 30
0.0
 10
6.0088458057
 20
4.3790089317
 30
0.0
 10
5.9824627543
 20
4.3879630536
 30
0.0
 10
5.957042052
 20
4.3993328473
 30
0.0
 10
5.9374343811
 20
4.4098168113
 30
0.0
 10
5.918367593
 20
4.4212012269
 30
0.0
 10
5.8955940112
 20
4.4370801969
 30
0.0
 10
5.8744274248
 20
4.455016846
 30
0.0
 10
5.858593709
 20
4.4705007544
 30
0.0
 10
5.8435364225
 20
4.486697624
 30
0.0
 10
5.8261983859
 20
4.5082305378
 30
0.0
 10
5.8109890966
 20
4.5312925271
 30
0.0
 10
5.8002029569
 20
4.5505248335
 30
0.0
 10
5.7903609269
 20
4.5702264611
 30
0.0
 10
5.7819456472
 20
4.5906051204
 30
0.0
 10
5.7750294902
 20
4.6114984793
 30
0.0
 10
5.7706035717
 20
4.6274013378
 30
0.0
 10
5.7669511149
 20
4.6434965666
 30
0.0
 10
5.7640749332
 20
4.6597427254
 30
0.0
 10
5.7619803122
 20
4.6760960602
 30
0.0
 10
5.7611074928
 20
4.6870491834
 30
0.0
 10
5.7608032309
 20
4.6925292813
 30
0.0
 11
6.4657542995
 21
4.6925292813
 31
0.0
 11
6.4644470583
 21
4.6761156421
 31
0.0
 11
6.4623531796
 21
4.6597662178
 31
0.0
 11
6.4594775804
 21
4.6435244896
 31
0.0
 11
6.4558251774
 21
4.6274339383
 31
0.0
 11
6.4514012715
 21
4.6115376002
 31
0.0
 11
6.4462164038
 21
4.5958724403
 31
0.0
 11
6.4336211912
 21
4.5653658573
 31
0.0
 11
6.4262396768
 21
4.5505893884
 31
0.0
 11
6.4181547789
 21
4.5361741038
 31
0.0
 11
6.3999456101
 21
4.5085530449
 31
0.0
 11
6.3791673847
 21
4.4827449138
 31
0.0
 11
6.3678722042
 21
4.4705954761
 31
0.0
 11
6.3560037733
 21
4.458988771
 31
0.0
 11
6.3306573376
 21
4.4375034149
 31
0.0
 11
6.3033637972
 21
4.4184720798
 31
0.0
 11
6.2890615748
 21
4.4099328047
 31
0.0
 11
6.2743631776
 21
4.402072813
 31
0.0
 11
6.2439149539
 21
4.3884511362
 31
0.0
 11
6.2122968351
 21
4.3777220783
 31
0.0
 11
6.1961361303
 21
4.3734776337
 31
0.0
 11
6.1797887375
 21
4.369993937
 31
0.0
 11
6.1466831382
 21
4.3653286133
 31
0.0
 11
6.1132787652
 21
4.3637649181
 31
0.0
 11
6.0798743923
 21
4.3653286133
 31
0.0
 11
6.0467687929
 21
4.369993937
 31
0.0
 11
6.0304214001
 21
4.3734776337
 31
0.0
 11
6.0142606953
 21
4.3777220783
 31
0.0
 11
5.9826425765
 21
4.3884511362
 31
0.0
 11
5.9521943528
 21
4.402072813
 31
0.0
 11
5.9374959556
 21
4.4099328047
 31
0.0
 11
5.9231937332
 21
4.4184720798
 31
0.0
 11
5.8959001928
 21
4.4375034149
 31
0.0
 11
5.8705537572
 21
4.458988771
 31
0.0
 11
5.8586853262
 21
4.4705954761
 31
0.0
 11
5.8473901457
 21
4.4827449138
 31
0.0
 11
5.8266119203
 21
4.5085530449
 31
0.0
 11
5.8084027515
 21
4.5361741038
 31
0.0
 11
5.8003178536
 21
4.5505893884
 31
0.0
 11
5.7929363393
 21
4.5653658573
 31
0.0
 11
5.7803411267
 21
4.5958724403
 31
0.0
 11
5.7751562589
 21
4.6115376002
 31
0.0
 11
5.770732353
 21
4.6274339383
 31
0.0
 11
5.76707995
 21
4.6435244896
 31
0.0
 11
5.7642043508
 21
4.6597662178
 31
0.0
 11
5.7621104722
 21
4.6761156421
 31
0.0
 11
5.7608032309
 21
4.6925292813
 31
0.0
  0
SPLINE
  5
404
100
AcDbEntity
  8
0
100
AcDbSpline
 62
6
  6
CONTINUOUS
 70
0
 71
3
 72
35
 73
31
 74
29
 42
0.0000001
 43
0.0000001
 44
0.0000000001
 12
0.0
 22
-0.5501882684
 32
0.0
 13
-0.5501882684
 23
-0.0
 33
0.0
 40
0.0
 40
0.0
 40
0.0
 40
0.0
 40
0.0619595893
 40
0.0929944047
 40
0.1240437572
 40
0.15509662
 40
0.186150066
 40
0.2172093537
 40
0.2482795824
 40
0.2793656693
 40
0.3104723476
 40
0.3416014188
 40
0.3727528386
 40
0.4039262297
 40
0.4351214464
 40
0.4975614081
 40
0.5600950577
 40
0.591406618
 40
0.6227413325
 40
0.6540973624
 40
0.6854723346
 40
0.716863912
 40
0.7482712499
 40
0.7796959624
 40
0.8111395791
 40
0.8426035981
 40
0.8740894389
 40
0.9055898254
 40
0.9370891121
 40
1.0
 40
1.0
 40
1.0
 40
1.0
 10
6.4662787652
 20
4.6923007554
 30
0.0
 10
6.4662787652
 20
4.680937609
 30
0.0
 10
6.4654218841
 20
4.6638669524
 30
0.0
 10
6.4625955369
 20
4.6412878817
 30
0.0
 10
6.4596346705
 20
4.6244576922
 30
0.0
 10
6.4558375337
 20
4.6077934954
 30
0.0
 10
6.4512121445
 20
4.5913378674
 30
0.0
 10
6.4457739054
 20
4.5751294642
 30
0.0
 10
6.4395362739
 20
4.5592051572
 30
0.0
 10
6.4325132479
 20
4.5436017254
 30
0.0
 10
6.4247184932
 20
4.52835703
 30
0.0
 10
6.4161732939
 20
4.5135061927
 30
0.0
 10
6.4069000486
 20
4.4990843426
 30
0.0
 10
6.3969207362
 20
4.4851263424
 30
0.0
 10
6.3827009989
 20
4.4671796839
 30
0.0
 10
6.3632683975
 20
4.446073154
 30
0.0
 10
6.3418498672
 20
4.426953468
 30
0.0
 10
6.3236396367
 20
4.4129610172
 30
0.0
 10
6.3094663511
 20
4.403134018
 30
0.0
 10
6.2948221855
 20
4.3940023724
 30
0.0
 10
6.2797425388
 20
4.3855877204
 30
0.0
 10
6.2642630889
 20
4.3779121459
 30
0.0
 10
6.2484195555
 20
4.3709965698
 30
0.0
 10
6.2322503048
 20
4.3648543892
 30
0.0
 10
6.2157926609
 20
4.3594993951
 30
0.0
 10
6.199084054
 20
4.3549448401
 30
0.0
 10
6.1821637595
 20
4.3512059083
 30
0.0
 10
6.1650750518
 20
4.3482904122
 30
0.0
 10
6.1421459941
 20
4.3455070228
 30
0.0
 10
6.124816376
 20
4.3446636185
 30
0.0
 10
6.1132787652
 20
4.3446636185
 30
0.0
 11
6.4662787652
 21
4.6923007554
 31
0.0
 11
6.4645767059
 21
4.658253834
 31
0.0
 11
6.4624561612
 21
4.6413110296
 31
0.0
 11
6.4594955216
 21
4.6244865492
 31
0.0
 11
6.4556995946
 21
4.6078286544
 31
0.0
 11
6.4510771488
 21
4.5913806005
 31
0.0
 11
6.4456417066
 21
4.5751796349
 31
0.0
 11
6.4394070709
 21
4.5592626501
 31
0.0
 11
6.432387045
 21
4.5436665384
 31
0.0
 11
6.4245963329
 21
4.5284280371
 31
0.0
 11
6.4160551442
 21
4.5135829342
 31
0.0
 11
6.4067857679
 21
4.4991666594
 31
0.0
 11
6.3968104966
 21
4.4852146419
 31
0.0
 11
6.3861516521
 21
4.4717622846
 31
0.0
 11
6.3628865277
 21
4.4464855551
 31
0.0
 11
6.3372198993
 21
4.4235738221
 31
0.0
 11
6.3235600055
 21
4.4130768915
 31
0.0
 11
6.3093927549
 21
4.4032531271
 31
0.0
 11
6.2947540923
 21
4.3941245242
 31
0.0
 11
6.2796799865
 21
4.3857130518
 31
0.0
 11
6.2642064072
 21
4.3780406745
 31
0.0
 11
6.2483696938
 21
4.3711272713
 31
0.0
 11
6.2322071444
 21
4.3649873131
 31
0.0
 11
6.2157562102
 21
4.3596344058
 31
0.0
 11
6.1990543426
 21
4.3550821554
 31
0.0
 11
6.1821393637
 21
4.3513438836
 31
0.0
 11
6.1650552388
 21
4.348428202
 31
0.0
 11
6.1478509856
 21
4.3463398487
 31
0.0
 11
6.1132787652
 21
4.3446636185
 31
0.0
  0
SPLINE
  5
405
100
AcDbEntity
  8
0
100
AcDbSpline
 62
9
  6
CONTINUOUS
 70
0
 71
3
 72
65
 73
61
 74
59
 42
0.0000001
 43
0.0000001
 44
0.0000000001
 12
0.0
 22
-1.4168061929
 32
0.0
 13
0.0
 23
1.4168061929
 33
0.0
 40
0.0
 40
0.0
 40
0.0
 40
0.0
 40
0.0310024957
 40
0.046514445
 40
0.0620274448
 40
0.0775442343
 40
0.0930671983
 40
0.1085971352
 40
0.1241345025
 40
0.1396800801
 40
0.1552347168
 40
0.1707992082
 40
0.1863741116
 40
0.201959873
 40
0.2175569022
 40
0.2331654362
 40
0.2487856788
 40
0.2644176548
 40
0.2800612934
 40
0.295716444
 40
0.3113827787
 40
0.3270599448
 40
0.3427474167
 40
0.37414156
 40
0.3898560219
 40
0.4055779067
 40
0.4213062605
 40
0.4370401079
 40
0.4527784293
 40
0.4685201114
 40
0.5
 40
0.5314798886
 40
0.5472215707
 40
0.5629598921
 40
0.5786937395
 40
0.5944220933
 40
0.6101439781
 40
0.62585844
 40
0.6572525833
 40
0.6729400552
 40
0.6886172213
 40
0.704283556
 40
0.7199387066
 40
0.7355823452
 40
0.7512143212
 40
0.7668345638
 40
0.7824430978
 40
0.798040127
 40
0.8136258884
 40
0.8292007918
 40
0.8447652832
 40
0.8603199199
 40
0.8758654975
 40
0.8914028648
 40
0.9069328017
 40
0.9224557657
 40
0.9379725552
 40
0.953485555
 40
0.9689975043
 40
1.0
 40
1.0
 40
1.0
 40
1.0
 10
5.6587787652
 20
4.5929739977
 30
0.0
 10
5.6587787652
 20
4.5783324884
 30
0.0
 10
5.6598765257
 20
4.5563444673
 30
0.0
 10
5.663517565
 20
4.5272698587
 30
0.0
 10
5.6673336822
 20
4.5056134044
 30
0.0
 10
5.6722233701
 20
4.4841695426
 30
0.0
 10
5.6781765414
 20
4.4629876836
 30
0.0
 10
5.685176855
 20
4.44211831
 30
0.0
 10
5.6932092296
 20
4.421612511
 30
0.0
 10
5.7022536618
 20
4.4015198031
 30
0.0
 10
5.7122877279
 20
4.3818881666
 30
0.0
 10
5.7232887357
 20
4.3627656376
 30
0.0
 10
5.7352282824
 20
4.3441971622
 30
0.0
 10
5.7480792714
 20
4.3262285268
 30
0.0
 10
5.7618098213
 20
4.3089024854
 30
0.0
 10
5.7763867308
 20
4.2922605527
 30
0.0
 10
5.7917758849
 20
4.2763437976
 30
0.0
 10
5.8079387078
 20
4.2611890638
 30
0.0
 10
5.824837704
 20
4.2468343884
 30
0.0
 10
5.8424312448
 20
4.2333132838
 30
0.0
 10
5.8606769183
 20
4.2206585271
 30
0.0
 10
5.8795321631
 20
4.2089011194
 30
0.0
 10
5.9054230238
 20
4.1944562346
 30
0.0
 10
5.9323582846
 20
4.1819127982
 30
0.0
 10
5.9601053456
 20
4.1713726242
 30
0.0
 10
5.9812960161
 20
4.1644791606
 30
0.0
 10
6.0028036462
 20
4.1586172438
 30
0.0
 10
6.0245777036
 20
4.1538027062
 30
0.0
 10
6.0465656605
 20
4.1500452899
 30
0.0
 10
6.0760923151
 20
4.1464588339
 30
0.0
 10
6.1132787652
 20
4.1446589272
 30
0.0
 10
6.1504652153
 20
4.1464588339
 30
0.0
 10
6.17999187
 20
4.1500452899
 30
0.0
 10
6.2019798268
 20
4.1538027062
 30
0.0
 10
6.2237538842
 20
4.1586172438
 30
0.0
 10
6.2452615143
 20
4.1644791606
 30
0.0
 10
6.2664521848
 20
4.1713726242
 30
0.0
 10
6.2941992458
 20
4.1819127982
 30
0.0
 10
6.3211345066
 20
4.1944562346
 30
0.0
 10
6.3470253673
 20
4.2089011194
 30
0.0
 10
6.3658806121
 20
4.2206585271
 30
0.0
 10
6.3841262856
 20
4.2333132838
 30
0.0
 10
6.4017198265
 20
4.2468343884
 30
0.0
 10
6.4186188226
 20
4.2611890638
 30
0.0
 10
6.4347816455
 20
4.2763437976
 30
0.0
 10
6.4501707996
 20
4.2922605527
 30
0.0
 10
6.4647477091
 20
4.3089024854
 30
0.0
 10
6.478478259
 20
4.3262285268
 30
0.0
 10
6.4913292481
 20
4.3441971622
 30
0.0
 10
6.5032687947
 20
4.3627656376
 30
0.0
 10
6.5142698025
 20
4.3818881666
 30
0.0
 10
6.5243038686
 20
4.4015198031
 30
0.0
 10
6.5333483008
 20
4.421612511
 30
0.0
 10
6.5413806754
 20
4.44211831
 30
0.0
 10
6.548380989
 20
4.4629876836
 30
0.0
 10
6.5543341603
 20
4.4841695426
 30
0.0
 10
6.5592238482
 20
4.5056134044
 30
0.0
 10
6.5630399654
 20
4.5272698587
 30
0.0
 10
6.5666810047
 20
4.5563444673
 30
0.0
 10
6.5677787652
 20
4.5783324884
 30
0.0
 10
6.5677787652
 20
4.5929739977
 30
0.0
 11
5.6587787652
 21
4.5929739977
 31
0.0
 11
5.6609674014
 21
4.5491040306
 31
0.0
 11
5.663698157
 21
4.5272969166
 31
0.0
 11
5.6675120748
 21
4.5056514389
 31
0.0
 11
5.6723995637
 21
4.4842173266
 31
0.0
 11
5.6783496164
 21
4.4630444594
 31
0.0
 11
5.6853470566
 21
4.4421838766
 31
0.0
 11
5.6933756456
 21
4.4216867251
 31
0.0
 11
5.7024158211
 21
4.4016024287
 31
0.0
 11
5.712445561
 21
4.3819791363
 31
0.0
 11
5.7234413266
 21
4.3628642727
 31
0.0
 11
5.7353758706
 21
4.3443034979
 31
0.0
 11
5.7482210696
 21
4.326341991
 31
0.0
 11
5.7619456642
 21
4.3090227626
 31
0.0
 11
5.7765164966
 21
4.2923875086
 31
0.0
 11
5.7918989122
 21
4.2764766288
 31
0.0
 11
5.808055244
 21
4.261327905
 31
0.0
 11
5.8249471295
 21
4.2469784354
 31
0.0
 11
5.8425335374
 21
4.2334623485
 31
0.0
 11
5.8607721153
 21
4.2208122974
 31
0.0
 11
5.8796191987
 21
4.2090590659
 31
0.0
 11
5.8990289583
 21
4.1982303506
 31
0.0
 11
5.9393492085
 21
4.17945015
 31
0.0
 11
5.9601623428
 21
4.1715435334
 31
0.0
 11
5.981344454
 21
4.1646524
 31
0.0
 11
6.0028442763
 21
4.158792742
 31
0.0
 11
6.0246102509
 21
4.153979505
 31
0.0
 11
6.0465897913
 21
4.1502235292
 31
0.0
 11
6.0687299751
 21
4.1475342598
 31
0.0
 11
6.1132787652
 21
4.145378874
 31
0.0
 11
6.1578275553
 21
4.1475342598
 31
0.0
 11
6.1799677391
 21
4.1502235292
 31
0.0
 11
6.2019472795
 21
4.153979505
 31
0.0
 11
6.2237132541
 21
4.158792742
 31
0.0
 11
6.2452130765
 21
4.1646524
 31
0.0
 11
6.2663951876
 21
4.1715435334
 31
0.0
 11
6.2872083219
 21
4.17945015
 31
0.0
 11
6.3275285721
 21
4.1982303506
 31
0.0
 11
6.3469383318
 21
4.2090590659
 31
0.0
 11
6.3657854151
 21
4.2208122974
 31
0.0
 11
6.3840239931
 21
4.2334623485
 31
0.0
 11
6.4016104009
 21
4.2469784354
 31
0.0
 11
6.4185022864
 21
4.261327905
 31
0.0
 11
6.4346586182
 21
4.2764766288
 31
0.0
 11
6.4500410338
 21
4.2923875086
 31
0.0
 11
6.4646118663
 21
4.3090227626
 31
0.0
 11
6.4783364608
 21
4.326341991
 31
0.0
 11
6.4911816598
 21
4.3443034979
 31
0.0
 11
6.5031162039
 21
4.3628642727
 31
0.0
 11
6.5141119695
 21
4.3819791363
 31
0.0
 11
6.5241417093
 21
4.4016024287
 31
0.0
 11
6.5331818848
 21
4.4216867251
 31
0.0
 11
6.5412104738
 21
4.4421838766
 31
0.0
 11
6.548207914
 21
4.4630444594
 31
0.0
 11
6.5541579667
 21
4.4842173266
 31
0.0
 11
6.5590454556
 21
4.5056514389
 31
0.0
 11
6.5628593734
 21
4.5272969166
 31
0.0
 11
6.5655901291
 21
4.5491040306
 31
0.0
 11
6.5677787652
 21
4.5929739977
 31
0.0
  0
SPLINE
  5
406
100
AcDbEntity
  8
0
100
AcDbSpline
 62
9
  6
CONTINUOUS
 70
0
 71
3
 72
13
 73
9
 74
7
 42
0.0000001
 43
0.0000001
 44
0.0000000001
 12
0.0071989307
 22
0.0149809289
 32
0.0
 13
0.0024853432
 23
0.0164339862
 33
0.0
 40
0.0
 40
0.0
 40
0.0
 40
0.0
 40
0.095680146
 40
0.1994363168
 40
0.311467951
 40
0.4319280866
 40
0.6985484825
 40
1.0
 40
1.0
 40
1.0
 40
1.0
 10
9.3363155722
 20
9.4048705787
 30
0.0
 10
9.3365451705
 20
9.4053483712
 30
0.0
 10
9.3369917532
 20
9.4063598322
 30
0.0
 10
9.3376049118
 20
9.4079735076
 30
0.0
 10
9.3381871822
 20
9.4097436875
 30
0.0
 10
9.3389468437
 20
9.412403133
 30
0.0
 10
9.339798436
 20
9.4161242885
 30
0.0
 10
9.3403339762
 20
9.4192269915
 30
0.0
 10
9.340583713
 20
9.4208783415
 30
0.0
 11
9.3363155722
 21
9.4048705787
 31
0.0
 11
9.3369612471
 21
9.4063238898
 31
0.0
 11
9.3375768001
 21
9.407934806
 31
0.0
 11
9.3381612692
 21
9.4097027622
 31
0.0
 11
9.3387136925
 21
9.4116271933
 31
0.0
 11
9.3397185547
 21
9.4159432194
 31
0.0
 11
9.340583713
 21
9.4208783415
 31
0.0
  0
SPLINE
  5
407
100
AcDbEntity
  8
0
100
AcDbSpline
 62
9
  6
CONTINUOUS
 70
0
 71
3
 72
11
 73
7
 74
5
 42
0.0000001
 43
0.0000001
 44
0.0000000001
 12
-0.0051121928
 22
-0.0123964185
 32
0.0
 13
-0.0020664469
 23
-0.0132489812
 33
0.0
 40
0.0
 40
0.0
 40
0.0
 40
0.0
 40
0.2036297389
 40
0.437788495
 40
0.7031169283
 40
1.0
 40
1.0
 40
1.0
 40
1.0
 10
9.0033412774
 20
10.2703243487
 30
0.0
 10
9.0029942793
 20
10.2694829222
 30
0.0
 10
9.0023384318
 20
10.2676365005
 30
0.0
 10
9.0014953661
 20
10.2646072016
 30
0.0
 10
9.0007302368
 20
10.2611293477
 30
0.0
 10
9.0002995961
 20
10.2586528164
 30
0.0
 10
9.0000950984
 20
10.2573416837
 30
0.0
 11
9.0033412774
 21
10.2703243487
 31
0.0
 11
9.0024124917
 21
10.2677566623
 31
0.0
 11
9.0015588954
 21
10.2647350438
 31
0.0
 11
9.0007849454
 21
10.2612624115
 31
0.0
 11
9.0000950984
 21
10.2573416837
 31
0.0
  0
SPLINE
  5
408
100
AcDbEntity
  8
0
100
AcDbSpline
 62
9
  6
CONTINUOUS
 70
0
 71
3
 72
11
 73
7
 74
5
 42
0.0000001
 43
0.0000001
 44
0.0000000001
 12
-0.003736542
 22
-0.0000007436
 32
0.0
 13
-0.0029742184
 23
-0.0022618071
 33
0.0
 40
0.0
 40
0.0
 40
0.0
 40
0.0
 40
0.224087528
 40
0.4610469989
 40
0.7178683141
 40
1.0
 40
1.0
 40
1.0
 40
1.0
 10
3.2568601886
 20
10.2381604809
 30
0.0
 10
3.2565810845
 20
10.2381604254
 30
0.0
 10
3.2560055121
 20
10.2381001694
 30
0.0
 10
3.2551457007
 20
10.2378391013
 30
0.0
 10
3.2542761562
 20
10.2374091881
 30
0.0
 10
3.2537191869
 20
10.2370309429
 30
0.0
 10
3.2534394798
 20
10.2368182337
 30
0.0
 11
3.2568601886
 21
10.2381604809
 31
0.0
 11
3.2560271007
 21
10.2380764768
 31
0.0
 11
3.2551782521
 21
10.237824673
 31
0.0
 11
3.254315198
 21
10.2374051314
 31
0.0
 11
3.2534394798
 21
10.2368182337
 31
0.0
  0
SPLINE
  5
409
100
AcDbEntity
  8
0
100
AcDbSpline
 62
9
  6
CONTINUOUS
 70
0
 71
3
 72
11
 73
7
 74
5
 42
0.0000001
 43
0.0000001
 44
0.0000000001
 12
0.0036340028
 22
-0.0023268155
 32
0.0
 13
0.0043150951
 23
-0.0000011669
 33
0.0
 40
0.0
 40
0.0
 40
0.0
 40
0.0
 40
0.2764502216
 40
0.5322986047
 40
0.7717490522
 40
1.0
 40
1.0
 40
1.0
 40
1.0
 10
9.3648422624
 20
9.4395027282
 30
0.0
 10
9.365177136
 20
9.4392883119
 30
0.0
 10
9.365843648
 20
9.4389076282
 30
0.0
 10
9.366871372
 20
9.4384794947
 30
0.0
 10
9.3678833068
 20
9.4382203284
 30
0.0
 10
9.3685571669
 20
9.4381605697
 30
0.0
 10
9.368885475
 20
9.4381604809
 30
0.0
 11
9.3648422624
 21
9.4395027282
 31
0.0
 11
9.3658808646
 21
9.4389159256
 31
0.0
 11
9.3669020487
 21
9.4384963764
 31
0.0
 11
9.3679041461
 21
9.4382445641
 31
0.0
 11
9.368885475
 21
9.4381604809
 31
0.0
  0
SPLINE
  5
40A
100
AcDbEntity
  8
0
100
AcDbSpline
 62
9
  6
CONTINUOUS
 70
0
 71
3
 72
11
 73
7
 74
5
 42
0.0000001
 43
0.0000001
 44
0.0000000001
 12
-0.0043151222
 22
-0.0000012762
 32
0.0
 13
-0.0036340684
 23
-0.0023267634
 33
0.0
 40
0.0
 40
0.0
 40
0.0
 40
0.0
 40
0.2282554605
 40
0.4677082049
 40
0.7235554787
 40
1.0
 40
1.0
 40
1.0
 40
1.0
 10
9.368885475
 20
10.2381604809
 30
0.0
 10
9.3685571583
 20
10.2381603838
 30
0.0
 10
9.3678832857
 20
10.2381006276
 30
0.0
 10
9.3668713309
 20
10.2378414748
 30
0.0
 10
9.3658436128
 20
10.2374133233
 30
0.0
 10
9.3651771074
 20
10.2370326407
 30
0.0
 10
9.3648422346
 20
10.2368182337
 30
0.0
 11
9.368885475
 21
10.2381604809
 31
0.0
 11
9.3679041208
 21
10.2380763925
 31
0.0
 11
9.3669020051
 21
10.2378245856
 31
0.0
 11
9.3658808229
 21
10.2374050263
 31
0.0
 11
9.3648422346
 21
10.2368182337
 31
0.0
  0
SPLINE
  5
40B
100
AcDbEntity
  8
0
100
AcDbSpline
 62
9
  6
CONTINUOUS
 70
0
 71
3
 72
11
 73
7
 74
5
 42
0.0000001
 43
0.0000001
 44
0.0000000001
 12
-0.0029743708
 22
0.002261808
 32
0.0
 13
-0.0037366636
 23
0.0000013584
 33
0.0
 40
0.0
 40
0.0
 40
0.0
 40
0.0
 40
0.2821210351
 40
0.5389487645
 40
0.7759131773
 40
1.0
 40
1.0
 40
1.0
 40
1.0
 10
8.9731181994
 20
10.2368182337
 30
0.0
 10
8.9728384885
 20
10.2370309349
 30
0.0
 10
8.9722814921
 20
10.2374091654
 30
0.0
 10
8.9714119204
 20
10.2378391076
 30
0.0
 10
8.9705520356
 20
10.2381000804
 30
0.0
 10
8.9699764541
 20
10.2381603795
 30
0.0
 10
8.9696973418
 20
10.2381604809
 30
0.0
 11
8.9731181994
 21
10.2368182337
 31
0.0
 11
8.972242471
 21
10.2374051063
 31
0.0
 11
8.9713793597
 21
10.2378246568
 31
0.0
 11
8.9705304483
 21
10.2380764152
 31
0.0
 11
8.9696973418
 21
10.2381604809
 31
0.0
  0
SPLINE
  5
40C
100
AcDbEntity
  8
0
100
AcDbSpline
 62
9
  6
CONTINUOUS
 70
0
 71
3
 72
22
 73
18
 74
16
 42
0.0000001
 43
0.0000001
 44
0.0000000001
 12
0.05778238
 22
0.0002686271
 32
0.0
 13
0.0071465711
 23
0.0573393593
 33
0.0
 40
0.0
 40
0.0
 40
0.0
 40
0.0
 40
0.0623997807
 40
0.1249935209
 40
0.187646493
 40
0.2502588948
 40
0.3128289017
 40
0.3753798632
 40
0.4379279588
 40
0.5004749947
 40
0.5630063978
 40
0.6255113993
 40
0.6879970443
 40
0.7504750498
 40
0.8129531116
 40
0.875426046
 40
1.0
 40
1.0
 40
1.0
 40
1.0
 10
9.3318826932
 20
9.5667706325
 30
0.0
 10
9.3330845625
 20
9.56677622
 30
0.0
 10
9.3354928728
 20
9.5668945524
 30
0.0
 10
9.3390775238
 20
9.5673899078
 30
0.0
 10
9.3426085674
 20
9.5682024751
 30
0.0
 10
9.3460503976
 20
9.5693336164
 30
0.0
 10
9.349373448
 20
9.5707716267
 30
0.0
 10
9.3525527783
 20
9.5725017022
 30
0.0
 10
9.355563137
 20
9.5745106712
 30
0.0
 10
9.35838075
 20
9.5767813763
 30
0.0
 10
9.3609834952
 20
9.5792943408
 30
0.0
 10
9.3633479941
 20
9.5820312479
 30
0.0
 10
9.3654534429
 20
9.5849708231
 30
0.0
 10
9.3672857079
 20
9.5880871546
 30
0.0
 10
9.3688296347
 20
9.5913563866
 30
0.0
 10
9.3704817214
 20
9.5958741897
 30
0.0
 10
9.3712589985
 20
9.599418766
 30
0.0
 10
9.3715557574
 20
9.6017997629
 30
0.0
 11
9.3318826932
 21
9.5667706325
 31
0.0
 11
9.3354840185
 21
9.5669471121
 31
0.0
 11
9.3390667893
 21
9.5674424797
 31
0.0
 11
9.3425945209
 21
9.5682558155
 31
0.0
 11
9.3460316719
 21
9.5693851646
 31
0.0
 11
9.3493500127
 21
9.5708205503
 31
0.0
 11
9.3525247281
 21
9.5725482489
 31
0.0
 11
9.3555310787
 21
9.5745543447
 31
0.0
 11
9.3583452659
 21
9.5768220465
 31
0.0
 11
9.3609442722
 21
9.5793321777
 31
0.0
 11
9.3633051581
 21
9.5820654519
 31
0.0
 11
9.365408042
 21
9.5850004769
 31
0.0
 11
9.3672376704
 21
9.588112673
 31
0.0
 11
9.368779178
 21
9.5913771918
 31
0.0
 11
9.3700191125
 21
9.5947674354
 31
0.0
 11
9.3715557574
 21
9.6017997629
 31
0.0
  0
SPLINE
  5
40D
100
AcDbEntity
  8
0
100
AcDbSpline
 62
9
  6
CONTINUOUS
 70
0
 71
3
 72
16
 73
12
 74
10
 42
0.0000001
 43
0.0000001
 44
0.0000000001
 12
-0.0186654614
 22
0.0421466792
 32
0.0
 13
-0.0460948789
 23
0.0000645049
 33
0.0
 40
0.0
 40
0.0
 40
0.0
 40
0.0
 40
0.1248831722
 40
0.2497479657
 40
0.3747352516
 40
0.499769986
 40
0.6247878755
 40
0.6873571729
 40
0.7499541958
 40
0.8751164681
 40
1.0
 40
1.0
 40
1.0
 40
1.0
 10
9.3684398081
 20
10.0857345827
 30
0.0
 10
9.3676628074
 20
10.0874890531
 30
0.0
 10
9.3658495609
 20
10.0908890519
 30
0.0
 10
9.3624271969
 20
10.0955428865
 30
0.0
 10
9.3583701658
 20
10.0996600244
 30
0.0
 10
9.3537676103
 20
10.1031595555
 30
0.0
 10
9.3495478293
 20
10.1054922898
 30
0.0
 10
9.3460010468
 20
10.1069817497
 30
0.0
 10
9.3423544949
 20
10.1082144945
 30
0.0
 10
9.3376481743
 20
10.1092583487
 30
0.0
 10
9.3338015236
 20
10.1095476441
 30
0.0
 10
9.3318826932
 20
10.1095503293
 30
0.0
 11
9.3684398081
 21
10.0857345827
 31
0.0
 11
9.3657325004
 21
10.090814696
 31
0.0
 11
9.3623229025
 21
10.0954517161
 31
0.0
 11
9.3582800708
 21
10.0995563297
 31
0.0
 11
9.353690761
 21
10.1030428442
 31
0.0
 11
9.348648352
 21
10.1058325948
 31
0.0
 11
9.3459892297
 21
10.1069494016
 31
0.0
 11
9.3432557383
 21
10.1078732992
 31
0.0
 11
9.3376232761
 21
10.1091225853
 31
0.0
 11
9.3318826932
 21
10.1095503293
 31
0.0
  0
SPLINE
  5
40E
100
AcDbEntity
  8
0
100
AcDbSpline
 62
6
  6
CONTINUOUS
 70
0
 71
3
 72
65
 73
61
 74
59
 42
0.0000001
 43
0.0000001
 44
0.0000000001
 12
0.0
 22
-1.4168061929
 32
0.0
 13
0.0
 23
1.4168061929
 33
0.0
 40
0.0
 40
0.0
 40
0.0
 40
0.0
 40
0.0310024957
 40
0.046514445
 40
0.0620274448
 40
0.0775442343
 40
0.0930671983
 40
0.1085971352
 40
0.1241345025
 40
0.1396800801
 40
0.1552347168
 40
0.1707992082
 40
0.1863741116
 40
0.201959873
 40
0.2175569022
 40
0.2331654362
 40
0.2487856788
 40
0.2644176548
 40
0.2800612934
 40
0.295716444
 40
0.3113827787
 40
0.3270599448
 40
0.3427474167
 40
0.37414156
 40
0.3898560219
 40
0.4055779067
 40
0.4213062605
 40
0.4370401079
 40
0.4527784293
 40
0.4685201114
 40
0.5
 40
0.5314798886
 40
0.5472215707
 40
0.5629598921
 40
0.5786937395
 40
0.5944220933
 40
0.6101439781
 40
0.62585844
 40
0.6572525833
 40
0.6729400552
 40
0.6886172213
 40
0.704283556
 40
0.7199387066
 40
0.7355823452
 40
0.7512143212
 40
0.7668345638
 40
0.7824430978
 40
0.798040127
 40
0.8136258884
 40
0.8292007918
 40
0.8447652832
 40
0.8603199199
 40
0.8758654975
 40
0.8914028648
 40
0.9069328017
 40
0.9224557657
 40
0.9379725552
 40
0.953485555
 40
0.9689975043
 40
1.0
 40
1.0
 40
1.0
 40
1.0
 10
5.6587787652
 20
4.6797980866
 30
0.0
 10
5.6587787652
 20
4.6651565773
 30
0.0
 10
5.6598765257
 20
4.6431685561
 30
0.0
 10
5.663517565
 20
4.6140939475
 30
0.0
 10
5.6673336822
 20
4.5924374932
 30
0.0
 10
5.6722233701
 20
4.5709936314
 30
0.0
 10
5.6781765414
 20
4.5498117725
 30
0.0
 10
5.685176855
 20
4.5289423989
 30
0.0
 10
5.6932092296
 20
4.5084365998
 30
0.0
 10
5.7022536618
 20
4.4883438919
 30
0.0
 10
5.7122877279
 20
4.4687122555
 30
0.0
 10
5.7232887357
 20
4.4495897264
 30
0.0
 10
5.7352282824
 20
4.431021251
 30
0.0
 10
5.7480792714
 20
4.4130526156
 30
0.0
 10
5.7618098213
 20
4.3957265742
 30
0.0
 10
5.7763867308
 20
4.3790846415
 30
0.0
 10
5.7917758849
 20
4.3631678864
 30
0.0
 10
5.8079387078
 20
4.3480131526
 30
0.0
 10
5.824837704
 20
4.3336584772
 30
0.0
 10
5.8424312448
 20
4.3201373726
 30
0.0
 10
5.8606769183
 20
4.3074826159
 30
0.0
 10
5.8795321631
 20
4.2957252083
 30
0.0
 10
5.9054230238
 20
4.2812803234
 30
0.0
 10
5.9323582846
 20
4.268736887
 30
0.0
 10
5.9601053456
 20
4.258196713
 30
0.0
 10
5.9812960161
 20
4.2513032494
 30
0.0
 10
6.0028036462
 20
4.2454413326
 30
0.0
 10
6.0245777036
 20
4.2406267951
 30
0.0
 10
6.0465656605
 20
4.2368693787
 30
0.0
 10
6.0760923151
 20
4.2332829227
 30
0.0
 10
6.1132787652
 20
4.2314830161
 30
0.0
 10
6.1504652153
 20
4.2332829227
 30
0.0
 10
6.17999187
 20
4.2368693787
 30
0.0
 10
6.2019798268
 20
4.2406267951
 30
0.0
 10
6.2237538842
 20
4.2454413326
 30
0.0
 10
6.2452615143
 20
4.2513032494
 30
0.0
 10
6.2664521848
 20
4.258196713
 30
0.0
 10
6.2941992458
 20
4.268736887
 30
0.0
 10
6.3211345066
 20
4.2812803234
 30
0.0
 10
6.3470253673
 20
4.2957252083
 30
0.0
 10
6.3658806121
 20
4.3074826159
 30
0.0
 10
6.3841262856
 20
4.3201373726
 30
0.0
 10
6.4017198265
 20
4.3336584772
 30
0.0
 10
6.4186188226
 20
4.3480131526
 30
0.0
 10
6.4347816455
 20
4.3631678864
 30
0.0
 10
6.4501707996
 20
4.3790846415
 30
0.0
 10
6.4647477091
 20
4.3957265742
 30
0.0
 10
6.478478259
 20
4.4130526156
 30
0.0
 10
6.4913292481
 20
4.431021251
 30
0.0
 10
6.5032687947
 20
4.4495897264
 30
0.0
 10
6.5142698025
 20
4.4687122555
 30
0.0
 10
6.5243038686
 20
4.4883438919
 30
0.0
 10
6.5333483008
 20
4.5084365998
 30
0.0
 10
6.5413806754
 20
4.5289423989
 30
0.0
 10
6.548380989
 20
4.5498117725
 30
0.0
 10
6.5543341603
 20
4.5709936314
 30
0.0
 10
6.5592238482
 20
4.5924374932
 30
0.0
 10
6.5630399654
 20
4.6140939475
 30
0.0
 10
6.5666810047
 20
4.6431685561
 30
0.0
 10
6.5677787652
 20
4.6651565773
 30
0.0
 10
6.5677787652
 20
4.6797980866
 30
0.0
 11
5.6587787652
 21
4.6797980866
 31
0.0
 11
5.6609674014
 21
4.6359281194
 31
0.0
 11
5.663698157
 21
4.6141210054
 31
0.0
 11
5.6675120748
 21
4.5924755278
 31
0.0
 11
5.6723995637
 21
4.5710414154
 31
0.0
 11
5.6783496164
 21
4.5498685483
 31
0.0
 11
5.6853470566
 21
4.5290079655
 31
0.0
 11
5.6933756456
 21
4.5085108139
 31
0.0
 11
5.7024158211
 21
4.4884265175
 31
0.0
 11
5.712445561
 21
4.4688032251
 31
0.0
 11
5.7234413266
 21
4.4496883615
 31
0.0
 11
5.7353758706
 21
4.4311275867
 31
0.0
 11
5.7482210696
 21
4.4131660798
 31
0.0
 11
5.7619456642
 21
4.3958468514
 31
0.0
 11
5.7765164966
 21
4.3792115975
 31
0.0
 11
5.7918989122
 21
4.3633007176
 31
0.0
 11
5.808055244
 21
4.3481519939
 31
0.0
 11
5.8249471295
 21
4.3338025242
 31
0.0
 11
5.8425335374
 21
4.3202864373
 31
0.0
 11
5.8607721153
 21
4.3076363862
 31
0.0
 11
5.8796191987
 21
4.2958831547
 31
0.0
 11
5.8990289583
 21
4.2850544394
 31
0.0
 11
5.9393492085
 21
4.2662742388
 31
0.0
 11
5.9601623428
 21
4.2583676222
 31
0.0
 11
5.981344454
 21
4.2514764888
 31
0.0
 11
6.0028442763
 21
4.2456168308
 31
0.0
 11
6.0246102509
 21
4.2408035938
 31
0.0
 11
6.0465897913
 21
4.237047618
 31
0.0
 11
6.0687299751
 21
4.2343583487
 31
0.0
 11
6.1132787652
 21
4.2322029628
 31
0.0
 11
6.1578275553
 21
4.2343583487
 31
0.0
 11
6.1799677391
 21
4.237047618
 31
0.0
 11
6.2019472795
 21
4.2408035938
 31
0.0
 11
6.2237132541
 21
4.2456168308
 31
0.0
 11
6.2452130765
 21
4.2514764888
 31
0.0
 11
6.2663951876
 21
4.2583676222
 31
0.0
 11
6.2872083219
 21
4.2662742388
 31
0.0
 11
6.3275285721
 21
4.2850544394
 31
0.0
 11
6.3469383318
 21
4.2958831547
 31
0.0
 11
6.3657854151
 21
4.3076363862
 31
0.0
 11
6.3840239931
 21
4.3202864373
 31
0.0
 11
6.4016104009
 21
4.3338025242
 31
0.0
 11
6.4185022864
 21
4.3481519939
 31
0.0
 11
6.4346586182
 21
4.3633007176
 31
0.0
 11
6.4500410338
 21
4.3792115975
 31
0.0
 11
6.4646118663
 21
4.3958468514
 31
0.0
 11
6.4783364608
 21
4.4131660798
 31
0.0
 11
6.4911816598
 21
4.4311275867
 31
0.0
 11
6.5031162039
 21
4.4496883615
 31
0.0
 11
6.5141119695
 21
4.4688032251
 31
0.0
 11
6.5241417093
 21
4.4884265175
 31
0.0
 11
6.5331818848
 21
4.5085108139
 31
0.0
 11
6.5412104738
 21
4.5290079655
 31
0.0
 11
6.548207914
 21
4.5498685483
 31
0.0
 11
6.5541579667
 21
4.5710414154
 31
0.0
 11
6.5590454556
 21
4.5924755278
 31
0.0
 11
6.5628593734
 21
4.6141210054
 31
0.0
 11
6.5655901291
 21
4.6359281194
 31
0.0
 11
6.5677787652
 21
4.6797980866
 31
0.0
  0
SPLINE
  5
40F
100
AcDbEntity
  8
0
100
AcDbSpline
 62
9
  6
CONTINUOUS
 70
0
 71
3
 72
12
 73
8
 74
6
 42
0.0000001
 43
0.0000001
 44
0.0000000001
 12
0.0216111118
 22
0.0562877177
 32
0.0
 13
0.022345913
 23
0.0560000669
 33
0.0
 40
0.0
 40
0.0
 40
0.0
 40
0.0
 40
0.2623936719
 40
0.5183727042
 40
0.7657832918
 40
0.8849821472
 40
1.0
 40
1.0
 40
1.0
 40
1.0
 10
8.9731178435
 20
9.6104775412
 30
0.0
 10
8.9750080498
 20
9.6154007215
 30
0.0
 10
8.9787862041
 20
9.6251098829
 30
0.0
 10
8.9844659511
 20
9.6394142792
 30
0.0
 10
8.9891413806
 20
9.6510207363
 30
0.0
 10
8.9927640071
 20
9.6599970079
 30
0.0
 10
8.9945190635
 20
9.6643648805
 30
0.0
 10
8.9953757898
 20
9.666511883
 30
0.0
 11
8.9731178435
 21
9.6104775412
 31
0.0
 11
8.9788500142
 21
9.6252233026
 31
0.0
 11
8.9845415758
 21
9.6395694945
 31
0.0
 11
8.9901062071
 21
9.6534100781
 31
0.0
 11
8.9927937361
 21
9.6600756267
 31
0.0
 11
8.9953757898
 21
9.666511883
 31
0.0
  0
SPLINE
  5
410
100
AcDbEntity
  8
0
100
AcDbSpline
 62
9
  6
CONTINUOUS
 70
0
 71
3
 72
34
 73
30
 74
28
 42
0.0000001
 43
0.0000001
 44
0.0000000001
 12
-0.0100134416
 22
-0.0116977661
 32
0.0
 13
0.0153969886
 23
-0.0001987077
 33
0.0
 40
0.0
 40
0.0
 40
0.0
 40
0.0
 40
0.0981891226
 40
0.1927978252
 40
0.2847251004
 40
0.3748413132
 40
0.4626372659
 40
0.5466848385
 40
0.625528816
 40
0.6987039919
 40
0.766356773
 40
0.8281680515
 40
0.8814155447
 40
0.9037438484
 40
0.9227559096
 40
0.9388122452
 40
0.9525018773
 40
0.9644027547
 40
0.9698695903
 40
0.975116568
 40
0.9801321795
 40
0.9848194034
 40
0.9890737979
 40
0.9927874915
 40
0.9958500284
 40
0.9981489842
 40
0.9989765697
 40
0.9995704554
 40
1.0
 40
1.0
 40
1.0
 40
1.0
 10
7.5295958548
 20
9.2626063447
 30
0.0
 10
7.5292681178
 20
9.2622234803
 30
0.0
 10
7.5286171615
 20
9.2614779718
 30
0.0
 10
7.5276215286
 20
9.2604077589
 30
0.0
 10
7.5266104521
 20
9.2594098238
 30
0.0
 10
7.5255708516
 20
9.2584936004
 30
0.0
 10
7.5245198623
 20
9.2576543374
 30
0.0
 10
7.5234863172
 20
9.256887623
 30
0.0
 10
7.5224971098
 20
9.2561877436
 30
0.0
 10
7.5215622059
 20
9.2555572704
 30
0.0
 10
7.5206835028
 20
9.255000367
 30
0.0
 10
7.5198737475
 20
9.2545270813
 30
0.0
 10
7.5192606247
 20
9.2541787397
 30
0.0
 10
7.5188435802
 20
9.2539300703
 30
0.0
 10
7.518596031
 20
9.2537702217
 30
0.0
 10
7.5183903675
 20
9.2536275738
 30
0.0
 10
7.518216563
 20
9.2535031518
 30
0.0
 10
7.5180855157
 20
9.2534123093
 30
0.0
 10
7.5179871924
 20
9.2533505604
 30
0.0
 10
7.5179169719
 20
9.2533106652
 30
0.0
 10
7.5178486006
 20
9.2532757667
 30
0.0
 10
7.5177836717
 20
9.2532455267
 30
0.0
 10
7.5177238635
 20
9.2532199391
 30
0.0
 10
7.5176714975
 20
9.2531990974
 30
0.0
 10
7.5176271072
 20
9.2531827198
 30
0.0
 10
7.517598721
 20
9.25317254
 30
0.0
 10
7.5175784295
 20
9.2531659152
 30
0.0
 10
7.5175732828
 20
9.2531637047
 30
0.0
 10
7.5175614007
 20
9.2531605094
 30
0.0
 10
7.5175636052
 20
9.2531604809
 30
0.0
 11
7.5295958548
 21
9.2626063447
 31
0.0
 11
7.5285990492
 21
9.2614695293
 31
0.0
 11
7.5276045772
 21
9.2604049533
 31
0.0
 11
7.5265946429
 21
9.2594131203
 31
0.0
 11
7.5255546382
 21
9.2584944703
 31
0.0
 11
7.524499853
 21
9.2576488476
 31
0.0
 11
7.5234619351
 21
9.2568757712
 31
0.0
 11
7.5224706754
 21
9.2561748089
 31
0.0
 11
7.5215356467
 21
9.2555460525
 31
0.0
 11
7.5206547932
 21
9.2549898955
 31
0.0
 11
7.519834769
 21
9.2545067201
 31
0.0
 11
7.5191246538
 21
9.254096837
 31
0.0
 11
7.5188301178
 21
9.2539194707
 31
0.0
 11
7.5185842613
 21
9.2537605403
 31
0.0
 11
7.5183807725
 21
9.2536201131
 31
0.0
 11
7.5182087594
 21
9.2534982659
 31
0.0
 11
7.5180573213
 21
9.253395076
 31
0.0
 11
7.5179859115
 21
9.2533505017
 31
0.0
 11
7.5179156463
 21
9.2533106202
 31
0.0
 11
7.5178468949
 21
9.253275435
 31
0.0
 11
7.5177814765
 21
9.2532449445
 31
0.0
 11
7.5177212596
 21
9.2532191467
 31
0.0
 11
7.517668113
 21
9.2531980396
 31
0.0
 11
7.5176239056
 21
9.2531816215
 31
0.0
 11
7.517590506
 21
9.2531698902
 31
0.0
 11
7.5175784431
 21
9.2531657816
 31
0.0
 11
7.5175697829
 21
9.253162844
 31
0.0
 11
7.5175636052
 21
9.2531604809
 31
0.0
  0
SPLINE
  5
411
100
AcDbEntity
  8
0
100
AcDbSpline
 62
9
  6
CONTINUOUS
 70
0
 71
3
 72
12
 73
8
 74
6
 42
0.0000001
 43
0.0000001
 44
0.0000000001
 12
0.0216049113
 22
-0.0562816482
 32
0.0
 13
0.0223415376
 23
-0.0559933194
 33
0.0
 40
0.0
 40
0.0
 40
0.0
 40
0.0
 40
0.2623905514
 40
0.5183688534
 40
0.7657788949
 40
0.8849787547
 40
1.0
 40
1.0
 40
1.0
 40
1.0
 10
8.9731177708
 20
10.0658430033
 30
0.0
 10
8.9750074123
 20
10.0609204124
 30
0.0
 10
8.9787856535
 20
10.0512128283
 30
0.0
 10
8.9844644684
 20
10.0369103256
 30
0.0
 10
8.9891396807
 20
10.0253055509
 30
0.0
 10
8.992761763
 20
10.016330342
 30
0.0
 10
8.9945165457
 20
10.0119629279
 30
0.0
 10
8.9953731295
 20
10.0098161208
 30
0.0
 11
8.9731177708
 21
10.0658430033
 31
0.0
 11
8.9788492618
 21
10.0510994004
 31
0.0
 11
8.9845401895
 21
10.0367551767
 31
0.0
 11
8.9901043102
 21
10.0229165269
 31
0.0
 11
8.9927914618
 21
10.0162517747
 31
0.0
 11
8.9953731295
 21
10.0098161208
 31
0.0
  0
LINE
  5
412
100
AcDbEntity
  8
0
100
AcDbLine
 62
9
  6
CONTINUOUS
 10
9.3318826932
 20
9.6066324631
 11
9.3715889457
 21
9.6017974782
  0
LINE
  5
413
100
AcDbEntity
  8
0
100
AcDbLine
 62
9
  6
CONTINUOUS
 10
9.3318826932
 20
10.0696884988
 11
9.3715933108
 21
10.0744874071
  0
LINE
  5
414
100
AcDbEntity
  8
0
100
AcDbLine
 62
9
  6
CONTINUOUS
 10
9.041362358
 20
9.6066324631
 11
9.0016543107
 21
9.6018086827
  0
LINE
  5
415
100
AcDbEntity
  8
0
100
AcDbLine
 62
9
  6
CONTINUOUS
 10
9.041362358
 20
10.0696884988
 11
9.0016543108
 21
10.0745122803
  0
SPLINE
  5
416
100
AcDbEntity
  8
0
100
AcDbSpline
 62
9
  6
CONTINUOUS
 70
0
 71
3
 72
14
 73
10
 74
8
 42
0.0000001
 43
0.0000001
 44
0.0000000001
 12
-0.0026271822
 22
-0.9425135596
 32
0.0
 13
0.0009007861
 23
-0.9425167906
 33
0.0
 40
0.0
 40
0.0
 40
0.0
 40
0.0
 40
0.125062324
 40
0.2501330628
 40
0.3751963856
 40
0.5002386114
 40
0.6252492349
 40
0.7502182084
 40
1.0
 40
1.0
 40
1.0
 40
1.0
 10
9.0033011848
 20
9.3984129678
 30
0.0
 10
9.0031916643
 20
9.3591219891
 30
0.0
 10
9.0029588469
 20
9.2805374267
 30
0.0
 10
9.0026004047
 20
9.1626616205
 30
0.0
 10
9.002266651
 20
9.0447920534
 30
0.0
 10
9.0019843879
 20
8.9269412364
 30
0.0
 10
9.001766405
 20
8.8091199204
 30
0.0
 10
9.0015825419
 20
8.6521087836
 30
0.0
 10
9.0015820855
 20
8.5343723557
 30
0.0
 10
9.0016570855
 20
8.4558978448
 30
0.0
 11
9.0033011848
 21
9.3984129678
 31
0.0
 11
9.0029573183
 21
9.2805400753
 31
0.0
 11
9.0026045097
 21
9.1626592781
 31
0.0
 11
9.0022752075
 21
9.0447854026
 31
0.0
 11
9.00199507
 21
8.9269312843
 31
0.0
 11
9.0017797186
 21
8.8091068157
 31
0.0
 11
9.0016437418
 21
8.6913214845
 31
0.0
 11
9.0016570855
 21
8.4558978448
 31
0.0
  0
SPLINE
  5
417
100
AcDbEntity
  8
0
100
AcDbSpline
 62
9
  6
CONTINUOUS
 70
0
 71
3
 72
22
 73
18
 74
16
 42
0.0000001
 43
0.0000001
 44
0.0000000001
 12
-0.045433684
 22
0.000112061
 32
0.0
 13
-0.0074928496
 23
0.0448117106
 33
0.0
 40
0.0
 40
0.0
 40
0.0
 40
0.0
 40
0.1639060414
 40
0.2447166645
 40
0.3238083438
 40
0.4005280823
 40
0.4743984799
 40
0.5449967167
 40
0.611924907
 40
0.6748432152
 40
0.7335349835
 40
0.7878668693
 40
0.8378059905
 40
0.8834890695
 40
0.925301677
 40
0.9638495286
 40
1.0
 40
1.0
 40
1.0
 40
1.0
 10
9.0431996944
 20
9.3824736283
 30
0.0
 10
9.0407174093
 20
9.3824797508
 30
0.0
 10
9.0370093207
 20
9.3826375515
 30
0.0
 10
9.0321304986
 20
9.3831424882
 30
0.0
 10
9.0285835396
 20
9.3836618641
 30
0.0
 10
9.0251669672
 20
9.3843215518
 30
0.0
 10
9.0219107019
 20
9.3851134847
 30
0.0
 10
9.0188414649
 20
9.3860296769
 30
0.0
 10
9.0159849112
 20
9.3870624013
 30
0.0
 10
9.0133656222
 20
9.3882047299
 30
0.0
 10
9.0110046324
 20
9.3894456925
 30
0.0
 10
9.00892118
 20
9.3907749372
 30
0.0
 10
9.007133639
 20
9.3921830323
 30
0.0
 10
9.0056609319
 20
9.3936621429
 30
0.0
 10
9.0045142545
 20
9.3951978154
 30
0.0
 10
9.0037045036
 20
9.3967757017
 30
0.0
 10
9.0033914748
 20
9.3978729796
 30
0.0
 10
9.0033011848
 20
9.3984129678
 30
0.0
 11
9.0431996944
 21
9.3824736283
 31
0.0
 11
9.0357596051
 21
9.3827915327
 31
0.0
 11
9.0321077451
 21
9.383171126
 31
0.0
 11
9.0285525907
 21
9.3836942594
 31
0.0
 11
9.0251305844
 21
9.3843574151
 31
0.0
 11
9.0218701919
 21
9.3851536664
 31
0.0
 11
9.0187978841
 21
9.3860752344
 31
0.0
 11
9.0159401323
 21
9.3871143399
 31
0.0
 11
9.0133223172
 21
9.3882627076
 31
0.0
 11
9.0109654588
 21
9.3895100759
 31
0.0
 11
9.0088894864
 21
9.3908456869
 31
0.0
 11
9.0071143297
 21
9.3922587828
 31
0.0
 11
9.0056580546
 21
9.3937377011
 31
0.0
 11
9.0045312731
 21
9.3952671613
 31
0.0
 11
9.0037427337
 21
9.3968309785
 31
0.0
 11
9.0033011848
 21
9.3984129678
 31
0.0
  0
SPLINE
  5
418
100
AcDbEntity
  8
0
100
AcDbSpline
 62
9
  6
CONTINUOUS
 70
0
 71
3
 72
13
 73
9
 74
7
 42
0.0000001
 43
0.0000001
 44
0.0000000001
 12
-0.0028369053
 22
-0.9415266975
 32
0.0
 13
0.0010172593
 23
-0.9415304219
 33
0.0
 40
0.0
 40
0.0
 40
0.0
 40
0.0
 40
0.2500000935
 40
0.3750001385
 40
0.5000001564
 40
0.6250001447
 40
0.750000133
 40
1.0
 40
1.0
 40
1.0
 40
1.0
 10
9.0431996944
 20
9.3824736284
 30
0.0
 10
9.0429632855
 20
9.3040130409
 30
0.0
 10
9.0425592802
 20
9.1863223155
 30
0.0
 10
9.0420625225
 20
9.0294012223
 30
0.0
 10
9.0417416615
 20
8.9117102673
 30
0.0
 10
9.0414919897
 20
8.7940191508
 30
0.0
 10
9.0412848857
 20
8.6370974979
 30
0.0
 10
9.0412890268
 20
8.5194060738
 30
0.0
 10
9.0413737984
 20
8.440945247
 30
0.0
 11
9.0431996944
 21
9.3824736284
 31
0.0
 11
9.0424385838
 21
9.147092028
 31
0.0
 11
9.0420711403
 21
9.0294011878
 31
0.0
 11
9.0417535263
 21
8.9117102281
 31
0.0
 11
9.0415077137
 21
8.7940191244
 31
0.0
 11
9.0413543805
 21
8.6763278639
 31
0.0
 11
9.0413737984
 21
8.440945247
 31
0.0
  0
SPLINE
  5
419
100
AcDbEntity
  8
0
100
AcDbSpline
 62
9
  6
CONTINUOUS
 70
0
 71
3
 72
24
 73
20
 74
18
 42
0.0000001
 43
0.0000001
 44
0.0000000001
 12
-0.0445165859
 22
-0.0006736426
 32
0.0
 13
-0.0128665509
 23
0.0426219671
 33
0.0
 40
0.0
 40
0.0
 40
0.0
 40
0.0
 40
0.0811167183
 40
0.1618979622
 40
0.2416852355
 40
0.3197845098
 40
0.3956790265
 40
0.4689625013
 40
0.5045150838
 40
0.5392829838
 40
0.6062655501
 40
0.669527981
 40
0.7286915543
 40
0.7835703581
 40
0.8342841403
 40
0.8811453889
 40
0.9244652895
 40
0.964136272
 40
1.0
 40
1.0
 40
1.0
 40
1.0
 10
9.041362358
 20
8.440945247
 30
0.0
 10
9.0401586782
 20
8.4409270325
 30
0.0
 10
9.0377549084
 20
8.4409582995
 30
0.0
 10
9.0341737859
 20
8.4411782172
 30
0.0
 10
9.0306498057
 20
8.4415431407
 30
0.0
 10
9.0272128889
 20
8.442022571
 30
0.0
 10
9.0238920931
 20
8.4426186139
 30
0.0
 10
9.0212170901
 20
8.4432243041
 30
0.0
 10
9.019158693
 20
8.4437774336
 30
0.0
 10
9.0172062844
 20
8.4443613979
 30
0.0
 10
9.0148901238
 20
8.4451611972
 30
0.0
 10
9.0122909308
 20
8.4462360131
 30
0.0
 10
9.0099266568
 20
8.4473955572
 30
0.0
 10
9.0078146606
 20
8.4486329422
 30
0.0
 10
9.0059723745
 20
8.4499530354
 30
0.0
 10
9.0044187798
 20
8.4513608601
 30
0.0
 10
9.0031761278
 20
8.4528422933
 30
0.0
 10
9.0022438085
 20
8.454346698
 30
0.0
 10
9.0018109181
 20
8.4553882887
 30
0.0
 10
9.0016571039
 20
8.4558978163
 30
0.0
 11
9.041362358
 21
8.440945247
 31
0.0
 11
9.0377511523
 21
8.440987497
 31
0.0
 11
9.0341611748
 21
8.441204281
 31
0.0
 11
9.0306274535
 21
8.4415667593
 31
0.0
 11
9.0271840494
 21
8.4420497395
 31
0.0
 11
9.023858987
 21
8.4426507998
 31
0.0
 11
9.0206779652
 21
8.4433762894
 31
0.0
 11
9.0191494972
 21
8.4437876699
 31
0.0
 11
9.017666547
 21
8.4442314398
 31
0.0
 11
9.0148487086
 21
8.4452077408
 31
0.0
 11
9.0122473726
 21
8.4462875575
 31
0.0
 11
9.0098853468
 21
8.4474533688
 31
0.0
 11
9.0077822244
 21
8.4486969823
 31
0.0
 11
9.005953696
 21
8.4500215309
 31
0.0
 11
9.0044152066
 21
8.4514307405
 31
0.0
 11
9.0031802271
 21
8.452912163
 31
0.0
 11
9.0022579725
 21
8.4544184749
 31
0.0
 11
9.0016571039
 21
8.4558978163
 31
0.0
  0
SPLINE
  5
41A
100
AcDbEntity
  8
0
100
AcDbSpline
 62
9
  6
CONTINUOUS
 70
0
 71
3
 72
22
 73
18
 74
16
 42
0.0000001
 43
0.0000001
 44
0.0000000001
 12
-0.04665529
 22
0.0002852924
 32
0.0
 13
-0.0067709792
 23
0.0461622283
 33
0.0
 40
0.0
 40
0.0
 40
0.0
 40
0.0
 40
0.1597562027
 40
0.2386317545
 40
0.3159488196
 40
0.3911076033
 40
0.4636779471
 40
0.5332835147
 40
0.5995753245
 40
0.6622642169
 40
0.7211796186
 40
0.7762331639
 40
0.8274352186
 40
0.8749524853
 40
0.9191577945
 40
0.9605944011
 40
1.0
 40
1.0
 40
1.0
 40
1.0
 10
9.0432411337
 20
9.387885873
 30
0.0
 10
9.040756643
 20
9.3879010654
 30
0.0
 10
9.0370435847
 20
9.3880918309
 30
0.0
 10
9.0321638039
 20
9.3886777276
 30
0.0
 10
9.0286142865
 20
9.3892757816
 30
0.0
 10
9.0251953971
 20
9.3900317914
 30
0.0
 10
9.0219369801
 20
9.3909365806
 30
0.0
 10
9.0188657427
 20
9.3919811052
 30
0.0
 10
9.0160073653
 20
9.3931566407
 30
0.0
 10
9.0133866657
 20
9.3944552761
 30
0.0
 10
9.0110246687
 20
9.3958646655
 30
0.0
 10
9.0089407615
 20
9.3973731398
 30
0.0
 10
9.0071537615
 20
9.3989699154
 30
0.0
 10
9.005683482
 20
9.4006451817
 30
0.0
 10
9.0045411263
 20
9.4023816866
 30
0.0
 10
9.0037373878
 20
9.4041620045
 30
0.0
 10
9.0034300585
 20
9.405390197
 30
0.0
 10
9.0033411203
 20
9.4059965471
 30
0.0
 11
9.0432411337
 21
9.387885873
 31
0.0
 11
9.035797392
 21
9.3882693209
 31
0.0
 11
9.0321438084
 21
9.3887097201
 31
0.0
 11
9.028587077
 21
9.3893117182
 31
0.0
 11
9.0251636953
 21
9.390071221
 31
0.0
 11
9.0219021681
 21
9.3909803115
 31
0.0
 11
9.0188290019
 21
9.3920301171
 31
0.0
 11
9.0159707033
 21
9.3932117652
 31
0.0
 11
9.013352686
 21
9.3945158265
 31
0.0
 11
9.0109959915
 21
9.395930644
 31
0.0
 11
9.0089205684
 21
9.3974440041
 31
0.0
 11
9.0071463654
 21
9.3990436934
 31
0.0
 11
9.0056914621
 21
9.4007164836
 31
0.0
 11
9.0045664631
 21
9.4024450892
 31
0.0
 11
9.0037801039
 21
9.4042112104
 31
0.0
 11
9.0033411203
 21
9.4059965471
 31
0.0
  0
SPLINE
  5
41B
100
AcDbEntity
  8
0
100
AcDbSpline
 62
9
  6
CONTINUOUS
 70
0
 71
3
 72
18
 73
14
 74
12
 42
0.0000001
 43
0.0000001
 44
0.0000000001
 12
0.0668365947
 22
-0.0203084437
 32
0.0
 13
-0.0007767066
 23
-0.0698495526
 33
0.0
 40
0.0
 40
0.0
 40
0.0
 40
0.0
 40
0.1205828094
 40
0.2414132134
 40
0.3625619215
 40
0.4843066497
 40
0.6072737936
 40
0.6696334276
 40
0.7328319193
 40
0.797148623
 40
0.8629034575
 40
0.9304316768
 40
1.0
 40
1.0
 40
1.0
 40
1.0
 10
8.9981399422
 20
9.4348733738
 30
0.0
 10
9.0008263903
 20
9.4340570907
 30
0.0
 10
9.0061428444
 20
9.4322081232
 30
0.0
 10
9.013852337
 20
9.4287391768
 30
0.0
 10
9.0211987214
 20
9.4244902753
 30
0.0
 10
9.0280265599
 20
9.419357152
 30
0.0
 10
9.0330785021
 20
9.4142474602
 30
0.0
 10
9.0365630666
 20
9.4096175873
 30
0.0
 10
9.0388608557
 20
9.4058307575
 30
0.0
 10
9.0407631381
 20
9.4017415516
 30
0.0
 10
9.042196376
 20
9.3973568707
 30
0.0
 10
9.0430827221
 20
9.3927043861
 30
0.0
 10
9.0432591451
 20
9.3895056372
 30
0.0
 10
9.0432411337
 20
9.3878858652
 30
0.0
 11
8.9981399422
 21
9.4348733738
 31
0.0
 11
9.0060917208
 21
9.4320950449
 31
0.0
 11
9.0137812365
 21
9.4286146849
 31
0.0
 11
9.021093912
 21
9.4243553218
 31
0.0
 11
9.0278698666
 21
9.4192162317
 31
0.0
 11
9.0338772673
 21
9.4130766377
 31
0.0
 11
9.0364918593
 21
9.4095925046
 31
0.0
 11
9.0387765673
 21
9.4058150285
 31
0.0
 11
9.0406666337
 21
9.4017391681
 31
0.0
 11
9.0420899628
 21
9.3973720302
 31
0.0
 11
9.0429712761
 21
9.3927379834
 31
0.0
 11
9.0432411337
 21
9.3878858652
 31
0.0
  0
SPLINE
  5
41C
100
AcDbEntity
  8
0
100
AcDbSpline
 62
9
  6
CONTINUOUS
 70
0
 71
3
 72
12
 73
8
 74
6
 42
0.0000001
 43
0.0000001
 44
0.0000000001
 12
0.0254216777
 22
-0.0018831119
 32
0.0
 13
0.0243892852
 23
-0.0074142143
 33
0.0
 40
0.0
 40
0.0
 40
0.0
 40
0.0
 40
0.1244464212
 40
0.2488469907
 40
0.4984799815
 40
0.7489227878
 40
1.0
 40
1.0
 40
1.0
 40
1.0
 10
8.9731216092
 20
9.4395027282
 30
0.0
 10
8.9741761548
 20
9.4394246127
 30
0.0
 10
8.9762827175
 20
9.4392379486
 30
0.0
 10
8.980490747
 20
9.4387520049
 30
0.0
 10
8.9857365433
 20
9.4379350212
 30
0.0
 10
8.9919836416
 20
9.4366121882
 30
0.0
 10
8.9960987443
 20
9.4354938872
 30
0.0
 10
8.9981399422
 20
9.4348733738
 30
0.0
 11
8.9731216092
 21
9.4395027282
 31
0.0
 11
8.9762816387
 21
9.4392239279
 31
0.0
 11
8.9794318564
 21
9.4388602927
 31
0.0
 11
8.9857193187
 21
9.4378796553
 31
0.0
 11
8.9919644312
 21
9.4365546818
 31
0.0
 11
8.9981399422
 21
9.4348733738
 31
0.0
  0
SPLINE
  5
41D
100
AcDbEntity
  8
0
100
AcDbSpline
 62
9
  6
CONTINUOUS
 70
0
 71
3
 72
11
 73
7
 74
5
 42
0.0000001
 43
0.0000001
 44
0.0000000001
 12
0.0111530701
 22
-0.0028500536
 32
0.0
 13
0.0103345323
 23
-0.0050706232
 33
0.0
 40
0.0
 40
0.0
 40
0.0
 40
0.0
 40
0.2444607249
 40
0.4922609801
 40
0.743993642
 40
1.0
 40
1.0
 40
1.0
 40
1.0
 10
8.9731182174
 20
9.4395029816
 30
0.0
 10
8.9740270466
 20
9.4392707395
 30
0.0
 10
8.9758433524
 20
9.4387485824
 30
0.0
 10
8.97854902
 20
9.437834921
 30
0.0
 10
8.9812474656
 20
9.4367717445
 30
0.0
 10
8.9830213518
 20
9.4359632993
 30
0.0
 10
8.9839032538
 20
9.4355305954
 30
0.0
 11
8.9731182174
 21
9.4395029816
 31
0.0
 11
8.9758245913
 21
9.4387318122
 31
0.0
 11
8.9785267127
 21
9.4378177312
 31
0.0
 11
8.9812224854
 21
9.4367546604
 31
0.0
 11
8.9839032538
 21
9.4355305954
 31
0.0
  0
SPLINE
  5
41E
100
AcDbEntity
  8
0
100
AcDbSpline
 62
9
  6
CONTINUOUS
 70
0
 71
3
 72
13
 73
9
 74
7
 42
0.0000001
 43
0.0000001
 44
0.0000000001
 12
0.0362038174
 22
-0.9414913743
 32
0.0
 13
0.0323805568
 23
-0.9416306197
 33
0.0
 40
0.0
 40
0.0
 40
0.0
 40
0.0
 40
0.2500021562
 40
0.3750031498
 40
0.5000037772
 40
0.6250038864
 40
0.7500033668
 40
1.0
 40
1.0
 40
1.0
 40
1.0
 10
9.296664281
 20
9.3824736284
 30
0.0
 10
9.2996812918
 20
9.3040153371
 30
0.0
 10
9.3042566274
 20
9.1863298492
 30
0.0
 10
9.3103159839
 20
9.0294144095
 30
0.0
 10
9.3148091772
 20
8.911726202
 30
0.0
 10
9.3192315803
 20
8.7940357822
 30
0.0
 10
9.3250028278
 20
8.6371118478
 30
0.0
 10
9.3291725513
 20
8.5194134086
 30
0.0
 10
9.3318708946
 20
8.440945247
 30
0.0
 11
9.296664281
 21
9.3824736284
 31
0.0
 11
9.3057680453
 21
9.1471007884
 31
0.0
 11
9.3103074365
 21
9.0294139656
 31
0.0
 11
9.314797388
 21
8.9117255916
 31
0.0
 11
9.3192159323
 21
8.7940350034
 31
0.0
 11
9.3235424044
 21
8.6763415876
 31
0.0
 11
9.3318708946
 21
8.440945247
 31
0.0
  0
SPLINE
  5
41F
100
AcDbEntity
  8
0
100
AcDbSpline
 62
9
  6
CONTINUOUS
 70
0
 71
3
 72
14
 73
10
 74
8
 42
0.0000001
 43
0.0000001
 44
0.0000000001
 12
0.0359784401
 22
-0.942485681
 32
0.0
 13
0.0325474544
 23
-0.9426104021
 33
0.0
 40
0.0
 40
0.0
 40
0.0
 40
0.0
 40
0.1250626618
 40
0.2501339434
 40
0.3751978099
 40
0.500240418
 40
0.6252511719
 40
0.7502199393
 40
1.0
 40
1.0
 40
1.0
 40
1.0
 10
9.3365313609
 20
9.3995252258
 30
0.0
 10
9.3380312141
 20
9.3602353031
 30
0.0
 10
9.3410445973
 20
9.2816532683
 30
0.0
 10
9.3455738782
 20
9.163781548
 30
0.0
 10
9.350078905
 20
9.045915205
 30
0.0
 10
9.3545329703
 20
8.9280659662
 30
0.0
 10
9.3589233438
 20
8.8102442521
 30
0.0
 10
9.3646702358
 20
8.6532296088
 30
0.0
 10
9.368845877
 20
8.535486001
 30
0.0
 10
9.3715557788
 20
8.4570042398
 30
0.0
 11
9.3365313609
 21
9.3995252258
 31
0.0
 11
9.3410460339
 21
9.2816560357
 31
0.0
 11
9.3455699652
 21
9.1637790647
 31
0.0
 11
9.3500707855
 21
9.0459082078
 31
0.0
 11
9.3545229172
 21
8.9280555665
 31
0.0
 11
9.3589108534
 21
8.8102305823
 31
0.0
 11
9.3632201222
 21
8.6924423218
 31
0.0
 11
9.3715557788
 21
8.4570042398
 31
0.0
  0
SPLINE
  5
420
100
AcDbEntity
  8
0
100
AcDbSpline
 62
9
  6
CONTINUOUS
 70
0
 71
3
 72
25
 73
21
 74
19
 42
0.0000001
 43
0.0000001
 44
0.0000000001
 12
-0.0131866179
 22
-0.0428250141
 32
0.0
 13
-0.0448040437
 23
-0.0006829317
 33
0.0
 40
0.0
 40
0.0
 40
0.0
 40
0.0
 40
0.0359927654
 40
0.0759263825
 40
0.1195829578
 40
0.1668094873
 40
0.1918502352
 40
0.217895222
 40
0.2449731778
 40
0.2731019782
 40
0.3325200353
 40
0.3959581338
 40
0.4630258069
 40
0.5333256635
 40
0.6064906109
 40
0.6821583941
 40
0.7599208076
 40
0.8392645789
 40
0.9195077376
 40
1.0
 40
1.0
 40
1.0
 40
1.0
 10
9.3715557574
 20
8.4570042086
 30
0.0
 10
9.3713975498
 20
8.4564904117
 30
0.0
 10
9.3709577562
 20
8.4554380065
 30
0.0
 10
9.3700205645
 20
8.453910867
 30
0.0
 10
9.3687751074
 20
8.4523973775
 30
0.0
 10
9.3675045513
 20
8.4512142247
 30
0.0
 10
9.3663511844
 20
8.4503046561
 30
0.0
 10
9.3653992652
 20
8.4496279017
 30
0.0
 10
9.3643793427
 20
8.4489695101
 30
0.0
 10
9.3629042563
 20
8.4480996561
 30
0.0
 10
9.3609003642
 20
8.4470610907
 30
0.0
 10
9.3583041996
 20
8.4459137979
 30
0.0
 10
9.3554934824
 20
8.4448622805
 30
0.0
 10
9.3524896639
 20
8.4439266086
 30
0.0
 10
9.3493167486
 20
8.4431179311
 30
0.0
 10
9.3460022153
 20
8.4424284932
 30
0.0
 10
9.3425726764
 20
8.4418526564
 30
0.0
 10
9.3390571728
 20
8.4413886638
 30
0.0
 10
9.335484696
 20
8.4410661399
 30
0.0
 10
9.3330848195
 20
8.4409635706
 30
0.0
 10
9.3318826932
 20
8.440945247
 30
0.0
 11
9.3715557574
 21
8.4570042086
 31
0.0
 11
9.3709456941
 21
8.4555112335
 31
0.0
 11
9.3700176258
 21
8.4539813233
 31
0.0
 11
9.3687789052
 21
8.4524672687
 31
0.0
 11
9.3672375819
 21
8.4510172471
 31
0.0
 11
9.3663574809
 21
8.4503212339
 31
0.0
 11
9.3654070684
 21
8.449643933
 31
0.0
 11
9.364388334
 21
8.4489848571
 31
0.0
 11
9.3633032672
 21
8.4483435189
 31
0.0
 11
9.3609422994
 21
8.4471128187
 31
0.0
 11
9.3583437089
 21
8.4459605259
 31
0.0
 11
9.3555298659
 21
8.4449051457
 31
0.0
 11
9.3525232492
 21
8.4439653141
 31
0.0
 11
9.3493476606
 21
8.4431504656
 31
0.0
 11
9.3460289069
 21
8.4424560923
 31
0.0
 11
9.3425929662
 21
8.4418765411
 31
0.0
 11
9.3390677763
 21
8.4414145441
 31
0.0
 11
9.3354863921
 21
8.4410947277
 31
0.0
 11
9.3318826932
 21
8.440945247
 31
0.0
  0
SPLINE
  5
421
100
AcDbEntity
  8
0
100
AcDbSpline
 62
9
  6
CONTINUOUS
 70
0
 71
3
 72
12
 73
8
 74
6
 42
0.0000001
 43
0.0000001
 44
0.0000000001
 12
-0.0167712826
 22
-0.0087849419
 32
0.0
 13
-0.0099438404
 23
-0.0161112124
 33
0.0
 40
0.0
 40
0.0
 40
0.0
 40
0.0
 40
0.2288211682
 40
0.467820894
 40
0.7218123911
 40
0.8571021525
 40
1.0
 40
1.0
 40
1.0
 40
1.0
 10
9.3544910124
 20
9.4354493709
 30
0.0
 10
9.3532118042
 20
9.4347793107
 30
0.0
 10
9.3506565993
 20
9.433289595
 30
0.0
 10
9.3469775033
 20
9.4305876915
 30
0.0
 10
9.3441014317
 20
9.4278357368
 30
0.0
 10
9.3419630212
 20
9.425241676
 30
0.0
 10
9.3409692878
 20
9.4237905601
 30
0.0
 10
9.3404956367
 20
9.4230231409
 30
0.0
 11
9.3544910124
 21
9.4354493709
 31
0.0
 11
9.3507530345
 21
9.4332594601
 31
0.0
 11
9.3471140907
 21
9.4305700126
 31
0.0
 11
9.3436507677
 21
9.4272338953
 31
0.0
 11
9.3420229397
 21
9.4252562651
 31
0.0
 11
9.3404956367
 21
9.4230231409
 31
0.0
  0
SPLINE
  5
422
100
AcDbEntity
  8
0
100
AcDbSpline
 62
9
  6
CONTINUOUS
 70
0
 71
3
 72
11
 73
7
 74
5
 42
0.0000001
 43
0.0000001
 44
0.0000000001
 12
-0.0065531721
 22
-0.0141349297
 32
0.0
 13
0.0011784019
 23
-0.0155354971
 33
0.0
 40
0.0
 40
0.0
 40
0.0
 40
0.0
 40
0.2090812353
 40
0.4408946404
 40
0.702163639
 40
1.0
 40
1.0
 40
1.0
 40
1.0
 10
9.338907586
 20
9.4200722439
 30
0.0
 10
9.3384508709
 20
9.4190871277
 30
0.0
 10
9.3376080452
 20
9.4169517604
 30
0.0
 10
9.3366861592
 20
9.4134140393
 30
0.0
 10
9.3361692757
 20
9.4093275391
 30
0.0
 10
9.3361985867
 20
9.4064130085
 30
0.0
 10
9.336315577
 20
9.4048706632
 30
0.0
 11
9.338907586
 21
9.4200722439
 31
0.0
 11
9.3377108625
 21
9.4170425185
 31
0.0
 11
9.3367966952
 21
9.4135484458
 31
0.0
 11
9.3362793629
 21
9.4095108497
 31
0.0
 11
9.336315577
 21
9.4048706632
 31
0.0
  0
SPLINE
  5
423
100
AcDbEntity
  8
0
100
AcDbSpline
 62
9
  6
CONTINUOUS
 70
0
 71
3
 72
18
 73
14
 74
12
 42
0.0000001
 43
0.0000001
 44
0.0000000001
 12
-0.0670455174
 22
-0.0211379516
 32
0.0
 13
0.0041974368
 23
-0.0701733277
 33
0.0
 40
0.0
 40
0.0
 40
0.0
 40
0.0
 40
0.1196931034
 40
0.2397579879
 40
0.3602978726
 40
0.4816424604
 40
0.6045103596
 40
0.6669816842
 40
0.7304200005
 40
0.7951257103
 40
0.8614284121
 40
0.9296412287
 40
1.0
 40
1.0
 40
1.0
 40
1.0
 10
9.3400710909
 20
9.4347580818
 30
0.0
 10
9.3373961289
 20
9.4339147261
 30
0.0
 10
9.3321045971
 20
9.4320025355
 30
0.0
 10
9.3244488438
 20
9.428412511
 30
0.0
 10
9.317176517
 20
9.4240112426
 30
0.0
 10
9.310454888
 20
9.4186906533
 30
0.0
 10
9.3055375967
 20
9.4133970906
 30
0.0
 10
9.3021988859
 20
9.4086079245
 30
0.0
 10
9.3000319809
 20
9.4046918581
 30
0.0
 10
9.2982870223
 20
9.4004714091
 30
0.0
 10
9.2970404821
 20
9.3959594877
 30
0.0
 10
9.2963688193
 20
9.3911924235
 30
0.0
 10
9.2963489988
 20
9.3879337918
 30
0.0
 10
9.296447441
 20
9.3862880221
 30
0.0
 11
9.3400710909
 21
9.4347580818
 31
0.0
 11
9.3321619143
 21
9.4318866777
 31
0.0
 11
9.3245282146
 21
9.4282856816
 31
0.0
 11
9.317292652
 21
9.4238752421
 31
0.0
 11
9.3106273135
 21
9.41855166
 31
0.0
 11
9.3047820741
 21
9.4121925021
 31
0.0
 11
9.3022754829
 21
9.4085864455
 31
0.0
 11
9.3001215725
 21
9.4046814476
 31
0.0
 11
9.2983881817
 21
9.4004759385
 31
0.0
 11
9.2971497779
 21
9.395982471
 31
0.0
 11
9.2964811351
 21
9.3912340411
 31
0.0
 11
9.296447441
 21
9.3862880221
 31
0.0
  0
SPLINE
  5
424
100
AcDbEntity
  8
0
100
AcDbSpline
 62
9
  6
CONTINUOUS
 70
0
 71
3
 72
11
 73
7
 74
5
 42
0.0000001
 43
0.0000001
 44
0.0000000001
 12
0.003736542
 22
0.0000007436
 32
0.0
 13
0.0029742184
 23
0.0022618071
 33
0.0
 40
0.0
 40
0.0
 40
0.0
 40
0.0
 40
0.224087528
 40
0.4610469989
 40
0.7178683141
 40
1.0
 40
1.0
 40
1.0
 40
1.0
 10
8.9696973418
 20
9.4381604809
 30
0.0
 10
8.9699764459
 20
9.4381605365
 30
0.0
 10
8.9705520183
 20
9.4382207925
 30
0.0
 10
8.9714118297
 20
9.4384818605
 30
0.0
 10
8.9722813742
 20
9.4389117738
 30
0.0
 10
8.9728383435
 20
9.439290019
 30
0.0
 10
8.9731180506
 20
9.4395027282
 30
0.0
 11
8.9696973418
 21
9.4381604809
 31
0.0
 11
8.9705304297
 21
9.4382444851
 31
0.0
 11
8.9713792784
 21
9.4384962889
 31
0.0
 11
8.9722423325
 21
9.4389158305
 31
0.0
 11
8.9731180506
 21
9.4395027282
 31
0.0
  0
SPLINE
  5
425
100
AcDbEntity
  8
0
100
AcDbSpline
 62
9
  6
CONTINUOUS
 70
0
 71
3
 72
13
 73
9
 74
7
 42
0.0000001
 43
0.0000001
 44
0.0000000001
 12
-0.0107802148
 22
-0.0028053247
 32
0.0
 13
-0.0098644815
 23
-0.0051744451
 33
0.0
 40
0.0
 40
0.0
 40
0.0
 40
0.0
 40
0.1223216546
 40
0.2437517049
 40
0.3666575187
 40
0.4908808453
 40
0.7428417791
 40
1.0
 40
1.0
 40
1.0
 40
1.0
 10
9.3648421018
 20
9.4395029336
 30
0.0
 10
9.3644025505
 20
9.4393885496
 30
0.0
 10
9.3635320986
 20
9.4391396173
 30
0.0
 10
9.3622347952
 20
9.4387263626
 30
0.0
 10
9.3609409445
 20
9.438280129
 30
0.0
 10
9.3592049015
 20
9.4376312557
 30
0.0
 10
9.3570357177
 20
9.4367199996
 30
0.0
 10
9.3553349578
 20
9.4358919325
 30
0.0
 10
9.3544893803
 20
9.4354483821
 30
0.0
 11
9.3648421018
 21
9.4395029336
 31
0.0
 11
9.3635309324
 21
9.4391322102
 31
0.0
 11
9.3622416838
 21
9.4387229768
 31
0.0
 11
9.3609475347
 21
9.4382762619
 31
0.0
 11
9.3596514182
 21
9.4377916397
 31
0.0
 11
9.3570640406
 21
9.4367040766
 31
0.0
 11
9.3544893803
 21
9.4354483821
 31
0.0
  0
SPLINE
  5
426
100
AcDbEntity
  8
0
100
AcDbSpline
 62
9
  6
CONTINUOUS
 70
0
 71
3
 72
13
 73
9
 74
7
 42
0.0000001
 43
0.0000001
 44
0.0000000001
 12
-0.0252027463
 22
-0.0018562809
 32
0.0
 13
-0.0241001706
 23
-0.0076030243
 33
0.0
 40
0.0
 40
0.0
 40
0.0
 40
0.0
 40
0.1246818658
 40
0.2487693569
 40
0.3733312658
 40
0.4982224372
 40
0.7486971917
 40
1.0
 40
1.0
 40
1.0
 40
1.0
 10
9.3648393931
 20
9.4395027282
 30
0.0
 10
9.3637919513
 20
9.43942558
 30
0.0
 10
9.3617046766
 20
9.439234924
 30
0.0
 10
9.3585817919
 20
9.4388613124
 30
0.0
 10
9.3554683205
 20
9.4384031286
 30
0.0
 10
9.351320113
 20
9.4376746616
 30
0.0
 10
9.346161084
 20
9.4365424123
 30
0.0
 10
9.3420899044
 20
9.4353949689
 30
0.0
 10
9.3400710909
 20
9.4347580818
 30
0.0
 11
9.3648393931
 21
9.4395027282
 31
0.0
 11
9.3617012821
 21
9.4392198237
 31
0.0
 11
9.3585876111
 21
9.4388478016
 31
0.0
 11
9.3554733922
 21
9.4383891928
 31
0.0
 11
9.352364864
 21
9.4378431266
 31
0.0
 11
9.3461827735
 21
9.4364838959
 31
0.0
 11
9.3400710909
 21
9.4347580818
 31
0.0
  0
SPLINE
  5
427
100
AcDbEntity
  8
0
100
AcDbSpline
 62
9
  6
CONTINUOUS
 70
0
 71
3
 72
11
 73
7
 74
5
 42
0.0000001
 43
0.0000001
 44
0.0000000001
 12
0.0020712385
 22
-0.0133794853
 32
0.0
 13
0.0051614438
 23
-0.0125163955
 33
0.0
 40
0.0
 40
0.0
 40
0.0
 40
0.0
 40
0.297160397
 40
0.562579645
 40
0.7966442901
 40
1.0
 40
1.0
 40
1.0
 40
1.0
 10
9.0000751573
 20
9.419107452
 30
0.0
 10
9.0002803206
 20
9.4177821676
 30
0.0
 10
9.0007126513
 20
9.4152795644
 30
0.0
 10
9.0014820184
 20
9.4117661011
 30
0.0
 10
9.0023305675
 20
9.4087080477
 30
0.0
 10
9.0029914667
 20
9.4068450373
 30
0.0
 10
9.0033413364
 20
9.4059966105
 30
0.0
 11
9.0000751573
 21
9.419107452
 31
0.0
 11
9.0007680096
 21
9.4151443482
 31
0.0
 11
9.0015463685
 21
9.4116361851
 31
0.0
 11
9.0024056666
 21
9.4085859452
 31
0.0
 11
9.0033413364
 21
9.4059966105
 31
0.0
  0
SPLINE
  5
428
100
AcDbEntity
  8
0
100
AcDbSpline
 62
9
  6
CONTINUOUS
 70
0
 71
3
 72
11
 73
7
 74
5
 42
0.0000001
 43
0.0000001
 44
0.0000000001
 12
0.005356412
 22
-0.137965491
 32
0.0
 13
-0.0328431006
 23
-0.1341062959
 33
0.0
 40
0.0
 40
0.0
 40
0.0
 40
0.0
 40
0.2489310331
 40
0.4979739844
 40
0.7480464049
 40
1.0
 40
1.0
 40
1.0
 40
1.0
 10
9.3855234499
 20
8.5939411915
 30
0.0
 10
9.3859679089
 20
8.5824932274
 30
0.0
 10
9.386054706
 20
8.559552834
 30
0.0
 10
9.3837616063
 20
8.5251744426
 30
0.0
 10
9.3790475045
 20
8.4909034433
 30
0.0
 10
9.374313796
 20
8.4682667581
 30
0.0
 10
9.3715554835
 20
8.4570039036
 30
0.0
 11
9.3855234499
 21
8.5939411915
 31
0.0
 11
9.3856515398
 21
8.559571664
 31
0.0
 11
9.3833657394
 21
8.5252625052
 31
0.0
 11
9.3786665889
 21
8.4910564187
 31
0.0
 11
9.3715554835
 21
8.4570039036
 31
0.0
  0
LINE
  5
429
100
AcDbEntity
  8
0
100
AcDbLine
 62
9
  6
CONTINUOUS
 10
9.3043357978
 20
9.3872476338
 11
9.3045019284
 21
9.3833532632
  0
LINE
  5
42A
100
AcDbEntity
  8
0
100
AcDbLine
 62
9
  6
CONTINUOUS
 10
9.3417270618
 20
10.2516140651
 11
9.3418707277
 21
10.2550000406
  0
SPLINE
  5
42B
100
AcDbEntity
  8
0
100
AcDbSpline
 62
9
  6
CONTINUOUS
 70
0
 71
3
 72
13
 73
9
 74
7
 42
0.0000001
 43
0.0000001
 44
0.0000000001
 12
-0.0024847349
 22
0.0163930291
 32
0.0
 13
-0.0071815941
 23
0.0149442302
 33
0.0
 40
0.0
 40
0.0
 40
0.0
 40
0.0
 40
0.3013794006
 40
0.5679765405
 40
0.68844312
 40
0.8004930251
 40
0.9042789932
 40
1.0
 40
1.0
 40
1.0
 40
1.0
 10
9.3405775847
 20
10.25548273
 30
0.0
 10
9.3403279687
 20
10.2571295704
 30
0.0
 10
9.3397928154
 20
10.2602240015
 30
0.0
 10
9.3389423277
 20
10.263935338
 30
0.0
 10
9.3381838701
 20
10.2665881105
 30
0.0
 10
9.3376025679
 20
10.2683541344
 30
0.0
 10
9.3369904931
 20
10.2699642365
 30
0.0
 10
9.3365447701
 20
10.2709735503
 30
0.0
 10
9.336315627
 20
10.2714503759
 30
0.0
 11
9.3405775847
 21
10.25548273
 31
0.0
 11
9.3397131604
 21
10.260404345
 31
0.0
 11
9.3387096097
 21
10.2647091697
 31
0.0
 11
9.3381580418
 21
10.2666288709
 31
0.0
 11
9.3375745521
 21
10.2683926809
 31
0.0
 11
9.3369600955
 21
10.2700000369
 31
0.0
 11
9.336315627
 21
10.2714503759
 31
0.0
  0
SPLINE
  5
42C
100
AcDbEntity
  8
0
100
AcDbSpline
 62
9
  6
CONTINUOUS
 70
0
 71
3
 72
11
 73
7
 74
5
 42
0.0000001
 43
0.0000001
 44
0.0000000001
 12
0.0328407942
 22
-0.1340968971
 32
0.0
 13
-0.0053534758
 23
-0.1379559201
 33
0.0
 40
0.0
 40
0.0
 40
0.0
 40
0.0
 40
0.2519536261
 40
0.5020261293
 40
0.7510691063
 40
1.0
 40
1.0
 40
1.0
 40
1.0
 10
9.3715554575
 20
11.219317045
 30
0.0
 10
9.3743135766
 20
11.2080549785
 30
0.0
 10
9.3790470325
 20
11.1854198953
 30
0.0
 10
9.3837611074
 20
11.1511513363
 30
0.0
 10
9.3860544491
 20
11.116775385
 30
0.0
 10
9.3859680146
 20
11.0938366066
 30
0.0
 10
9.3855237994
 20
11.0823894431
 30
0.0
 11
9.3715554575
 21
11.219317045
 31
0.0
 11
9.3786661747
 21
11.1852669354
 31
0.0
 11
9.3833652858
 21
11.1510632747
 31
0.0
 11
9.3856513336
 21
11.1167565443
 31
0.0
 11
9.3855237994
 21
11.0823894431
 31
0.0
  0
SPLINE
  5
42D
100
AcDbEntity
  8
0
100
AcDbSpline
 62
9
  6
CONTINUOUS
 70
0
 71
3
 72
14
 73
10
 74
8
 42
0.0000001
 43
0.0000001
 44
0.0000000001
 12
0.0359783066
 22
0.9424856868
 32
0.0
 13
0.0325474648
 23
0.9426104025
 33
0.0
 40
0.0
 40
0.0
 40
0.0
 40
0.0
 40
0.1250626618
 40
0.2501339433
 40
0.3751978098
 40
0.5002404177
 40
0.6252511715
 40
0.7502199391
 40
1.0
 40
1.0
 40
1.0
 40
1.0
 10
9.336531359
 20
10.2767957361
 30
0.0
 10
9.3380312066
 20
10.316085659
 30
0.0
 10
9.3410445872
 20
10.3946676939
 30
0.0
 10
9.3455738778
 20
10.5125394139
 30
0.0
 10
9.3500789145
 20
10.6304057565
 30
0.0
 10
9.3545329794
 20
10.7482549954
 30
0.0
 10
9.3589233485
 20
10.8660767097
 30
0.0
 10
9.3646702354
 20
11.0230913534
 30
0.0
 10
9.3688458751
 20
11.1408349614
 30
0.0
 10
9.3715557777
 20
11.2193167227
 30
0.0
 11
9.336531359
 21
10.2767957361
 31
0.0
 11
9.3410460261
 21
10.3946649265
 31
0.0
 11
9.3455699648
 21
10.5125418972
 31
0.0
 11
9.3500707932
 21
10.6304127539
 31
0.0
 11
9.3545229256
 21
10.7482653951
 31
0.0
 11
9.3589108582
 21
10.8660903794
 31
0.0
 11
9.3632201233
 21
10.9838786403
 31
0.0
 11
9.3715557777
 21
11.2193167227
 31
0.0
  0
SPLINE
  5
42E
100
AcDbEntity
  8
0
100
AcDbSpline
 62
9
  6
CONTINUOUS
 70
0
 71
3
 72
22
 73
18
 74
16
 42
0.0000001
 43
0.0000001
 44
0.0000000001
 12
0.0457048264
 22
-0.0014381452
 32
0.0
 13
0.0077645354
 23
-0.0450634154
 33
0.0
 40
0.0
 40
0.0
 40
0.0
 40
0.0
 40
0.1627490514
 40
0.2431325592
 40
0.3219054469
 40
0.3984180552
 40
0.4721912101
 40
0.5427981557
 40
0.6098353763
 40
0.6729543539
 40
0.7319244231
 40
0.7865931725
 40
0.8369016811
 40
0.8829501506
 40
0.9250755705
 40
0.9638248142
 40
1.0
 40
1.0
 40
1.0
 40
1.0
 10
9.296664281
 20
10.293847333
 30
0.0
 10
9.2991437534
 20
10.2937693141
 30
0.0
 10
9.3028454771
 20
10.2935042591
 30
0.0
 10
9.3077105682
 20
10.2928601097
 30
0.0
 10
9.3112500032
 20
10.292239718
 30
0.0
 10
9.3146597242
 20
10.2914832311
 30
0.0
 10
9.3179100195
 20
10.2905995188
 30
0.0
 10
9.3209743031
 20
10.2895972828
 30
0.0
 10
9.3238270214
 20
10.2884849469
 30
0.0
 10
9.3264436548
 20
10.2872701403
 30
0.0
 10
9.3288032585
 20
10.2859643924
 30
0.0
 10
9.3308866272
 20
10.2845786055
 30
0.0
 10
9.3326754001
 20
10.2831228104
 30
0.0
 10
9.3341507779
 20
10.2816055073
 30
0.0
 10
9.3353017656
 20
10.2800414892
 30
0.0
 10
9.3361178135
 20
10.2784453164
 30
0.0
 10
9.3364377311
 20
10.2773391285
 30
0.0
 10
9.336531359
 20
10.2767957361
 30
0.0
 11
9.296664281
 21
10.293847333
 31
0.0
 11
9.3040873331
 21
10.2933152337
 31
0.0
 11
9.3077310636
 21
10.2928312521
 31
0.0
 11
9.3112786401
 21
10.29220699
 31
0.0
 11
9.3146938251
 21
10.2914469922
 31
0.0
 11
9.3179483018
 21
10.2905589604
 31
0.0
 11
9.3210157336
 21
10.2895513858
 31
0.0
 11
9.323869784
 21
10.2884327595
 31
0.0
 11
9.3264851969
 21
10.287212035
 31
0.0
 11
9.3288410382
 21
10.2859000147
 31
0.0
 11
9.3309174547
 21
10.2845079636
 31
0.0
 11
9.3326945929
 21
10.2830471465
 31
0.0
 11
9.3341544442
 21
10.2815296755
 31
0.0
 11
9.3352863788
 21
10.2799710514
 31
0.0
 11
9.336081612
 21
10.2783876223
 31
0.0
 11
9.336531359
 21
10.2767957361
 31
0.0
  0
SPLINE
  5
42F
100
AcDbEntity
  8
0
100
AcDbSpline
 62
9
  6
CONTINUOUS
 70
0
 71
3
 72
13
 73
9
 74
7
 42
0.0000001
 43
0.0000001
 44
0.0000000001
 12
0.0362035899
 22
0.9414913886
 32
0.0
 13
0.0323805606
 23
0.941630625
 33
0.0
 40
0.0
 40
0.0
 40
0.0
 40
0.0
 40
0.2500021557
 40
0.3750031495
 40
0.5000037767
 40
0.6250038858
 40
0.7500033662
 40
1.0
 40
1.0
 40
1.0
 40
1.0
 10
9.296664281
 20
10.2938473335
 30
0.0
 10
9.2996812728
 20
10.3723056258
 30
0.0
 10
9.3042566292
 20
10.4899911135
 30
0.0
 10
9.31031599
 20
10.6469065538
 30
0.0
 10
9.3148091635
 20
10.7645947626
 30
0.0
 10
9.3192315635
 20
10.8822851832
 30
0.0
 10
9.3250028864
 20
11.0392091159
 30
0.0
 10
9.3291727043
 20
11.1569075527
 30
0.0
 10
9.3318710481
 20
11.2353757149
 30
0.0
 11
9.296664281
 21
10.2938473335
 31
0.0
 11
9.3057680463
 21
10.5292201744
 31
0.0
 11
9.3103074388
 21
10.646906998
 31
0.0
 11
9.3147973771
 21
10.764595373
 31
0.0
 11
9.3192159254
 21
10.8822859615
 31
0.0
 11
9.3235424483
 21
10.9999793762
 31
0.0
 11
9.3318710481
 21
11.2353757149
 31
0.0
  0
SPLINE
  5
430
100
AcDbEntity
  8
0
100
AcDbSpline
 62
9
  6
CONTINUOUS
 70
0
 71
3
 72
25
 73
21
 74
19
 42
0.0000001
 43
0.0000001
 44
0.0000000001
 12
0.0448040438
 22
-0.0006829311
 32
0.0
 13
0.0131866175
 23
-0.0428250144
 33
0.0
 40
0.0
 40
0.0
 40
0.0
 40
0.0
 40
0.0804922621
 40
0.1607354205
 40
0.2400791916
 40
0.3178416048
 40
0.3935093876
 40
0.4666743348
 40
0.5369741912
 40
0.604041864
 40
0.6674799624
 40
0.7268980194
 40
0.7550268198
 40
0.7821047757
 40
0.8081497625
 40
0.8331905105
 40
0.8804170403
 40
0.924073616
 40
0.9640072338
 40
1.0
 40
1.0
 40
1.0
 40
1.0
 10
9.3318826932
 20
11.2353757149
 30
0.0
 10
9.3330848195
 20
11.2353573913
 30
0.0
 10
9.335484696
 20
11.235254822
 30
0.0
 10
9.3390571728
 20
11.2349322982
 30
0.0
 10
9.3425726764
 20
11.2344683056
 30
0.0
 10
9.3460022153
 20
11.2338924688
 30
0.0
 10
9.3493167486
 20
11.233203031
 30
0.0
 10
9.3524896639
 20
11.2323943535
 30
0.0
 10
9.3554934824
 20
11.2314586816
 30
0.0
 10
9.3583041996
 20
11.2304071642
 30
0.0
 10
9.3609003642
 20
11.2292598713
 30
0.0
 10
9.3629042563
 20
11.2282213059
 30
0.0
 10
9.3643793427
 20
11.227351452
 30
0.0
 10
9.3653992652
 20
11.2266930604
 30
0.0
 10
9.3663511844
 20
11.2260163059
 30
0.0
 10
9.3675045513
 20
11.2251067373
 30
0.0
 10
9.3687751074
 20
11.2239235845
 30
0.0
 10
9.3700205645
 20
11.222410095
 30
0.0
 10
9.3709577562
 20
11.2208829554
 30
0.0
 10
9.3713975498
 20
11.2198305502
 30
0.0
 10
9.3715557574
 20
11.2193167533
 30
0.0
 11
9.3318826932
 21
11.2353757149
 31
0.0
 11
9.3354863921
 21
11.2352262342
 31
0.0
 11
9.3390677763
 21
11.2349064179
 31
0.0
 11
9.3425929662
 21
11.2344444209
 31
0.0
 11
9.3460289069
 21
11.2338648697
 31
0.0
 11
9.3493476606
 21
11.2331704965
 31
0.0
 11
9.3525232492
 21
11.2323556479
 31
0.0
 11
9.3555298659
 21
11.2314158164
 31
0.0
 11
9.3583437089
 21
11.2303604361
 31
0.0
 11
9.3609422994
 21
11.2292081434
 31
0.0
 11
9.3633032672
 21
11.2279774432
 31
0.0
 11
9.364388334
 21
11.227336105
 31
0.0
 11
9.3654070684
 21
11.226677029
 31
0.0
 11
9.3663574809
 21
11.2259997281
 31
0.0
 11
9.3672375819
 21
11.2253037149
 31
0.0
 11
9.3687789052
 21
11.2238536933
 31
0.0
 11
9.3700176258
 21
11.2223396386
 31
0.0
 11
9.3709456941
 21
11.2208097285
 31
0.0
 11
9.3715557574
 21
11.2193167533
 31
0.0
  0
SPLINE
  5
431
100
AcDbEntity
  8
0
100
AcDbSpline
 62
9
  6
CONTINUOUS
 70
0
 71
3
 72
22
 73
18
 74
16
 42
0.0000001
 43
0.0000001
 44
0.0000000001
 12
0.0465897797
 22
-0.0015619714
 32
0.0
 13
0.007098047
 23
-0.0460723893
 33
0.0
 40
0.0
 40
0.0
 40
0.0
 40
0.0
 40
0.1598980374
 40
0.2389573238
 40
0.3165177416
 40
0.3919647404
 40
0.4648504147
 40
0.5347788168
 40
0.6013789512
 40
0.6643362437
 40
0.7234513465
 40
0.7786030344
 40
0.8297634699
 40
0.8770567814
 40
0.9208172551
 40
0.9615574346
 40
1.0
 40
1.0
 40
1.0
 40
1.0
 10
9.2964474693
 20
10.290032928
 30
0.0
 10
9.2989306741
 20
10.289949676
 30
0.0
 10
9.3026389253
 20
10.2896627994
 30
0.0
 10
9.3075082624
 20
10.2889632045
 30
0.0
 10
9.3110519969
 20
10.2882882387
 30
0.0
 10
9.3144655051
 20
10.2874644814
 30
0.0
 10
9.3177190602
 20
10.2865015962
 30
0.0
 10
9.3207860257
 20
10.285409046
 30
0.0
 10
9.3236407746
 20
10.2841959753
 30
0.0
 10
9.3262585755
 20
10.2828707215
 30
0.0
 10
9.3286184623
 20
10.2814458081
 30
0.0
 10
9.3307011103
 20
10.2799330856
 30
0.0
 10
9.3324878458
 20
10.2783435408
 30
0.0
 10
9.333959224
 20
10.2766870226
 30
0.0
 10
9.3351042089
 20
10.2749802694
 30
0.0
 10
9.3359122884
 20
10.2732400077
 30
0.0
 10
9.3362248055
 20
10.2720408078
 30
0.0
 10
9.3363157613
 20
10.2714504275
 30
0.0
 11
9.2964474693
 21
10.290032928
 31
0.0
 11
9.3038790409
 21
10.2894577107
 31
0.0
 11
9.3075267811
 21
10.2889320274
 31
0.0
 11
9.311078012
 21
10.28825307
 31
0.0
 11
9.3144963638
 21
10.2874257861
 31
0.0
 11
9.3177534251
 21
10.2864585853
 31
0.0
 11
9.3208227742
 21
10.285360743
 31
0.0
 11
9.3236779889
 21
10.2841415346
 31
0.0
 11
9.3262937348
 21
10.2828107419
 31
0.0
 11
9.3286490255
 21
10.2813801733
 31
0.0
 11
9.3307239622
 21
10.2798621435
 31
0.0
 11
9.3324986459
 21
10.2782689673
 31
0.0
 11
9.3339550354
 21
10.2766138866
 31
0.0
 11
9.3350825198
 21
10.2749138516
 31
0.0
 11
9.3358723461
 21
10.2731867395
 31
0.0
 11
9.3363157613
 21
10.2714504275
 31
0.0
  0
SPLINE
  5
432
100
AcDbEntity
  8
0
100
AcDbSpline
 62
9
  6
CONTINUOUS
 70
0
 71
3
 72
22
 73
18
 74
16
 42
0.0000001
 43
0.0000001
 44
0.0000000001
 12
-0.0670943892
 22
0.0211399473
 32
0.0
 13
0.0042258621
 23
0.0702189186
 33
0.0
 40
0.0
 40
0.0
 40
0.0
 40
0.0
 40
0.1195751306
 40
0.1795301485
 40
0.2395919149
 40
0.2997670979
 40
0.3600832261
 40
0.4206152371
 40
0.4814275705
 40
0.5426152108
 40
0.6043617233
 40
0.6668194296
 40
0.7302495127
 40
0.7949766459
 40
0.8613131069
 40
0.929656956
 40
1.0
 40
1.0
 40
1.0
 40
1.0
 10
9.340098126
 20
10.2415543068
 30
0.0
 10
9.3374238525
 20
10.2423969108
 30
0.0
 10
9.333457135
 20
10.2438275339
 30
0.0
 10
9.3283153981
 20
10.2460954672
 30
0.0
 10
9.3245357171
 20
10.2479883329
 30
0.0
 10
9.3208538737
 20
10.250082757
 30
0.0
 10
9.3172900098
 20
10.2523933014
 30
0.0
 10
9.3138650966
 20
10.2549311467
 30
0.0
 10
9.3106068136
 20
10.2577124383
 30
0.0
 10
9.3075512015
 20
10.260756652
 30
0.0
 10
9.3047362093
 20
10.2640767593
 30
0.0
 10
9.3022130954
 20
10.2676899195
 30
0.0
 10
9.3000433199
 20
10.2716075845
 30
0.0
 10
9.2982928084
 20
10.2758302213
 30
0.0
 10
9.2970417868
 20
10.2803489774
 30
0.0
 10
9.296371996
 20
10.2851229658
 30
0.0
 10
9.2963483827
 20
10.2883864615
 30
0.0
 10
9.2964474693
 20
10.2900329323
 30
0.0
 11
9.340098126
 21
10.2415543068
 31
0.0
 11
9.3321903701
 21
10.2444218626
 31
0.0
 11
9.3283322013
 21
10.2461255727
 31
0.0
 11
9.3245556125
 21
10.2480200041
 31
0.0
 11
9.3208779261
 21
10.2501160954
 31
0.0
 11
9.3173193651
 21
10.2524268658
 31
0.0
 11
9.3139006653
 21
10.2549654895
 31
0.0
 11
9.310650524
 21
10.257747041
 31
0.0
 11
9.3076045172
 21
10.2607882366
 31
0.0
 11
9.304800329
 21
10.2641053956
 31
0.0
 11
9.3022901277
 21
10.2677113667
 31
0.0
 11
9.3001328862
 21
10.2716172855
 31
0.0
 11
9.2983944537
 21
10.2758256492
 31
0.0
 11
9.2971526241
 21
10.2803238824
 31
0.0
 11
9.2964828198
 21
10.2850847095
 31
0.0
 11
9.2964474693
 21
10.2900329323
 31
0.0
  0
SPLINE
  5
433
100
AcDbEntity
  8
0
100
AcDbSpline
 62
9
  6
CONTINUOUS
 70
0
 71
3
 72
14
 73
10
 74
8
 42
0.0000001
 43
0.0000001
 44
0.0000000001
 12
-0.0168327302
 22
0.0088157868
 32
0.0
 13
-0.0099440495
 23
0.0161918122
 33
0.0
 40
0.0
 40
0.0
 40
0.0
 40
0.0
 40
0.1132701287
 40
0.2286966142
 40
0.346662396
 40
0.4676629104
 40
0.7216320166
 40
0.8569601389
 40
1.0
 40
1.0
 40
1.0
 40
1.0
 10
9.3544911653
 20
10.2408715533
 30
0.0
 10
9.3538556168
 20
10.2412044084
 30
0.0
 10
9.3525870717
 20
10.2419049843
 30
0.0
 10
9.3507185299
 20
10.243059814
 30
0.0
 10
9.3488739204
 20
10.2443411042
 30
0.0
 10
9.3464149344
 20
10.2462669279
 30
0.0
 10
9.3440736107
 20
10.2485148072
 30
0.0
 10
9.3419290432
 20
10.2511207828
 30
0.0
 10
9.3409354583
 20
10.2525812316
 30
0.0
 10
9.3404613265
 20
10.2533532565
 30
0.0
 11
9.3544911653
 21
10.2408715533
 31
0.0
 11
9.3526078268
 21
10.2419134103
 31
0.0
 11
9.3507427837
 21
10.2430675769
 31
0.0
 11
9.3489023256
 21
10.2443471013
 31
0.0
 11
9.3470938725
 21
10.2457668921
 31
0.0
 11
9.3436219784
 21
10.249118662
 31
0.0
 11
9.3419903256
 21
10.2511061312
 31
0.0
 11
9.3404613265
 21
10.2533532565
 31
0.0
  0
SPLINE
  5
434
100
AcDbEntity
  8
0
100
AcDbSpline
 62
9
  6
CONTINUOUS
 70
0
 71
3
 72
14
 73
10
 74
8
 42
0.0000001
 43
0.0000001
 44
0.0000000001
 12
-0.0080037587
 22
0.015087941
 32
0.0
 13
0.0012888445
 23
0.0170307075
 33
0.0
 40
0.0
 40
0.0
 40
0.0
 40
0.0
 40
0.1004597361
 40
0.205979525
 40
0.4355673715
 40
0.5618057691
 40
0.6972635782
 40
0.8430103622
 40
1.0
 40
1.0
 40
1.0
 40
1.0
 10
9.3395710001
 20
10.2549100979
 30
0.0
 10
9.3393029816
 20
10.2554153414
 30
0.0
 10
9.3387851913
 20
10.2564685704
 30
0.0
 10
9.3378344427
 20
10.2587600687
 30
0.0
 10
9.3370717609
 20
10.2612836443
 30
0.0
 10
9.3365483441
 20
10.2640331193
 30
0.0
 10
9.3362822135
 20
10.2663397108
 30
0.0
 10
9.3361828236
 20
10.2688347049
 30
0.0
 10
9.3362481872
 20
10.270559081
 30
0.0
 10
9.3363156323
 20
10.2714502959
 30
0.0
 11
9.3395710001
 21
10.2549100979
 31
0.0
 11
9.3388141295
 21
10.2564499327
 31
0.0
 11
9.3381228534
 21
10.2581142997
 31
0.0
 11
9.3369879755
 21
10.2618677049
 31
0.0
 11
9.3365832697
 21
10.2639854586
 31
0.0
 11
9.336316754
 21
10.2662835952
 31
0.0
 11
9.3362164385
 21
10.2687708416
 31
0.0
 11
9.3363156323
 21
10.2714502959
 31
0.0
  0
SPLINE
  5
435
100
AcDbEntity
  8
0
100
AcDbSpline
 62
9
  6
CONTINUOUS
 70
0
 71
3
 72
13
 73
9
 74
7
 42
0.0000001
 43
0.0000001
 44
0.0000000001
 12
-0.0251729041
 22
0.0018617305
 32
0.0
 13
-0.0240730293
 23
0.0075914692
 33
0.0
 40
0.0
 40
0.0
 40
0.0
 40
0.0
 40
0.1246658695
 40
0.2487682442
 40
0.3733323556
 40
0.4982286761
 40
0.7487048334
 40
1.0
 40
1.0
 40
1.0
 40
1.0
 10
9.3648383596
 20
10.2368182337
 30
0.0
 10
9.3637922922
 20
10.2368955985
 30
0.0
 10
9.3617074321
 20
10.237085711
 30
0.0
 10
9.3585881437
 20
10.2374587517
 30
0.0
 10
9.3554780735
 20
10.2379161931
 30
0.0
 10
9.3513345161
 20
10.2386432887
 30
0.0
 10
9.3461813721
 20
10.2397735963
 30
0.0
 10
9.3421146046
 20
10.2409184069
 30
0.0
 10
9.340098126
 20
10.2415543068
 30
0.0
 11
9.3648383596
 21
10.2368182337
 31
0.0
 11
9.3617043011
 21
10.2371008233
 31
0.0
 11
9.3585938492
 21
10.2374722456
 31
0.0
 11
9.355483157
 21
10.2379300821
 31
0.0
 11
9.352378047
 21
10.2384751642
 31
0.0
 11
9.3462028942
 21
10.2398318676
 31
0.0
 11
9.340098126
 21
10.2415543068
 31
0.0
  0
SPLINE
  5
436
100
AcDbEntity
  8
0
100
AcDbSpline
 62
9
  6
CONTINUOUS
 70
0
 71
3
 72
13
 73
9
 74
7
 42
0.0000001
 43
0.0000001
 44
0.0000000001
 12
-0.0107776845
 22
0.0028157299
 32
0.0
 13
-0.0098645229
 23
0.0051747469
 33
0.0
 40
0.0
 40
0.0
 40
0.0
 40
0.0
 40
0.1222683838
 40
0.2437331852
 40
0.3666444402
 40
0.4908727511
 40
0.7428353358
 40
1.0
 40
1.0
 40
1.0
 40
1.0
 10
9.3648420196
 20
10.2368179561
 30
0.0
 10
9.364402763
 20
10.2369327143
 30
0.0
 10
9.3635322844
 20
10.2371812977
 30
0.0
 10
9.3622349669
 20
10.2375944516
 30
0.0
 10
9.3609409194
 20
10.2380406884
 30
0.0
 10
9.3592047781
 20
10.2386895137
 30
0.0
 10
9.3570355081
 20
10.2396007891
 30
0.0
 10
9.3553347001
 20
10.2404288966
 30
0.0
 10
9.3544890979
 20
10.2408724839
 30
0.0
 11
9.3648420196
 21
10.2368179561
 31
0.0
 11
9.3635314439
 21
10.2371886773
 31
0.0
 11
9.3622417564
 21
10.2375978785
 31
0.0
 11
9.3609475077
 21
10.2380445572
 31
0.0
 11
9.3596512997
 21
10.238529156
 31
0.0
 11
9.3570638507
 21
10.2396167117
 31
0.0
 11
9.3544890979
 21
10.2408724839
 31
0.0
  0
SPLINE
  5
437
100
AcDbEntity
  8
0
100
AcDbSpline
 62
9
  6
CONTINUOUS
 70
0
 71
3
 72
13
 73
9
 74
7
 42
0.0000001
 43
0.0000001
 44
0.0000000001
 12
-0.0028371454
 22
0.9415266968
 32
0.0
 13
0.0010172629
 23
0.9415304219
 33
0.0
 40
0.0
 40
0.0
 40
0.0
 40
0.0
 40
0.2500000937
 40
0.3750001384
 40
0.5000001562
 40
0.6250001447
 40
0.7500001331
 40
1.0
 40
1.0
 40
1.0
 40
1.0
 10
9.0431996944
 20
10.2938473335
 30
0.0
 10
9.0429632655
 20
10.372307921
 30
0.0
 10
9.0425592819
 20
10.4899986464
 30
0.0
 10
9.0420625289
 20
10.6469197396
 30
0.0
 10
9.0417416477
 20
10.7646106944
 30
0.0
 10
9.0414919725
 20
10.882301811
 30
0.0
 10
9.0412849449
 20
11.0392234641
 30
0.0
 10
9.041289182
 20
11.1569148881
 30
0.0
 10
9.0413739539
 20
11.2353757149
 30
0.0
 11
9.0431996944
 21
10.2938473335
 31
0.0
 11
9.0424385846
 21
10.5292289341
 31
0.0
 11
9.0420711428
 21
10.6469197739
 31
0.0
 11
9.0417535153
 21
10.7646107336
 31
0.0
 11
9.0415077066
 21
10.8823018374
 31
0.0
 11
9.0413544249
 21
10.9999930981
 31
0.0
 11
9.0413739539
 21
11.2353757149
 31
0.0
  0
SPLINE
  5
438
100
AcDbEntity
  8
0
100
AcDbSpline
 62
9
  6
CONTINUOUS
 70
0
 71
3
 72
22
 73
18
 74
16
 42
0.0000001
 43
0.0000001
 44
0.0000000001
 12
0.0074928499
 22
0.0448117114
 32
0.0
 13
0.0454336849
 23
0.0001120606
 33
0.0
 40
0.0
 40
0.0
 40
0.0
 40
0.0
 40
0.0361504714
 40
0.0746983229
 40
0.1165109304
 40
0.1621940094
 40
0.2121331308
 40
0.2664650167
 40
0.3251567851
 40
0.3880750934
 40
0.4550032838
 40
0.5256015207
 40
0.5994719184
 40
0.6761916569
 40
0.7552833361
 40
0.8360939591
 40
1.0
 40
1.0
 40
1.0
 40
1.0
 10
9.0033011839
 20
10.2779079941
 30
0.0
 10
9.003391474
 20
10.2784479823
 30
0.0
 10
9.0037045027
 20
10.2795452603
 30
0.0
 10
9.0045142537
 20
10.2811231466
 30
0.0
 10
9.0056609311
 20
10.282658819
 30
0.0
 10
9.0071336383
 20
10.2841379297
 30
0.0
 10
9.0089211793
 20
10.2855460248
 30
0.0
 10
9.0110046317
 20
10.2868752695
 30
0.0
 10
9.0133656216
 20
10.2881162321
 30
0.0
 10
9.0159849107
 20
10.2892585607
 30
0.0
 10
9.0188414645
 20
10.2902912851
 30
0.0
 10
9.0219107015
 20
10.2912074773
 30
0.0
 10
9.0251669669
 20
10.2919994102
 30
0.0
 10
9.0285835393
 20
10.2926590979
 30
0.0
 10
9.0321304984
 20
10.2931784738
 30
0.0
 10
9.0370093206
 20
10.2936834105
 30
0.0
 10
9.0407174092
 20
10.2938412111
 30
0.0
 10
9.0431996944
 20
10.2938473336
 30
0.0
 11
9.0033011839
 21
10.2779079941
 31
0.0
 11
9.0037427329
 21
10.2794899834
 31
0.0
 11
9.0045312723
 21
10.2810538007
 31
0.0
 11
9.0056580538
 21
10.2825832609
 31
0.0
 11
9.0071143289
 21
10.2840621792
 31
0.0
 11
9.0088894857
 21
10.2854752751
 31
0.0
 11
9.0109654581
 21
10.2868108862
 31
0.0
 11
9.0133223166
 21
10.2880582545
 31
0.0
 11
9.0159401317
 21
10.2892066221
 31
0.0
 11
9.0187978836
 21
10.2902457277
 31
0.0
 11
9.0218701915
 21
10.2911672956
 31
0.0
 11
9.0251305841
 21
10.2919635469
 31
0.0
 11
9.0285525904
 21
10.2926267026
 31
0.0
 11
9.0321077449
 21
10.293149836
 31
0.0
 11
9.035759605
 21
10.2935294292
 31
0.0
 11
9.0431996944
 21
10.2938473336
 31
0.0
  0
SPLINE
  5
439
100
AcDbEntity
  8
0
100
AcDbSpline
 62
9
  6
CONTINUOUS
 70
0
 71
3
 72
14
 73
10
 74
8
 42
0.0000001
 43
0.0000001
 44
0.0000000001
 12
-0.0026273228
 22
0.9425135585
 32
0.0
 13
0.0009007962
 23
0.9425167899
 33
0.0
 40
0.0
 40
0.0
 40
0.0
 40
0.0
 40
0.1250623239
 40
0.2501330629
 40
0.3751963857
 40
0.5002386117
 40
0.6252492353
 40
0.7502182086
 40
1.0
 40
1.0
 40
1.0
 40
1.0
 10
9.0033011839
 20
10.2779079941
 30
0.0
 10
9.0031916576
 20
10.3171989728
 30
0.0
 10
9.0029588373
 20
10.3957835351
 30
0.0
 10
9.0026004046
 20
10.5136593413
 30
0.0
 10
9.0022666607
 20
10.6315289085
 30
0.0
 10
9.001984397
 20
10.7493797255
 30
0.0
 10
9.0017664096
 20
10.8672010415
 30
0.0
 10
9.0015825414
 20
11.024212178
 30
0.0
 10
9.0015820836
 20
11.1419486057
 30
0.0
 10
9.0016570844
 20
11.2204231164
 30
0.0
 11
9.0033011839
 21
10.2779079941
 31
0.0
 11
9.002957311
 21
10.3957808865
 31
0.0
 11
9.0026045096
 21
10.5136616838
 31
0.0
 11
9.0022752155
 21
10.6315355592
 31
0.0
 11
9.0019950785
 21
10.7493896776
 31
0.0
 11
9.0017797234
 21
10.8672141462
 31
0.0
 11
9.0016437429
 21
10.9849994771
 31
0.0
 11
9.0016570844
 21
11.2204231164
 31
0.0
  0
SPLINE
  5
43A
100
AcDbEntity
  8
0
100
AcDbSpline
 62
9
  6
CONTINUOUS
 70
0
 71
3
 72
24
 73
20
 74
18
 42
0.0000001
 43
0.0000001
 44
0.0000000001
 12
0.012866551
 22
0.042621967
 32
0.0
 13
0.0445165858
 23
-0.0006736424
 33
0.0
 40
0.0
 40
0.0
 40
0.0
 40
0.0
 40
0.0358637276
 40
0.0755347099
 40
0.1188546103
 40
0.1657158588
 40
0.2164296409
 40
0.2713084447
 40
0.3304720181
 40
0.3937344489
 40
0.4607170153
 40
0.4954849154
 40
0.5310374979
 40
0.6043209729
 40
0.6802154897
 40
0.7583147641
 40
0.8381020376
 40
0.9188832816
 40
1.0
 40
1.0
 40
1.0
 40
1.0
 10
9.0016571039
 20
11.2204231456
 30
0.0
 10
9.001810918
 20
11.2209326731
 30
0.0
 10
9.0022438085
 20
11.2219742638
 30
0.0
 10
9.0031761277
 20
11.2234786686
 30
0.0
 10
9.0044187798
 20
11.2249601017
 30
0.0
 10
9.0059723745
 20
11.2263679264
 30
0.0
 10
9.0078146606
 20
11.2276880196
 30
0.0
 10
9.0099266568
 20
11.2289254046
 30
0.0
 10
9.0122909308
 20
11.2300849487
 30
0.0
 10
9.0148901238
 20
11.2311597646
 30
0.0
 10
9.0172062844
 20
11.2319595639
 30
0.0
 10
9.019158693
 20
11.2325435282
 30
0.0
 10
9.02121709
 20
11.2330966577
 30
0.0
 10
9.0238920931
 20
11.2337023479
 30
0.0
 10
9.0272128889
 20
11.2342983908
 30
0.0
 10
9.0306498057
 20
11.2347778211
 30
0.0
 10
9.0341737859
 20
11.2351427446
 30
0.0
 10
9.0377549084
 20
11.2353626623
 30
0.0
 10
9.0401586782
 20
11.2353939294
 30
0.0
 10
9.041362358
 20
11.2353757149
 30
0.0
 11
9.0016571039
 21
11.2204231456
 31
0.0
 11
9.0022579725
 21
11.221902487
 31
0.0
 11
9.0031802271
 21
11.2234087989
 31
0.0
 11
9.0044152066
 21
11.2248902213
 31
0.0
 11
9.005953696
 21
11.2262994309
 31
0.0
 11
9.0077822244
 21
11.2276239795
 31
0.0
 11
9.0098853468
 21
11.228867593
 31
0.0
 11
9.0122473726
 21
11.2300334043
 31
0.0
 11
9.0148487086
 21
11.231113221
 31
0.0
 11
9.017666547
 21
11.232089522
 31
0.0
 11
9.0191494972
 21
11.2325332919
 31
0.0
 11
9.0206779652
 21
11.2329446724
 31
0.0
 11
9.023858987
 21
11.233670162
 31
0.0
 11
9.0271840494
 21
11.2342712223
 31
0.0
 11
9.0306274535
 21
11.2347542026
 31
0.0
 11
9.0341611748
 21
11.2351166809
 31
0.0
 11
9.0377511523
 21
11.2353334648
 31
0.0
 11
9.041362358
 21
11.2353757149
 31
0.0
  0
ENDSEC
  0
SECTION
  2
OBJECTS
  0
DICTIONARY
  5
C
100
AcDbDictionary
280
0
281
1
  3
ACAD_GROUP
350
D
  3
ACAD_MLINESTYLE
350
17
  3
ACAD_LAYOUT
350
1A
  3
ACAD_PLOTSETTINGS
350
19
  3
ACAD_PLOTSTYLENAME
350
E
  0
DICTIONARY
  5
D
102
{ACAD_REACTORS
330
C
102
}
100
AcDbDictionary
280
0
281
1
  0
ACDBDICTIONARYWDFLT
  5
E
102
{ACAD_REACTORS
330
C
102
}
100
AcDbDictionary
281
1
  3
Normal
350
F
100
AcDbDictionaryWithDefault
340
F
  0
DICTIONARY
  5
17
102
{ACAD_REACTORS
330
C
102
}
100
AcDbDictionary
280
0
281
1
  3
Standard
350
18
  0
DICTIONARY
  5
19
102
{ACAD_REACTORS
330
C
102
}
100
AcDbDictionary
281
1
  0
DICTIONARY
  5
1A
102
{ACAD_REACTORS
330
C
102
}
100
AcDbDictionary
281
1
  3
Model
350
43B
  3
Layout1
350
43C
  0
ACDBPLACEHOLDER
  5
F
102
{ACAD_REACTORS
330
E
102
}
  0
MLINESTYLE
  5
18
102
{ACAD_REACTORS
330
17
102
}
100
AcDbMlineStyle
  2
STANDARD
 70
0
  3

 62
256
 51
90.0
 52
90.0
 71
2
 49
0.5
 62
256
  6
BYLAYER
 49
-0.5
 62
256
  6
BYLAYER
  0
LAYOUT
  5
43B
102
{ACAD_REACTORS
330
1A
102
}
100
AcDbPlotSettings
  1

  2
none_device
  4

  6

 40
0.0
 41
0.0
 42
0.0
 43
0.0
 44
297.0
 45
420.0
 46
0.0
 47
0.0
 48
0.0
 49
0.0
140
0.0
141
0.0
142
1.0
143
1.0
 70
1024
 72
0
 73
0
 74
0
  7

 75
0
147
1.0
148
0.0
149
0.0
100
AcDbLayout
  1
Model
 70
0
 71
0
 10
0.0
 20
0.0
 11
11.6929133858
 21
16.5354330709
 12
0.0
 22
0.0
 32
0.0
 14
0.0
 24
0.0
 34
0.0
 15
0.0
 25
0.0
 35
0.0
146
0.0
 13
0.0
 23
0.0
 33
0.0
 16
1.0
 26
0.0
 36
0.0
 17
0.0
 27
1.0
 37
0.0
 76
0
330
203
345
0
346
0
  0
LAYOUT
  5
43C
102
{ACAD_REACTORS
330
1A
102
}
100
AcDbPlotSettings
  1

  2
none_device
  4

  6

 40
0.0
 41
0.0
 42
0.0
 43
0.0
 44
297.0
 45
420.0
 46
0.0
 47
0.0
 48
0.0
 49
0.0
140
0.0
141
0.0
142
1.0
143
1.0
 70
0
 72
0
 73
0
 74
0
  7

 75
0
147
1.0
148
0.0
149
0.0
100
AcDbLayout
  1
Layout1
 70
0
 71
1
 10
0.0
 20
0.0
 11
11.6929133858
 21
16.5354330709
 12
0.0
 22
0.0
 32
0.0
 14
0.0
 24
0.0
 34
0.0
 15
0.0
 25
0.0
 35
0.0
146
0.0
 13
0.0
 23
0.0
 33
0.0
 16
1.0
 26
0.0
 36
0.0
 17
0.0
 27
1.0
 37
0.0
 76
0
330
204
345
0
346
0
  0
ENDSEC
  0
EOF
