999
DXF file: E:\BT Custom\CADOUTPUT\_RIGHT.dxf
999
Pro/ENGINEER 2018400 by Parametric Technology Corporation
  0
SECTION
  2
HEADER
  9
$ACADVER
  1
AC1018
  9
$DWGCODEPAGE
  3
ANSI_1252
  9
$EXTMAX
 10
22.0
 20
17.0
 30
0.0
  9
$EXTMIN
 10
0.0
 20
0.0
 30
0.0
  9
$LIMMIN
 10
0.0
 20
0.0
  9
$LIMMAX
 10
22.0
 20
17.0
  9
$VIEWCTR
 10
11.0
 20
8.5
  9
$VIEWSIZE
 40
17.0
  9
$CLAYER
  8
0
  9
$LTSCALE
 40
1.21
  9
$CELTYPE
  6
BYLAYER
  9
$DIMSCALE
 40
1.0
  9
$DIMASZ
 40
0.1
  9
$DIMEXO
 40
0.0625
  9
$DIMDLI
 40
0.836
  9
$DIMEXE
 40
0.125
  9
$DIMCEN
 40
0.198
  9
$DIMLFAC
 40
1.0
  9
$DIMBLK
  1
_FILLED
  9
$DIMALT
 70
1
  9
$DIMALTD
 70
2
  9
$DIMALTTD
 70
2
  9
$DIMALTF
 40
25.4
  9
$DIMTXT
 40
0.08
  9
$DIMTOL
 70
1
  9
$DIMLIM
 70
0
  9
$DIMTFAC
 40
1.0
  9
$DIMTP
 40
0.001
  9
$DIMTM
 40
0.001
  9
$DIMGAP
 40
0.09
  9
$DIMDSEP
 70
46
  9
$AUNITS
 70
0
  9
$PDMODE
 70
3
  9
$PDSIZE
 40
0.06
  9
$HANDSEED
  5
40B
  9
$TILEMODE
 70
1
  9
$MEASUREMENT
 70
0
  9
$INSUNITS
 70
1
  0
ENDSEC
  0
SECTION
  2
CLASSES
  0
CLASS
  1
ACDBDICTIONARYWDFLT
  2
AcDbDictionaryWithDefault
  3
AutoCAD 2000
 90
0
 91
1
280
0
281
0
  0
CLASS
  1
ACDBPLACEHOLDER
  2
AcDbPlaceHolder
  3
AutoCAD 2000
 90
0
 91
1
280
0
281
0
  0
CLASS
  1
LAYOUT
  2
AcDbLayout
  3
AutoCAD 2000
 90
0
 91
0
280
0
281
0
  0
ENDSEC
  0
SECTION
  2
TABLES
  0
TABLE
  2
VPORT
  5
8
100
AcDbSymbolTable
 70
2
  0
VPORT
  5
1F4
100
AcDbSymbolTableRecord
100
AcDbViewportTableRecord
  2
*ACTIVE
 70
0
 10
0.0
 20
0.0
 11
1.0
 21
1.0
 12
11.0
 22
8.5
 13
0.0
 23
0.0
 14
1.0
 24
1.0
 15
0.0
 25
0.0
 16
0.0
 26
0.0
 36
1.0
 17
0.0
 27
0.0
 37
0.0
 40
17.0
 41
1.2941176471
 42
50.0
 43
0.0
 44
0.0
 50
0.0
 51
0.0
 71
0
 72
100
 73
1
 74
1
 75
0
 76
0
 77
0
 78
0
  0
ENDTAB
  0
TABLE
  2
LTYPE
  5
5
100
AcDbSymbolTable
 70
6
  0
LTYPE
  5
14
100
AcDbSymbolTableRecord
100
AcDbLinetypeTableRecord
  2
BYBLOCK
 70
0
  3

 72
65
 73
0
 40
0.0
  0
LTYPE
  5
15
100
AcDbSymbolTableRecord
100
AcDbLinetypeTableRecord
  2
BYLAYER
 70
0
  3

 72
65
 73
0
 40
0.0
  0
LTYPE
  5
16
100
AcDbSymbolTableRecord
100
AcDbLinetypeTableRecord
  2
CONTINUOUS
 70
64
  3
Solid line
 72
65
 73
0
 40
0.0
  0
LTYPE
  5
1F5
100
AcDbSymbolTableRecord
100
AcDbLinetypeTableRecord
  2
CENTER
 70
64
  3
____ _ ____ _ ____ _ ____ _ ____ _ ____ _ ____
 72
65
 73
4
 40
0.6
 49
0.375
 74
0
 49
-0.075
 74
0
 49
0.075
 74
0
 49
-0.075
 74
0
  0
LTYPE
  5
1F6
100
AcDbSymbolTableRecord
100
AcDbLinetypeTableRecord
  2
HIDDEN
 70
64
  3
- - - - - - - - - - - - - - - - - - - -
 72
65
 73
2
 40
0.2
 49
0.1
 74
0
 49
-0.1
 74
0
  0
LTYPE
  5
1F7
100
AcDbSymbolTableRecord
100
AcDbLinetypeTableRecord
  2
PHANTOM
 70
64
  3
_____ _ _ _____ _ _ _____ _ _ _____
 72
65
 73
6
 40
0.8
 49
0.45
 74
0
 49
-0.05
 74
0
 49
0.1
 74
0
 49
-0.05
 74
0
 49
0.1
 74
0
 49
-0.05
 74
0
  0
LTYPE
  5
1F8
100
AcDbSymbolTableRecord
100
AcDbLinetypeTableRecord
  2
DOT
 70
64
  3
. . . . . . . . . . . . . . . . . . . .
 72
65
 73
2
 40
0.2
 49
0.1
 74
0
 49
-0.1
 74
0
  0
LTYPE
  5
1F9
100
AcDbSymbolTableRecord
100
AcDbLinetypeTableRecord
  2
DASHED
 70
64
  3
- - - - - - - - - - - - - - - - - - - -
 72
65
 73
2
 40
0.2
 49
0.1
 74
0
 49
-0.1
 74
0
  0
ENDTAB
  0
TABLE
  2
LAYER
  5
2
100
AcDbSymbolTable
 70
36
  0
LAYER
  5
10
100
AcDbSymbolTableRecord
100
AcDbLayerTableRecord
  2
0
 70
0
 62
7
  6
CONTINUOUS
370
-3
390
F
  0
LAYER
  5
1FA
100
AcDbSymbolTableRecord
100
AcDbLayerTableRecord
  2
DEFAULT_1
 70
0
 62
7
  6
CENTER
370
-3
390
F
  0
LAYER
  5
1FB
100
AcDbSymbolTableRecord
100
AcDbLayerTableRecord
  2
DEFAULT_2
 70
0
 62
8
  6
HIDDEN
370
-3
390
F
  0
LAYER
  5
1FC
100
AcDbSymbolTableRecord
100
AcDbLayerTableRecord
  2
DEFAULT_3
 70
0
 62
7
  6
PHANTOM
370
-3
390
F
  0
LAYER
  5
1FD
100
AcDbSymbolTableRecord
100
AcDbLayerTableRecord
  2
ALL_FEATURES
 70
0
 62
7
  6
CONTINUOUS
370
-3
390
F
  0
LAYER
  5
1FE
100
AcDbSymbolTableRecord
100
AcDbLayerTableRecord
  2
AXES_FEATURES
 70
0
 62
7
  6
CONTINUOUS
370
-3
390
F
  0
LAYER
  5
1FF
100
AcDbSymbolTableRecord
100
AcDbLayerTableRecord
  2
DIMENSIONS
 70
0
 62
7
  6
CONTINUOUS
370
-3
390
F
  0
ENDTAB
  0
TABLE
  2
STYLE
  5
3
100
AcDbSymbolTable
 70
1
  0
STYLE
  5
11
100
AcDbSymbolTableRecord
100
AcDbTextStyleTableRecord
  2
STANDARD
 70
0
 40
0.0
 41
0.8
 50
0.0
 71
0
 42
0.2
  3
txt
  4

  0
STYLE
  5
200
100
AcDbSymbolTableRecord
100
AcDbTextStyleTableRecord
  2
TEXTSTYLE_1
 70
0
 40
0.0
 41
0.8
 50
0.0
 71
0
 42
0.2
  3
gdt
  4

  0
ENDTAB
  0
TABLE
  2
VIEW
  5
6
100
AcDbSymbolTable
 70
0
  0
ENDTAB
  0
TABLE
  2
UCS
  5
7
100
AcDbSymbolTable
 70
0
  0
ENDTAB
  0
TABLE
  2
APPID
  5
9
100
AcDbSymbolTable
 70
1
  0
APPID
  5
201
100
AcDbSymbolTableRecord
100
AcDbRegAppTableRecord
  2
ACAD
 70
0
  0
ENDTAB
  0
TABLE
  2
BLOCK_RECORD
  5
1
100
AcDbSymbolTable
 70
0
  0
BLOCK_RECORD
  5
202
100
AcDbSymbolTableRecord
100
AcDbBlockTableRecord
  2
*Model_Space
  0
BLOCK_RECORD
  5
203
100
AcDbSymbolTableRecord
100
AcDbBlockTableRecord
  2
*Paper_Space
  0
BLOCK_RECORD
  5
204
100
AcDbSymbolTableRecord
100
AcDbBlockTableRecord
  2
_FILLED
  0
ENDTAB
  0
TABLE
  2
DIMSTYLE
  5
A
100
AcDbSymbolTable
 70
1
100
AcDbDimStyleTable
 71
0
  0
DIMSTYLE
105
205
100
AcDbSymbolTableRecord
100
AcDbDimStyleTableRecord
  2
STANDARD
 70
0
  3

  4

 40
1.0
 41
0.1
 42
0.0625
 43
0.38
 44
0.125
 45
0.0
 46
0.0
 47
0.001
 48
0.001
140
0.08
141
0.09
142
0.0
143
25.4
144
1.0
145
0.0
146
1.0
147
0.09
 71
1.0
 72
0.0
 73
1
 74
1
 75
0
 76
0
 77
0
 78
4
 79
1
170
1
171
2
172
0
173
0
174
0
175
0
176
0
177
0
178
0
270
2
179
3
271
3
272
3
273
2
274
2
275
0
280
0
281
0
282
0
283
1
284
4
285
0
286
0
287
3
288
0
340
11
278
46
341
204
342
204
343
204
344
204
  0
ENDTAB
  0
ENDSEC
  0
SECTION
  2
BLOCKS
  0
BLOCK
  5
20
100
AcDbEntity
  8
0
100
AcDbBlockBegin
  2
*Model_Space
 70
0
 10
0.0
 20
0.0
 30
0.0
  3
*Model_Space
  1

  0
ENDBLK
  5
21
100
AcDbEntity
  8
0
100
AcDbBlockEnd
  0
BLOCK
  5
1C
100
AcDbEntity
  8
0
100
AcDbBlockBegin
  2
*Paper_Space
 70
0
 10
0.0
 20
0.0
 30
0.0
  3
*Paper_Space
  1

  0
ENDBLK
  5
1D
100
AcDbEntity
  8
0
100
AcDbBlockEnd
  0
BLOCK
  5
206
100
AcDbEntity
  8
0
100
AcDbBlockBegin
  2
_FILLED
 70
64
 10
0.0
 20
0.0
  3
_FILLED
  1

  0
SOLID
  5
207
100
AcDbEntity
  8
0
  6
BYBLOCK
 62
0
100
AcDbTrace
 10
0.0
 20
0.0
 11
-1.0
 21
0.2
 12
-1.0
 22
-0.2
 13
-1.0
 23
-0.2
  0
ENDBLK
  5
208
100
AcDbEntity
  8
0
  6
BYBLOCK
 62
0
100
AcDbBlockEnd
  0
ENDSEC
  0
SECTION
  2
ENTITIES
  0
LINE
  5
209
100
AcDbEntity
  8
0
100
AcDbLine
 62
7
  6
CONTINUOUS
 10
-0.3902653198
 20
6.833391804
 11
-0.3902653198
 21
6.913391804
  0
LINE
  5
20A
100
AcDbEntity
  8
0
100
AcDbLine
 62
7
  6
CONTINUOUS
 10
0.5347346802
 20
6.833391804
 11
0.5347346802
 21
6.913391804
  0
LINE
  5
20B
100
AcDbEntity
  8
0
100
AcDbLine
 62
7
  6
CONTINUOUS
 10
2.6703546802
 20
7.208391804
 11
2.6703546802
 21
6.833391804
  0
LINE
  5
20C
100
AcDbEntity
  8
0
100
AcDbLine
 62
7
  6
CONTINUOUS
 10
2.8078546802
 20
7.333391804
 11
2.8078546802
 21
7.283391804
  0
LINE
  5
20D
100
AcDbEntity
  8
0
100
AcDbLine
 62
7
  6
CONTINUOUS
 10
2.8328546802
 20
6.833391804
 11
2.8328546802
 21
6.583391804
  0
LINE
  5
20E
100
AcDbEntity
  8
0
100
AcDbLine
 62
7
  6
CONTINUOUS
 10
3.3078546802
 20
6.833391804
 11
3.3078546802
 21
6.583391804
  0
LINE
  5
20F
100
AcDbEntity
  8
0
100
AcDbLine
 62
7
  6
CONTINUOUS
 10
3.3328546802
 20
7.333391804
 11
3.3328546802
 21
7.283391804
  0
LINE
  5
210
100
AcDbEntity
  8
0
100
AcDbLine
 62
7
  6
CONTINUOUS
 10
3.4703546802
 20
7.208391804
 11
3.4703546802
 21
6.833391804
  0
LINE
  5
211
100
AcDbEntity
  8
0
100
AcDbLine
 62
7
  6
CONTINUOUS
 10
-0.7177653198
 20
6.333391804
 11
0.8622346802
 21
6.333391804
  0
LINE
  5
212
100
AcDbEntity
  8
0
100
AcDbLine
 62
7
  6
CONTINUOUS
 10
2.4143603096
 20
6.333391804
 11
3.7263490509
 21
6.333391804
  0
LINE
  5
213
100
AcDbEntity
  8
0
100
AcDbLine
 62
7
  6
CONTINUOUS
 10
10.8203553727
 20
6.333391804
 11
13.3203539877
 21
6.333391804
  0
LINE
  5
214
100
AcDbEntity
  8
0
100
AcDbLine
 62
7
  6
CONTINUOUS
 10
20.0598716017
 20
6.333391804
 11
22.0848377587
 21
6.333391804
  0
LINE
  5
215
100
AcDbEntity
  8
0
100
AcDbLine
 62
7
  6
CONTINUOUS
 10
3.5499256286
 20
6.458391804
 11
2.5907837318
 21
6.458391804
  0
LINE
  5
216
100
AcDbEntity
  8
0
100
AcDbLine
 62
7
  6
CONTINUOUS
 10
13.3203546802
 20
6.483391804
 11
10.8203546802
 21
6.483391804
  0
LINE
  5
217
100
AcDbEntity
  8
0
100
AcDbLine
 62
7
  6
CONTINUOUS
 10
10.8703546802
 20
6.533391804
 11
13.2703546802
 21
6.533391804
  0
LINE
  5
218
100
AcDbEntity
  8
0
100
AcDbLine
 62
9
  6
CONTINUOUS
 10
22.0848546802
 20
6.5823592717
 11
20.0598546802
 21
6.5823592717
  0
LINE
  5
219
100
AcDbEntity
  8
0
100
AcDbLine
 62
7
  6
CONTINUOUS
 10
3.3626771946
 20
6.583391804
 11
2.7780321659
 21
6.583391804
  0
LINE
  5
21A
100
AcDbEntity
  8
0
100
AcDbLine
 62
7
  6
CONTINUOUS
 10
22.0473546802
 20
6.653391804
 11
20.0973546802
 21
6.653391804
  0
LINE
  5
21B
100
AcDbEntity
  8
0
100
AcDbLine
 62
7
  6
CONTINUOUS
 10
13.3196704449
 20
6.733391804
 11
13.3203360957
 21
6.733391804
  0
LINE
  5
21C
100
AcDbEntity
  8
0
100
AcDbLine
 62
7
  6
CONTINUOUS
 10
13.3174661757
 20
6.733391804
 11
13.3193367581
 21
6.733391804
  0
LINE
  5
21D
100
AcDbEntity
  8
0
100
AcDbLine
 62
7
  6
CONTINUOUS
 10
10.8203732647
 20
6.733391804
 11
13.3168157282
 21
6.733391804
  0
LINE
  5
21E
100
AcDbEntity
  8
0
100
AcDbLine
 62
7
  6
CONTINUOUS
 10
13.3203360957
 20
6.808391804
 11
13.3198125235
 21
6.808391804
  0
LINE
  5
21F
100
AcDbEntity
  8
0
100
AcDbLine
 62
7
  6
CONTINUOUS
 10
10.8232431848
 20
6.808391804
 11
10.8213726023
 21
6.808391804
  0
LINE
  5
220
100
AcDbEntity
  8
0
100
AcDbLine
 62
7
  6
CONTINUOUS
 10
10.8210389156
 20
6.808391804
 11
10.8203732647
 21
6.808391804
  0
LINE
  5
221
100
AcDbEntity
  8
0
100
AcDbLine
 62
7
  6
CONTINUOUS
 10
10.8238936322
 20
6.808391804
 11
13.3193367581
 21
6.808391804
  0
LINE
  5
222
100
AcDbEntity
  8
0
100
AcDbLine
 62
7
  6
CONTINUOUS
 10
0.5672342109
 20
6.833391804
 11
-0.4227648505
 21
6.833391804
  0
LINE
  5
223
100
AcDbEntity
  8
0
100
AcDbLine
 62
7
  6
CONTINUOUS
 10
2.6703551085
 20
6.833391804
 11
3.470354252
 21
6.833391804
  0
LINE
  5
224
100
AcDbEntity
  8
0
100
AcDbLine
 62
7
  6
CONTINUOUS
 10
13.1453405189
 20
6.908391804
 11
10.9953688416
 21
6.908391804
  0
LINE
  5
225
100
AcDbEntity
  8
0
100
AcDbLine
 62
9
  6
CONTINUOUS
 10
0.5347346802
 20
6.913391804
 11
-0.3902653198
 21
6.913391804
  0
LINE
  5
226
100
AcDbEntity
  8
0
100
AcDbLine
 62
7
  6
CONTINUOUS
 10
12.9953536885
 20
7.008391804
 11
11.145355672
 21
7.008391804
  0
LINE
  5
227
100
AcDbEntity
  8
0
100
AcDbLine
 62
9
  6
CONTINUOUS
 10
-0.3550534068
 20
7.0774943681
 11
0.4995227673
 21
7.0774943681
  0
LINE
  5
228
100
AcDbEntity
  8
0
100
AcDbLine
 62
7
  6
CONTINUOUS
 10
-0.3459337046
 20
7.083391804
 11
0.4904027385
 21
7.083391804
  0
LINE
  5
229
100
AcDbEntity
  8
0
100
AcDbLine
 62
7
  6
CONTINUOUS
 10
3.470354252
 20
7.208391804
 11
2.6703551085
 21
7.208391804
  0
LINE
  5
22A
100
AcDbEntity
  8
0
100
AcDbLine
 62
7
  6
CONTINUOUS
 10
3.3828496314
 20
7.283391804
 11
2.7578597291
 21
7.283391804
  0
LINE
  5
22B
100
AcDbEntity
  8
0
100
AcDbLine
 62
7
  6
CONTINUOUS
 10
3.3328543216
 20
7.333391804
 11
2.8078550389
 21
7.333391804
  0
LINE
  5
22C
100
AcDbEntity
  8
0
100
AcDbLine
 62
9
  6
CONTINUOUS
 10
20.3641624827
 20
7.4941369442
 11
21.7805468778
 21
7.4941369442
  0
LINE
  5
22D
100
AcDbEntity
  8
0
100
AcDbLine
 62
7
  6
CONTINUOUS
 10
12.9453546802
 20
7.533391804
 11
11.1953546802
 21
7.533391804
  0
LINE
  5
22E
100
AcDbEntity
  8
0
100
AcDbLine
 62
7
  6
CONTINUOUS
 10
11.1203546802
 20
7.608391804
 11
13.0203546802
 21
7.608391804
  0
LINE
  5
22F
100
AcDbEntity
  8
0
100
AcDbLine
 62
9
  6
CONTINUOUS
 10
20.4154840768
 20
7.6367325769
 11
21.7292252836
 21
7.6367325769
  0
LINE
  5
230
100
AcDbEntity
  8
0
100
AcDbLine
 62
7
  6
CONTINUOUS
 10
11.0453556731
 20
7.708391804
 11
13.0953536873
 21
7.708391804
  0
LINE
  5
231
100
AcDbEntity
  8
0
100
AcDbLine
 62
7
  6
CONTINUOUS
 10
13.0953536873
 20
7.908391804
 11
11.0453556731
 21
7.908391804
  0
LINE
  5
232
100
AcDbEntity
  8
0
100
AcDbLine
 62
7
  6
CONTINUOUS
 10
13.0203546802
 20
7.958391804
 11
11.1203546802
 21
7.958391804
  0
LINE
  5
233
100
AcDbEntity
  8
0
100
AcDbLine
 62
7
  6
CONTINUOUS
 10
12.920353793
 20
8.058391804
 11
11.2203555675
 21
8.058391804
  0
LINE
  5
234
100
AcDbEntity
  8
0
100
AcDbLine
 62
7
  6
CONTINUOUS
 10
12.8203424423
 20
8.108391804
 11
11.3203669182
 21
8.108391804
  0
LINE
  5
235
100
AcDbEntity
  8
0
100
AcDbLine
 62
7
  6
CONTINUOUS
 10
12.4703539086
 20
8.208391804
 11
11.6703554519
 21
8.208391804
  0
LINE
  5
236
100
AcDbEntity
  8
0
100
AcDbLine
 62
7
  6
CONTINUOUS
 10
11.7578667674
 20
8.238391804
 11
12.3828425931
 21
8.238391804
  0
LINE
  5
237
100
AcDbEntity
  8
0
100
AcDbLine
 62
7
  6
CONTINUOUS
 10
11.1953546802
 20
7.533391804
 11
11.1203546802
 21
7.608391804
  0
LINE
  5
238
100
AcDbEntity
  8
0
100
AcDbLine
 62
9
  6
CONTINUOUS
 10
10.611698514
 20
9.0060081522
 11
10.6119954585
 21
8.9916685695
  0
LINE
  5
239
100
AcDbEntity
  8
0
100
AcDbLine
 62
7
  6
CONTINUOUS
 10
10.5703550496
 20
8.6474501546
 11
10.5703546802
 21
8.9660276379
  0
LINE
  5
23A
100
AcDbEntity
  8
0
100
AcDbLine
 62
9
  6
CONTINUOUS
 10
10.6136765004
 20
8.661496099
 11
10.6136763968
 21
8.951975008
  0
LINE
  5
23B
100
AcDbEntity
  8
0
100
AcDbLine
 62
9
  6
CONTINUOUS
 10
10.6107183173
 20
8.6217703434
 11
10.6104102007
 21
8.607450176
  0
LINE
  5
23C
100
AcDbEntity
  8
0
100
AcDbLine
 62
9
  6
CONTINUOUS
 10
12.59483737
 20
8.9916685895
 11
12.6952821566
 21
9.0022911627
  0
LWPOLYLINE
  5
23D
100
AcDbEntity
  8
0
100
AcDbPolyline
 62
7
  6
CONTINUOUS
 90
3
 70
0
 10
12.5020152781
 20
8.9868683419
 10
12.3178101167
 20
8.9706836339
 10
12.1530726594
 20
8.9566660392
  0
LINE
  5
23E
100
AcDbEntity
  8
0
100
AcDbLine
 62
7
  6
CONTINUOUS
 10
12.6952822522
 20
9.0022921374
 11
12.5020152781
 21
8.9868683419
  0
LINE
  5
23F
100
AcDbEntity
  8
0
100
AcDbLine
 62
7
  6
CONTINUOUS
 10
11.637623009
 20
8.9633888698
 11
11.6286256349
 21
8.9627603489
  0
LINE
  5
240
100
AcDbEntity
  8
0
100
AcDbLine
 62
7
  6
CONTINUOUS
 10
10.9232137355
 20
8.6092922145
 11
11.2768982528
 21
8.6135146036
  0
LINE
  5
241
100
AcDbEntity
  8
0
100
AcDbLine
 62
7
  6
CONTINUOUS
 10
11.1958964043
 20
8.6125475799
 11
11.6299123803
 21
8.6179873418
  0
LINE
  5
242
100
AcDbEntity
  8
0
100
AcDbLine
 62
7
  6
CONTINUOUS
 10
10.6104101838
 20
8.6074534884
 11
10.923213741
 21
8.6092922146
  0
LINE
  5
243
100
AcDbEntity
  8
0
100
AcDbLine
 62
9
  6
CONTINUOUS
 10
12.3828546802
 20
8.531391804
 11
11.7578546802
 21
8.531391804
  0
LINE
  5
244
100
AcDbEntity
  8
0
100
AcDbLine
 62
7
  6
CONTINUOUS
 10
11.6703554519
 20
8.551391804
 11
12.4703539086
 21
8.551391804
  0
LINE
  5
245
100
AcDbEntity
  8
0
100
AcDbLine
 62
9
  6
CONTINUOUS
 10
13.0408638256
 20
8.6614753968
 11
13.0208638256
 21
8.6614753968
  0
LINE
  5
246
100
AcDbEntity
  8
0
100
AcDbLine
 62
9
  6
CONTINUOUS
 10
10.6136764486
 20
8.6614753968
 11
10.5703546802
 21
8.6614753968
  0
LINE
  5
247
100
AcDbEntity
  8
0
100
AcDbLine
 62
9
  6
CONTINUOUS
 10
12.5636632906
 20
8.6614753968
 11
12.6198455349
 21
8.6614753968
  0
LINE
  5
248
100
AcDbEntity
  8
0
100
AcDbLine
 62
9
  6
CONTINUOUS
 10
13.0408638256
 20
8.951995732
 11
13.0208638256
 21
8.951995732
  0
LINE
  5
249
100
AcDbEntity
  8
0
100
AcDbLine
 62
9
  6
CONTINUOUS
 10
10.6136764486
 20
8.951995732
 11
10.5703546802
 21
8.951995732
  0
LINE
  5
24A
100
AcDbEntity
  8
0
100
AcDbLine
 62
9
  6
CONTINUOUS
 10
12.5636632906
 20
8.951995732
 11
12.6198455349
 21
8.951995732
  0
LINE
  5
24B
100
AcDbEntity
  8
0
100
AcDbLine
 62
7
  6
CONTINUOUS
 10
12.4703539086
 20
9.026391804
 11
11.6703554519
 21
9.026391804
  0
LINE
  5
24C
100
AcDbEntity
  8
0
100
AcDbLine
 62
7
  6
CONTINUOUS
 10
12.3828425931
 20
9.101391804
 11
11.7578667674
 21
9.101391804
  0
LINE
  5
24D
100
AcDbEntity
  8
0
100
AcDbLine
 62
7
  6
CONTINUOUS
 10
12.7962804458
 20
8.6074557483
 11
12.7962733243
 21
8.6074557679
  0
LINE
  5
24E
100
AcDbEntity
  8
0
100
AcDbLine
 62
7
  6
CONTINUOUS
 10
12.6125060051
 20
8.609651581
 11
12.7962805144
 21
8.6074590549
  0
LINE
  5
24F
100
AcDbEntity
  8
0
100
AcDbLine
 62
7
  6
CONTINUOUS
 10
12.4254906934
 20
8.6141361036
 11
12.6125059583
 21
8.6096515821
  0
LINE
  5
250
100
AcDbEntity
  8
0
100
AcDbLine
 62
7
  6
CONTINUOUS
 10
12.2558916234
 20
8.61837368
 11
12.4254906934
 21
8.6141361036
  0
LINE
  5
251
100
AcDbEntity
  8
0
100
AcDbLine
 62
7
  6
CONTINUOUS
 10
10.9237835487
 20
8.9941189574
 11
10.6116984385
 21
9.0060048499
  0
LINE
  5
252
100
AcDbEntity
  8
0
100
AcDbLine
 62
7
  6
CONTINUOUS
 10
11.2765973477
 20
8.9785518014
 11
10.9237835487
 21
8.9941189574
  0
LINE
  5
253
100
AcDbEntity
  8
0
100
AcDbLine
 62
7
  6
CONTINUOUS
 10
11.6286259129
 20
8.9627603423
 11
11.2765973477
 21
8.9785518014
  0
LINE
  5
254
100
AcDbEntity
  8
0
100
AcDbLine
 62
7
  6
CONTINUOUS
 10
11.629912341
 20
8.6179873468
 11
11.6386623688
 21
8.6171175611
  0
LWPOLYLINE
  5
255
100
AcDbEntity
  8
0
100
AcDbPolyline
 62
7
  6
CONTINUOUS
 90
6
 70
0
 10
11.6386623688
 20
8.6171175611
 10
11.6499133396
 20
8.6128818981
 10
11.6594035584
 20
8.6054882101
 10
11.6662668445
 20
8.5956056051
 10
11.6698792112
 20
8.584138933
 10
11.6703546866
 20
8.5779897905
  0
LINE
  5
256
100
AcDbEntity
  8
0
100
AcDbLine
 62
7
  6
CONTINUOUS
 10
13.2703546802
 20
6.533391804
 11
13.3203546802
 21
6.483391804
  0
LINE
  5
257
100
AcDbEntity
  8
0
100
AcDbLine
 62
7
  6
CONTINUOUS
 10
10.8203546802
 20
6.333391804
 11
10.8203546802
 21
6.483391804
  0
LINE
  5
258
100
AcDbEntity
  8
0
100
AcDbLine
 62
7
  6
CONTINUOUS
 10
10.8203732647
 20
6.808391804
 11
10.8203732647
 21
6.733391804
  0
LINE
  5
259
100
AcDbEntity
  8
0
100
AcDbLine
 62
7
  6
CONTINUOUS
 10
10.8208968369
 20
6.733391804
 11
10.8208968369
 21
6.808391804
  0
LINE
  5
25A
100
AcDbEntity
  8
0
100
AcDbLine
 62
7
  6
CONTINUOUS
 10
10.8213726023
 20
6.808391804
 11
10.8213726023
 21
6.733391804
  0
LINE
  5
25B
100
AcDbEntity
  8
0
100
AcDbLine
 62
7
  6
CONTINUOUS
 10
10.822942681
 20
6.733391804
 11
10.822942681
 21
6.808391804
  0
LINE
  5
25C
100
AcDbEntity
  8
0
100
AcDbLine
 62
7
  6
CONTINUOUS
 10
10.8238936322
 20
6.808391804
 11
10.8238936322
 21
6.733391804
  0
LINE
  5
25D
100
AcDbEntity
  8
0
100
AcDbLine
 62
7
  6
CONTINUOUS
 10
10.8265083045
 20
6.733391804
 11
10.8265083045
 21
6.808391804
  0
LINE
  5
25E
100
AcDbEntity
  8
0
100
AcDbLine
 62
7
  6
CONTINUOUS
 10
10.8279332829
 20
6.808391804
 11
10.8279332829
 21
6.733391804
  0
LINE
  5
25F
100
AcDbEntity
  8
0
100
AcDbLine
 62
7
  6
CONTINUOUS
 10
10.8315893632
 20
6.733391804
 11
10.8315893632
 21
6.808391804
  0
LINE
  5
260
100
AcDbEntity
  8
0
100
AcDbLine
 62
7
  6
CONTINUOUS
 10
10.8334866327
 20
6.808391804
 11
10.8334866327
 21
6.733391804
  0
LINE
  5
261
100
AcDbEntity
  8
0
100
AcDbLine
 62
7
  6
CONTINUOUS
 10
10.8381796666
 20
6.733391804
 11
10.8381796666
 21
6.808391804
  0
LINE
  5
262
100
AcDbEntity
  8
0
100
AcDbLine
 62
7
  6
CONTINUOUS
 10
10.8405469156
 20
6.808391804
 11
10.8405469156
 21
6.733391804
  0
LINE
  5
263
100
AcDbEntity
  8
0
100
AcDbLine
 62
7
  6
CONTINUOUS
 10
10.8462711855
 20
6.733391804
 11
10.8462711855
 21
6.808391804
  0
LINE
  5
264
100
AcDbEntity
  8
0
100
AcDbLine
 62
7
  6
CONTINUOUS
 10
10.8491055299
 20
6.808391804
 11
10.8491055299
 21
6.733391804
  0
LINE
  5
265
100
AcDbEntity
  8
0
100
AcDbLine
 62
7
  6
CONTINUOUS
 10
10.8558540615
 20
6.733391804
 11
10.8558540615
 21
6.808391804
  0
LINE
  5
266
100
AcDbEntity
  8
0
100
AcDbLine
 62
7
  6
CONTINUOUS
 10
10.8591520481
 20
6.808391804
 11
10.8591520481
 21
6.733391804
  0
LINE
  5
267
100
AcDbEntity
  8
0
100
AcDbLine
 62
7
  6
CONTINUOUS
 10
10.8669166195
 20
6.733391804
 11
10.8669166195
 21
6.808391804
  0
LINE
  5
268
100
AcDbEntity
  8
0
100
AcDbLine
 62
7
  6
CONTINUOUS
 10
10.8703546802
 20
6.533391804
 11
10.8703546802
 21
6.733391804
  0
LINE
  5
269
100
AcDbEntity
  8
0
100
AcDbLine
 62
7
  6
CONTINUOUS
 10
10.8706742302
 20
6.808391804
 11
10.8706742302
 21
6.733391804
  0
LINE
  5
26A
100
AcDbEntity
  8
0
100
AcDbLine
 62
7
  6
CONTINUOUS
 10
10.8794453814
 20
6.733391804
 11
10.8794453814
 21
6.808391804
  0
LINE
  5
26B
100
AcDbEntity
  8
0
100
AcDbLine
 62
7
  6
CONTINUOUS
 10
10.8836580381
 20
6.808391804
 11
10.8836580381
 21
6.733391804
  0
LINE
  5
26C
100
AcDbEntity
  8
0
100
AcDbLine
 62
7
  6
CONTINUOUS
 10
10.8934250828
 20
6.733391804
 11
10.8934250828
 21
6.808391804
  0
LINE
  5
26D
100
AcDbEntity
  8
0
100
AcDbLine
 62
7
  6
CONTINUOUS
 10
10.8980876531
 20
6.808391804
 11
10.8980876531
 21
6.733391804
  0
LINE
  5
26E
100
AcDbEntity
  8
0
100
AcDbLine
 62
7
  6
CONTINUOUS
 10
10.9088386916
 20
6.733391804
 11
10.9088386916
 21
6.808391804
  0
LINE
  5
26F
100
AcDbEntity
  8
0
100
AcDbLine
 62
7
  6
CONTINUOUS
 10
10.9139454949
 20
6.808391804
 11
10.9139454949
 21
6.733391804
  0
LINE
  5
270
100
AcDbEntity
  8
0
100
AcDbLine
 62
7
  6
CONTINUOUS
 10
10.9256674288
 20
6.733391804
 11
10.9256674288
 21
6.808391804
  0
LINE
  5
271
100
AcDbEntity
  8
0
100
AcDbLine
 62
7
  6
CONTINUOUS
 10
10.9312122431
 20
6.808391804
 11
10.9312122431
 21
6.733391804
  0
LINE
  5
272
100
AcDbEntity
  8
0
100
AcDbLine
 62
7
  6
CONTINUOUS
 10
10.943890791
 20
6.733391804
 11
10.943890791
 21
6.808391804
  0
LINE
  5
273
100
AcDbEntity
  8
0
100
AcDbLine
 62
7
  6
CONTINUOUS
 10
10.949866861
 20
6.808391804
 11
10.949866861
 21
6.733391804
  0
LINE
  5
274
100
AcDbEntity
  8
0
100
AcDbLine
 62
7
  6
CONTINUOUS
 10
10.963486576
 20
6.733391804
 11
10.963486576
 21
6.808391804
  0
LINE
  5
275
100
AcDbEntity
  8
0
100
AcDbLine
 62
7
  6
CONTINUOUS
 10
10.9698866206
 20
6.808391804
 11
10.9698866206
 21
6.733391804
  0
LINE
  5
276
100
AcDbEntity
  8
0
100
AcDbLine
 62
7
  6
CONTINUOUS
 10
10.9844309092
 20
6.733391804
 11
10.9844309092
 21
6.808391804
  0
LINE
  5
277
100
AcDbEntity
  8
0
100
AcDbLine
 62
7
  6
CONTINUOUS
 10
10.9912471311
 20
6.808391804
 11
10.9912471311
 21
6.733391804
  0
LINE
  5
278
100
AcDbEntity
  8
0
100
AcDbLine
 62
7
  6
CONTINUOUS
 10
11.0066982733
 20
6.733391804
 11
11.0066982733
 21
6.808391804
  0
LINE
  5
279
100
AcDbEntity
  8
0
100
AcDbLine
 62
7
  6
CONTINUOUS
 10
11.0139223678
 20
6.808391804
 11
11.0139223678
 21
6.733391804
  0
LINE
  5
27A
100
AcDbEntity
  8
0
100
AcDbLine
 62
7
  6
CONTINUOUS
 10
11.0302615389
 20
6.733391804
 11
11.0302615389
 21
6.808391804
  0
LINE
  5
27B
100
AcDbEntity
  8
0
100
AcDbLine
 62
7
  6
CONTINUOUS
 10
11.0378847047
 20
6.808391804
 11
11.0378847047
 21
6.733391804
  0
LINE
  5
27C
100
AcDbEntity
  8
0
100
AcDbLine
 62
7
  6
CONTINUOUS
 10
11.0453546802
 20
7.708391804
 11
11.0453546802
 21
7.908391804
  0
LINE
  5
27D
100
AcDbEntity
  8
0
100
AcDbLine
 62
7
  6
CONTINUOUS
 10
11.0550919977
 20
6.733391804
 11
11.0550919977
 21
6.808391804
  0
LINE
  5
27E
100
AcDbEntity
  8
0
100
AcDbLine
 62
7
  6
CONTINUOUS
 10
11.0631049471
 20
6.808391804
 11
11.0631049471
 21
6.733391804
  0
LINE
  5
27F
100
AcDbEntity
  8
0
100
AcDbLine
 62
7
  6
CONTINUOUS
 10
11.0811593978
 20
6.733391804
 11
11.0811593978
 21
6.808391804
  0
LINE
  5
280
100
AcDbEntity
  8
0
100
AcDbLine
 62
7
  6
CONTINUOUS
 10
11.0895523682
 20
6.808391804
 11
11.0895523682
 21
6.733391804
  0
LINE
  5
281
100
AcDbEntity
  8
0
100
AcDbLine
 62
7
  6
CONTINUOUS
 10
11.1084319799
 20
6.733391804
 11
11.1084319799
 21
6.808391804
  0
LINE
  5
282
100
AcDbEntity
  8
0
100
AcDbLine
 62
7
  6
CONTINUOUS
 10
11.1171947458
 20
6.808391804
 11
11.1171947458
 21
6.733391804
  0
LINE
  5
283
100
AcDbEntity
  8
0
100
AcDbLine
 62
7
  6
CONTINUOUS
 10
11.1203546802
 20
7.608391804
 11
11.1203546802
 21
7.708391804
  0
LINE
  5
284
100
AcDbEntity
  8
0
100
AcDbLine
 62
7
  6
CONTINUOUS
 10
11.1203546802
 20
7.908391804
 11
11.1203546802
 21
7.958391804
  0
LINE
  5
285
100
AcDbEntity
  8
0
100
AcDbLine
 62
7
  6
CONTINUOUS
 10
11.1368765167
 20
6.733391804
 11
11.1368765167
 21
6.808391804
  0
LINE
  5
286
100
AcDbEntity
  8
0
100
AcDbLine
 62
7
  6
CONTINUOUS
 10
11.145998402
 20
6.808391804
 11
11.145998402
 21
6.733391804
  0
LINE
  5
287
100
AcDbEntity
  8
0
100
AcDbLine
 62
7
  6
CONTINUOUS
 10
11.1664583528
 20
6.733391804
 11
11.1664583528
 21
6.808391804
  0
LINE
  5
288
100
AcDbEntity
  8
0
100
AcDbLine
 62
7
  6
CONTINUOUS
 10
11.1759282439
 20
6.808391804
 11
11.1759282439
 21
6.733391804
  0
LINE
  5
289
100
AcDbEntity
  8
0
100
AcDbLine
 62
7
  6
CONTINUOUS
 10
11.1953546802
 20
7.008391804
 11
11.1953546802
 21
7.533391804
  0
LINE
  5
28A
100
AcDbEntity
  8
0
100
AcDbLine
 62
7
  6
CONTINUOUS
 10
11.1971414474
 20
6.733391804
 11
11.1971414474
 21
6.808391804
  0
LINE
  5
28B
100
AcDbEntity
  8
0
100
AcDbLine
 62
7
  6
CONTINUOUS
 10
11.2069478067
 20
6.808391804
 11
11.2069478067
 21
6.733391804
  0
LINE
  5
28C
100
AcDbEntity
  8
0
100
AcDbLine
 62
7
  6
CONTINUOUS
 10
11.2281480876
 20
6.733391804
 11
11.2281480876
 21
6.808391804
  0
LINE
  5
28D
100
AcDbEntity
  8
0
100
AcDbLine
 62
7
  6
CONTINUOUS
 10
11.2288884177
 20
6.733391804
 11
11.2288884177
 21
6.808391804
  0
LINE
  5
28E
100
AcDbEntity
  8
0
100
AcDbLine
 62
7
  6
CONTINUOUS
 10
11.2390192977
 20
6.808391804
 11
11.2390192977
 21
6.733391804
  0
LINE
  5
28F
100
AcDbEntity
  8
0
100
AcDbLine
 62
7
  6
CONTINUOUS
 10
11.2601808269
 20
6.733391804
 11
11.2601808269
 21
6.808391804
  0
LINE
  5
290
100
AcDbEntity
  8
0
100
AcDbLine
 62
7
  6
CONTINUOUS
 10
11.2616605851
 20
6.733391804
 11
11.2616605851
 21
6.808391804
  0
LINE
  5
291
100
AcDbEntity
  8
0
100
AcDbLine
 62
7
  6
CONTINUOUS
 10
11.2721036429
 20
6.808391804
 11
11.2721036429
 21
6.733391804
  0
LINE
  5
292
100
AcDbEntity
  8
0
100
AcDbLine
 62
7
  6
CONTINUOUS
 10
11.2932006382
 20
6.733391804
 11
11.2932006382
 21
6.808391804
  0
LINE
  5
293
100
AcDbEntity
  8
0
100
AcDbLine
 62
7
  6
CONTINUOUS
 10
11.2954180217
 20
6.733391804
 11
11.2954180217
 21
6.808391804
  0
LINE
  5
294
100
AcDbEntity
  8
0
100
AcDbLine
 62
7
  6
CONTINUOUS
 10
11.3061605339
 20
6.808391804
 11
11.3061605339
 21
6.733391804
  0
LINE
  5
295
100
AcDbEntity
  8
0
100
AcDbLine
 62
7
  6
CONTINUOUS
 10
11.3203546802
 20
8.058391804
 11
11.3203546802
 21
8.108391804
  0
LINE
  5
296
100
AcDbEntity
  8
0
100
AcDbLine
 62
7
  6
CONTINUOUS
 10
11.3271672919
 20
6.733391804
 11
11.3271672919
 21
6.808391804
  0
LINE
  5
297
100
AcDbEntity
  8
0
100
AcDbLine
 62
7
  6
CONTINUOUS
 10
11.3301195992
 20
6.733391804
 11
11.3301195992
 21
6.808391804
  0
LINE
  5
298
100
AcDbEntity
  8
0
100
AcDbLine
 62
7
  6
CONTINUOUS
 10
11.3411484779
 20
6.808391804
 11
11.3411484779
 21
6.733391804
  0
LINE
  5
299
100
AcDbEntity
  8
0
100
AcDbLine
 62
7
  6
CONTINUOUS
 10
11.3620394051
 20
6.733391804
 11
11.3620394051
 21
6.808391804
  0
LINE
  5
29A
100
AcDbEntity
  8
0
100
AcDbLine
 62
7
  6
CONTINUOUS
 10
11.3657230392
 20
6.733391804
 11
11.3657230392
 21
6.808391804
  0
LINE
  5
29B
100
AcDbEntity
  8
0
100
AcDbLine
 62
7
  6
CONTINUOUS
 10
11.3770248472
 20
6.808391804
 11
11.3770248472
 21
6.733391804
  0
LINE
  5
29C
100
AcDbEntity
  8
0
100
AcDbLine
 62
7
  6
CONTINUOUS
 10
11.3977744913
 20
6.733391804
 11
11.3977744913
 21
6.808391804
  0
LINE
  5
29D
100
AcDbEntity
  8
0
100
AcDbLine
 62
7
  6
CONTINUOUS
 10
11.4021849643
 20
6.733391804
 11
11.4021849643
 21
6.808391804
  0
LINE
  5
29E
100
AcDbEntity
  8
0
100
AcDbLine
 62
7
  6
CONTINUOUS
 10
11.4137459322
 20
6.808391804
 11
11.4137459322
 21
6.733391804
  0
LINE
  5
29F
100
AcDbEntity
  8
0
100
AcDbLine
 62
7
  6
CONTINUOUS
 10
11.4343290128
 20
6.733391804
 11
11.4343290128
 21
6.808391804
  0
LINE
  5
2A0
100
AcDbEntity
  8
0
100
AcDbLine
 62
7
  6
CONTINUOUS
 10
11.4394609512
 20
6.733391804
 11
11.4394609512
 21
6.808391804
  0
LINE
  5
2A1
100
AcDbEntity
  8
0
100
AcDbLine
 62
7
  6
CONTINUOUS
 10
11.4512669937
 20
6.808391804
 11
11.4512669937
 21
6.733391804
  0
LINE
  5
2A2
100
AcDbEntity
  8
0
100
AcDbLine
 62
7
  6
CONTINUOUS
 10
11.4716584337
 20
6.733391804
 11
11.4716584337
 21
6.808391804
  0
LINE
  5
2A3
100
AcDbEntity
  8
0
100
AcDbLine
 62
7
  6
CONTINUOUS
 10
11.477505585
 20
6.733391804
 11
11.477505585
 21
6.808391804
  0
LINE
  5
2A4
100
AcDbEntity
  8
0
100
AcDbLine
 62
7
  6
CONTINUOUS
 10
11.4895423183
 20
6.808391804
 11
11.4895423183
 21
6.733391804
  0
LINE
  5
2A5
100
AcDbEntity
  8
0
100
AcDbLine
 62
7
  6
CONTINUOUS
 10
11.5097172737
 20
6.733391804
 11
11.5097172737
 21
6.808391804
  0
LINE
  5
2A6
100
AcDbEntity
  8
0
100
AcDbLine
 62
7
  6
CONTINUOUS
 10
11.516272514
 20
6.733391804
 11
11.516272514
 21
6.808391804
  0
LINE
  5
2A7
100
AcDbEntity
  8
0
100
AcDbLine
 62
7
  6
CONTINUOUS
 10
11.5285252733
 20
6.808391804
 11
11.5285252733
 21
6.733391804
  0
LINE
  5
2A8
100
AcDbEntity
  8
0
100
AcDbLine
 62
7
  6
CONTINUOUS
 10
11.548459164
 20
6.733391804
 11
11.548459164
 21
6.808391804
  0
LINE
  5
2A9
100
AcDbEntity
  8
0
100
AcDbLine
 62
7
  6
CONTINUOUS
 10
11.5557145069
 20
6.733391804
 11
11.5557145069
 21
6.808391804
  0
LINE
  5
2AA
100
AcDbEntity
  8
0
100
AcDbLine
 62
7
  6
CONTINUOUS
 10
11.5681683639
 20
6.808391804
 11
11.5681683639
 21
6.733391804
  0
LINE
  5
2AB
100
AcDbEntity
  8
0
100
AcDbLine
 62
7
  6
CONTINUOUS
 10
11.5878369036
 20
6.733391804
 11
11.5878369036
 21
6.808391804
  0
LINE
  5
2AC
100
AcDbEntity
  8
0
100
AcDbLine
 62
7
  6
CONTINUOUS
 10
11.5957835095
 20
6.733391804
 11
11.5957835095
 21
6.808391804
  0
LINE
  5
2AD
100
AcDbEntity
  8
0
100
AcDbLine
 62
9
  6
CONTINUOUS
 10
11.8078546802
 20
9.121391804
 11
12.3328546802
 21
9.121391804
  0
LINE
  5
2AE
100
AcDbEntity
  8
0
100
AcDbLine
 62
7
  6
CONTINUOUS
 10
12.3328437247
 20
9.151391804
 11
11.8078656357
 21
9.151391804
  0
LINE
  5
2AF
100
AcDbEntity
  8
0
100
AcDbLine
 62
7
  6
CONTINUOUS
 10
20.3323556821
 20
9.801391804
 11
21.8123536783
 21
9.801391804
  0
LINE
  5
2B0
100
AcDbEntity
  8
0
100
AcDbLine
 62
9
  6
CONTINUOUS
 10
20.3123546802
 20
9.8762249518
 11
21.8323546802
 21
9.8762249518
  0
LINE
  5
2B1
100
AcDbEntity
  8
0
100
AcDbLine
 62
9
  6
CONTINUOUS
 10
12.0703539503
 20
8.9890050828
 11
12.0719034584
 21
8.9746030528
  0
LINE
  5
2B2
100
AcDbEntity
  8
0
100
AcDbLine
 62
7
  6
CONTINUOUS
 10
11.6084232912
 20
6.808391804
 11
11.6084232912
 21
6.733391804
  0
LINE
  5
2B3
100
AcDbEntity
  8
0
100
AcDbLine
 62
7
  6
CONTINUOUS
 10
11.6278025168
 20
6.733391804
 11
11.6278025168
 21
6.808391804
  0
LINE
  5
2B4
100
AcDbEntity
  8
0
100
AcDbLine
 62
7
  6
CONTINUOUS
 10
11.636430704
 20
6.733391804
 11
11.636430704
 21
6.808391804
  0
LINE
  5
2B5
100
AcDbEntity
  8
0
100
AcDbLine
 62
7
  6
CONTINUOUS
 10
11.6492410107
 20
6.808391804
 11
11.6492410107
 21
6.733391804
  0
LINE
  5
2B6
100
AcDbEntity
  8
0
100
AcDbLine
 62
9
  6
CONTINUOUS
 10
11.6509538008
 20
8.916723916
 11
11.6509538008
 21
8.6633661754
  0
LINE
  5
2B7
100
AcDbEntity
  8
0
100
AcDbLine
 62
7
  6
CONTINUOUS
 10
11.6683073117
 20
6.733391804
 11
11.6683073117
 21
6.808391804
  0
LINE
  5
2B8
100
AcDbEntity
  8
0
100
AcDbLine
 62
7
  6
CONTINUOUS
 10
11.6703546802
 20
9.026391804
 11
11.6703546802
 21
9.0027229635
  0
LINE
  5
2B9
100
AcDbEntity
  8
0
100
AcDbLine
 62
7
  6
CONTINUOUS
 10
11.6703546802
 20
8.5779897906
 11
11.6703546802
 21
8.551391804
  0
LINE
  5
2BA
100
AcDbEntity
  8
0
100
AcDbLine
 62
7
  6
CONTINUOUS
 10
11.6703546802
 20
8.108391804
 11
11.6703546802
 21
8.208391804
  0
LINE
  5
2BB
100
AcDbEntity
  8
0
100
AcDbLine
 62
7
  6
CONTINUOUS
 10
11.677606568
 20
6.733391804
 11
11.677606568
 21
6.808391804
  0
LINE
  5
2BC
100
AcDbEntity
  8
0
100
AcDbLine
 62
7
  6
CONTINUOUS
 10
11.6905717924
 20
6.808391804
 11
11.6905717924
 21
6.733391804
  0
LINE
  5
2BD
100
AcDbEntity
  8
0
100
AcDbLine
 62
7
  6
CONTINUOUS
 10
11.7093019393
 20
6.733391804
 11
11.7093019393
 21
6.808391804
  0
LINE
  5
2BE
100
AcDbEntity
  8
0
100
AcDbLine
 62
7
  6
CONTINUOUS
 10
11.7192609351
 20
6.733391804
 11
11.7192609351
 21
6.808391804
  0
LINE
  5
2BF
100
AcDbEntity
  8
0
100
AcDbLine
 62
7
  6
CONTINUOUS
 10
11.732365281
 20
6.808391804
 11
11.732365281
 21
6.733391804
  0
LINE
  5
2C0
100
AcDbEntity
  8
0
100
AcDbLine
 62
9
  6
CONTINUOUS
 10
11.7414775195
 20
8.593230779
 11
11.7414775195
 21
8.9849557287
  0
LINE
  5
2C1
100
AcDbEntity
  8
0
100
AcDbLine
 62
7
  6
CONTINUOUS
 10
11.7507364541
 20
6.733391804
 11
11.7507364541
 21
6.808391804
  0
LINE
  5
2C2
100
AcDbEntity
  8
0
100
AcDbLine
 62
7
  6
CONTINUOUS
 10
11.7578546802
 20
8.531391804
 11
11.7578546802
 21
8.238391804
  0
LINE
  5
2C3
100
AcDbEntity
  8
0
100
AcDbLine
 62
7
  6
CONTINUOUS
 10
11.7613430558
 20
6.733391804
 11
11.7613430558
 21
6.808391804
  0
LINE
  5
2C4
100
AcDbEntity
  8
0
100
AcDbLine
 62
7
  6
CONTINUOUS
 10
11.7745705576
 20
6.808391804
 11
11.7745705576
 21
6.733391804
  0
LINE
  5
2C5
100
AcDbEntity
  8
0
100
AcDbLine
 62
7
  6
CONTINUOUS
 10
11.7925603744
 20
6.733391804
 11
11.7925603744
 21
6.808391804
  0
LINE
  5
2C6
100
AcDbEntity
  8
0
100
AcDbLine
 62
7
  6
CONTINUOUS
 10
11.8038016596
 20
6.733391804
 11
11.8038016596
 21
6.808391804
  0
LINE
  5
2C7
100
AcDbEntity
  8
0
100
AcDbLine
 62
7
  6
CONTINUOUS
 10
11.8078546802
 20
9.151391804
 11
11.8078546802
 21
9.121391804
  0
LINE
  5
2C8
100
AcDbEntity
  8
0
100
AcDbLine
 62
7
  6
CONTINUOUS
 10
11.8171362017
 20
6.808391804
 11
11.8171362017
 21
6.733391804
  0
LINE
  5
2C9
100
AcDbEntity
  8
0
100
AcDbLine
 62
7
  6
CONTINUOUS
 10
11.8347227444
 20
6.733391804
 11
11.8347227444
 21
6.808391804
  0
LINE
  5
2CA
100
AcDbEntity
  8
0
100
AcDbLine
 62
7
  6
CONTINUOUS
 10
11.8465850172
 20
6.733391804
 11
11.8465850172
 21
6.808391804
  0
LINE
  5
2CB
100
AcDbEntity
  8
0
100
AcDbLine
 62
7
  6
CONTINUOUS
 10
11.8600103534
 20
6.808391804
 11
11.8600103534
 21
6.733391804
  0
LINE
  5
2CC
100
AcDbEntity
  8
0
100
AcDbLine
 62
7
  6
CONTINUOUS
 10
11.8703546802
 20
8.208391804
 11
11.8703546802
 21
8.238391804
  0
LINE
  5
2CD
100
AcDbEntity
  8
0
100
AcDbLine
 62
7
  6
CONTINUOUS
 10
11.8771721955
 20
6.733391804
 11
11.8771721955
 21
6.808391804
  0
LINE
  5
2CE
100
AcDbEntity
  8
0
100
AcDbLine
 62
7
  6
CONTINUOUS
 10
11.8896410036
 20
6.733391804
 11
11.8896410036
 21
6.808391804
  0
LINE
  5
2CF
100
AcDbEntity
  8
0
100
AcDbLine
 62
7
  6
CONTINUOUS
 10
11.9031407773
 20
6.808391804
 11
11.9031407773
 21
6.733391804
  0
LINE
  5
2D0
100
AcDbEntity
  8
0
100
AcDbLine
 62
7
  6
CONTINUOUS
 10
11.9198570098
 20
6.733391804
 11
11.9198570098
 21
6.808391804
  0
LINE
  5
2D1
100
AcDbEntity
  8
0
100
AcDbLine
 62
7
  6
CONTINUOUS
 10
11.9329171619
 20
6.733391804
 11
11.9329171619
 21
6.808391804
  0
LINE
  5
2D2
100
AcDbEntity
  8
0
100
AcDbLine
 62
7
  6
CONTINUOUS
 10
11.9464749256
 20
6.808391804
 11
11.9464749256
 21
6.733391804
  0
LINE
  5
2D3
100
AcDbEntity
  8
0
100
AcDbLine
 62
7
  6
CONTINUOUS
 10
11.9627251822
 20
6.733391804
 11
11.9627251822
 21
6.808391804
  0
LINE
  5
2D4
100
AcDbEntity
  8
0
100
AcDbLine
 62
7
  6
CONTINUOUS
 10
11.9763607666
 20
6.733391804
 11
11.9763607666
 21
6.808391804
  0
LINE
  5
2D5
100
AcDbEntity
  8
0
100
AcDbLine
 62
7
  6
CONTINUOUS
 10
11.9899600023
 20
6.808391804
 11
11.9899600023
 21
6.733391804
  0
LINE
  5
2D6
100
AcDbEntity
  8
0
100
AcDbLine
 62
7
  6
CONTINUOUS
 10
12.0057244847
 20
6.733391804
 11
12.0057244847
 21
6.808391804
  0
LINE
  5
2D7
100
AcDbEntity
  8
0
100
AcDbLine
 62
7
  6
CONTINUOUS
 10
12.0199188883
 20
6.733391804
 11
12.0199188883
 21
6.808391804
  0
LINE
  5
2D8
100
AcDbEntity
  8
0
100
AcDbLine
 62
7
  6
CONTINUOUS
 10
12.0335430275
 20
6.808391804
 11
12.0335430275
 21
6.733391804
  0
LINE
  5
2D9
100
AcDbEntity
  8
0
100
AcDbLine
 62
9
  6
CONTINUOUS
 10
12.0376120228
 20
8.98495446
 11
12.0376120228
 21
8.5932316242
  0
LINE
  5
2DA
100
AcDbEntity
  8
0
100
AcDbLine
 62
7
  6
CONTINUOUS
 10
12.048802529
 20
6.733391804
 11
12.048802529
 21
6.808391804
  0
LINE
  5
2DB
100
AcDbEntity
  8
0
100
AcDbLine
 62
7
  6
CONTINUOUS
 10
12.0635384584
 20
6.733391804
 11
12.0635384584
 21
6.808391804
  0
LINE
  5
2DC
100
AcDbEntity
  8
0
100
AcDbLine
 62
7
  6
CONTINUOUS
 10
12.0771709021
 20
6.808391804
 11
12.0771709021
 21
6.733391804
  0
LINE
  5
2DD
100
AcDbEntity
  8
0
100
AcDbLine
 62
7
  6
CONTINUOUS
 10
12.0919068314
 20
6.733391804
 11
12.0919068314
 21
6.808391804
  0
LINE
  5
2DE
100
AcDbEntity
  8
0
100
AcDbLine
 62
7
  6
CONTINUOUS
 10
12.1071663329
 20
6.733391804
 11
12.1071663329
 21
6.808391804
  0
LINE
  5
2DF
100
AcDbEntity
  8
0
100
AcDbLine
 62
9
  6
CONTINUOUS
 10
12.119883658
 20
8.6633661625
 11
12.119883658
 21
8.9167239052
  0
LINE
  5
2E0
100
AcDbEntity
  8
0
100
AcDbLine
 62
7
  6
CONTINUOUS
 10
12.1207904721
 20
6.808391804
 11
12.1207904721
 21
6.733391804
  0
LINE
  5
2E1
100
AcDbEntity
  8
0
100
AcDbLine
 62
7
  6
CONTINUOUS
 10
12.1349848758
 20
6.733391804
 11
12.1349848758
 21
6.808391804
  0
LINE
  5
2E2
100
AcDbEntity
  8
0
100
AcDbLine
 62
7
  6
CONTINUOUS
 10
12.1507493581
 20
6.733391804
 11
12.1507493581
 21
6.808391804
  0
LINE
  5
2E3
100
AcDbEntity
  8
0
100
AcDbLine
 62
7
  6
CONTINUOUS
 10
12.1643485939
 20
6.808391804
 11
12.1643485939
 21
6.733391804
  0
LINE
  5
2E4
100
AcDbEntity
  8
0
100
AcDbLine
 62
7
  6
CONTINUOUS
 10
12.1779841782
 20
6.733391804
 11
12.1779841782
 21
6.808391804
  0
LINE
  5
2E5
100
AcDbEntity
  8
0
100
AcDbLine
 62
7
  6
CONTINUOUS
 10
12.1942344348
 20
6.733391804
 11
12.1942344348
 21
6.808391804
  0
LINE
  5
2E6
100
AcDbEntity
  8
0
100
AcDbLine
 62
7
  6
CONTINUOUS
 10
12.2077921986
 20
6.808391804
 11
12.2077921986
 21
6.733391804
  0
LINE
  5
2E7
100
AcDbEntity
  8
0
100
AcDbLine
 62
7
  6
CONTINUOUS
 10
12.2208523507
 20
6.733391804
 11
12.2208523507
 21
6.808391804
  0
LINE
  5
2E8
100
AcDbEntity
  8
0
100
AcDbLine
 62
7
  6
CONTINUOUS
 10
12.2375685831
 20
6.733391804
 11
12.2375685831
 21
6.808391804
  0
LINE
  5
2E9
100
AcDbEntity
  8
0
100
AcDbLine
 62
7
  6
CONTINUOUS
 10
12.2510683568
 20
6.808391804
 11
12.2510683568
 21
6.733391804
  0
LINE
  5
2EA
100
AcDbEntity
  8
0
100
AcDbLine
 62
7
  6
CONTINUOUS
 10
12.2635371649
 20
6.733391804
 11
12.2635371649
 21
6.808391804
  0
LINE
  5
2EB
100
AcDbEntity
  8
0
100
AcDbLine
 62
7
  6
CONTINUOUS
 10
12.2703546802
 20
8.208391804
 11
12.2703546802
 21
8.238391804
  0
LINE
  5
2EC
100
AcDbEntity
  8
0
100
AcDbLine
 62
7
  6
CONTINUOUS
 10
12.280699007
 20
6.733391804
 11
12.280699007
 21
6.808391804
  0
LINE
  5
2ED
100
AcDbEntity
  8
0
100
AcDbLine
 62
7
  6
CONTINUOUS
 10
12.2941243433
 20
6.808391804
 11
12.2941243433
 21
6.733391804
  0
LINE
  5
2EE
100
AcDbEntity
  8
0
100
AcDbLine
 62
7
  6
CONTINUOUS
 10
12.3059866161
 20
6.733391804
 11
12.3059866161
 21
6.808391804
  0
LINE
  5
2EF
100
AcDbEntity
  8
0
100
AcDbLine
 62
7
  6
CONTINUOUS
 10
12.3235731588
 20
6.733391804
 11
12.3235731588
 21
6.808391804
  0
LINE
  5
2F0
100
AcDbEntity
  8
0
100
AcDbLine
 62
7
  6
CONTINUOUS
 10
12.3328546802
 20
9.151391804
 11
12.3328546802
 21
9.121391804
  0
LINE
  5
2F1
100
AcDbEntity
  8
0
100
AcDbLine
 62
7
  6
CONTINUOUS
 10
12.3369077009
 20
6.808391804
 11
12.3369077009
 21
6.733391804
  0
LINE
  5
2F2
100
AcDbEntity
  8
0
100
AcDbLine
 62
7
  6
CONTINUOUS
 10
12.348148986
 20
6.733391804
 11
12.348148986
 21
6.808391804
  0
LINE
  5
2F3
100
AcDbEntity
  8
0
100
AcDbLine
 62
7
  6
CONTINUOUS
 10
12.3661388028
 20
6.733391804
 11
12.3661388028
 21
6.808391804
  0
LINE
  5
2F4
100
AcDbEntity
  8
0
100
AcDbLine
 62
7
  6
CONTINUOUS
 10
12.3793663047
 20
6.808391804
 11
12.3793663047
 21
6.733391804
  0
LWPOLYLINE
  5
2F5
100
AcDbEntity
  8
0
100
AcDbPolyline
 62
7
  6
CONTINUOUS
 90
6
 70
0
 10
11.6703546868
 20
9.0027229635
 10
11.669840497
 20
8.9963299363
 10
11.6660665235
 20
8.9847045083
 10
11.6589505374
 20
8.9747537419
 10
11.6491614161
 20
8.9674198898
 10
11.6376229543
 20
8.9633888507
  0
LINE
  5
2F6
100
AcDbEntity
  8
0
100
AcDbLine
 62
9
  6
CONTINUOUS
 10
12.0703540768
 20
8.5898039127
 11
12.071653779
 21
8.604016011
  0
LINE
  5
2F7
100
AcDbEntity
  8
0
100
AcDbLine
 62
9
  6
CONTINUOUS
 10
21.8323546802
 20
10.4356525729
 11
20.3123546802
 21
10.4356525729
  0
LINE
  5
2F8
100
AcDbEntity
  8
0
100
AcDbLine
 62
9
  6
CONTINUOUS
 10
20.2838859015
 20
10.5055330736
 11
21.860823459
 21
10.5055330736
  0
LINE
  5
2F9
100
AcDbEntity
  8
0
100
AcDbLine
 62
7
  6
CONTINUOUS
 10
12.3828546802
 20
8.531391804
 11
12.3828546802
 21
8.238391804
  0
LINE
  5
2FA
100
AcDbEntity
  8
0
100
AcDbLine
 62
7
  6
CONTINUOUS
 10
12.3899729064
 20
6.733391804
 11
12.3899729064
 21
6.808391804
  0
LINE
  5
2FB
100
AcDbEntity
  8
0
100
AcDbLine
 62
7
  6
CONTINUOUS
 10
12.4083440794
 20
6.733391804
 11
12.4083440794
 21
6.808391804
  0
LINE
  5
2FC
100
AcDbEntity
  8
0
100
AcDbLine
 62
7
  6
CONTINUOUS
 10
12.4214484254
 20
6.808391804
 11
12.4214484254
 21
6.733391804
  0
LINE
  5
2FD
100
AcDbEntity
  8
0
100
AcDbLine
 62
7
  6
CONTINUOUS
 10
12.4314074212
 20
6.733391804
 11
12.4314074212
 21
6.808391804
  0
LINE
  5
2FE
100
AcDbEntity
  8
0
100
AcDbLine
 62
9
  6
CONTINUOUS
 10
12.4319734208
 20
8.593231595
 11
12.4319734208
 21
8.6139806514
  0
LINE
  5
2FF
100
AcDbEntity
  8
0
100
AcDbLine
 62
9
  6
CONTINUOUS
 10
12.4319734208
 20
8.9807142961
 11
12.4319734208
 21
8.9849549064
  0
LINE
  5
300
100
AcDbEntity
  8
0
100
AcDbLine
 62
7
  6
CONTINUOUS
 10
12.4501375681
 20
6.733391804
 11
12.4501375681
 21
6.808391804
  0
LINE
  5
301
100
AcDbEntity
  8
0
100
AcDbLine
 62
7
  6
CONTINUOUS
 10
12.4631027925
 20
6.808391804
 11
12.4631027925
 21
6.733391804
  0
LINE
  5
302
100
AcDbEntity
  8
0
100
AcDbLine
 62
7
  6
CONTINUOUS
 10
12.4703546802
 20
9.026391804
 11
12.4703546802
 21
8.9840865658
  0
LINE
  5
303
100
AcDbEntity
  8
0
100
AcDbLine
 62
7
  6
CONTINUOUS
 10
12.4703546802
 20
8.6130602902
 11
12.4703546802
 21
8.551391804
  0
LINE
  5
304
100
AcDbEntity
  8
0
100
AcDbLine
 62
7
  6
CONTINUOUS
 10
12.4703546802
 20
8.108391804
 11
12.4703546802
 21
8.208391804
  0
LINE
  5
305
100
AcDbEntity
  8
0
100
AcDbLine
 62
7
  6
CONTINUOUS
 10
12.4724020488
 20
6.733391804
 11
12.4724020488
 21
6.808391804
  0
LINE
  5
306
100
AcDbEntity
  8
0
100
AcDbLine
 62
7
  6
CONTINUOUS
 10
12.4914683497
 20
6.733391804
 11
12.4914683497
 21
6.808391804
  0
LINE
  5
307
100
AcDbEntity
  8
0
100
AcDbLine
 62
7
  6
CONTINUOUS
 10
12.5042786565
 20
6.808391804
 11
12.5042786565
 21
6.733391804
  0
LINE
  5
308
100
AcDbEntity
  8
0
100
AcDbLine
 62
7
  6
CONTINUOUS
 10
12.5129068436
 20
6.733391804
 11
12.5129068436
 21
6.808391804
  0
LINE
  5
309
100
AcDbEntity
  8
0
100
AcDbLine
 62
7
  6
CONTINUOUS
 10
12.5322860693
 20
6.733391804
 11
12.5322860693
 21
6.808391804
  0
LINE
  5
30A
100
AcDbEntity
  8
0
100
AcDbLine
 62
7
  6
CONTINUOUS
 10
12.544925851
 20
6.808391804
 11
12.544925851
 21
6.733391804
  0
LINE
  5
30B
100
AcDbEntity
  8
0
100
AcDbLine
 62
7
  6
CONTINUOUS
 10
12.5528724568
 20
6.733391804
 11
12.5528724568
 21
6.808391804
  0
LINE
  5
30C
100
AcDbEntity
  8
0
100
AcDbLine
 62
9
  6
CONTINUOUS
 10
12.5636633141
 20
8.9519749218
 11
12.5636632672
 21
8.6614960136
  0
LINE
  5
30D
100
AcDbEntity
  8
0
100
AcDbLine
 62
7
  6
CONTINUOUS
 10
12.5725409966
 20
6.733391804
 11
12.5725409966
 21
6.808391804
  0
LINE
  5
30E
100
AcDbEntity
  8
0
100
AcDbLine
 62
7
  6
CONTINUOUS
 10
12.5849948536
 20
6.808391804
 11
12.5849948536
 21
6.733391804
  0
LINE
  5
30F
100
AcDbEntity
  8
0
100
AcDbLine
 62
7
  6
CONTINUOUS
 10
12.5922501965
 20
6.733391804
 11
12.5922501965
 21
6.808391804
  0
LINE
  5
310
100
AcDbEntity
  8
0
100
AcDbLine
 62
7
  6
CONTINUOUS
 10
12.6121840872
 20
6.733391804
 11
12.6121840872
 21
6.808391804
  0
LINE
  5
311
100
AcDbEntity
  8
0
100
AcDbLine
 62
9
  6
CONTINUOUS
 10
12.6198455428
 20
8.9519965629
 11
12.6198455437
 21
8.6614744509
  0
LINE
  5
312
100
AcDbEntity
  8
0
100
AcDbLine
 62
7
  6
CONTINUOUS
 10
12.6244368464
 20
6.808391804
 11
12.6244368464
 21
6.733391804
  0
LINE
  5
313
100
AcDbEntity
  8
0
100
AcDbLine
 62
7
  6
CONTINUOUS
 10
12.6309920868
 20
6.733391804
 11
12.6309920868
 21
6.808391804
  0
LINE
  5
314
100
AcDbEntity
  8
0
100
AcDbLine
 62
7
  6
CONTINUOUS
 10
12.6511670421
 20
6.733391804
 11
12.6511670421
 21
6.808391804
  0
LINE
  5
315
100
AcDbEntity
  8
0
100
AcDbLine
 62
7
  6
CONTINUOUS
 10
12.6632037755
 20
6.808391804
 11
12.6632037755
 21
6.733391804
  0
LINE
  5
316
100
AcDbEntity
  8
0
100
AcDbLine
 62
7
  6
CONTINUOUS
 10
12.6690509268
 20
6.733391804
 11
12.6690509268
 21
6.808391804
  0
LINE
  5
317
100
AcDbEntity
  8
0
100
AcDbLine
 62
7
  6
CONTINUOUS
 10
12.6894423667
 20
6.733391804
 11
12.6894423667
 21
6.808391804
  0
LINE
  5
318
100
AcDbEntity
  8
0
100
AcDbLine
 62
7
  6
CONTINUOUS
 10
12.7012484093
 20
6.808391804
 11
12.7012484093
 21
6.733391804
  0
LINE
  5
319
100
AcDbEntity
  8
0
100
AcDbLine
 62
7
  6
CONTINUOUS
 10
12.7063803476
 20
6.733391804
 11
12.7063803476
 21
6.808391804
  0
LINE
  5
31A
100
AcDbEntity
  8
0
100
AcDbLine
 62
7
  6
CONTINUOUS
 10
12.7269634283
 20
6.733391804
 11
12.7269634283
 21
6.808391804
  0
LINE
  5
31B
100
AcDbEntity
  8
0
100
AcDbLine
 62
7
  6
CONTINUOUS
 10
12.7385243962
 20
6.808391804
 11
12.7385243962
 21
6.733391804
  0
LINE
  5
31C
100
AcDbEntity
  8
0
100
AcDbLine
 62
7
  6
CONTINUOUS
 10
12.7429348692
 20
6.733391804
 11
12.7429348692
 21
6.808391804
  0
LINE
  5
31D
100
AcDbEntity
  8
0
100
AcDbLine
 62
7
  6
CONTINUOUS
 10
12.7636845132
 20
6.733391804
 11
12.7636845132
 21
6.808391804
  0
LINE
  5
31E
100
AcDbEntity
  8
0
100
AcDbLine
 62
7
  6
CONTINUOUS
 10
12.7749863213
 20
6.808391804
 11
12.7749863213
 21
6.733391804
  0
LINE
  5
31F
100
AcDbEntity
  8
0
100
AcDbLine
 62
7
  6
CONTINUOUS
 10
12.7786699554
 20
6.733391804
 11
12.7786699554
 21
6.808391804
  0
LINE
  5
320
100
AcDbEntity
  8
0
100
AcDbLine
 62
7
  6
CONTINUOUS
 10
12.7995608826
 20
6.733391804
 11
12.7995608826
 21
6.808391804
  0
LINE
  5
321
100
AcDbEntity
  8
0
100
AcDbLine
 62
7
  6
CONTINUOUS
 10
12.8105897612
 20
6.808391804
 11
12.8105897612
 21
6.733391804
  0
LINE
  5
322
100
AcDbEntity
  8
0
100
AcDbLine
 62
7
  6
CONTINUOUS
 10
12.8135420685
 20
6.733391804
 11
12.8135420685
 21
6.808391804
  0
LINE
  5
323
100
AcDbEntity
  8
0
100
AcDbLine
 62
7
  6
CONTINUOUS
 10
12.8203546802
 20
8.058391804
 11
12.8203546802
 21
8.108391804
  0
LINE
  5
324
100
AcDbEntity
  8
0
100
AcDbLine
 62
7
  6
CONTINUOUS
 10
12.8345488265
 20
6.733391804
 11
12.8345488265
 21
6.808391804
  0
LINE
  5
325
100
AcDbEntity
  8
0
100
AcDbLine
 62
7
  6
CONTINUOUS
 10
12.8452913387
 20
6.808391804
 11
12.8452913387
 21
6.733391804
  0
LINE
  5
326
100
AcDbEntity
  8
0
100
AcDbLine
 62
7
  6
CONTINUOUS
 10
12.8475087223
 20
6.733391804
 11
12.8475087223
 21
6.808391804
  0
LINE
  5
327
100
AcDbEntity
  8
0
100
AcDbLine
 62
7
  6
CONTINUOUS
 10
12.8686057176
 20
6.733391804
 11
12.8686057176
 21
6.808391804
  0
LINE
  5
328
100
AcDbEntity
  8
0
100
AcDbLine
 62
7
  6
CONTINUOUS
 10
12.8790487753
 20
6.808391804
 11
12.8790487753
 21
6.733391804
  0
LINE
  5
329
100
AcDbEntity
  8
0
100
AcDbLine
 62
7
  6
CONTINUOUS
 10
12.8805285336
 20
6.733391804
 11
12.8805285336
 21
6.808391804
  0
LINE
  5
32A
100
AcDbEntity
  8
0
100
AcDbLine
 62
7
  6
CONTINUOUS
 10
12.9016900627
 20
6.733391804
 11
12.9016900627
 21
6.808391804
  0
LINE
  5
32B
100
AcDbEntity
  8
0
100
AcDbLine
 62
7
  6
CONTINUOUS
 10
12.9118209427
 20
6.808391804
 11
12.9118209427
 21
6.733391804
  0
LINE
  5
32C
100
AcDbEntity
  8
0
100
AcDbLine
 62
7
  6
CONTINUOUS
 10
12.9125612728
 20
6.733391804
 11
12.9125612728
 21
6.808391804
  0
LINE
  5
32D
100
AcDbEntity
  8
0
100
AcDbLine
 62
7
  6
CONTINUOUS
 10
12.9337615538
 20
6.733391804
 11
12.9337615538
 21
6.808391804
  0
LINE
  5
32E
100
AcDbEntity
  8
0
100
AcDbLine
 62
7
  6
CONTINUOUS
 10
12.9435679131
 20
6.808391804
 11
12.9435679131
 21
6.733391804
  0
LINE
  5
32F
100
AcDbEntity
  8
0
100
AcDbLine
 62
7
  6
CONTINUOUS
 10
12.9453546802
 20
7.008391804
 11
12.9453546802
 21
7.533391804
  0
LINE
  5
330
100
AcDbEntity
  8
0
100
AcDbLine
 62
7
  6
CONTINUOUS
 10
12.9647811165
 20
6.733391804
 11
12.9647811165
 21
6.808391804
  0
LINE
  5
331
100
AcDbEntity
  8
0
100
AcDbLine
 62
7
  6
CONTINUOUS
 10
12.9742510076
 20
6.808391804
 11
12.9742510076
 21
6.733391804
  0
LINE
  5
332
100
AcDbEntity
  8
0
100
AcDbLine
 62
7
  6
CONTINUOUS
 10
12.9947109584
 20
6.733391804
 11
12.9947109584
 21
6.808391804
  0
LINE
  5
333
100
AcDbEntity
  8
0
100
AcDbLine
 62
7
  6
CONTINUOUS
 10
13.0038328438
 20
6.808391804
 11
13.0038328438
 21
6.733391804
  0
LINE
  5
334
100
AcDbEntity
  8
0
100
AcDbLine
 62
7
  6
CONTINUOUS
 10
13.0203546802
 20
7.608391804
 11
13.0203546802
 21
7.708391804
  0
LINE
  5
335
100
AcDbEntity
  8
0
100
AcDbLine
 62
7
  6
CONTINUOUS
 10
13.0203546802
 20
7.908391804
 11
13.0203546802
 21
7.958391804
  0
LINE
  5
336
100
AcDbEntity
  8
0
100
AcDbLine
 62
9
  6
CONTINUOUS
 10
13.0208638175
 20
8.6614743154
 11
13.0208638169
 21
8.9519968576
  0
LINE
  5
337
100
AcDbEntity
  8
0
100
AcDbLine
 62
7
  6
CONTINUOUS
 10
13.0235146146
 20
6.733391804
 11
13.0235146146
 21
6.808391804
  0
LINE
  5
338
100
AcDbEntity
  8
0
100
AcDbLine
 62
7
  6
CONTINUOUS
 10
13.0322773805
 20
6.808391804
 11
13.0322773805
 21
6.733391804
  0
LINE
  5
339
100
AcDbEntity
  8
0
100
AcDbLine
 62
7
  6
CONTINUOUS
 10
13.0408638256
 20
8.6614753968
 11
13.0408638256
 21
8.951995732
  0
LINE
  5
33A
100
AcDbEntity
  8
0
100
AcDbLine
 62
7
  6
CONTINUOUS
 10
13.0511569923
 20
6.733391804
 11
13.0511569923
 21
6.808391804
  0
LINE
  5
33B
100
AcDbEntity
  8
0
100
AcDbLine
 62
7
  6
CONTINUOUS
 10
13.0595499627
 20
6.808391804
 11
13.0595499627
 21
6.733391804
  0
LINE
  5
33C
100
AcDbEntity
  8
0
100
AcDbLine
 62
7
  6
CONTINUOUS
 10
13.0776044133
 20
6.733391804
 11
13.0776044133
 21
6.808391804
  0
LINE
  5
33D
100
AcDbEntity
  8
0
100
AcDbLine
 62
7
  6
CONTINUOUS
 10
13.0856173627
 20
6.808391804
 11
13.0856173627
 21
6.733391804
  0
LINE
  5
33E
100
AcDbEntity
  8
0
100
AcDbLine
 62
7
  6
CONTINUOUS
 10
13.0953546802
 20
7.708391804
 11
13.0953546802
 21
7.908391804
  0
LINE
  5
33F
100
AcDbEntity
  8
0
100
AcDbLine
 62
7
  6
CONTINUOUS
 10
13.1028246558
 20
6.733391804
 11
13.1028246558
 21
6.808391804
  0
LINE
  5
340
100
AcDbEntity
  8
0
100
AcDbLine
 62
7
  6
CONTINUOUS
 10
13.1104478216
 20
6.808391804
 11
13.1104478216
 21
6.733391804
  0
LINE
  5
341
100
AcDbEntity
  8
0
100
AcDbLine
 62
7
  6
CONTINUOUS
 10
13.1267869926
 20
6.733391804
 11
13.1267869926
 21
6.808391804
  0
LINE
  5
342
100
AcDbEntity
  8
0
100
AcDbLine
 62
7
  6
CONTINUOUS
 10
13.1340110871
 20
6.808391804
 11
13.1340110871
 21
6.733391804
  0
LINE
  5
343
100
AcDbEntity
  8
0
100
AcDbLine
 62
7
  6
CONTINUOUS
 10
13.1494622294
 20
6.733391804
 11
13.1494622294
 21
6.808391804
  0
LINE
  5
344
100
AcDbEntity
  8
0
100
AcDbLine
 62
7
  6
CONTINUOUS
 10
13.1562784512
 20
6.808391804
 11
13.1562784512
 21
6.733391804
  0
LINE
  5
345
100
AcDbEntity
  8
0
100
AcDbLine
 62
7
  6
CONTINUOUS
 10
10.8703546802
 20
6.533391804
 11
10.8203546802
 21
6.483391804
  0
LINE
  5
346
100
AcDbEntity
  8
0
100
AcDbLine
 62
7
  6
CONTINUOUS
 10
20.0069770761
 20
10.801391804
 11
20.2050522669
 21
10.801391804
  0
LINE
  5
347
100
AcDbEntity
  8
0
100
AcDbLine
 62
7
  6
CONTINUOUS
 10
20.4329856367
 20
10.801391804
 11
20.9111814488
 21
10.801391804
  0
LINE
  5
348
100
AcDbEntity
  8
0
100
AcDbLine
 62
7
  6
CONTINUOUS
 10
21.2335279117
 20
10.801391804
 11
21.7117237237
 21
10.801391804
  0
LINE
  5
349
100
AcDbEntity
  8
0
100
AcDbLine
 62
7
  6
CONTINUOUS
 10
21.9396570936
 20
10.801391804
 11
22.1377322844
 21
10.801391804
  0
LINE
  5
34A
100
AcDbEntity
  8
0
100
AcDbLine
 62
9
  6
CONTINUOUS
 10
22.1377322844
 20
11.411391804
 11
21.9396570936
 21
11.411391804
  0
LINE
  5
34B
100
AcDbEntity
  8
0
100
AcDbLine
 62
9
  6
CONTINUOUS
 10
21.7117237237
 20
11.411391804
 11
21.2335279117
 21
11.411391804
  0
LINE
  5
34C
100
AcDbEntity
  8
0
100
AcDbLine
 62
9
  6
CONTINUOUS
 10
20.9111814488
 20
11.411391804
 11
20.4329856367
 21
11.411391804
  0
LINE
  5
34D
100
AcDbEntity
  8
0
100
AcDbLine
 62
9
  6
CONTINUOUS
 10
20.2050522669
 20
11.411391804
 11
20.0069770761
 21
11.411391804
  0
LINE
  5
34E
100
AcDbEntity
  8
0
100
AcDbLine
 62
7
  6
CONTINUOUS
 10
13.1708227398
 20
6.733391804
 11
13.1708227398
 21
6.808391804
  0
LINE
  5
34F
100
AcDbEntity
  8
0
100
AcDbLine
 62
7
  6
CONTINUOUS
 10
13.1772227845
 20
6.808391804
 11
13.1772227845
 21
6.733391804
  0
LINE
  5
350
100
AcDbEntity
  8
0
100
AcDbLine
 62
7
  6
CONTINUOUS
 10
13.1908424995
 20
6.733391804
 11
13.1908424995
 21
6.808391804
  0
LINE
  5
351
100
AcDbEntity
  8
0
100
AcDbLine
 62
7
  6
CONTINUOUS
 10
13.1968185695
 20
6.808391804
 11
13.1968185695
 21
6.733391804
  0
LINE
  5
352
100
AcDbEntity
  8
0
100
AcDbLine
 62
7
  6
CONTINUOUS
 10
13.2094971173
 20
6.733391804
 11
13.2094971173
 21
6.808391804
  0
LINE
  5
353
100
AcDbEntity
  8
0
100
AcDbLine
 62
7
  6
CONTINUOUS
 10
13.2150419317
 20
6.808391804
 11
13.2150419317
 21
6.733391804
  0
LINE
  5
354
100
AcDbEntity
  8
0
100
AcDbLine
 62
7
  6
CONTINUOUS
 10
13.2267638655
 20
6.733391804
 11
13.2267638655
 21
6.808391804
  0
LINE
  5
355
100
AcDbEntity
  8
0
100
AcDbLine
 62
7
  6
CONTINUOUS
 10
13.2318706688
 20
6.808391804
 11
13.2318706688
 21
6.733391804
  0
LINE
  5
356
100
AcDbEntity
  8
0
100
AcDbLine
 62
7
  6
CONTINUOUS
 10
13.2426217073
 20
6.733391804
 11
13.2426217073
 21
6.808391804
  0
LINE
  5
357
100
AcDbEntity
  8
0
100
AcDbLine
 62
7
  6
CONTINUOUS
 10
13.2472842777
 20
6.808391804
 11
13.2472842777
 21
6.733391804
  0
LINE
  5
358
100
AcDbEntity
  8
0
100
AcDbLine
 62
7
  6
CONTINUOUS
 10
13.2570513223
 20
6.733391804
 11
13.2570513223
 21
6.808391804
  0
LINE
  5
359
100
AcDbEntity
  8
0
100
AcDbLine
 62
7
  6
CONTINUOUS
 10
13.2612639791
 20
6.808391804
 11
13.2612639791
 21
6.733391804
  0
LINE
  5
35A
100
AcDbEntity
  8
0
100
AcDbLine
 62
7
  6
CONTINUOUS
 10
13.2700351302
 20
6.733391804
 11
13.2700351302
 21
6.808391804
  0
LINE
  5
35B
100
AcDbEntity
  8
0
100
AcDbLine
 62
7
  6
CONTINUOUS
 10
13.2703546802
 20
6.533391804
 11
13.2703546802
 21
6.733391804
  0
LINE
  5
35C
100
AcDbEntity
  8
0
100
AcDbLine
 62
7
  6
CONTINUOUS
 10
13.273792741
 20
6.808391804
 11
13.273792741
 21
6.733391804
  0
LINE
  5
35D
100
AcDbEntity
  8
0
100
AcDbLine
 62
7
  6
CONTINUOUS
 10
13.2815573123
 20
6.733391804
 11
13.2815573123
 21
6.808391804
  0
LINE
  5
35E
100
AcDbEntity
  8
0
100
AcDbLine
 62
7
  6
CONTINUOUS
 10
13.2848552989
 20
6.808391804
 11
13.2848552989
 21
6.733391804
  0
LINE
  5
35F
100
AcDbEntity
  8
0
100
AcDbLine
 62
7
  6
CONTINUOUS
 10
13.2916038306
 20
6.733391804
 11
13.2916038306
 21
6.808391804
  0
LINE
  5
360
100
AcDbEntity
  8
0
100
AcDbLine
 62
7
  6
CONTINUOUS
 10
13.294438175
 20
6.808391804
 11
13.294438175
 21
6.733391804
  0
LINE
  5
361
100
AcDbEntity
  8
0
100
AcDbLine
 62
7
  6
CONTINUOUS
 10
13.3001624448
 20
6.733391804
 11
13.3001624448
 21
6.808391804
  0
LINE
  5
362
100
AcDbEntity
  8
0
100
AcDbLine
 62
7
  6
CONTINUOUS
 10
13.3025296938
 20
6.808391804
 11
13.3025296938
 21
6.733391804
  0
LINE
  5
363
100
AcDbEntity
  8
0
100
AcDbLine
 62
7
  6
CONTINUOUS
 10
13.3072227278
 20
6.733391804
 11
13.3072227278
 21
6.808391804
  0
LINE
  5
364
100
AcDbEntity
  8
0
100
AcDbLine
 62
7
  6
CONTINUOUS
 10
13.3091199973
 20
6.808391804
 11
13.3091199973
 21
6.733391804
  0
LINE
  5
365
100
AcDbEntity
  8
0
100
AcDbLine
 62
7
  6
CONTINUOUS
 10
13.3127760776
 20
6.733391804
 11
13.3127760776
 21
6.808391804
  0
LINE
  5
366
100
AcDbEntity
  8
0
100
AcDbLine
 62
7
  6
CONTINUOUS
 10
13.3142010559
 20
6.808391804
 11
13.3142010559
 21
6.733391804
  0
LINE
  5
367
100
AcDbEntity
  8
0
100
AcDbLine
 62
7
  6
CONTINUOUS
 10
13.3168157282
 20
6.733391804
 11
13.3168157282
 21
6.808391804
  0
LINE
  5
368
100
AcDbEntity
  8
0
100
AcDbLine
 62
7
  6
CONTINUOUS
 10
13.3177666794
 20
6.808391804
 11
13.3177666794
 21
6.733391804
  0
LINE
  5
369
100
AcDbEntity
  8
0
100
AcDbLine
 62
7
  6
CONTINUOUS
 10
13.3193367581
 20
6.733391804
 11
13.3193367581
 21
6.808391804
  0
LINE
  5
36A
100
AcDbEntity
  8
0
100
AcDbLine
 62
7
  6
CONTINUOUS
 10
13.3198125235
 20
6.808391804
 11
13.3198125235
 21
6.733391804
  0
LINE
  5
36B
100
AcDbEntity
  8
0
100
AcDbLine
 62
7
  6
CONTINUOUS
 10
13.3203360957
 20
6.733391804
 11
13.3203360957
 21
6.808391804
  0
LINE
  5
36C
100
AcDbEntity
  8
0
100
AcDbLine
 62
7
  6
CONTINUOUS
 10
13.3203546802
 20
6.333391804
 11
13.3203546802
 21
6.483391804
  0
LINE
  5
36D
100
AcDbEntity
  8
0
100
AcDbLine
 62
7
  6
CONTINUOUS
 10
12.9453546802
 20
7.533391804
 11
13.0203546802
 21
7.608391804
  0
LINE
  5
36E
100
AcDbEntity
  8
0
100
AcDbLine
 62
7
  6
CONTINUOUS
 10
21.9998396386
 20
11.561391804
 11
20.1448697219
 21
11.561391804
  0
LINE
  5
36F
100
AcDbEntity
  8
0
100
AcDbLine
 62
9
  6
CONTINUOUS
 10
20.1632182472
 20
11.621391804
 11
21.9814911133
 21
11.621391804
  0
LINE
  5
370
100
AcDbEntity
  8
0
100
AcDbLine
 62
7
  6
CONTINUOUS
 10
21.860823459
 20
10.5055330736
 11
22.0623546802
 21
10.7118248749
  0
LINE
  5
371
100
AcDbEntity
  8
0
100
AcDbLine
 62
7
  6
CONTINUOUS
 10
20.2838859015
 20
10.5055330736
 11
20.0823546802
 21
10.7118248749
  0
LINE
  5
372
100
AcDbEntity
  8
0
100
AcDbLine
 62
7
  6
CONTINUOUS
 10
20.0069770761
 20
10.801391804
 11
20.0069770761
 21
11.411391804
  0
LINE
  5
373
100
AcDbEntity
  8
0
100
AcDbLine
 62
7
  6
CONTINUOUS
 10
20.0598546802
 20
6.5823592717
 11
20.0598546802
 21
6.333391804
  0
LINE
  5
374
100
AcDbEntity
  8
0
100
AcDbLine
 62
7
  6
CONTINUOUS
 10
20.4338265428
 20
10.7854668426
 11
20.4329856367
 21
10.801391804
  0
LINE
  5
375
100
AcDbEntity
  8
0
100
AcDbLine
 62
7
  6
CONTINUOUS
 10
20.2050522669
 20
10.801391804
 11
20.2050522669
 21
11.411391804
  0
LINE
  5
376
100
AcDbEntity
  8
0
100
AcDbLine
 62
7
  6
CONTINUOUS
 10
20.3123546802
 20
10.4356525729
 11
20.3123546802
 21
9.8762249518
  0
LINE
  5
377
100
AcDbEntity
  8
0
100
AcDbLine
 62
7
  6
CONTINUOUS
 10
20.4329856367
 20
10.801391804
 11
20.4329856367
 21
11.411391804
  0
LINE
  5
378
100
AcDbEntity
  8
0
100
AcDbLine
 62
7
  6
CONTINUOUS
 10
20.9111814488
 20
10.801391804
 11
20.9111814488
 21
11.411391804
  0
LINE
  5
379
100
AcDbEntity
  8
0
100
AcDbLine
 62
7
  6
CONTINUOUS
 10
20.4967657474
 20
9.801391804
 11
20.4154840768
 21
7.6367325769
  0
LINE
  5
37A
100
AcDbEntity
  8
0
100
AcDbLine
 62
7
  6
CONTINUOUS
 10
21.647943613
 20
9.801391804
 11
21.7292252836
 21
7.6367325769
  0
LINE
  5
37B
100
AcDbEntity
  8
0
100
AcDbLine
 62
7
  6
CONTINUOUS
 10
21.2335279117
 20
10.801391804
 11
21.2335279117
 21
11.411391804
  0
LINE
  5
37C
100
AcDbEntity
  8
0
100
AcDbLine
 62
7
  6
CONTINUOUS
 10
21.7117237237
 20
10.801391804
 11
21.7117237237
 21
11.411391804
  0
LINE
  5
37D
100
AcDbEntity
  8
0
100
AcDbLine
 62
7
  6
CONTINUOUS
 10
21.8323546802
 20
10.4356525729
 11
21.8323546802
 21
9.8762249518
  0
LINE
  5
37E
100
AcDbEntity
  8
0
100
AcDbLine
 62
7
  6
CONTINUOUS
 10
21.9396570936
 20
10.801391804
 11
21.9396570936
 21
11.411391804
  0
LINE
  5
37F
100
AcDbEntity
  8
0
100
AcDbLine
 62
7
  6
CONTINUOUS
 10
22.0848546802
 20
6.5823592717
 11
22.0848546802
 21
6.333391804
  0
LINE
  5
380
100
AcDbEntity
  8
0
100
AcDbLine
 62
7
  6
CONTINUOUS
 10
22.1377322844
 20
10.801391804
 11
22.1377322844
 21
11.411391804
  0
LINE
  5
381
100
AcDbEntity
  8
0
100
AcDbLine
 62
7
  6
CONTINUOUS
 10
21.7117237237
 20
10.801391804
 11
21.7108828177
 21
10.7854666179
  0
ARC
  5
382
100
AcDbEntity
  8
0
100
AcDbCircle
 62
9
  6
CONTINUOUS
 10
1.6879860555
 20
-270.6739813379
 40
279.8079944877
100
AcDbArc
 50
87.9598168169
 51
88.1723367553
  0
ARC
  5
383
100
AcDbEntity
  8
0
100
AcDbCircle
 62
9
  6
CONTINUOUS
 10
3.5341326891
 20
-214.6451902718
 40
223.709213624
100
AcDbArc
 50
87.9206860387
 51
88.1865042388
  0
ARC
  5
384
100
AcDbEntity
  8
0
100
AcDbCircle
 62
9
  6
CONTINUOUS
 10
11.581371875
 20
7.0005505501
 40
1.9572714923
100
AcDbArc
 50
87.8379972432
 51
88.0123263892
  0
ARC
  5
385
100
AcDbEntity
  8
0
100
AcDbCircle
 62
7
  6
CONTINUOUS
 10
0.1634550865
 20
6.1504967643
 40
0.9
100
AcDbArc
 50
130.6439171763
 51
168.2748731243
  0
ARC
  5
386
100
AcDbEntity
  8
0
100
AcDbCircle
 62
7
  6
CONTINUOUS
 10
-0.0189857261
 20
6.1504967643
 40
0.9
100
AcDbArc
 50
11.7251268757
 51
49.3560828237
  0
ARC
  5
387
100
AcDbEntity
  8
0
100
AcDbCircle
 62
7
  6
CONTINUOUS
 10
0.0097346802
 20
6.913391804
 40
0.4
100
AcDbArc
 50
155.7790568908
 51
180.0
  0
ARC
  5
388
100
AcDbEntity
  8
0
100
AcDbCircle
 62
7
  6
CONTINUOUS
 10
0.1347346802
 20
6.913391804
 40
0.4
100
AcDbArc
 50
0.0
 51
24.2209431092
  0
ARC
  5
389
100
AcDbEntity
  8
0
100
AcDbCircle
 62
7
  6
CONTINUOUS
 10
2.5907774679
 20
6.271391804
 40
0.187
100
AcDbArc
 50
90.0
 51
160.6370700781
  0
ARC
  5
38A
100
AcDbEntity
  8
0
100
AcDbCircle
 62
7
  6
CONTINUOUS
 10
3.5499318926
 20
6.271391804
 40
0.187
100
AcDbArc
 50
19.3629299219
 51
90.0
  0
ARC
  5
38B
100
AcDbEntity
  8
0
100
AcDbCircle
 62
7
  6
CONTINUOUS
 10
3.3626818926
 20
6.396391804
 40
0.187
100
AcDbArc
 50
19.3629299219
 51
90.0
  0
ARC
  5
38C
100
AcDbEntity
  8
0
100
AcDbCircle
 62
7
  6
CONTINUOUS
 10
2.7780274679
 20
6.396391804
 40
0.187
100
AcDbArc
 50
90.0
 51
160.6370700781
  0
ARC
  5
38D
100
AcDbEntity
  8
0
100
AcDbCircle
 62
7
  6
CONTINUOUS
 10
10.8953546802
 20
6.908391804
 40
0.1
100
AcDbArc
 50
274.1983587504
 51
360.0
  0
ARC
  5
38E
100
AcDbEntity
  8
0
100
AcDbCircle
 62
7
  6
CONTINUOUS
 10
11.0453546802
 20
7.008391804
 40
0.1
100
AcDbArc
 50
270.0
 51
360.0
  0
ARC
  5
38F
100
AcDbEntity
  8
0
100
AcDbCircle
 62
7
  6
CONTINUOUS
 10
2.6828546802
 20
7.283391804
 40
0.075
100
AcDbArc
 50
270.0
 51
360.0
  0
ARC
  5
390
100
AcDbEntity
  8
0
100
AcDbCircle
 62
7
  6
CONTINUOUS
 10
3.4578546802
 20
7.283391804
 40
0.075
100
AcDbArc
 50
180.0
 51
270.0
  0
ARC
  5
391
100
AcDbEntity
  8
0
100
AcDbCircle
 62
7
  6
CONTINUOUS
 10
-0.3459337046
 20
7.073391804
 40
0.01
100
AcDbArc
 50
90.0
 51
155.7790568908
  0
ARC
  5
392
100
AcDbEntity
  8
0
100
AcDbCircle
 62
7
  6
CONTINUOUS
 10
0.4904030651
 20
7.073391804
 40
0.01
100
AcDbArc
 50
24.2209431092
 51
90.0
  0
ARC
  5
393
100
AcDbEntity
  8
0
100
AcDbCircle
 62
9
  6
CONTINUOUS
 10
10.6891470694
 20
286.3496666644
 40
277.7279075356
100
AcDbArc
 50
269.9838199597
 51
270.1978088179
  0
ARC
  5
394
100
AcDbEntity
  8
0
100
AcDbCircle
 62
9
  6
CONTINUOUS
 10
10.7318825132
 20
230.7484291313
 40
222.0869647022
100
AcDbArc
 50
269.9695042616
 51
270.2371100719
  0
ARC
  5
395
100
AcDbEntity
  8
0
100
AcDbCircle
 62
9
  6
CONTINUOUS
 10
11.6430031998
 20
10.5802932756
 40
1.9568853723
100
AcDbArc
 50
270.1456327208
 51
270.3941180036
  0
ARC
  5
396
100
AcDbEntity
  8
0
100
AcDbCircle
 62
9
  6
CONTINUOUS
 10
11.6470043302
 20
9.6880274162
 40
1.0247222948
100
AcDbArc
 50
270.2208293797
 51
270.5599348987
  0
ARC
  5
397
100
AcDbEntity
  8
0
100
AcDbCircle
 62
9
  6
CONTINUOUS
 10
11.6011466877
 20
7.8976944667
 40
1.0202992677
100
AcDbArc
 50
86.9628101839
 51
87.2019266127
  0
ARC
  5
398
100
AcDbEntity
  8
0
100
AcDbCircle
 62
7
  6
CONTINUOUS
 10
11.1203546802
 20
8.058391804
 40
0.1
100
AcDbArc
 50
270.0
 51
360.0
  0
ARC
  5
399
100
AcDbEntity
  8
0
100
AcDbCircle
 62
7
  6
CONTINUOUS
 10
11.6828546802
 20
9.101391804
 40
0.075
100
AcDbArc
 50
270.0
 51
360.0
  0
ARC
  5
39A
100
AcDbEntity
  8
0
100
AcDbCircle
 62
7
  6
CONTINUOUS
 10
10.6103550663
 20
8.6474501546
 40
0.0400000166
100
AcDbArc
 50
180.0
 51
270.0789742843
  0
ARC
  5
39B
100
AcDbEntity
  8
0
100
AcDbCircle
 62
7
  6
CONTINUOUS
 10
10.6103550437
 20
8.9660307047
 40
0.0400000152
100
AcDbArc
 50
88.0752592836
 51
180.0
  0
ARC
  5
39C
100
AcDbEntity
  8
0
100
AcDbCircle
 62
9
  6
CONTINUOUS
 10
10.6100009248
 20
8.9519620337
 40
0.039646596
100
AcDbArc
 50
161.4168050181
 51
179.9514432879
  0
ARC
  5
39D
100
AcDbEntity
  8
0
100
AcDbCircle
 62
9
  6
CONTINUOUS
 10
10.6099844006
 20
8.661505476
 40
0.0396297317
100
AcDbArc
 50
180.0432638129
 51
198.0171669426
  0
ARC
  5
39E
100
AcDbEntity
  8
0
100
AcDbCircle
 62
7
  6
CONTINUOUS
 10
11.7378546802
 20
8.531391804
 40
0.02
100
AcDbArc
 50
0.0
 51
90.0
  0
ARC
  5
39F
100
AcDbEntity
  8
0
100
AcDbCircle
 62
7
  6
CONTINUOUS
 10
11.7878546802
 20
9.121391804
 40
0.02
100
AcDbArc
 50
270.0
 51
360.0
  0
ARC
  5
3A0
100
AcDbEntity
  8
0
100
AcDbCircle
 62
9
  6
CONTINUOUS
 10
15.6078285537
 20
-32.1821709558
 40
41.2466352653
100
AcDbArc
 50
94.2325041253
 51
94.850904058
  0
ARC
  5
3A1
100
AcDbEntity
  8
0
100
AcDbCircle
 62
7
  6
CONTINUOUS
 10
21.0723546802
 20
5.2959760049
 40
6.3904157991
100
AcDbArc
 50
81.821031102
 51
98.178968898
  0
ARC
  5
3A2
100
AcDbEntity
  8
0
100
AcDbCircle
 62
9
  6
CONTINUOUS
 10
12.4613953172
 20
5.6877985865
 40
3.3242791754
100
AcDbArc
 50
96.7554272944
 51
97.3240668499
  0
ARC
  5
3A3
100
AcDbEntity
  8
0
100
AcDbCircle
 62
9
  6
CONTINUOUS
 10
13.8345368599
 20
6.9691014435
 40
2.4221363225
100
AcDbArc
 50
137.0893237921
 51
137.8914941673
  0
ARC
  5
3A4
100
AcDbEntity
  8
0
100
AcDbCircle
 62
7
  6
CONTINUOUS
 10
12.8003661964
 20
7.5269001463
 40
1.4791289095
100
AcDbArc
 50
81.9918539976
 51
94.0739912836
  0
ARC
  5
3A5
100
AcDbEntity
  8
0
100
AcDbCircle
 62
9
  6
CONTINUOUS
 10
12.8203557274
 20
7.5264708301
 40
1.4395569434
100
AcDbArc
 50
81.9935569919
 51
98.0065272173
  0
ARC
  5
3A6
100
AcDbEntity
  8
0
100
AcDbCircle
 62
7
  6
CONTINUOUS
 10
20.7483346722
 20
6.7038598012
 40
1.3
100
AcDbArc
 50
357.7751307226
 51
37.4382101818
  0
ARC
  5
3A7
100
AcDbEntity
  8
0
100
AcDbCircle
 62
7
  6
CONTINUOUS
 10
21.3963746883
 20
6.7038598012
 40
1.3
100
AcDbArc
 50
142.5617898181
 51
182.2248692774
  0
ARC
  5
3A8
100
AcDbEntity
  8
0
100
AcDbCircle
 62
7
  6
CONTINUOUS
 10
20.1656601354
 20
7.6461133178
 40
0.25
100
AcDbArc
 50
322.5617898181
 51
357.849587733
  0
ARC
  5
3A9
100
AcDbEntity
  8
0
100
AcDbCircle
 62
7
  6
CONTINUOUS
 10
21.979049225
 20
7.6461133178
 40
0.25
100
AcDbArc
 50
182.150412267
 51
217.4382101818
  0
ARC
  5
3AA
100
AcDbEntity
  8
0
100
AcDbCircle
 62
7
  6
CONTINUOUS
 10
13.2453546802
 20
6.908391804
 40
0.1
100
AcDbArc
 50
180.0
 51
265.8016412497
  0
ARC
  5
3AB
100
AcDbEntity
  8
0
100
AcDbCircle
 62
7
  6
CONTINUOUS
 10
13.0953546802
 20
7.008391804
 40
0.1
100
AcDbArc
 50
180.0
 51
270.0
  0
ARC
  5
3AC
100
AcDbEntity
  8
0
100
AcDbCircle
 62
7
  6
CONTINUOUS
 10
20.1458796223
 20
6.5823592717
 40
0.0860249421
100
AcDbArc
 50
124.3384233779
 51
180.0
  0
ARC
  5
3AD
100
AcDbEntity
  8
0
100
AcDbCircle
 62
7
  6
CONTINUOUS
 10
21.9988297382
 20
6.5823592717
 40
0.0860249421
100
AcDbArc
 50
0.0
 51
55.6615766221
  0
ARC
  5
3AE
100
AcDbEntity
  8
0
100
AcDbCircle
 62
9
  6
CONTINUOUS
 10
12.5131728907
 20
49.3348988609
 40
40.6734341857
100
AcDbArc
 50
269.4459734033
 51
270.0711247103
  0
ARC
  5
3AF
100
AcDbEntity
  8
0
100
AcDbCircle
 62
9
  6
CONTINUOUS
 10
12.5418380284
 20
47.4836145574
 40
38.8618798865
100
AcDbArc
 50
269.5830604426
 51
270.079083156
  0
ARC
  5
3B0
100
AcDbEntity
  8
0
100
AcDbCircle
 62
9
  6
CONTINUOUS
 10
12.5354779963
 20
13.2001843769
 40
4.6337770836
100
AcDbArc
 50
263.832074784
 51
264.239144097
  0
ARC
  5
3B1
100
AcDbEntity
  8
0
100
AcDbCircle
 62
7
  6
CONTINUOUS
 10
24.2588923643
 20
8.9397634869
 40
2.8222296284
100
AcDbArc
 50
138.7283127386
 51
141.0996710738
  0
ARC
  5
3B2
100
AcDbEntity
  8
0
100
AcDbCircle
 62
7
  6
CONTINUOUS
 10
17.9263396856
 20
8.9738698516
 40
2.7692757965
100
AcDbArc
 50
38.8776457304
 51
41.2943630194
  0
ARC
  5
3B3
100
AcDbEntity
  8
0
100
AcDbCircle
 62
7
  6
CONTINUOUS
 10
12.8002565094
 20
10.0891590567
 40
1.4817088143
100
AcDbArc
 50
269.8459757038
 51
277.9982548786
  0
ARC
  5
3B4
100
AcDbEntity
  8
0
100
AcDbCircle
 62
9
  6
CONTINUOUS
 10
12.8005229122
 20
10.0825427546
 40
1.4750933372
100
AcDbArc
 50
262.0096496044
 51
269.8349368535
  0
ARC
  5
3B5
100
AcDbEntity
  8
0
100
AcDbCircle
 62
9
  6
CONTINUOUS
 10
12.8203551625
 20
10.0880048624
 40
1.4405517665
100
AcDbArc
 50
261.9990608675
 51
278.0009004191
  0
ARC
  5
3B6
100
AcDbEntity
  8
0
100
AcDbCircle
 62
9
  6
CONTINUOUS
 10
12.1564948691
 20
9.1008959093
 40
0.4774914223
100
AcDbArc
 50
269.1734913217
 51
269.6341677785
  0
ARC
  5
3B7
100
AcDbEntity
  8
0
100
AcDbCircle
 62
9
  6
CONTINUOUS
 10
12.5704274043
 20
8.7877835681
 40
0.2409280257
100
AcDbArc
 50
125.0766787959
 51
127.0203899822
  0
ARC
  5
3B8
100
AcDbEntity
  8
0
100
AcDbCircle
 62
9
  6
CONTINUOUS
 10
12.1220391996
 20
8.8988713068
 40
0.2355684312
100
AcDbArc
 50
268.8055903658
 51
269.4756990276
  0
ARC
  5
3B9
100
AcDbEntity
  8
0
100
AcDbCircle
 62
9
  6
CONTINUOUS
 10
12.5748064207
 20
8.9273644578
 40
0.1540062428
100
AcDbArc
 50
158.040653009
 51
159.7884215266
  0
ARC
  5
3BA
100
AcDbEntity
  8
0
100
AcDbCircle
 62
7
  6
CONTINUOUS
 10
21.6823546802
 20
9.8762249518
 40
0.15
100
AcDbArc
 50
330.0735651336
 51
360.0
  0
ARC
  5
3BB
100
AcDbEntity
  8
0
100
AcDbCircle
 62
7
  6
CONTINUOUS
 10
20.4623546802
 20
9.8762249518
 40
0.15
100
AcDbArc
 50
180.0
 51
209.9264348664
  0
ARC
  5
3BC
100
AcDbEntity
  8
0
100
AcDbCircle
 62
7
  6
CONTINUOUS
 10
20.1448546802
 20
11.411391804
 40
0.15
100
AcDbArc
 50
90.0
 51
114.6243183522
  0
ARC
  5
3BD
100
AcDbEntity
  8
0
100
AcDbCircle
 62
7
  6
CONTINUOUS
 10
21.9998546802
 20
11.411391804
 40
0.15
100
AcDbArc
 50
65.3756816478
 51
90.0
  0
ARC
  5
3BE
100
AcDbEntity
  8
0
100
AcDbCircle
 62
7
  6
CONTINUOUS
 10
13.0203546802
 20
8.058391804
 40
0.1
100
AcDbArc
 50
180.0
 51
270.0
  0
ARC
  5
3BF
100
AcDbEntity
  8
0
100
AcDbCircle
 62
7
  6
CONTINUOUS
 10
21.9323546802
 20
10.4356525729
 40
0.1
100
AcDbArc
 50
135.6687919533
 51
180.0
  0
ARC
  5
3C0
100
AcDbEntity
  8
0
100
AcDbCircle
 62
7
  6
CONTINUOUS
 10
20.2123546802
 20
10.4356525729
 40
0.1
100
AcDbArc
 50
0.0
 51
44.3312080467
  0
ARC
  5
3C1
100
AcDbEntity
  8
0
100
AcDbCircle
 62
7
  6
CONTINUOUS
 10
12.4578546802
 20
9.101391804
 40
0.075
100
AcDbArc
 50
180.0
 51
270.0
  0
ARC
  5
3C2
100
AcDbEntity
  8
0
100
AcDbCircle
 62
7
  6
CONTINUOUS
 10
13.0008539904
 20
8.6615509098
 40
0.0400743803
100
AcDbArc
 50
277.9499487102
 51
290.6232132562
  0
ARC
  5
3C3
100
AcDbEntity
  8
0
100
AcDbCircle
 62
7
  6
CONTINUOUS
 10
13.0008641767
 20
8.951996049
 40
0.0399991603
100
AcDbArc
 50
359.9995719246
 51
82.0019047616
  0
ARC
  5
3C4
100
AcDbEntity
  8
0
100
AcDbCircle
 62
7
  6
CONTINUOUS
 10
13.0008657375
 20
8.6614744419
 40
0.0399977992
100
AcDbArc
 50
277.9484326317
 51
0.0013678845
  0
ARC
  5
3C5
100
AcDbEntity
  8
0
100
AcDbCircle
 62
7
  6
CONTINUOUS
 10
13.0009332054
 20
8.6614461043
 40
0.0399248216
100
AcDbArc
 50
330.0419831679
 51
339.8835734029
  0
ARC
  5
3C6
100
AcDbEntity
  8
0
100
AcDbCircle
 62
7
  6
CONTINUOUS
 10
13.0009053072
 20
8.661408329
 40
0.0399215256
100
AcDbArc
 50
290.6262846613
 51
298.6172747795
  0
ARC
  5
3C7
100
AcDbEntity
  8
0
100
AcDbCircle
 62
7
  6
CONTINUOUS
 10
13.0009602148
 20
8.9520797742
 40
0.0398719977
100
AcDbArc
 50
37.8298962964
 51
44.2786937185
  0
ARC
  5
3C8
100
AcDbEntity
  8
0
100
AcDbCircle
 62
7
  6
CONTINUOUS
 10
20.1675080324
 20
11.5915451562
 40
0.0301533521
100
AcDbArc
 50
98.1789688981
 51
270.0
  0
ARC
  5
3C9
100
AcDbEntity
  8
0
100
AcDbCircle
 62
7
  6
CONTINUOUS
 10
21.9772013281
 20
11.5915451562
 40
0.0301533521
100
AcDbArc
 50
270.0
 51
81.8210311019
  0
ARC
  5
3CA
100
AcDbEntity
  8
0
100
AcDbCircle
 62
7
  6
CONTINUOUS
 10
12.4028546802
 20
8.531391804
 40
0.02
100
AcDbArc
 50
90.0
 51
180.0
  0
ARC
  5
3CB
100
AcDbEntity
  8
0
100
AcDbCircle
 62
7
  6
CONTINUOUS
 10
12.3528546802
 20
9.121391804
 40
0.02
100
AcDbArc
 50
180.0
 51
270.0
  0
LINE
  5
3CC
100
AcDbEntity
  8
0
100
AcDbLine
 62
7
  6
CONTINUOUS
 10
12.1528088498
 20
8.9566444923
 11
12.1501641488
 21
8.9564288018
  0
SPLINE
  5
3CD
100
AcDbEntity
  8
0
100
AcDbSpline
 62
9
  6
CONTINUOUS
 70
0
 71
3
 72
20
 73
16
 74
0
 42
0.0000001
 43
0.0000001
 44
0.0000000001
 40
0.0
 40
0.0
 40
0.0
 40
0.0
 40
0.1741045921
 40
0.3516091745
 40
0.5232333292
 40
0.6785291205
 40
0.7468350844
 40
0.8078079621
 40
0.8608779746
 40
0.9054856865
 40
0.9412557268
 40
0.9684992322
 40
0.987778212
 40
0.994688955
 40
1.0
 40
1.0
 40
1.0
 40
1.0
 10
11.6509536525
 20
8.6633661748
 30
0.0
 10
11.6509602584
 20
8.661030518
 30
0.0
 10
11.650939021
 20
8.6563134364
 30
0.0
 10
11.6508024174
 20
8.649295102
 30
0.0
 10
11.6505484666
 20
8.6425325119
 30
0.0
 10
11.6502405697
 20
8.6372387188
 30
0.0
 10
11.649929039
 20
8.6334336135
 30
0.0
 10
11.6496849222
 20
8.6309994144
 30
0.0
 10
11.6494255037
 20
8.6288866593
 30
0.0
 10
11.6491555959
 20
8.6271166961
 30
0.0
 10
11.6488781631
 20
8.6256987609
 30
0.0
 10
11.6485978837
 20
8.624630966
 30
0.0
 10
11.6483486458
 20
8.6239547282
 30
0.0
 10
11.6481370685
 20
8.6235880129
 30
0.0
 10
11.6480307541
 20
8.6234607574
 30
0.0
 10
11.6479767606
 20
8.6234142691
 30
0.0
  0
SPLINE
  5
3CE
100
AcDbEntity
  8
0
100
AcDbSpline
 62
9
  6
CONTINUOUS
 70
0
 71
3
 72
20
 73
16
 74
0
 42
0.0000001
 43
0.0000001
 44
0.0000000001
 40
0.0
 40
0.0
 40
0.0
 40
0.0
 40
0.1754962768
 40
0.3543232776
 40
0.5270730613
 40
0.6831650549
 40
0.7516955455
 40
0.8127556171
 40
0.8657574628
 40
0.9101140715
 40
0.9454044669
 40
0.9718680612
 40
0.9899164723
 40
0.9959220457
 40
1.0
 40
1.0
 40
1.0
 40
1.0
 10
11.6570184847
 20
8.6633540546
 30
0.0
 10
11.6570347693
 20
8.6610189473
 30
0.0
 10
11.6570583282
 20
8.6563043457
 30
0.0
 10
11.6570650695
 20
8.649291059
 30
0.0
 10
11.6570385854
 20
8.642536014
 30
0.0
 10
11.6569884507
 20
8.6372487443
 30
0.0
 10
11.6569280586
 20
8.6334479002
 30
0.0
 10
11.6568773662
 20
8.6310188355
 30
0.0
 10
11.6568206145
 20
8.628911645
 30
0.0
 10
11.656758859
 20
8.6271476994
 30
0.0
 10
11.6566933045
 20
8.6257371753
 30
0.0
 10
11.6566244291
 20
8.6246776731
 30
0.0
 10
11.656563074
 20
8.6240077803
 30
0.0
 10
11.6565076824
 20
8.6236376513
 30
0.0
 10
11.6564799354
 20
8.6235060065
 30
0.0
 10
11.6564638435
 20
8.623454186
 30
0.0
  0
SPLINE
  5
3CF
100
AcDbEntity
  8
0
100
AcDbSpline
 62
9
  6
CONTINUOUS
 70
0
 71
3
 72
15
 73
11
 74
0
 42
0.0000001
 43
0.0000001
 44
0.0000000001
 40
0.0
 40
0.0
 40
0.0
 40
0.0
 40
0.1334835458
 40
0.2005622351
 40
0.2672031818
 40
0.3976174558
 40
0.5245228459
 40
0.6481492088
 40
0.7686379954
 40
1.0
 40
1.0
 40
1.0
 40
1.0
 10
11.6564638529
 20
8.6234541791
 30
0.0
 10
11.6605182539
 20
8.6235625545
 30
0.0
 10
11.6666340594
 20
8.6231151318
 30
0.0
 10
11.6746265806
 20
8.6216821161
 30
0.0
 10
11.6824358297
 20
8.6198124104
 30
0.0
 10
11.6918356445
 20
8.6168495545
 30
0.0
 10
11.702606791
 20
8.6125964071
 30
0.0
 10
11.7129036133
 20
8.6080004619
 30
0.0
 10
11.7258895703
 20
8.6016652146
 30
0.0
 10
11.7353318597
 20
8.5966432796
 30
0.0
 10
11.7414779429
 20
8.5932308813
 30
0.0
  0
SPLINE
  5
3D0
100
AcDbEntity
  8
0
100
AcDbSpline
 62
9
  6
CONTINUOUS
 70
0
 71
3
 72
17
 73
13
 74
0
 42
0.0000001
 43
0.0000001
 44
0.0000000001
 40
0.0
 40
0.0
 40
0.0
 40
0.0
 40
0.0676350893
 40
0.1350101303
 40
0.2018346508
 40
0.2679319852
 40
0.397613779
 40
0.5241466485
 40
0.647667105
 40
0.7682355935
 40
0.8857663165
 40
1.0
 40
1.0
 40
1.0
 40
1.0
 10
11.6570184824
 20
8.6633540557
 30
0.0
 10
11.6596071906
 20
8.6633792681
 30
0.0
 10
11.6647864952
 20
8.6630061449
 30
0.0
 10
11.6723501565
 20
8.6613264084
 30
0.0
 10
11.6795810792
 20
8.6587242149
 30
0.0
 10
11.6886276377
 20
8.6543078675
 30
0.0
 10
11.6989160635
 20
8.6473926663
 30
0.0
 10
11.7097840129
 20
8.6376943283
 30
0.0
 10
11.7193260377
 20
8.627167737
 30
0.0
 10
11.7277174827
 20
8.6161423671
 30
0.0
 10
11.7350920917
 20
8.6048395048
 30
0.0
 10
11.7394525111
 20
8.5971060223
 30
0.0
 10
11.7414775195
 20
8.5932307487
 30
0.0
  0
SPLINE
  5
3D1
100
AcDbEntity
  8
0
100
AcDbSpline
 62
9
  6
CONTINUOUS
 70
0
 71
3
 72
17
 73
13
 74
0
 42
0.0000001
 43
0.0000001
 44
0.0000000001
 40
0.0
 40
0.0
 40
0.0
 40
0.0
 40
0.0676809787
 40
0.1351822189
 40
0.2021786652
 40
0.2684597992
 40
0.3984500987
 40
0.5251608162
 40
0.6487010816
 40
0.7691206664
 40
0.886319084
 40
1.0
 40
1.0
 40
1.0
 40
1.0
 10
11.6552063681
 20
8.9165605836
 30
0.0
 10
11.6578081306
 20
8.9164214846
 30
0.0
 10
11.6630363602
 20
8.916578172
 30
0.0
 10
11.6707158151
 20
8.9179846778
 30
0.0
 10
11.6780912843
 20
8.9203610818
 30
0.0
 10
11.6873420998
 20
8.924541952
 30
0.0
 10
11.6978843282
 20
8.9312543795
 30
0.0
 10
11.7090266298
 20
8.9407987334
 30
0.0
 10
11.7188069294
 20
8.9512208294
 30
0.0
 10
11.7274017029
 20
8.9621681076
 30
0.0
 10
11.7349469882
 20
8.9734038059
 30
0.0
 10
11.7394074328
 20
8.9810999424
 30
0.0
 10
11.7414775195
 20
8.9849556987
 30
0.0
  0
SPLINE
  5
3D2
100
AcDbEntity
  8
0
100
AcDbSpline
 62
9
  6
CONTINUOUS
 70
0
 71
3
 72
22
 73
18
 74
0
 42
0.0000001
 43
0.0000001
 44
0.0000000001
 40
0.0
 40
0.0
 40
0.0
 40
0.0
 40
0.0043256014
 40
0.0105027012
 40
0.0186297465
 40
0.0287778313
 40
0.0553741297
 40
0.0907369226
 40
0.1351189334
 40
0.1881090492
 40
0.249127149
 40
0.3175905333
 40
0.3927875382
 40
0.4734944798
 40
0.6460271932
 40
0.8246546311
 40
1.0
 40
1.0
 40
1.0
 40
1.0
 10
11.6552101623
 20
8.9564287677
 30
0.0
 10
11.6552369305
 20
8.9563778199
 30
0.0
 10
11.6552840939
 20
8.9562452841
 30
0.0
 10
11.655342814
 20
8.9560045354
 30
0.0
 10
11.6553997226
 20
8.9556839545
 30
0.0
 10
11.6554799837
 20
8.9550923156
 30
0.0
 10
11.6555660818
 20
8.9541363879
 30
0.0
 10
11.6556497301
 20
8.9527239418
 30
0.0
 10
11.6557164663
 20
8.9509590495
 30
0.0
 10
11.6557659316
 20
8.9488522175
 30
0.0
 10
11.6557961818
 20
8.9464245871
 30
0.0
 10
11.6558058263
 20
8.9437013384
 30
0.0
 10
11.6557936639
 20
8.9407161429
 30
0.0
 10
11.6557489592
 20
8.9363465187
 30
0.0
 10
11.6556444718
 20
8.9306013977
 30
0.0
 10
11.65545583
 20
8.9235987429
 30
0.0
 10
11.6552945736
 20
8.9188918678
 30
0.0
 10
11.6552063825
 20
8.9165605742
 30
0.0
  0
LINE
  5
3D3
100
AcDbEntity
  8
0
100
AcDbLine
 62
9
  6
CONTINUOUS
 10
11.6552101668
 20
8.9564287697
 11
11.6286256347
 21
8.9627603489
  0
SPLINE
  5
3D4
100
AcDbEntity
  8
0
100
AcDbSpline
 62
9
  6
CONTINUOUS
 70
0
 71
3
 72
15
 73
11
 74
0
 42
0.0000001
 43
0.0000001
 44
0.0000000001
 40
0.0
 40
0.0
 40
0.0
 40
0.0
 40
0.2301290069
 40
0.3503987184
 40
0.4740790766
 40
0.6012633656
 40
0.7321209142
 40
0.7990263648
 40
0.8663418658
 40
1.0
 40
1.0
 40
1.0
 40
1.0
 10
11.7414779673
 20
8.9849556657
 30
0.0
 10
11.7352475852
 20
8.9816693525
 30
0.0
 10
11.7256751936
 20
8.9768238453
 30
0.0
 10
11.7125060947
 20
8.9707251299
 30
0.0
 10
11.7020389396
 20
8.9663039115
 30
0.0
 10
11.6910818956
 20
8.9622304391
 30
0.0
 10
11.6815216727
 20
8.9594398381
 30
0.0
 10
11.6735850486
 20
8.957731659
 30
0.0
 10
11.6654804376
 20
8.9564813055
 30
0.0
 10
11.6592946048
 20
8.9561952065
 30
0.0
 10
11.6552101682
 20
8.9564288478
 30
0.0
  0
SPLINE
  5
3D5
100
AcDbEntity
  8
0
100
AcDbSpline
 62
9
  6
CONTINUOUS
 70
0
 71
3
 72
19
 73
15
 74
0
 42
0.0000001
 43
0.0000001
 44
0.0000000001
 40
0.0
 40
0.0
 40
0.0
 40
0.0
 40
0.0398771191
 40
0.0814274113
 40
0.1255078306
 40
0.1727871995
 40
0.2237409915
 40
0.278632895
 40
0.3375635858
 40
0.4004350065
 40
0.5368063504
 40
0.6849516606
 40
0.8410468331
 40
1.0
 40
1.0
 40
1.0
 40
1.0
 10
12.5948373869
 20
8.9916684546
 30
0.0
 10
12.595507049
 20
8.9917235176
 30
0.0
 10
12.5968896213
 20
8.9916928561
 30
0.0
 10
12.5989665151
 20
8.9912388036
 30
0.0
 10
12.6010483097
 20
8.9903857841
 30
0.0
 10
12.6031072516
 20
8.9891406462
 30
0.0
 10
12.6051245778
 20
8.987521915
 30
0.0
 10
12.6070843693
 20
8.9855480824
 30
0.0
 10
12.6089678599
 20
8.9832369014
 30
0.0
 10
12.6114214617
 20
8.9796395718
 30
0.0
 10
12.6141554814
 20
8.9744409559
 30
0.0
 10
12.6167880316
 20
8.9674828692
 30
0.0
 10
12.6187512826
 20
8.9599152028
 30
0.0
 10
12.6195679421
 20
8.9546594553
 30
0.0
 10
12.6198455428
 20
8.9519955491
 30
0.0
  0
SPLINE
  5
3D6
100
AcDbEntity
  8
0
100
AcDbSpline
 62
9
  6
CONTINUOUS
 70
0
 71
3
 72
15
 73
11
 74
0
 42
0.0000001
 43
0.0000001
 44
0.0000000001
 40
0.0
 40
0.0
 40
0.0
 40
0.0
 40
0.1308416934
 40
0.2608851829
 40
0.3891990431
 40
0.515321264
 40
0.6391716798
 40
0.7610258772
 40
0.8811882925
 40
1.0
 40
1.0
 40
1.0
 40
1.0
 10
12.563663261
 20
8.951995732
 30
0.0
 10
12.5636308433
 20
8.9543959368
 30
0.0
 10
12.5639566422
 20
8.9591963285
 30
0.0
 10
12.565612617
 20
8.9661749865
 30
0.0
 10
12.5683923399
 20
8.9726955805
 30
0.0
 10
12.5721836455
 20
8.9785506346
 30
0.0
 10
12.5768810011
 20
8.9835504258
 30
0.0
 10
12.5823460159
 20
8.9875185809
 30
0.0
 10
12.5883845198
 20
8.9903268453
 30
0.0
 10
12.5926781776
 20
8.9913701249
 30
0.0
 10
12.5948373869
 20
8.9916684546
 30
0.0
  0
SPLINE
  5
3D7
100
AcDbEntity
  8
0
100
AcDbSpline
 62
9
  6
CONTINUOUS
 70
0
 71
3
 72
15
 73
11
 74
0
 42
0.0000001
 43
0.0000001
 44
0.0000000001
 40
0.0
 40
0.0
 40
0.0
 40
0.0
 40
0.1185973884
 40
0.2387898522
 40
0.3608443761
 40
0.4849800862
 40
0.6113337695
 40
0.7397019574
 40
0.8695836961
 40
1.0
 40
1.0
 40
1.0
 40
1.0
 10
12.5954756097
 20
8.6217704761
 30
0.0
 10
12.5933050335
 20
8.6220634776
 30
0.0
 10
12.5889831138
 20
8.623099332
 30
0.0
 10
12.5828925717
 20
8.6258995621
 30
0.0
 10
12.5773588257
 20
8.629864084
 30
0.0
 10
12.572579417
 20
8.6348660883
 30
0.0
 10
12.5686949917
 20
8.6407273147
 30
0.0
 10
12.5658157907
 20
8.6472581076
 30
0.0
 10
12.5640578125
 20
8.6542504301
 30
0.0
 10
12.5636636889
 20
8.6590668296
 30
0.0
 10
12.5636632672
 20
8.6614753647
 30
0.0
  0
SPLINE
  5
3D8
100
AcDbEntity
  8
0
100
AcDbSpline
 62
9
  6
CONTINUOUS
 70
0
 71
3
 72
17
 73
13
 74
0
 42
0.0000001
 43
0.0000001
 44
0.0000000001
 40
0.0
 40
0.0
 40
0.0
 40
0.0
 40
0.0399448873
 40
0.0818230255
 40
0.1739680412
 40
0.2254470084
 40
0.280787057
 40
0.4030145645
 40
0.5393583806
 40
0.6869576692
 40
0.8421314385
 40
1.0
 40
1.0
 40
1.0
 40
1.0
 10
12.5954756148
 20
8.62177037
 30
0.0
 10
12.5961398799
 20
8.6217583518
 30
0.0
 10
12.5975061118
 20
8.6218725957
 30
0.0
 10
12.6003092292
 20
8.6226407194
 30
0.0
 10
12.6030294745
 20
8.624205749
 30
0.0
 10
12.6055545088
 20
8.6263485318
 30
0.0
 10
12.6081853387
 20
8.6291140033
 30
0.0
 10
12.6112213412
 20
8.6333934468
 30
0.0
 10
12.6143209698
 20
8.6394150418
 30
0.0
 10
12.6168730527
 20
8.6462749775
 30
0.0
 10
12.6187776796
 20
8.6537085452
 30
0.0
 10
12.6195735565
 20
8.6588638972
 30
0.0
 10
12.6198457222
 20
8.6614754649
 30
0.0
  0
SPLINE
  5
3D9
100
AcDbEntity
  8
0
100
AcDbSpline
 62
9
  6
CONTINUOUS
 70
0
 71
3
 72
20
 73
16
 74
0
 42
0.0000001
 43
0.0000001
 44
0.0000000001
 40
0.0
 40
0.0
 40
0.0
 40
0.0
 40
0.1552166335
 40
0.3075040065
 40
0.4536979584
 40
0.5235862496
 40
0.5908545103
 40
0.6551615612
 40
0.7162178454
 40
0.773746049
 40
0.8274699559
 40
0.8771337722
 40
0.9225539218
 40
0.9635641125
 40
1.0
 40
1.0
 40
1.0
 40
1.0
 10
12.0703553385
 20
8.5898103818
 30
0.0
 10
12.0890485232
 20
8.5879302345
 30
0.0
 10
12.1261106184
 20
8.5844773083
 30
0.0
 10
12.180888775
 20
8.5805189265
 30
0.0
 10
12.2254424308
 20
8.5785762262
 30
0.0
 10
12.2597354124
 20
8.5779621467
 30
0.0
 10
12.2841223424
 20
8.5779841359
 30
0.0
 10
12.3074347116
 20
8.5784990023
 30
0.0
 10
12.329552307
 20
8.5794763235
 30
0.0
 10
12.3503630532
 20
8.5808843472
 30
0.0
 10
12.3697587618
 20
8.5826912075
 30
0.0
 10
12.3876411368
 20
8.5848675859
 30
0.0
 10
12.4039283979
 20
8.587352549
 30
0.0
 10
12.4185499336
 20
8.5900845076
 30
0.0
 10
12.4276960357
 20
8.5921542875
 30
0.0
 10
12.4319727802
 20
8.5932310788
 30
0.0
  0
SPLINE
  5
3DA
100
AcDbEntity
  8
0
100
AcDbSpline
 62
9
  6
CONTINUOUS
 70
0
 71
3
 72
18
 73
14
 74
0
 42
0.0000001
 43
0.0000001
 44
0.0000000001
 40
0.0
 40
0.0
 40
0.0
 40
0.0
 40
0.0387697082
 40
0.0822178132
 40
0.1305047934
 40
0.1833027628
 40
0.2400531493
 40
0.30017782
 40
0.4284029834
 40
0.5645373586
 40
0.7061757075
 40
0.8517156842
 40
1.0
 40
1.0
 40
1.0
 40
1.0
 10
12.1171287922
 20
8.6633541727
 30
0.0
 10
12.1161781575
 20
8.66337346
 30
0.0
 10
12.1141550492
 20
8.6631508865
 30
0.0
 10
12.1110791802
 20
8.6622285903
 30
0.0
 10
12.1078362316
 20
8.6607792199
 30
0.0
 10
12.1044617208
 20
8.6588747772
 30
0.0
 10
12.1009851362
 20
8.6565834432
 30
0.0
 10
12.0961457265
 20
8.6530144272
 30
0.0
 10
12.0900365259
 20
8.6479045539
 30
0.0
 10
12.0827261239
 20
8.6411411182
 30
0.0
 10
12.0753456893
 20
8.6338376585
 30
0.0
 10
12.0679268611
 20
8.6261545806
 30
0.0
 10
12.0629998023
 20
8.6208958482
 30
0.0
 10
12.0605252868
 20
8.6182308431
 30
0.0
  0
LINE
  5
3DB
100
AcDbEntity
  8
0
100
AcDbLine
 62
9
  6
CONTINUOUS
 10
12.0716532213
 20
8.6040156691
 11
12.0376118824
 21
8.5932320936
  0
SPLINE
  5
3DC
100
AcDbEntity
  8
0
100
AcDbSpline
 62
9
  6
CONTINUOUS
 70
0
 71
3
 72
9
 73
5
 74
0
 42
0.0000001
 43
0.0000001
 44
0.0000000001
 40
0.0
 40
0.0
 40
0.0
 40
0.0
 40
0.4831442154
 40
1.0
 40
1.0
 40
1.0
 40
1.0
 10
12.0716532367
 20
8.604015865
 30
0.0
 10
12.0697276777
 20
8.6061952108
 30
0.0
 10
12.0658804549
 20
8.6108289395
 30
0.0
 10
12.0622902872
 20
8.6156650788
 30
0.0
 10
12.060514931
 20
8.6182198463
 30
0.0
  0
SPLINE
  5
3DD
100
AcDbEntity
  8
0
100
AcDbSpline
 62
9
  6
CONTINUOUS
 70
0
 71
3
 72
18
 73
14
 74
0
 42
0.0000001
 43
0.0000001
 44
0.0000000001
 40
0.0
 40
0.0
 40
0.0
 40
0.0
 40
0.0409732427
 40
0.0830408333
 40
0.1738230205
 40
0.2241200815
 40
0.2781399723
 40
0.3360572358
 40
0.3978441366
 40
0.5323499666
 40
0.6797909159
 40
0.8371568112
 40
1.0
 40
1.0
 40
1.0
 40
1.0
 10
13.0064339843
 20
8.9916041198
 30
0.0
 10
13.0070494306
 20
8.991517024
 30
0.0
 10
13.0082829421
 20
8.9912206798
 30
0.0
 10
13.0107017507
 20
8.9901389942
 30
0.0
 10
13.0128904857
 20
8.9883429697
 30
0.0
 10
13.0147764075
 20
8.9860583109
 30
0.0
 10
13.0161177942
 20
8.9839878845
 30
0.0
 10
13.0173222645
 20
8.9816397495
 30
0.0
 10
13.018779195
 20
8.9780646548
 30
0.0
 10
13.0201680196
 20
8.9730187769
 30
0.0
 10
13.0211313294
 20
8.9664105361
 30
0.0
 10
13.0214003195
 20
8.9593094832
 30
0.0
 10
13.0211200411
 20
8.9544515753
 30
0.0
 10
13.0208638444
 20
8.9519945074
 30
0.0
  0
SPLINE
  5
3DE
100
AcDbEntity
  8
0
100
AcDbSpline
 62
9
  6
CONTINUOUS
 70
0
 71
3
 72
16
 73
12
 74
0
 42
0.0000001
 43
0.0000001
 44
0.0000000001
 40
0.0
 40
0.0
 40
0.0
 40
0.0
 40
0.2870971552
 40
0.4258611268
 40
0.5598570733
 40
0.6875412093
 40
0.805889545
 40
0.8605194419
 40
0.9114202837
 40
0.9580582037
 40
1.0
 40
1.0
 40
1.0
 40
1.0
 10
12.071654036
 20
8.604015356
 30
0.0
 10
12.079007967
 20
8.606332824
 30
0.0
 10
12.0899198414
 20
8.6097601924
 30
0.0
 10
12.1043232253
 20
8.6140761871
 30
0.0
 10
12.1146661139
 20
8.6170249532
 30
0.0
 10
12.1245322751
 20
8.6196403958
 30
0.0
 10
12.1324057029
 20
8.6214470082
 30
0.0
 10
12.1383202461
 20
8.6225342984
 30
0.0
 10
12.1423668354
 20
8.6231162794
 30
0.0
 10
12.1460994691
 20
8.6234537952
 30
0.0
 10
12.1484818247
 20
8.6234959176
 30
0.0
 10
12.1496074708
 20
8.6234543641
 30
0.0
  0
SPLINE
  5
3DF
100
AcDbEntity
  8
0
100
AcDbSpline
 62
9
  6
CONTINUOUS
 70
0
 71
3
 72
9
 73
5
 74
0
 42
0.0000001
 43
0.0000001
 44
0.0000000001
 40
0.0
 40
0.0
 40
0.0
 40
0.0
 40
0.5100630548
 40
1.0
 40
1.0
 40
1.0
 40
1.0
 10
12.1496072106
 20
8.6234544146
 30
0.0
 10
12.1676557614
 20
8.6221930715
 30
0.0
 10
12.2030648132
 20
8.620047367
 30
0.0
 10
12.2385173158
 20
8.6187500075
 30
0.0
 10
12.2558919221
 20
8.6183740183
 30
0.0
  0
LINE
  5
3E0
100
AcDbEntity
  8
0
100
AcDbLine
 62
9
  6
CONTINUOUS
 10
12.0719034584
 20
8.9746030528
 11
12.0376122789
 21
8.9849544766
  0
LINE
  5
3E1
100
AcDbEntity
  8
0
100
AcDbLine
 62
9
  6
CONTINUOUS
 10
12.1534455321
 20
8.6234142665
 11
12.2561396936
 21
8.6227713764
  0
LINE
  5
3E2
100
AcDbEntity
  8
0
100
AcDbLine
 62
9
  6
CONTINUOUS
 10
12.2561396936
 20
8.6227713764
 11
12.2590437895
 21
8.6227531429
  0
SPLINE
  5
3E3
100
AcDbEntity
  8
0
100
AcDbSpline
 62
9
  6
CONTINUOUS
 70
0
 71
3
 72
14
 73
10
 74
0
 42
0.0000001
 43
0.0000001
 44
0.0000000001
 40
0.0
 40
0.0
 40
0.0
 40
0.0
 40
0.111592562
 40
0.2301506798
 40
0.3552213958
 40
0.4849605057
 40
0.6172541628
 40
0.7493259056
 40
1.0
 40
1.0
 40
1.0
 40
1.0
 10
12.1534450085
 20
8.6234142696
 30
0.0
 10
12.1513243072
 20
8.6235815276
 30
0.0
 10
12.1469746436
 20
8.6243615187
 30
0.0
 10
12.1406264779
 20
8.6268443364
 30
0.0
 10
12.1346292343
 20
8.6307666721
 30
0.0
 10
12.1293115041
 20
8.635951495
 30
0.0
 10
12.1250589687
 20
8.6422040848
 30
0.0
 10
12.121051189
 20
8.6512084768
 30
0.0
 10
12.1198724234
 20
8.6585875799
 30
0.0
 10
12.1198837524
 20
8.6633661619
 30
0.0
  0
SPLINE
  5
3E4
100
AcDbEntity
  8
0
100
AcDbSpline
 62
9
  6
CONTINUOUS
 70
0
 71
3
 72
14
 73
10
 74
0
 42
0.0000001
 43
0.0000001
 44
0.0000000001
 40
0.0
 40
0.0
 40
0.0
 40
0.0
 40
0.2512384674
 40
0.3832053124
 40
0.5152279468
 40
0.6446593157
 40
0.7695289719
 40
0.8881115064
 40
1.0
 40
1.0
 40
1.0
 40
1.0
 10
12.1198844824
 20
8.916723971
 30
0.0
 10
12.119808172
 20
8.9214818244
 30
0.0
 10
12.1208767172
 20
8.9288392801
 30
0.0
 10
12.1247518606
 20
8.9378373833
 30
0.0
 10
12.1289063776
 20
8.9440826349
 30
0.0
 10
12.1341391638
 20
8.9492660155
 30
0.0
 10
12.1400688417
 20
8.9531919815
 30
0.0
 10
12.1463695059
 20
8.955683536
 30
0.0
 10
12.1506950898
 20
8.9564716362
 30
0.0
 10
12.1528072119
 20
8.956644351
 30
0.0
  0
SPLINE
  5
3E5
100
AcDbEntity
  8
0
100
AcDbSpline
 62
9
  6
CONTINUOUS
 70
0
 71
3
 72
15
 73
11
 74
0
 42
0.0000001
 43
0.0000001
 44
0.0000000001
 40
0.0
 40
0.0
 40
0.0
 40
0.0
 40
0.124449989
 40
0.2542156549
 40
0.3868371223
 40
0.5190337709
 40
0.6480804326
 40
0.7720746787
 40
0.8894453779
 40
1.0
 40
1.0
 40
1.0
 40
1.0
 10
12.1179854676
 20
8.9165604817
 30
0.0
 10
12.1179443889
 20
8.9188960472
 30
0.0
 10
12.1182364086
 20
8.9236809414
 30
0.0
 10
12.1198287909
 20
8.9307997347
 30
0.0
 10
12.1227109788
 20
8.9376648582
 30
0.0
 10
12.1267659565
 20
8.9439011593
 30
0.0
 10
12.1318824316
 20
8.9490796247
 30
0.0
 10
12.1376853932
 20
8.9529981266
 30
0.0
 10
12.1438564438
 20
8.955480478
 30
0.0
 10
12.1480958297
 20
8.9562605717
 30
0.0
 10
12.1501641094
 20
8.9564288065
 30
0.0
  0
LINE
  5
3E6
100
AcDbEntity
  8
0
100
AcDbLine
 62
9
  6
CONTINUOUS
 10
11.6299123803
 20
8.6179873472
 11
11.6564638407
 21
8.6234541887
  0
SPLINE
  5
3E7
100
AcDbEntity
  8
0
100
AcDbSpline
 62
9
  6
CONTINUOUS
 70
0
 71
3
 72
9
 73
5
 74
0
 42
0.0000001
 43
0.0000001
 44
0.0000000001
 40
0.0
 40
0.0
 40
0.0
 40
0.0
 40
0.5010346481
 40
1.0
 40
1.0
 40
1.0
 40
1.0
 10
12.594839443
 20
8.9916687494
 30
0.0
 10
12.5209805174
 20
8.9862711104
 30
0.0
 10
12.373613911
 20
8.9748624919
 30
0.0
 10
12.2263140813
 20
8.9626411759
 30
0.0
 10
12.1528082487
 20
8.9566444355
 30
0.0
  0
SPLINE
  5
3E8
100
AcDbEntity
  8
0
100
AcDbSpline
 62
9
  6
CONTINUOUS
 70
0
 71
3
 72
15
 73
11
 74
0
 42
0.0000001
 43
0.0000001
 44
0.0000000001
 40
0.0
 40
0.0
 40
0.0
 40
0.0
 40
0.1096857441
 40
0.2265484401
 40
0.3504349254
 40
0.4797064557
 40
0.6123270833
 40
0.7453947248
 40
0.8754710621
 40
1.0
 40
1.0
 40
1.0
 40
1.0
 10
12.1496071114
 20
8.6234541512
 30
0.0
 10
12.1475512614
 20
8.6236195415
 30
0.0
 10
12.143329654
 20
8.6243971197
 30
0.0
 10
12.1371754749
 20
8.6268775644
 30
0.0
 10
12.131367515
 20
8.6307964939
 30
0.0
 10
12.1262222998
 20
8.63597738
 30
0.0
 10
12.1221144095
 20
8.6422179947
 30
0.0
 10
12.1191593431
 20
8.64908949
 30
0.0
 10
12.1174790674
 20
8.6562166744
 30
0.0
 10
12.1171209716
 20
8.6610125873
 30
0.0
 10
12.1171288256
 20
8.6633541723
 30
0.0
  0
LINE
  5
3E9
100
AcDbEntity
  8
0
100
AcDbLine
 62
9
  6
CONTINUOUS
 10
12.0376110254
 20
8.9849537228
 11
12.0608792787
 21
8.9602007861
  0
LINE
  5
3EA
100
AcDbEntity
  8
0
100
AcDbLine
 62
9
  6
CONTINUOUS
 10
12.117985448
 20
8.9165605762
 11
12.1198836283
 21
8.9167773081
  0
SPLINE
  5
3EB
100
AcDbEntity
  8
0
100
AcDbSpline
 62
9
  6
CONTINUOUS
 70
0
 71
3
 72
19
 73
15
 74
0
 42
0.0000001
 43
0.0000001
 44
0.0000000001
 40
0.0
 40
0.0
 40
0.0
 40
0.0
 40
0.037908427
 40
0.0802890417
 40
0.1275764603
 40
0.179579589
 40
0.235781096
 40
0.2955993133
 40
0.3584470766
 40
0.4238434592
 40
0.5605997078
 40
0.7032869281
 40
0.8501710834
 40
1.0
 40
1.0
 40
1.0
 40
1.0
 10
12.1179854429
 20
8.9165604798
 30
0.0
 10
12.1170656282
 20
8.9164556098
 30
0.0
 10
12.1150833696
 20
8.9165092198
 30
0.0
 10
12.1120373221
 20
8.9172240099
 30
0.0
 10
12.1088094074
 20
8.9184938143
 30
0.0
 10
12.1054348475
 20
8.9202453301
 30
0.0
 10
12.1019443516
 20
8.9224082065
 30
0.0
 10
12.0983679194
 20
8.9249193149
 30
0.0
 10
12.0947272251
 20
8.9277209264
 30
0.0
 10
12.0897376248
 20
8.9318438982
 30
0.0
 10
12.083469292
 20
8.9374726388
 30
0.0
 10
12.0759706612
 20
8.9446971286
 30
0.0
 10
12.0684203473
 20
8.9523231563
 30
0.0
 10
12.0634017785
 20
8.9575502743
 30
0.0
 10
12.0608796175
 20
8.960201147
 30
0.0
  0
SPLINE
  5
3EC
100
AcDbEntity
  8
0
100
AcDbSpline
 62
9
  6
CONTINUOUS
 70
0
 71
3
 72
9
 73
5
 74
0
 42
0.0000001
 43
0.0000001
 44
0.0000000001
 40
0.0
 40
0.0
 40
0.0
 40
0.0
 40
0.5169726575
 40
1.0
 40
1.0
 40
1.0
 40
1.0
 10
12.0608714497
 20
8.9602096041
 30
0.0
 10
12.0626231718
 20
8.9627991071
 30
0.0
 10
12.0661728746
 20
8.9677001549
 30
0.0
 10
12.0699895816
 20
8.9723957092
 30
0.0
 10
12.0719026501
 20
8.9746031518
 30
0.0
  0
SPLINE
  5
3ED
100
AcDbEntity
  8
0
100
AcDbSpline
 62
9
  6
CONTINUOUS
 70
0
 71
3
 72
20
 73
16
 74
0
 42
0.0000001
 43
0.0000001
 44
0.0000000001
 40
0.0
 40
0.0
 40
0.0
 40
0.0
 40
0.0366931743
 40
0.0778631406
 40
0.1233688802
 40
0.1730641417
 40
0.2267825884
 40
0.2842803418
 40
0.3452904625
 40
0.4095438234
 40
0.4767576051
 40
0.5465930729
 40
0.692684813
 40
0.8448736748
 40
1.0
 40
1.0
 40
1.0
 40
1.0
 10
12.4319728187
 20
8.9849554582
 30
0.0
 10
12.4277112465
 20
8.9862297995
 30
0.0
 10
12.4185885847
 20
8.9886705975
 30
0.0
 10
12.4039767205
 20
8.9918747854
 30
0.0
 10
12.3876973351
 20
8.9947720824
 30
0.0
 10
12.369819017
 20
8.997297908
 30
0.0
 10
12.3504221069
 20
8.9993883477
 30
0.0
 10
12.3296049981
 20
9.0010127526
 30
0.0
 10
12.3074763187
 20
9.0021375216
 30
0.0
 10
12.2841488915
 20
9.0027291367
 30
0.0
 10
12.2597443443
 20
9.0027555522
 30
0.0
 10
12.2254264991
 20
9.0020507636
 30
0.0
 10
12.1808475937
 20
8.9998137957
 30
0.0
 10
12.1260682435
 20
8.9952375816
 30
0.0
 10
12.0890299924
 20
8.9912082883
 30
0.0
 10
12.0703555223
 20
8.9889985606
 30
0.0
  0
SPLINE
  5
3EE
100
AcDbEntity
  8
0
100
AcDbSpline
 62
9
  6
CONTINUOUS
 70
0
 71
3
 72
31
 73
27
 74
0
 42
0.0000001
 43
0.0000001
 44
0.0000000001
 40
0.0
 40
0.0
 40
0.0
 40
0.0
 40
0.2266546543
 40
0.4267123175
 40
0.5163420302
 40
0.5988101913
 40
0.6739443629
 40
0.7415713926
 40
0.8015342474
 40
0.8537425197
 40
0.8981223756
 40
0.9173535336
 40
0.9345998257
 40
0.9498519773
 40
0.9631007041
 40
0.9743367118
 40
0.9835506966
 40
0.9873965207
 40
0.9907333457
 40
0.9935600061
 40
0.9958753356
 40
0.9976781675
 40
0.9989673342
 40
0.9994189282
 40
0.9997416679
 40
1.0
 40
1.0
 40
1.0
 40
1.0
 10
11.7414781323
 20
8.9849555992
 30
0.0
 10
11.7360735746
 20
8.9861692539
 30
0.0
 10
11.7259105439
 20
8.9885074653
 30
0.0
 10
11.7136422256
 20
8.9914614543
 30
0.0
 10
11.704815125
 20
8.9936527839
 30
0.0
 10
11.6989572213
 20
8.9951331145
 30
0.0
 10
11.6936258035
 20
8.9965019257
 30
0.0
 10
11.6888312073
 20
8.9977497987
 30
0.0
 10
11.6845817449
 20
8.9988676914
 30
0.0
 10
11.6808842344
 20
8.9998505511
 30
0.0
 10
11.6781506082
 20
9.0005846502
 30
0.0
 10
11.6762431947
 20
9.001100934
 30
0.0
 10
11.675023318
 20
9.0014327728
 30
0.0
 10
11.673944885
 20
9.0017275872
 30
0.0
 10
11.673008461
 20
9.0019848336
 30
0.0
 10
11.6722145884
 20
9.0022039797
 30
0.0
 10
11.6716424538
 20
9.0023626658
 30
0.0
 10
11.6712563844
 20
9.0024701598
 30
0.0
 10
11.671020863
 20
9.0025358714
 30
0.0
 10
11.670821047
 20
9.0025918147
 30
0.0
 10
11.6706583605
 20
9.0026372962
 30
0.0
 10
11.6705292561
 20
9.0026739204
 30
0.0
 10
11.6704498099
 20
9.002695592
 30
0.0
 10
11.6703960147
 20
9.0027117199
 30
0.0
 10
11.6703809613
 20
9.0027143137
 30
0.0
 10
11.6703494409
 20
9.0027264313
 30
0.0
 10
11.6703546869
 20
9.0027229188
 30
0.0
  0
SPLINE
  5
3EF
100
AcDbEntity
  8
0
100
AcDbSpline
 62
9
  6
CONTINUOUS
 70
0
 71
3
 72
16
 73
12
 74
0
 42
0.0000001
 43
0.0000001
 44
0.0000000001
 40
0.0
 40
0.0
 40
0.0
 40
0.0
 40
0.0409356309
 40
0.0867001243
 40
0.1369004918
 40
0.1910229885
 40
0.3089283547
 40
0.4367657242
 40
0.5712905549
 40
0.7108490142
 40
1.0
 40
1.0
 40
1.0
 40
1.0
 10
12.1501644966
 20
8.9564286301
 30
0.0
 10
12.1490681936
 20
8.9563393883
 30
0.0
 10
12.1467344737
 20
8.9562923129
 30
0.0
 10
12.1430603994
 20
8.9565134279
 30
0.0
 10
12.1390538753
 20
8.9569884742
 30
0.0
 10
12.1331583774
 20
8.9579440276
 30
0.0
 10
12.1252717881
 20
8.9596125241
 30
0.0
 10
12.1153570749
 20
8.9620852769
 30
0.0
 10
12.1049312198
 20
8.9649034545
 30
0.0
 10
12.0903778586
 20
8.969056231
 30
0.0
 10
12.0793441432
 20
8.972366627
 30
0.0
 10
12.0719038237
 20
8.9746038905
 30
0.0
  0
SPLINE
  5
3F0
100
AcDbEntity
  8
0
100
AcDbSpline
 62
9
  6
CONTINUOUS
 70
0
 71
3
 72
9
 73
5
 74
0
 42
0.0000001
 43
0.0000001
 44
0.0000000001
 40
0.0
 40
0.0
 40
0.0
 40
0.0
 40
0.4919680559
 40
1.0
 40
1.0
 40
1.0
 40
1.0
 10
12.4254022948
 20
8.6141771774
 30
0.0
 10
12.4262227202
 20
8.6106696089
 30
0.0
 10
12.4281702959
 20
8.6036033558
 30
0.0
 10
12.4306147972
 20
8.5966944468
 30
0.0
 10
12.4319734208
 20
8.5932315705
 30
0.0
  0
SPLINE
  5
3F1
100
AcDbEntity
  8
0
100
AcDbSpline
 62
9
  6
CONTINUOUS
 70
0
 71
3
 72
12
 73
8
 74
0
 42
0.0000001
 43
0.0000001
 44
0.0000000001
 40
0.0
 40
0.0
 40
0.0
 40
0.0
 40
0.1019395125
 40
0.2126334713
 40
0.4553700039
 40
0.7195846984
 40
1.0
 40
1.0
 40
1.0
 40
1.0
 10
12.4073676008
 20
8.6146178226
 30
0.0
 10
12.4081017119
 20
8.613786016
 30
0.0
 10
12.4096817153
 20
8.6120938576
 30
0.0
 10
12.4132018815
 20
8.6086043154
 30
0.0
 10
12.4181998084
 20
8.6041038225
 30
0.0
 10
12.424810073
 20
8.5986483185
 30
0.0
 10
12.4295190364
 20
8.5950460463
 30
0.0
 10
12.4319727218
 20
8.5932314014
 30
0.0
  0
SPLINE
  5
3F2
100
AcDbEntity
  8
0
100
AcDbSpline
 62
9
  6
CONTINUOUS
 70
0
 71
3
 72
31
 73
27
 74
0
 42
0.0000001
 43
0.0000001
 44
0.0000000001
 40
0.0
 40
0.0
 40
0.0
 40
0.0
 40
0.0002575279
 40
0.0005792768
 40
0.0010294997
 40
0.0023148185
 40
0.004112388
 40
0.0064211125
 40
0.0092398967
 40
0.0125676463
 40
0.0164032671
 40
0.0255937496
 40
0.0368026054
 40
0.0500211049
 40
0.0652405287
 40
0.0824521674
 40
0.1016473214
 40
0.14595342
 40
0.198089442
 40
0.2579861651
 40
0.3255581749
 40
0.4006549553
 40
0.4831102698
 40
0.572758621
 40
0.7729758863
 40
1.0
 40
1.0
 40
1.0
 40
1.0
 10
11.6703546866
 20
8.5779898331
 30
0.0
 10
11.6703493543
 20
8.5779865831
 30
0.0
 10
11.6703809621
 20
8.5779974483
 30
0.0
 10
11.6703959042
 20
8.577999559
 30
0.0
 10
11.670449635
 20
8.5780137136
 30
0.0
 10
11.6705288876
 20
8.5780325472
 30
0.0
 10
11.6706577534
 20
8.5780645077
 30
0.0
 10
11.6708201194
 20
8.5781041344
 30
0.0
 10
11.671019561
 20
8.5781528818
 30
0.0
 10
11.6712546485
 20
8.578210117
 30
0.0
 10
11.6716400411
 20
8.5783037242
 30
0.0
 10
11.672211214
 20
8.5784418427
 30
0.0
 10
11.6730038052
 20
8.5786324652
 30
0.0
 10
11.673938805
 20
8.5788560907
 30
0.0
 10
11.6750157
 20
8.5791122138
 30
0.0
 10
11.6762339531
 20
8.5794003191
 30
0.0
 10
11.6781391569
 20
8.5798483061
 30
0.0
 10
11.6808700299
 20
8.5804846387
 30
0.0
 10
11.6845643143
 20
8.5813354075
 30
0.0
 10
11.688810904
 20
8.5823017235
 30
0.0
 10
11.6936032593
 20
8.5833788492
 30
0.0
 10
11.6989332988
 20
8.5845580707
 30
0.0
 10
11.7047909652
 20
8.5858303819
 30
0.0
 10
11.7136215698
 20
8.5877090818
 30
0.0
 10
11.7258995335
 20
8.5902294928
 30
0.0
 10
11.7360690077
 20
8.5922081961
 30
0.0
 10
11.7414781583
 20
8.5932309262
 30
0.0
  0
SPLINE
  5
3F3
100
AcDbEntity
  8
0
100
AcDbSpline
 62
9
  6
CONTINUOUS
 70
0
 71
3
 72
20
 73
16
 74
0
 42
0.0000001
 43
0.0000001
 44
0.0000000001
 40
0.0
 40
0.0
 40
0.0
 40
0.0
 40
0.0053122253
 40
0.0122231092
 40
0.0314987916
 40
0.0587331715
 40
0.0944867181
 40
0.1390696317
 40
0.1921084612
 40
0.253046401
 40
0.3213162872
 40
0.4765502539
 40
0.6481592949
 40
0.8257311144
 40
1.0
 40
1.0
 40
1.0
 40
1.0
 10
11.649258895
 20
8.9566443493
 30
0.0
 10
11.6493112561
 20
8.9565962857
 30
0.0
 10
11.649413217
 20
8.9564660519
 30
0.0
 10
11.6496124865
 20
8.9560938082
 30
0.0
 10
11.649839401
 20
8.9554119429
 30
0.0
 10
11.6500847263
 20
8.9543389807
 30
0.0
 10
11.6503160089
 20
8.9529173586
 30
0.0
 10
11.6505285363
 20
8.9511453542
 30
0.0
 10
11.6507196554
 20
8.9490322224
 30
0.0
 10
11.6508852655
 20
8.9465993026
 30
0.0
 10
11.6510743406
 20
8.9427980742
 30
0.0
 10
11.6512123571
 20
8.9375127209
 30
0.0
 10
11.6512498047
 20
8.9307635571
 30
0.0
 10
11.6511621917
 20
8.9237601746
 30
0.0
 10
11.6510329868
 20
8.9190542392
 30
0.0
 10
11.6509519483
 20
8.9167239818
 30
0.0
  0
SPLINE
  5
3F4
100
AcDbEntity
  8
0
100
AcDbSpline
 62
9
  6
CONTINUOUS
 70
0
 71
3
 72
19
 73
15
 74
0
 42
0.0000001
 43
0.0000001
 44
0.0000000001
 40
0.0
 40
0.0
 40
0.0
 40
0.0
 40
0.0075076424
 40
0.0168377235
 40
0.0410864617
 40
0.0728098025
 40
0.1118919082
 40
0.1580794528
 40
0.2110423822
 40
0.3357271498
 40
0.4818704834
 40
0.6448323125
 40
0.8195997906
 40
1.0
 40
1.0
 40
1.0
 40
1.0
 10
10.6119954403
 20
8.9916685957
 30
0.0
 10
10.6120488763
 20
8.9915844147
 30
0.0
 10
10.6121515484
 20
8.9913848337
 30
0.0
 10
10.6123507868
 20
8.9908763745
 30
0.0
 10
10.6125777401
 20
8.990037158
 30
0.0
 10
10.6128161448
 20
8.9887970679
 30
0.0
 10
10.6130272384
 20
8.9872570497
 30
0.0
 10
10.6132149742
 20
8.9854306513
 30
0.0
 10
10.6134516354
 20
8.9824671695
 30
0.0
 10
10.6136998237
 20
8.9781735336
 30
0.0
 10
10.6138792475
 20
8.9724144311
 30
0.0
 10
10.6139080744
 20
8.9659877333
 30
0.0
 10
10.6138517028
 20
8.9591066313
 30
0.0
 10
10.6137508426
 20
8.9543904695
 30
0.0
 10
10.6136765074
 20
8.951995732
 30
0.0
  0
SPLINE
  5
3F5
100
AcDbEntity
  8
0
100
AcDbSpline
 62
9
  6
CONTINUOUS
 70
0
 71
3
 72
13
 73
9
 74
0
 42
0.0000001
 43
0.0000001
 44
0.0000000001
 40
0.0
 40
0.0
 40
0.0
 40
0.0
 40
0.2502365244
 40
0.50015649
 40
0.6253221504
 40
0.7503432301
 40
0.8751911464
 40
1.0
 40
1.0
 40
1.0
 40
1.0
 10
10.6119954585
 20
8.9916685695
 30
0.0
 10
10.6077215415
 20
8.991842767
 30
0.0
 10
10.5990636093
 20
8.9908156133
 30
0.0
 10
10.5892168751
 20
8.9861816708
 30
0.0
 10
10.582551685
 20
8.9807789623
 30
0.0
 10
10.5782562587
 20
8.9759809638
 30
0.0
 10
10.5747978556
 20
8.970558925
 30
0.0
 10
10.5731020282
 20
8.9666186331
 30
0.0
 10
10.5724214261
 20
8.964596663
 30
0.0
  0
SPLINE
  5
3F6
100
AcDbEntity
  8
0
100
AcDbSpline
 62
9
  6
CONTINUOUS
 70
0
 71
3
 72
19
 73
15
 74
0
 42
0.0000001
 43
0.0000001
 44
0.0000000001
 40
0.0
 40
0.0
 40
0.0
 40
0.0
 40
0.041306755
 40
0.0836778745
 40
0.127831002
 40
0.1745620808
 40
0.2245868719
 40
0.278397271
 40
0.3362213763
 40
0.3979831973
 40
0.5324686156
 40
0.6798623572
 40
0.83719338
 40
1.0
 40
1.0
 40
1.0
 40
1.0
 10
13.0064372891
 20
8.6218667066
 30
0.0
 10
13.0070579994
 20
8.6219544728
 30
0.0
 10
13.0083013666
 20
8.6222522858
 30
0.0
 10
13.0100835289
 20
8.6230434092
 30
0.0
 10
13.0117693746
 20
8.6241777053
 30
0.0
 10
13.0133394397
 20
8.6256407383
 30
0.0
 10
13.0147902378
 20
8.6274137196
 30
0.0
 10
13.0161181202
 20
8.6294821244
 30
0.0
 10
13.0173178824
 20
8.6318283605
 30
0.0
 10
13.0187751608
 20
8.6354024571
 30
0.0
 10
13.0201685461
 20
8.6404478712
 30
0.0
 10
13.0211310248
 20
8.6470574173
 30
0.0
 10
13.0214030776
 20
8.654159192
 30
0.0
 10
13.0211225917
 20
8.6590181807
 30
0.0
 10
13.0208638098
 20
8.6614753968
 30
0.0
  0
SPLINE
  5
3F7
100
AcDbEntity
  8
0
100
AcDbSpline
 62
9
  6
CONTINUOUS
 70
0
 71
3
 72
19
 73
15
 74
0
 42
0.0000001
 43
0.0000001
 44
0.0000000001
 40
0.0
 40
0.0
 40
0.0
 40
0.0
 40
0.1802739626
 40
0.354988115
 40
0.5180136587
 40
0.6641862963
 40
0.7888844164
 40
0.8419090254
 40
0.8881784581
 40
0.927318555
 40
0.9590343567
 40
0.9832205231
 40
0.9925135901
 40
1.0
 40
1.0
 40
1.0
 40
1.0
 10
10.6136764247
 20
8.6614753968
 30
0.0
 10
10.6136741896
 20
8.6590749128
 30
0.0
 10
10.6136434792
 20
8.6543478997
 30
0.0
 10
10.6134794268
 20
8.6474516407
 30
0.0
 10
10.6131942984
 20
8.6410139281
 30
0.0
 10
10.6128573442
 20
8.6352460136
 30
0.0
 10
10.6125023504
 20
8.63094662
 30
0.0
 10
10.6121492075
 20
8.6279846324
 30
0.0
 10
10.6118834572
 20
8.6261603515
 30
0.0
 10
10.6116107333
 20
8.6246242781
 30
0.0
 10
10.6113367816
 20
8.6233886244
 30
0.0
 10
10.611092187
 20
8.6225535761
 30
0.0
 10
10.6108822441
 20
8.622049628
 30
0.0
 10
10.6107744306
 20
8.6218528737
 30
0.0
 10
10.6107183161
 20
8.6217704802
 30
0.0
  0
SPLINE
  5
3F8
100
AcDbEntity
  8
0
100
AcDbSpline
 62
9
  6
CONTINUOUS
 70
0
 71
3
 72
13
 73
9
 74
0
 42
0.0000001
 43
0.0000001
 44
0.0000000001
 40
0.0
 40
0.0
 40
0.0
 40
0.0
 40
0.2502565392
 40
0.5001813692
 40
0.6253352414
 40
0.7503481828
 40
0.875195699
 40
1.0
 40
1.0
 40
1.0
 40
1.0
 10
10.6107183161
 20
8.6217704802
 30
0.0
 10
10.6065138821
 20
8.6217325167
 30
0.0
 10
10.5980421316
 20
8.6229878325
 30
0.0
 10
10.5884793347
 20
8.6277662275
 30
0.0
 10
10.5820338075
 20
8.6332022167
 30
0.0
 10
10.5778928446
 20
8.6379876562
 30
0.0
 10
10.5745696797
 20
8.6433633658
 30
0.0
 10
10.5729471747
 20
8.6472540986
 30
0.0
 10
10.572297957
 20
8.6492479233
 30
0.0
  0
LINE
  5
3F9
100
AcDbEntity
  8
0
100
AcDbLine
 62
7
  6
CONTINUOUS
 10
22.065109026
 20
11.546176314
 11
22.0623548348
 21
11.5477515379
  0
SPLINE
  5
3FA
100
AcDbEntity
  8
0
100
AcDbSpline
 62
7
  6
CONTINUOUS
 70
0
 71
3
 72
11
 73
7
 74
0
 42
0.0000001
 43
0.0000001
 44
0.0000000001
 40
0.0
 40
0.0
 40
0.0
 40
0.0
 40
0.2620326118
 40
0.5197058724
 40
0.7673452872
 40
1.0
 40
1.0
 40
1.0
 40
1.0
 10
20.4329856367
 20
11.411391804
 30
0.0
 10
20.4329856367
 20
11.4172029821
 30
0.0
 10
20.4330652822
 20
11.428728686
 30
0.0
 10
20.4333386369
 20
11.4457443114
 30
0.0
 10
20.433687846
 20
11.462106544
 30
0.0
 10
20.4338276358
 20
11.4727579305
 30
0.0
 10
20.4338265603
 20
11.4779175857
 30
0.0
  0
SPLINE
  5
3FB
100
AcDbEntity
  8
0
100
AcDbSpline
 62
7
  6
CONTINUOUS
 70
0
 71
3
 72
42
 73
38
 74
0
 42
0.0000001
 43
0.0000001
 44
0.0000000001
 40
0.0
 40
0.0
 40
0.0
 40
0.0
 40
0.0984096164
 40
0.1963661474
 40
0.2928990144
 40
0.3871055332
 40
0.4330495635
 40
0.4780384349
 40
0.5645174216
 40
0.6452305955
 40
0.7190575184
 40
0.7850160424
 40
0.814790458
 40
0.8423883853
 40
0.8677802675
 40
0.8909244263
 40
0.9117979273
 40
0.9304214075
 40
0.9468140576
 40
0.9609887291
 40
0.9729525874
 40
0.9781079444
 40
0.9827145115
 40
0.9867739888
 40
0.9902880076
 40
0.9932581304
 40
0.9956858513
 40
0.99669676
 40
0.9975725975
 40
0.9983135323
 40
0.998919729
 40
0.9993913505
 40
0.9997285602
 40
0.9998467971
 40
0.999931446
 40
0.9999825
 40
1.0
 40
1.0
 40
1.0
 40
1.0
 10
20.0069770761
 20
11.411391804
 30
0.0
 10
20.0069770761
 20
11.4167417285
 30
0.0
 10
20.0074991705
 20
11.427423438
 30
0.0
 10
20.0097774314
 20
11.4432061751
 30
0.0
 10
20.0135093673
 20
11.4584750025
 30
0.0
 10
20.0177248737
 20
11.4706530184
 30
0.0
 10
20.0216750063
 20
11.4799138451
 30
0.0
 10
20.0258679625
 20
11.4886026854
 30
0.0
 10
20.0315591462
 20
11.4986543477
 30
0.0
 10
20.0389841785
 20
11.5094692496
 30
0.0
 10
20.0465725933
 20
11.5187647522
 30
0.0
 10
20.05293111
 20
11.5254509334
 30
0.0
 10
20.0578131944
 20
11.5300481082
 30
0.0
 10
20.0611913627
 20
11.5330213088
 30
0.0
 10
20.0643834307
 20
11.5356569561
 30
0.0
 10
20.0673613687
 20
11.5379750872
 30
0.0
 10
20.0701026369
 20
11.5399961798
 30
0.0
 10
20.0725929464
 20
11.5417374137
 30
0.0
 10
20.0748196376
 20
11.5432187545
 30
0.0
 10
20.0767708098
 20
11.544459558
 30
0.0
 10
20.0782205749
 20
11.5453498577
 30
0.0
 10
20.0792327287
 20
11.545958584
 30
0.0
 10
20.0798790487
 20
11.5463418031
 30
0.0
 10
20.0804506557
 20
11.546676048
 30
0.0
 10
20.0809471875
 20
11.5469624202
 30
0.0
 10
20.0813682657
 20
11.5472020418
 30
0.0
 10
20.0816720164
 20
11.5473726992
 30
0.0
 10
20.0818769422
 20
11.5474867951
 30
0.0
 10
20.0820019168
 20
11.5475560068
 30
0.0
 10
20.0821077006
 20
11.5476143853
 30
0.0
 10
20.0821944338
 20
11.5476620056
 30
0.0
 10
20.0822615794
 20
11.5476991661
 30
0.0
 10
20.0823062182
 20
11.5477233765
 30
0.0
 10
20.0823311026
 20
11.547737991
 30
0.0
 10
20.0823442705
 20
11.5477444505
 30
0.0
 10
20.0823493588
 20
11.5477493464
 30
0.0
 10
20.0823547241
 20
11.5477506074
 30
0.0
 10
20.0823545257
 20
11.5477515379
 30
0.0
  0
LINE
  5
3FC
100
AcDbEntity
  8
0
100
AcDbLine
 62
7
  6
CONTINUOUS
 10
20.0821876938
 20
10.7120320428
 11
20.0823545108
 21
10.7118251076
  0
LINE
  5
3FD
100
AcDbEntity
  8
0
100
AcDbLine
 62
7
  6
CONTINUOUS
 10
22.0625216667
 20
10.7120320428
 11
22.0623548497
 21
10.7118251076
  0
SPLINE
  5
3FE
100
AcDbEntity
  8
0
100
AcDbSpline
 62
7
  6
CONTINUOUS
 70
0
 71
3
 72
11
 73
7
 74
0
 42
0.0000001
 43
0.0000001
 44
0.0000000001
 40
0.0
 40
0.0
 40
0.0
 40
0.0
 40
0.2326519914
 40
0.4802773434
 40
0.7379499536
 40
1.0
 40
1.0
 40
1.0
 40
1.0
 10
21.7108829186
 20
11.4779174513
 30
0.0
 10
21.7108822119
 20
11.472757867
 30
0.0
 10
21.7110217146
 20
11.4621068781
 30
0.0
 10
21.7113706442
 20
11.445745057
 30
0.0
 10
21.7116442934
 20
11.4287294114
 30
0.0
 10
21.7117237237
 20
11.4172033568
 30
0.0
 10
21.7117237237
 20
11.411391804
 30
0.0
  0
LINE
  5
3FF
100
AcDbEntity
  8
0
100
AcDbLine
 62
7
  6
CONTINUOUS
 10
20.0823545257
 20
11.5477515379
 11
20.0790380855
 21
11.5458394246
  0
SPLINE
  5
400
100
AcDbEntity
  8
0
100
AcDbSpline
 62
7
  6
CONTINUOUS
 70
0
 71
3
 72
42
 73
38
 74
0
 42
0.0000001
 43
0.0000001
 44
0.0000000001
 40
0.0
 40
0.0
 40
0.0
 40
0.0
 40
0.000016354
 40
0.0000662731
 40
0.0001498345
 40
0.0002670623
 40
0.0006025887
 40
0.0010729879
 40
0.0016783903
 40
0.0024189264
 40
0.0032947282
 40
0.0043059288
 40
0.0067350665
 40
0.0097074411
 40
0.01322418
 40
0.0172864389
 40
0.0218954009
 40
0.0270522081
 40
0.0390133411
 40
0.0531802675
 40
0.0695681277
 40
0.0881972938
 40
0.1090931038
 40
0.1322573343
 40
0.157652714
 40
0.2150205917
 40
0.2810191889
 40
0.3548656513
 40
0.3944281108
 40
0.4355985687
 40
0.5220769573
 40
0.5670629247
 40
0.6129996924
 40
0.7071796111
 40
0.8036811911
 40
0.9016113181
 40
1.0
 40
1.0
 40
1.0
 40
1.0
 10
22.0623548348
 20
11.5477515379
 30
0.0
 10
22.0623550203
 20
11.5477524074
 30
0.0
 10
22.0623599611
 20
11.5477481621
 30
0.0
 10
22.0623655902
 20
11.5477471283
 30
0.0
 10
22.0623786054
 20
11.5477393126
 30
0.0
 10
22.0624037897
 20
11.5477265646
 30
0.0
 10
22.0624483807
 20
11.5477020433
 30
0.0
 10
22.0625155255
 20
11.5476656209
 30
0.0
 10
22.0626021026
 20
11.5476178599
 30
0.0
 10
22.0627076915
 20
11.54755931
 30
0.0
 10
22.0628324114
 20
11.5474896371
 30
0.0
 10
22.0630369569
 20
11.5473746763
 30
0.0
 10
22.0633401869
 20
11.547202647
 30
0.0
 10
22.063760764
 20
11.5469614407
 30
0.0
 10
22.0642570599
 20
11.5466738078
 30
0.0
 10
22.0648288549
 20
11.5463390233
 30
0.0
 10
22.0654759355
 20
11.5459563704
 30
0.0
 10
22.0664900079
 20
11.5453507057
 30
0.0
 10
22.0679411585
 20
11.5444635285
 30
0.0
 10
22.0698910342
 20
11.5432221402
 30
0.0
 10
22.0721159764
 20
11.5417387899
 30
0.0
 10
22.0746058212
 20
11.5399946576
 30
0.0
 10
22.0773496211
 20
11.537972589
 30
0.0
 10
22.0803308956
 20
11.5356545584
 30
0.0
 10
22.0847722836
 20
11.5319878158
 30
0.0
 10
22.0907509262
 20
11.5265315988
 30
0.0
 10
22.0981440215
 20
11.5187542174
 30
0.0
 10
22.104317984
 20
11.5111893558
 30
0.0
 10
22.1092299846
 20
11.5043680062
 30
0.0
 10
22.1142187795
 20
11.4967661509
 30
0.0
 10
22.1188494402
 20
11.4885865221
 30
0.0
 10
22.1230410599
 20
11.4798978075
 30
0.0
 10
22.1269908198
 20
11.4706388164
 30
0.0
 10
22.1312034496
 20
11.4584633843
 30
0.0
 10
22.1349332926
 20
11.4431986424
 30
0.0
 10
22.1372105455
 20
11.4274199066
 30
0.0
 10
22.1377322844
 20
11.41674065
 30
0.0
 10
22.1377322844
 20
11.411391804
 30
0.0
  0
SPLINE
  5
401
100
AcDbEntity
  8
0
100
AcDbSpline
 62
7
  6
CONTINUOUS
 70
0
 71
3
 72
30
 73
26
 74
0
 42
0.0000001
 43
0.0000001
 44
0.0000000001
 40
0.0
 40
0.0
 40
0.0
 40
0.0
 40
0.0503501116
 40
0.0983957582
 40
0.1444140089
 40
0.1668861011
 40
0.1891621849
 40
0.2114333384
 40
0.2339413604
 40
0.2569715682
 40
0.280829944
 40
0.305817584
 40
0.3321959461
 40
0.3601537674
 40
0.3897908842
 40
0.4211158973
 40
0.4540554904
 40
0.4884762818
 40
0.5242102489
 40
0.5988626956
 40
0.6766468484
 40
0.7564110558
 40
0.8372850836
 40
0.9186418771
 40
1.0
 40
1.0
 40
1.0
 40
1.0
 10
21.7108827651
 20
10.7854649765
 30
0.0
 10
21.7108828806
 20
10.7804000881
 30
0.0
 10
21.7114151055
 20
10.7704879652
 30
0.0
 10
21.7141260374
 20
10.7561672412
 30
0.0
 10
21.7181999424
 20
10.745094363
 30
0.0
 10
21.722646861
 20
10.7371013426
 30
0.0
 10
21.7265779147
 20
10.7316046768
 30
0.0
 10
21.7311591454
 20
10.7266289448
 30
0.0
 10
21.736412435
 20
10.7222457966
 30
0.0
 10
21.7423495125
 20
10.7185322828
 30
0.0
 10
21.7489658001
 20
10.7155620321
 30
0.0
 10
21.756239379
 20
10.7133995262
 30
0.0
 10
21.7641308907
 20
10.7120949114
 30
0.0
 10
21.772584266
 20
10.711676769
 30
0.0
 10
21.7815302713
 20
10.7121511502
 30
0.0
 10
21.7908903862
 20
10.7135024417
 30
0.0
 10
21.8005815944
 20
10.7156945964
 30
0.0
 10
21.8105224661
 20
10.7186741743
 30
0.0
 10
21.8242067907
 20
10.7236873967
 30
0.0
 10
21.841439245
 20
10.7315919417
 30
0.0
 10
21.8618449021
 20
10.7429944831
 30
0.0
 10
21.8820136046
 20
10.7559973337
 30
0.0
 10
21.9017762676
 20
10.7702258538
 30
0.0
 10
21.9210316564
 20
10.7853901425
 30
0.0
 10
21.9335084795
 20
10.7959905203
 30
0.0
 10
21.9396570936
 20
10.801391804
 30
0.0
  0
SPLINE
  5
402
100
AcDbEntity
  8
0
100
AcDbSpline
 62
7
  6
CONTINUOUS
 70
0
 71
3
 72
24
 73
20
 74
0
 42
0.0000001
 43
0.0000001
 44
0.0000000001
 40
0.0
 40
0.0
 40
0.0
 40
0.0
 40
0.1318162018
 40
0.1968482501
 40
0.2607545642
 40
0.3233117997
 40
0.3844520679
 40
0.4442254006
 40
0.4737129963
 40
0.5030183712
 40
0.5613662731
 40
0.5906306006
 40
0.6200774742
 40
0.6798003242
 40
0.7410177384
 40
0.8039028591
 40
0.8683398119
 40
0.9339360335
 40
1.0
 40
1.0
 40
1.0
 40
1.0
 10
21.0723546802
 20
11.5477507055
 30
0.0
 10
21.0616858267
 20
11.5477507055
 30
0.0
 10
21.0457376394
 20
11.5471051
 30
0.0
 10
21.0247643257
 20
11.5446830113
 30
0.0
 10
21.0094869098
 20
11.5420042585
 30
0.0
 10
20.9947479369
 20
11.5382848819
 30
0.0
 10
20.9807111099
 20
11.533369866
 30
0.0
 10
20.969696698
 20
11.5281117603
 30
0.0
 10
20.9614746301
 20
11.5231494603
 30
0.0
 10
20.9537086948
 20
11.5177006077
 30
0.0
 10
20.9465508716
 20
11.5114511281
 30
0.0
 10
20.940140707
 20
11.5044646191
 30
0.0
 10
20.9342010171
 20
11.4969306133
 30
0.0
 10
20.9277214591
 20
11.4865769543
 30
0.0
 10
20.921521242
 20
11.4730117906
 30
0.0
 10
20.9168242766
 20
11.4584609816
 30
0.0
 10
20.9135429384
 20
11.443171696
 30
0.0
 10
20.9116054649
 20
11.4274002682
 30
0.0
 10
20.9111814488
 20
11.4167388461
 30
0.0
 10
20.9111814488
 20
11.411391804
 30
0.0
  0
SPLINE
  5
403
100
AcDbEntity
  8
0
100
AcDbSpline
 62
7
  6
CONTINUOUS
 70
0
 71
3
 72
38
 73
34
 74
0
 42
0.0000001
 43
0.0000001
 44
0.0000000001
 40
0.0
 40
0.0
 40
0.0
 40
0.0
 40
0.0394053685
 40
0.0788924608
 40
0.1183793851
 40
0.1578375996
 40
0.1972831334
 40
0.2367387746
 40
0.2761736502
 40
0.2958669418
 40
0.3155251408
 40
0.3546797985
 40
0.3935019572
 40
0.4693247914
 40
0.5415978497
 40
0.5759690024
 40
0.6089214089
 40
0.6403085775
 40
0.6700169472
 40
0.697929169
 40
0.7239651381
 40
0.7480904831
 40
0.7703278037
 40
0.7908384832
 40
0.8099651448
 40
0.8282796287
 40
0.8466380909
 40
0.8660303673
 40
0.887370657
 40
0.9112522001
 40
0.9380093941
 40
0.9676755232
 40
1.0
 40
1.0
 40
1.0
 40
1.0
 10
21.9396570936
 20
11.411391804
 30
0.0
 10
21.9396570936
 20
11.4160171456
 30
0.0
 10
21.9391534019
 20
11.4252849922
 30
0.0
 10
21.9369081033
 20
11.4390237914
 30
0.0
 10
21.9331730589
 20
11.4524438449
 30
0.0
 10
21.9279751718
 20
11.4653622691
 30
0.0
 10
21.9213749666
 20
11.4776209109
 30
0.0
 10
21.9134313573
 20
11.4890501722
 30
0.0
 10
21.9058091176
 20
11.4977894107
 30
0.0
 10
21.8991837683
 20
11.5042468326
 30
0.0
 10
21.8922447649
 20
11.5103161353
 30
0.0
 10
21.8830460737
 20
11.517186191
 30
0.0
 10
21.8676072701
 20
11.5265862306
 30
0.0
 10
21.8474376165
 20
11.5354762846
 30
0.0
 10
21.8267862206
 20
11.5413514217
 30
0.0
 10
21.8106985439
 20
11.5444920736
 30
0.0
 10
21.7992273782
 20
11.5461547854
 30
0.0
 10
21.7882366329
 20
11.5472296657
 30
0.0
 10
21.7777985069
 20
11.54775577
 30
0.0
 10
21.7679750536
 20
11.5477884897
 30
0.0
 10
21.7588175036
 20
11.5473117807
 30
0.0
 10
21.7503731881
 20
11.5462904966
 30
0.0
 10
21.7426751103
 20
11.5446958782
 30
0.0
 10
21.7357546332
 20
11.5424278318
 30
0.0
 10
21.7296446885
 20
11.5393671526
 30
0.0
 10
21.7243938726
 20
11.5353802149
 30
0.0
 10
21.7200562028
 20
11.5303671867
 30
0.0
 10
21.7166612566
 20
11.5242688487
 30
0.0
 10
21.7141872605
 20
11.5170682732
 30
0.0
 10
21.7124856042
 20
11.508776274
 30
0.0
 10
21.7114521346
 20
11.499397801
 30
0.0
 10
21.7109561204
 20
11.4889886752
 30
0.0
 10
21.7108834383
 20
11.4817116487
 30
0.0
 10
21.7108829186
 20
11.4779174513
 30
0.0
  0
SPLINE
  5
404
100
AcDbEntity
  8
0
100
AcDbSpline
 62
7
  6
CONTINUOUS
 70
0
 71
3
 72
30
 73
26
 74
0
 42
0.0000001
 43
0.0000001
 44
0.0000000001
 40
0.0
 40
0.0
 40
0.0
 40
0.0
 40
0.0813579756
 40
0.1627145916
 40
0.2435885766
 40
0.3233527387
 40
0.4011369452
 40
0.475789437
 40
0.5115235753
 40
0.5459443895
 40
0.5788838867
 40
0.6102089689
 40
0.6398461382
 40
0.6678039299
 40
0.6941822625
 40
0.7191699781
 40
0.7430283685
 40
0.766058474
 40
0.7885664939
 40
0.8108376463
 40
0.8331137315
 40
0.8555858068
 40
0.9016040916
 40
0.9496497695
 40
1.0
 40
1.0
 40
1.0
 40
1.0
 10
20.2050522669
 20
10.801391804
 30
0.0
 10
20.2112008697
 20
10.7959905301
 30
0.0
 10
20.2236776695
 20
10.7853901754
 30
0.0
 10
20.2429330265
 20
10.7702259065
 30
0.0
 10
20.2626956644
 20
10.7559973975
 30
0.0
 10
20.2828643591
 20
10.7429945413
 30
0.0
 10
20.3032700185
 20
10.7315919938
 30
0.0
 10
20.3205024919
 20
10.7236874242
 30
0.0
 10
20.3341868407
 20
10.7186741989
 30
0.0
 10
20.344127717
 20
10.7156946018
 30
0.0
 10
20.3538189267
 20
10.7135024554
 30
0.0
 10
20.3631790423
 20
10.712151153
 30
0.0
 10
20.3721250571
 20
10.7116767688
 30
0.0
 10
20.3805784311
 20
10.71209491
 30
0.0
 10
20.3884699474
 20
10.7133995115
 30
0.0
 10
20.3957435282
 20
10.7155620309
 30
0.0
 10
20.4023598238
 20
10.7185322601
 30
0.0
 10
20.4082968913
 20
10.7222457741
 30
0.0
 10
20.4135501752
 20
10.7266289113
 30
0.0
 10
20.4181314144
 20
10.7316046354
 30
0.0
 10
20.4220624715
 20
10.7371012969
 30
0.0
 10
20.4265093955
 20
10.7450943163
 30
0.0
 10
20.4305833118
 20
10.7561671954
 30
0.0
 10
20.4332942565
 20
10.7704879363
 30
0.0
 10
20.4338264806
 20
10.7804000745
 30
0.0
 10
20.4338265972
 20
10.7854649749
 30
0.0
  0
SPLINE
  5
405
100
AcDbEntity
  8
0
100
AcDbSpline
 62
7
  6
CONTINUOUS
 70
0
 71
3
 72
38
 73
34
 74
0
 42
0.0000001
 43
0.0000001
 44
0.0000000001
 40
0.0
 40
0.0
 40
0.0
 40
0.0
 40
0.0323244373
 40
0.0619884427
 40
0.0887460849
 40
0.1126240833
 40
0.1339543764
 40
0.1533376389
 40
0.1716901378
 40
0.1900012356
 40
0.2091156033
 40
0.2296124562
 40
0.2518440156
 40
0.2759581597
 40
0.3019857495
 40
0.3298952784
 40
0.3595974835
 40
0.3909890956
 40
0.4583056133
 40
0.4939245971
 40
0.5306517744
 40
0.56826157
 40
0.6065626436
 40
0.6454059875
 40
0.6845765928
 40
0.7042402486
 40
0.7239375071
 40
0.7633782072
 40
0.8028379028
 40
0.8422828939
 40
0.8817374676
 40
0.9212214449
 40
1.0
 40
1.0
 40
1.0
 40
1.0
 10
20.4338265603
 20
11.4779175857
 30
0.0
 10
20.4338257695
 20
11.4817116185
 30
0.0
 10
20.4337526323
 20
11.4889880791
 30
0.0
 10
20.4332565868
 20
11.4993965427
 30
0.0
 10
20.4322249816
 20
11.5087741461
 30
0.0
 10
20.4305255753
 20
11.5170647549
 30
0.0
 10
20.428051158
 20
11.5242621598
 30
0.0
 10
20.4246586154
 20
11.5303575996
 30
0.0
 10
20.4203277368
 20
11.5353733262
 30
0.0
 10
20.4150788974
 20
11.5393588097
 30
0.0
 10
20.408972189
 20
11.5424173585
 30
0.0
 10
20.4020564073
 20
11.5446856021
 30
0.0
 10
20.3943645586
 20
11.5462911065
 30
0.0
 10
20.3859226944
 20
11.5473081774
 30
0.0
 10
20.3767683277
 20
11.5477814946
 30
0.0
 10
20.3669473265
 20
11.5477636089
 30
0.0
 10
20.3565098151
 20
11.5472322365
 30
0.0
 10
20.3415065886
 20
11.5457606421
 30
0.0
 10
20.3259276988
 20
11.5431376464
 30
0.0
 10
20.310031437
 20
11.5391021145
 30
0.0
 10
20.2977313492
 20
11.5351634519
 30
0.0
 10
20.2854391649
 20
11.5302639326
 30
0.0
 10
20.2733458537
 20
11.5242970305
 30
0.0
 10
20.2616694614
 20
11.517186971
 30
0.0
 10
20.2524665571
 20
11.5103157061
 30
0.0
 10
20.245524487
 20
11.504245894
 30
0.0
 10
20.2388975636
 20
11.4977880486
 30
0.0
 10
20.2312758043
 20
11.4890468521
 30
0.0
 10
20.2233323808
 20
11.4776167601
 30
0.0
 10
20.2167319851
 20
11.4653595854
 30
0.0
 10
20.2115353039
 20
11.4524395515
 30
0.0
 10
20.2065634416
 20
11.4345811441
 30
0.0
 10
20.2050522669
 20
11.4206383201
 30
0.0
 10
20.2050522669
 20
11.411391804
 30
0.0
  0
SPLINE
  5
406
100
AcDbEntity
  8
0
100
AcDbSpline
 62
7
  6
CONTINUOUS
 70
0
 71
3
 72
13
 73
9
 74
0
 42
0.0000001
 43
0.0000001
 44
0.0000000001
 40
0.0
 40
0.0
 40
0.0
 40
0.0
 40
0.1361919399
 40
0.2704629428
 40
0.4014873292
 40
0.5286684132
 40
0.7711438764
 40
1.0
 40
1.0
 40
1.0
 40
1.0
 10
21.0723546802
 20
10.7118248749
 30
0.0
 10
21.0636783706
 20
10.7118248749
 30
0.0
 10
21.0464191189
 20
10.7131595144
 30
0.0
 10
21.0214182156
 20
10.7189541391
 30
0.0
 10
20.9980173839
 20
10.7279796925
 30
0.0
 10
20.9698959104
 20
10.7431793181
 30
0.0
 10
20.9396441461
 20
10.7668722983
 30
0.0
 10
20.9197983917
 20
10.7896311245
 30
0.0
 10
20.9111814488
 20
10.801391804
 30
0.0
  0
SPLINE
  5
407
100
AcDbEntity
  8
0
100
AcDbSpline
 62
7
  6
CONTINUOUS
 70
0
 71
3
 72
13
 73
9
 74
0
 42
0.0000001
 43
0.0000001
 44
0.0000000001
 40
0.0
 40
0.0
 40
0.0
 40
0.0
 40
0.1361907866
 40
0.2704613608
 40
0.4014854859
 40
0.5286666612
 40
0.7711427232
 40
1.0
 40
1.0
 40
1.0
 40
1.0
 10
21.0723546802
 20
10.7118248749
 30
0.0
 10
21.0810309164
 20
10.7118248749
 30
0.0
 10
21.098290068
 20
10.7131594844
 30
0.0
 10
21.1232908619
 20
10.7189540608
 30
0.0
 10
21.1466916743
 20
10.7279795558
 30
0.0
 10
21.1748131992
 20
10.7431791445
 30
0.0
 10
21.2050650979
 20
10.7668721502
 30
0.0
 10
21.2249109253
 20
10.7896310652
 30
0.0
 10
21.2335279117
 20
10.801391804
 30
0.0
  0
SPLINE
  5
408
100
AcDbEntity
  8
0
100
AcDbSpline
 62
7
  6
CONTINUOUS
 70
0
 71
3
 72
23
 73
19
 74
0
 42
0.0000001
 43
0.0000001
 44
0.0000000001
 40
0.0
 40
0.0
 40
0.0
 40
0.0
 40
0.0660991391
 40
0.1317041322
 40
0.1961350875
 40
0.2590216894
 40
0.3202482625
 40
0.3799615209
 40
0.4386287241
 40
0.4678102594
 40
0.49700161
 40
0.5557578033
 40
0.6155320953
 40
0.6766564699
 40
0.7392281617
 40
0.8031300098
 40
0.8681481502
 40
1.0
 40
1.0
 40
1.0
 40
1.0
 10
21.2335279117
 20
11.411391804
 30
0.0
 10
21.2335279117
 20
11.4167415246
 30
0.0
 10
21.2331031564
 20
11.4274061784
 30
0.0
 10
21.2311649623
 20
11.4431800074
 30
0.0
 10
21.2278837271
 20
11.4584694359
 30
0.0
 10
21.2231824792
 20
11.4730182132
 30
0.0
 10
21.216986554
 20
11.486586148
 30
0.0
 10
21.2092508976
 20
11.4989475918
 30
0.0
 10
21.2014846437
 20
11.5080823015
 30
0.0
 10
21.1945867114
 20
11.5145851719
 30
0.0
 10
21.187221572
 20
11.5205659823
 30
0.0
 10
21.177148906
 20
11.5270817295
 30
0.0
 10
21.1640047498
 20
11.5333759791
 30
0.0
 10
21.1499638853
 20
11.5382844446
 30
0.0
 10
21.135225425
 20
11.5419981983
 30
0.0
 10
21.1199501406
 20
11.5446856068
 30
0.0
 10
21.0989749917
 20
11.5470988247
 30
0.0
 10
21.0830260832
 20
11.5477507055
 30
0.0
 10
21.0723546802
 20
11.5477507055
 30
0.0
  0
ENDSEC
  0
SECTION
  2
OBJECTS
  0
DICTIONARY
  5
C
100
AcDbDictionary
280
0
281
1
  3
ACAD_GROUP
350
D
  3
ACAD_MLINESTYLE
350
17
  3
ACAD_LAYOUT
350
1A
  3
ACAD_PLOTSETTINGS
350
19
  3
ACAD_PLOTSTYLENAME
350
E
  0
DICTIONARY
  5
D
102
{ACAD_REACTORS
330
C
102
}
100
AcDbDictionary
280
0
281
1
  0
ACDBDICTIONARYWDFLT
  5
E
102
{ACAD_REACTORS
330
C
102
}
100
AcDbDictionary
281
1
  3
Normal
350
F
100
AcDbDictionaryWithDefault
340
F
  0
DICTIONARY
  5
17
102
{ACAD_REACTORS
330
C
102
}
100
AcDbDictionary
280
0
281
1
  3
Standard
350
18
  0
DICTIONARY
  5
19
102
{ACAD_REACTORS
330
C
102
}
100
AcDbDictionary
281
1
  0
DICTIONARY
  5
1A
102
{ACAD_REACTORS
330
C
102
}
100
AcDbDictionary
281
1
  3
Model
350
409
  3
Layout1
350
40A
  0
ACDBPLACEHOLDER
  5
F
102
{ACAD_REACTORS
330
E
102
}
  0
MLINESTYLE
  5
18
102
{ACAD_REACTORS
330
17
102
}
100
AcDbMlineStyle
  2
STANDARD
 70
0
  3

 62
256
 51
90.0
 52
90.0
 71
2
 49
0.5
 62
256
  6
BYLAYER
 49
-0.5
 62
256
  6
BYLAYER
  0
LAYOUT
  5
409
102
{ACAD_REACTORS
330
1A
102
}
100
AcDbPlotSettings
  1

  2
none_device
  4
ANSI_C_(22.00_x_17.00_Inches)
  6

 40
0.0
 41
0.0
 42
0.0
 43
0.0
 44
558.8
 45
431.8
 46
0.0
 47
0.0
 48
0.0
 49
0.0
140
0.0
141
0.0
142
1.0
143
1.0
 70
1024
 72
0
 73
0
 74
0
  7

 75
0
147
1.0
148
0.0
149
0.0
100
AcDbLayout
  1
Model
 70
0
 71
0
 10
0.0
 20
0.0
 11
22.0
 21
17.0
 12
0.0
 22
0.0
 32
0.0
 14
0.0
 24
0.0
 34
0.0
 15
0.0
 25
0.0
 35
0.0
146
0.0
 13
0.0
 23
0.0
 33
0.0
 16
1.0
 26
0.0
 36
0.0
 17
0.0
 27
1.0
 37
0.0
 76
0
330
202
345
0
346
0
  0
LAYOUT
  5
40A
102
{ACAD_REACTORS
330
1A
102
}
100
AcDbPlotSettings
  1

  2
none_device
  4
ANSI_C_(22.00_x_17.00_Inches)
  6

 40
0.0
 41
0.0
 42
0.0
 43
0.0
 44
558.8
 45
431.8
 46
0.0
 47
0.0
 48
0.0
 49
0.0
140
0.0
141
0.0
142
1.0
143
1.0
 70
0
 72
0
 73
0
 74
0
  7

 75
0
147
1.0
148
0.0
149
0.0
100
AcDbLayout
  1
Layout1
 70
0
 71
1
 10
0.0
 20
0.0
 11
22.0
 21
17.0
 12
0.0
 22
0.0
 32
0.0
 14
0.0
 24
0.0
 34
0.0
 15
0.0
 25
0.0
 35
0.0
146
0.0
 13
0.0
 23
0.0
 33
0.0
 16
1.0
 26
0.0
 36
0.0
 17
0.0
 27
1.0
 37
0.0
 76
0
330
203
345
0
346
0
  0
ENDSEC
  0
EOF
