999
DXF file: E:\BT Custom\CADOUTPUT\_TOP.dxf
999
Pro/ENGINEER 2018400 by Parametric Technology Corporation
  0
SECTION
  2
HEADER
  9
$ACADVER
  1
AC1018
  9
$DWGCODEPAGE
  3
ANSI_1252
  9
$EXTMAX
 10
22.0
 20
17.0
 30
0.0
  9
$EXTMIN
 10
0.0
 20
0.0
 30
0.0
  9
$LIMMIN
 10
0.0
 20
0.0
  9
$LIMMAX
 10
22.0
 20
17.0
  9
$VIEWCTR
 10
11.0
 20
8.5
  9
$VIEWSIZE
 40
17.0
  9
$CLAYER
  8
0
  9
$LTSCALE
 40
1.21
  9
$CELTYPE
  6
BYLAYER
  9
$DIMSCALE
 40
1.0
  9
$DIMASZ
 40
0.1
  9
$DIMEXO
 40
0.0625
  9
$DIMDLI
 40
0.836
  9
$DIMEXE
 40
0.125
  9
$DIMCEN
 40
0.198
  9
$DIMLFAC
 40
1.0
  9
$DIMBLK
  1
_FILLED
  9
$DIMALT
 70
1
  9
$DIMALTD
 70
2
  9
$DIMALTTD
 70
2
  9
$DIMALTF
 40
25.4
  9
$DIMTXT
 40
0.08
  9
$DIMTOL
 70
1
  9
$DIMLIM
 70
0
  9
$DIMTFAC
 40
1.0
  9
$DIMTP
 40
0.001
  9
$DIMTM
 40
0.001
  9
$DIMGAP
 40
0.09
  9
$DIMDSEP
 70
46
  9
$AUNITS
 70
0
  9
$PDMODE
 70
3
  9
$PDSIZE
 40
0.06
  9
$HANDSEED
  5
5C1
  9
$TILEMODE
 70
1
  9
$MEASUREMENT
 70
0
  9
$INSUNITS
 70
1
  0
ENDSEC
  0
SECTION
  2
CLASSES
  0
CLASS
  1
ACDBDICTIONARYWDFLT
  2
AcDbDictionaryWithDefault
  3
AutoCAD 2000
 90
0
 91
1
280
0
281
0
  0
CLASS
  1
ACDBPLACEHOLDER
  2
AcDbPlaceHolder
  3
AutoCAD 2000
 90
0
 91
1
280
0
281
0
  0
CLASS
  1
LAYOUT
  2
AcDbLayout
  3
AutoCAD 2000
 90
0
 91
0
280
0
281
0
  0
ENDSEC
  0
SECTION
  2
TABLES
  0
TABLE
  2
VPORT
  5
8
100
AcDbSymbolTable
 70
2
  0
VPORT
  5
1F4
100
AcDbSymbolTableRecord
100
AcDbViewportTableRecord
  2
*ACTIVE
 70
0
 10
0.0
 20
0.0
 11
1.0
 21
1.0
 12
11.0
 22
8.5
 13
0.0
 23
0.0
 14
1.0
 24
1.0
 15
0.0
 25
0.0
 16
0.0
 26
0.0
 36
1.0
 17
0.0
 27
0.0
 37
0.0
 40
17.0
 41
1.2941176471
 42
50.0
 43
0.0
 44
0.0
 50
0.0
 51
0.0
 71
0
 72
100
 73
1
 74
1
 75
0
 76
0
 77
0
 78
0
  0
ENDTAB
  0
TABLE
  2
LTYPE
  5
5
100
AcDbSymbolTable
 70
6
  0
LTYPE
  5
14
100
AcDbSymbolTableRecord
100
AcDbLinetypeTableRecord
  2
BYBLOCK
 70
0
  3

 72
65
 73
0
 40
0.0
  0
LTYPE
  5
15
100
AcDbSymbolTableRecord
100
AcDbLinetypeTableRecord
  2
BYLAYER
 70
0
  3

 72
65
 73
0
 40
0.0
  0
LTYPE
  5
16
100
AcDbSymbolTableRecord
100
AcDbLinetypeTableRecord
  2
CONTINUOUS
 70
64
  3
Solid line
 72
65
 73
0
 40
0.0
  0
LTYPE
  5
1F5
100
AcDbSymbolTableRecord
100
AcDbLinetypeTableRecord
  2
CENTER
 70
64
  3
____ _ ____ _ ____ _ ____ _ ____ _ ____ _ ____
 72
65
 73
4
 40
0.6
 49
0.375
 74
0
 49
-0.075
 74
0
 49
0.075
 74
0
 49
-0.075
 74
0
  0
LTYPE
  5
1F6
100
AcDbSymbolTableRecord
100
AcDbLinetypeTableRecord
  2
HIDDEN
 70
64
  3
- - - - - - - - - - - - - - - - - - - -
 72
65
 73
2
 40
0.2
 49
0.1
 74
0
 49
-0.1
 74
0
  0
LTYPE
  5
1F7
100
AcDbSymbolTableRecord
100
AcDbLinetypeTableRecord
  2
PHANTOM
 70
64
  3
_____ _ _ _____ _ _ _____ _ _ _____
 72
65
 73
6
 40
0.8
 49
0.45
 74
0
 49
-0.05
 74
0
 49
0.1
 74
0
 49
-0.05
 74
0
 49
0.1
 74
0
 49
-0.05
 74
0
  0
LTYPE
  5
1F8
100
AcDbSymbolTableRecord
100
AcDbLinetypeTableRecord
  2
DOT
 70
64
  3
. . . . . . . . . . . . . . . . . . . .
 72
65
 73
2
 40
0.2
 49
0.1
 74
0
 49
-0.1
 74
0
  0
LTYPE
  5
1F9
100
AcDbSymbolTableRecord
100
AcDbLinetypeTableRecord
  2
DASHED
 70
64
  3
- - - - - - - - - - - - - - - - - - - -
 72
65
 73
2
 40
0.2
 49
0.1
 74
0
 49
-0.1
 74
0
  0
ENDTAB
  0
TABLE
  2
LAYER
  5
2
100
AcDbSymbolTable
 70
36
  0
LAYER
  5
10
100
AcDbSymbolTableRecord
100
AcDbLayerTableRecord
  2
0
 70
0
 62
7
  6
CONTINUOUS
370
-3
390
F
  0
LAYER
  5
1FA
100
AcDbSymbolTableRecord
100
AcDbLayerTableRecord
  2
DEFAULT_1
 70
0
 62
7
  6
CENTER
370
-3
390
F
  0
LAYER
  5
1FB
100
AcDbSymbolTableRecord
100
AcDbLayerTableRecord
  2
DEFAULT_2
 70
0
 62
8
  6
HIDDEN
370
-3
390
F
  0
LAYER
  5
1FC
100
AcDbSymbolTableRecord
100
AcDbLayerTableRecord
  2
DEFAULT_3
 70
0
 62
7
  6
PHANTOM
370
-3
390
F
  0
LAYER
  5
1FD
100
AcDbSymbolTableRecord
100
AcDbLayerTableRecord
  2
ALL_FEATURES
 70
0
 62
7
  6
CONTINUOUS
370
-3
390
F
  0
LAYER
  5
1FE
100
AcDbSymbolTableRecord
100
AcDbLayerTableRecord
  2
AXES_FEATURES
 70
0
 62
7
  6
CONTINUOUS
370
-3
390
F
  0
LAYER
  5
1FF
100
AcDbSymbolTableRecord
100
AcDbLayerTableRecord
  2
DIMENSIONS
 70
0
 62
7
  6
CONTINUOUS
370
-3
390
F
  0
ENDTAB
  0
TABLE
  2
STYLE
  5
3
100
AcDbSymbolTable
 70
1
  0
STYLE
  5
11
100
AcDbSymbolTableRecord
100
AcDbTextStyleTableRecord
  2
STANDARD
 70
0
 40
0.0
 41
0.8
 50
0.0
 71
0
 42
0.2
  3
txt
  4

  0
STYLE
  5
200
100
AcDbSymbolTableRecord
100
AcDbTextStyleTableRecord
  2
TEXTSTYLE_1
 70
0
 40
0.0
 41
0.8
 50
0.0
 71
0
 42
0.2
  3
gdt
  4

  0
ENDTAB
  0
TABLE
  2
VIEW
  5
6
100
AcDbSymbolTable
 70
0
  0
ENDTAB
  0
TABLE
  2
UCS
  5
7
100
AcDbSymbolTable
 70
0
  0
ENDTAB
  0
TABLE
  2
APPID
  5
9
100
AcDbSymbolTable
 70
1
  0
APPID
  5
201
100
AcDbSymbolTableRecord
100
AcDbRegAppTableRecord
  2
ACAD
 70
0
  0
ENDTAB
  0
TABLE
  2
BLOCK_RECORD
  5
1
100
AcDbSymbolTable
 70
0
  0
BLOCK_RECORD
  5
202
100
AcDbSymbolTableRecord
100
AcDbBlockTableRecord
  2
*Model_Space
  0
BLOCK_RECORD
  5
203
100
AcDbSymbolTableRecord
100
AcDbBlockTableRecord
  2
*Paper_Space
  0
BLOCK_RECORD
  5
204
100
AcDbSymbolTableRecord
100
AcDbBlockTableRecord
  2
_FILLED
  0
ENDTAB
  0
TABLE
  2
DIMSTYLE
  5
A
100
AcDbSymbolTable
 70
1
100
AcDbDimStyleTable
 71
0
  0
DIMSTYLE
105
205
100
AcDbSymbolTableRecord
100
AcDbDimStyleTableRecord
  2
STANDARD
 70
0
  3

  4

 40
1.0
 41
0.1
 42
0.0625
 43
0.38
 44
0.125
 45
0.0
 46
0.0
 47
0.001
 48
0.001
140
0.08
141
0.09
142
0.0
143
25.4
144
1.0
145
0.0
146
1.0
147
0.09
 71
1.0
 72
0.0
 73
1
 74
1
 75
0
 76
0
 77
0
 78
4
 79
1
170
1
171
2
172
0
173
0
174
0
175
0
176
0
177
0
178
0
270
2
179
3
271
3
272
3
273
2
274
2
275
0
280
0
281
0
282
0
283
1
284
4
285
0
286
0
287
3
288
0
340
11
278
46
341
204
342
204
343
204
344
204
  0
ENDTAB
  0
ENDSEC
  0
SECTION
  2
BLOCKS
  0
BLOCK
  5
20
100
AcDbEntity
  8
0
100
AcDbBlockBegin
  2
*Model_Space
 70
0
 10
0.0
 20
0.0
 30
0.0
  3
*Model_Space
  1

  0
ENDBLK
  5
21
100
AcDbEntity
  8
0
100
AcDbBlockEnd
  0
BLOCK
  5
1C
100
AcDbEntity
  8
0
100
AcDbBlockBegin
  2
*Paper_Space
 70
0
 10
0.0
 20
0.0
 30
0.0
  3
*Paper_Space
  1

  0
ENDBLK
  5
1D
100
AcDbEntity
  8
0
100
AcDbBlockEnd
  0
BLOCK
  5
206
100
AcDbEntity
  8
0
100
AcDbBlockBegin
  2
_FILLED
 70
64
 10
0.0
 20
0.0
  3
_FILLED
  1

  0
SOLID
  5
207
100
AcDbEntity
  8
0
  6
BYBLOCK
 62
0
100
AcDbTrace
 10
0.0
 20
0.0
 11
-1.0
 21
0.2
 12
-1.0
 22
-0.2
 13
-1.0
 23
-0.2
  0
ENDBLK
  5
208
100
AcDbEntity
  8
0
  6
BYBLOCK
 62
0
100
AcDbBlockEnd
  0
ENDSEC
  0
SECTION
  2
ENTITIES
  0
LINE
  5
209
100
AcDbEntity
  8
0
100
AcDbLine
 62
7
  6
CONTINUOUS
 10
10.6767502457
 20
-3.0421229129
 11
10.7054393884
 21
-3.0508940641
  0
LINE
  5
20A
100
AcDbEntity
  8
0
100
AcDbLine
 62
7
  6
CONTINUOUS
 10
11.3891972889
 20
-3.2599398329
 11
11.4178864316
 21
-3.2687109841
  0
LINE
  5
20B
100
AcDbEntity
  8
0
100
AcDbLine
 62
7
  6
CONTINUOUS
 10
10.7051761464
 20
-2.9734967179
 11
10.7316645742
 21
-2.9875808648
  0
LINE
  5
20C
100
AcDbEntity
  8
0
100
AcDbLine
 62
7
  6
CONTINUOUS
 10
11.3629721031
 20
-3.3232530322
 11
11.3894605309
 21
-3.3373371791
  0
LINE
  5
20D
100
AcDbEntity
  8
0
100
AcDbLine
 62
7
  6
CONTINUOUS
 10
6.1138401751
 20
8.011367669
 11
6.1153199334
 21
8.0325291981
  0
LINE
  5
20E
100
AcDbEntity
  8
0
100
AcDbLine
 62
7
  6
CONTINUOUS
 10
6.2371444853
 20
9.7747014568
 11
6.2386242436
 21
9.7958629859
  0
LINE
  5
20F
100
AcDbEntity
  8
0
100
AcDbLine
 62
7
  6
CONTINUOUS
 10
6.0853956384
 20
8.0444520141
 11
6.0876130219
 21
8.0655490094
  0
LINE
  5
210
100
AcDbEntity
  8
0
100
AcDbLine
 62
7
  6
CONTINUOUS
 10
6.2701642966
 20
9.8024083682
 11
6.2723816801
 21
9.8235053635
  0
LINE
  5
211
100
AcDbEntity
  8
0
100
AcDbLine
 62
7
  6
CONTINUOUS
 10
6.0581230562
 20
8.0785089052
 11
6.0610753635
 21
8.0995156632
  0
LINE
  5
212
100
AcDbEntity
  8
0
100
AcDbLine
 62
7
  6
CONTINUOUS
 10
6.3041309504
 20
9.8289460266
 11
6.3070832577
 21
9.8499527846
  0
LINE
  5
213
100
AcDbEntity
  8
0
100
AcDbLine
 62
7
  6
CONTINUOUS
 10
6.0320556562
 20
8.1134968491
 11
6.0357392903
 21
8.1343877763
  0
LINE
  5
214
100
AcDbEntity
  8
0
100
AcDbLine
 62
7
  6
CONTINUOUS
 10
6.3390030635
 20
9.8542820999
 11
6.3426866976
 21
9.8751730271
  0
LINE
  5
215
100
AcDbEntity
  8
0
100
AcDbLine
 62
7
  6
CONTINUOUS
 10
6.0072251973
 20
8.1493732185
 11
6.0116356703
 21
8.1701228625
  0
LINE
  5
216
100
AcDbEntity
  8
0
100
AcDbLine
 62
7
  6
CONTINUOUS
 10
6.3747381497
 20
9.8783857198
 11
6.3791486227
 21
9.8991353639
  0
LINE
  5
217
100
AcDbEntity
  8
0
100
AcDbLine
 62
7
  6
CONTINUOUS
 10
5.9836619317
 20
8.1860943034
 11
5.9887938701
 21
8.2066773841
  0
LINE
  5
218
100
AcDbEntity
  8
0
100
AcDbLine
 62
7
  6
CONTINUOUS
 10
6.4112926712
 20
9.90122752
 11
6.4164246096
 21
9.9218106007
  0
LINE
  5
219
100
AcDbEntity
  8
0
100
AcDbLine
 62
7
  6
CONTINUOUS
 10
5.9613945676
 20
8.223615365
 11
5.9672417189
 21
8.2440068049
  0
LINE
  5
21A
100
AcDbEntity
  8
0
100
AcDbLine
 62
7
  6
CONTINUOUS
 10
6.4486220921
 20
9.9227796712
 11
6.4544692434
 21
9.9431711111
  0
LINE
  5
21B
100
AcDbEntity
  8
0
100
AcDbLine
 62
7
  6
CONTINUOUS
 10
5.9404502344
 20
8.2618906896
 11
5.9470054748
 21
8.2820656449
  0
LINE
  5
21C
100
AcDbEntity
  8
0
100
AcDbLine
 62
7
  6
CONTINUOUS
 10
6.4866809321
 20
9.9430159154
 11
6.4932361725
 21
9.9631908708
  0
LINE
  5
21D
100
AcDbEntity
  8
0
100
AcDbLine
 62
7
  6
CONTINUOUS
 10
5.9208544494
 20
8.3008736445
 11
5.9281097923
 21
8.3208075353
  0
LINE
  5
21E
100
AcDbEntity
  8
0
100
AcDbLine
 62
7
  6
CONTINUOUS
 10
6.5254228224
 20
9.9619115978
 11
6.5326781653
 21
9.9818454886
  0
LINE
  5
21F
100
AcDbEntity
  8
0
100
AcDbLine
 62
7
  6
CONTINUOUS
 10
5.9026310872
 20
8.3405167352
 11
5.9105776931
 21
8.3601852749
  0
LINE
  5
220
100
AcDbEntity
  8
0
100
AcDbLine
 62
7
  6
CONTINUOUS
 10
6.564800562
 20
9.9794436971
 11
6.5727471679
 21
9.9991122368
  0
LINE
  5
221
100
AcDbEntity
  8
0
100
AcDbLine
 62
7
  6
CONTINUOUS
 10
5.88580235
 20
8.3807716624
 11
5.8944305372
 21
8.4001508881
  0
LINE
  5
222
100
AcDbEntity
  8
0
100
AcDbLine
 62
7
  6
CONTINUOUS
 10
6.6047661752
 20
9.995590853
 11
6.6133943624
 21
10.0149700786
  0
LINE
  5
223
100
AcDbEntity
  8
0
100
AcDbLine
 62
7
  6
CONTINUOUS
 10
5.8703887412
 20
8.421589382
 11
5.8796879975
 21
8.4406556829
  0
LINE
  5
224
100
AcDbEntity
  8
0
100
AcDbLine
 62
7
  6
CONTINUOUS
 10
6.6452709701
 20
10.0103333926
 11
6.6545702264
 21
10.0293996936
  0
LINE
  5
225
100
AcDbEntity
  8
0
100
AcDbLine
 62
7
  6
CONTINUOUS
 10
5.8564090398
 20
8.4629201637
 11
5.8663680356
 21
8.4816503106
  0
LINE
  5
226
100
AcDbEntity
  8
0
100
AcDbLine
 62
7
  6
CONTINUOUS
 10
6.6862655977
 20
10.0236533546
 11
6.6962245935
 21
10.0423835015
  0
LINE
  5
227
100
AcDbEntity
  8
0
100
AcDbLine
 62
7
  6
CONTINUOUS
 10
5.8640442374
 20
9.7932121889
 11
5.6325162289
 21
9.3921939148
  0
LINE
  5
228
100
AcDbEntity
  8
0
100
AcDbLine
 62
9
  6
CONTINUOUS
 10
5.902524073
 20
9.7765795044
 11
5.6661604436
 21
9.3671857999
  0
LINE
  5
229
100
AcDbEntity
  8
0
100
AcDbLine
 62
7
  6
CONTINUOUS
 10
5.8438802779
 20
8.5047136523
 11
5.8544868796
 21
8.5230848253
  0
LINE
  5
22A
100
AcDbEntity
  8
0
100
AcDbLine
 62
7
  6
CONTINUOUS
 10
6.7277001125
 20
10.0355345105
 11
6.7383067142
 21
10.0539056836
  0
LINE
  5
22B
100
AcDbEntity
  8
0
100
AcDbLine
 62
7
  6
CONTINUOUS
 10
5.83281772
 20
8.5469189289
 11
5.8440590051
 21
8.5649087457
  0
LINE
  5
22C
100
AcDbEntity
  8
0
100
AcDbLine
 62
7
  6
CONTINUOUS
 10
6.7695240329
 20
10.045962385
 11
6.780765318
 21
10.0639522018
  0
LINE
  5
22D
100
AcDbEntity
  8
0
100
AcDbLine
 62
7
  6
CONTINUOUS
 10
5.8232348439
 20
8.589484573
 11
5.8350971167
 21
8.6070711156
  0
LINE
  5
22E
100
AcDbEntity
  8
0
100
AcDbLine
 62
7
  6
CONTINUOUS
 10
6.8116864028
 20
10.0549242734
 11
6.8235486756
 21
10.0725108161
  0
LINE
  5
22F
100
AcDbEntity
  8
0
100
AcDbLine
 62
7
  6
CONTINUOUS
 10
10.8653981081
 20
-2.8132747563
 11
10.879482255
 21
-2.8397631841
  0
LINE
  5
230
100
AcDbEntity
  8
0
100
AcDbLine
 62
7
  6
CONTINUOUS
 10
11.2151544224
 20
-3.471070713
 11
11.2292385692
 21
-3.4975591407
  0
LINE
  5
231
100
AcDbEntity
  8
0
100
AcDbLine
 62
7
  6
CONTINUOUS
 10
6.2723816801
 20
7.8619007395
 11
6.2701642966
 21
7.8829977348
  0
LINE
  5
232
100
AcDbEntity
  8
0
100
AcDbLine
 62
7
  6
CONTINUOUS
 10
6.2386242436
 20
7.8895431171
 11
6.2371444853
 21
7.9107046462
  0
LINE
  5
233
100
AcDbEntity
  8
0
100
AcDbLine
 62
7
  6
CONTINUOUS
 10
6.1139481855
 20
9.6724938142
 11
6.1138401751
 21
9.674038434
  0
LINE
  5
234
100
AcDbEntity
  8
0
100
AcDbLine
 62
7
  6
CONTINUOUS
 10
6.1434220112
 20
9.706109925
 11
6.1441623414
 21
9.6849096441
  0
LINE
  5
235
100
AcDbEntity
  8
0
100
AcDbLine
 62
7
  6
CONTINUOUS
 10
6.205111746
 20
7.9395470542
 11
6.2058520762
 21
7.9183467733
  0
LINE
  5
236
100
AcDbEntity
  8
0
100
AcDbLine
 62
7
  6
CONTINUOUS
 10
6.1741051058
 20
9.7371294878
 11
6.1741051058
 21
9.7159162844
  0
LINE
  5
237
100
AcDbEntity
  8
0
100
AcDbLine
 62
7
  6
CONTINUOUS
 10
6.1741051058
 20
7.9694898186
 11
6.1741051058
 21
7.9482766152
  0
LINE
  5
238
100
AcDbEntity
  8
0
100
AcDbLine
 62
7
  6
CONTINUOUS
 10
6.2058520762
 20
9.7670593297
 11
6.205111746
 21
9.7458590488
  0
LINE
  5
239
100
AcDbEntity
  8
0
100
AcDbLine
 62
7
  6
CONTINUOUS
 10
6.1441623414
 20
8.0004964589
 11
6.1434220112
 21
7.979296178
  0
LINE
  5
23A
100
AcDbEntity
  8
0
100
AcDbLine
 62
7
  6
CONTINUOUS
 10
6.7759284812
 20
7.386024762
 11
6.8623682654
 21
8.4233021721
  0
LINE
  5
23B
100
AcDbEntity
  8
0
100
AcDbLine
 62
7
  6
CONTINUOUS
 10
5.815143325
 20
8.6323587247
 11
5.8276121332
 21
8.6495205668
  0
LINE
  5
23C
100
AcDbEntity
  8
0
100
AcDbLine
 62
7
  6
CONTINUOUS
 10
6.8541358539
 20
10.062409257
 11
6.8666046621
 21
10.0795710991
  0
LINE
  5
23D
100
AcDbEntity
  8
0
100
AcDbLine
 62
7
  6
CONTINUOUS
 10
5.8085530216
 20
8.6754891486
 11
5.8216131737
 21
8.692205381
  0
LINE
  5
23E
100
AcDbEntity
  8
0
100
AcDbLine
 62
7
  6
CONTINUOUS
 10
6.8968206682
 20
10.0684082164
 11
6.9098808203
 21
10.0851244488
  0
LINE
  5
23F
100
AcDbEntity
  8
0
100
AcDbLine
 62
7
  6
CONTINUOUS
 10
5.8034719629
 20
8.7188232969
 11
5.8171075473
 21
8.7350735535
  0
LINE
  5
240
100
AcDbEntity
  8
0
100
AcDbLine
 62
7
  6
CONTINUOUS
 10
6.9396888407
 20
10.0729138429
 11
6.953324425
 21
10.0891640995
  0
LINE
  5
241
100
AcDbEntity
  8
0
100
AcDbLine
 62
7
  6
CONTINUOUS
 10
5.7999063395
 20
8.7623083736
 11
5.8141007431
 21
8.7780728559
  0
LINE
  5
242
100
AcDbEntity
  8
0
100
AcDbLine
 62
7
  6
CONTINUOUS
 10
6.9826881431
 20
10.075920647
 11
6.9968825468
 21
10.0916851294
  0
LINE
  5
243
100
AcDbEntity
  8
0
100
AcDbLine
 62
7
  6
CONTINUOUS
 10
5.7978604953
 20
8.8058913988
 11
5.8125964247
 21
8.8211509003
  0
LINE
  5
244
100
AcDbEntity
  8
0
100
AcDbLine
 62
7
  6
CONTINUOUS
 10
7.0257661875
 20
10.0774249655
 11
7.0405021168
 21
10.092684467
  0
LINE
  5
245
100
AcDbEntity
  8
0
100
AcDbLine
 62
7
  6
CONTINUOUS
 10
5.7973369231
 20
8.8495192733
 11
5.8125964247
 21
8.8642552027
  0
LINE
  5
246
100
AcDbEntity
  8
0
100
AcDbLine
 62
7
  6
CONTINUOUS
 10
7.0688704898
 20
10.0774249655
 11
7.0841299914
 21
10.0921608948
  0
LINE
  5
247
100
AcDbEntity
  8
0
100
AcDbLine
 62
7
  6
CONTINUOUS
 10
5.7983362608
 20
8.8931388434
 11
5.8141007431
 21
8.9073332471
  0
LINE
  5
248
100
AcDbEntity
  8
0
100
AcDbLine
 62
7
  6
CONTINUOUS
 10
7.1119485342
 20
10.075920647
 11
7.1277130166
 21
10.0901150507
  0
LINE
  5
249
100
AcDbEntity
  8
0
100
AcDbLine
 62
7
  6
CONTINUOUS
 10
5.8008572907
 20
8.9366969652
 11
5.8171075473
 21
8.9503325495
  0
LINE
  5
24A
100
AcDbEntity
  8
0
100
AcDbLine
 62
7
  6
CONTINUOUS
 10
7.1549478367
 20
10.0729138429
 11
7.1711980933
 21
10.0865494272
  0
LINE
  5
24B
100
AcDbEntity
  8
0
100
AcDbLine
 62
7
  6
CONTINUOUS
 10
5.8048969413
 20
8.9801405698
 11
5.8216131737
 21
8.993200722
  0
LINE
  5
24C
100
AcDbEntity
  8
0
100
AcDbLine
 62
7
  6
CONTINUOUS
 10
7.1978160091
 20
10.0684082164
 11
7.2145322416
 21
10.0814683685
  0
LINE
  5
24D
100
AcDbEntity
  8
0
100
AcDbLine
 62
7
  6
CONTINUOUS
 10
5.8104502911
 20
9.0234167281
 11
5.8276121332
 21
9.0358855362
  0
LINE
  5
24E
100
AcDbEntity
  8
0
100
AcDbLine
 62
7
  6
CONTINUOUS
 10
7.2405008234
 20
10.062409257
 11
7.2576626655
 21
10.0748780651
  0
LINE
  5
24F
100
AcDbEntity
  8
0
100
AcDbLine
 62
7
  6
CONTINUOUS
 10
5.817510574
 20
9.0664727145
 11
5.8350971167
 21
9.0783349874
  0
LINE
  5
250
100
AcDbEntity
  8
0
100
AcDbLine
 62
7
  6
CONTINUOUS
 10
7.2829502745
 20
10.0549242734
 11
7.3005368172
 21
10.0667865462
  0
LINE
  5
251
100
AcDbEntity
  8
0
100
AcDbLine
 62
7
  6
CONTINUOUS
 10
5.8260691883
 20
9.1092560721
 11
5.8440590051
 21
9.1204973573
  0
LINE
  5
252
100
AcDbEntity
  8
0
100
AcDbLine
 62
7
  6
CONTINUOUS
 10
7.3251126444
 20
10.045962385
 11
7.3431024612
 21
10.0572036702
  0
LINE
  5
253
100
AcDbEntity
  8
0
100
AcDbLine
 62
7
  6
CONTINUOUS
 10
6.5326781653
 20
7.7035606144
 11
6.5254228224
 21
7.7234945051
  0
LINE
  5
254
100
AcDbEntity
  8
0
100
AcDbLine
 62
7
  6
CONTINUOUS
 10
6.4932361725
 20
7.7222152322
 11
6.4866809321
 21
7.7423901876
  0
LINE
  5
255
100
AcDbEntity
  8
0
100
AcDbLine
 62
7
  6
CONTINUOUS
 10
6.4544692434
 20
7.7422349919
 11
6.4486220921
 21
7.7626264318
  0
LINE
  5
256
100
AcDbEntity
  8
0
100
AcDbLine
 62
7
  6
CONTINUOUS
 10
6.4164246096
 20
7.7635955023
 11
6.4112926712
 21
7.784178583
  0
LINE
  5
257
100
AcDbEntity
  8
0
100
AcDbLine
 62
7
  6
CONTINUOUS
 10
6.3791486227
 20
7.7862707391
 11
6.3747381497
 21
7.8070203832
  0
LINE
  5
258
100
AcDbEntity
  8
0
100
AcDbLine
 62
7
  6
CONTINUOUS
 10
6.3426866976
 20
7.8102330759
 11
6.3390030635
 21
7.8311240031
  0
LINE
  5
259
100
AcDbEntity
  8
0
100
AcDbLine
 62
7
  6
CONTINUOUS
 10
6.3070832577
 20
7.8354533184
 11
6.3041309504
 21
7.8564600764
  0
LINE
  5
25A
100
AcDbEntity
  8
0
100
AcDbLine
 62
7
  6
CONTINUOUS
 10
7.3187081956
 20
7.3860247681
 11
7.2322684119
 21
8.4233021721
  0
LINE
  5
25B
100
AcDbEntity
  8
0
100
AcDbLine
 62
7
  6
CONTINUOUS
 10
7.7905057269
 20
7.8564600764
 11
7.7875534196
 21
7.8354533184
  0
LINE
  5
25C
100
AcDbEntity
  8
0
100
AcDbLine
 62
7
  6
CONTINUOUS
 10
7.7556336138
 20
7.8311240031
 11
7.7519499797
 21
7.8102330759
  0
LINE
  5
25D
100
AcDbEntity
  8
0
100
AcDbLine
 62
7
  6
CONTINUOUS
 10
7.7198985276
 20
7.8070203832
 11
7.7154880546
 21
7.7862707391
  0
LINE
  5
25E
100
AcDbEntity
  8
0
100
AcDbLine
 62
7
  6
CONTINUOUS
 10
7.6833440061
 20
7.784178583
 11
7.6782120677
 21
7.7635955023
  0
LINE
  5
25F
100
AcDbEntity
  8
0
100
AcDbLine
 62
7
  6
CONTINUOUS
 10
7.6460145852
 20
7.7626264318
 11
7.6401674339
 21
7.7422349919
  0
LINE
  5
260
100
AcDbEntity
  8
0
100
AcDbLine
 62
7
  6
CONTINUOUS
 10
7.6079557452
 20
7.7423901876
 11
7.6014005049
 21
7.7222152322
  0
LINE
  5
261
100
AcDbEntity
  8
0
100
AcDbLine
 62
7
  6
CONTINUOUS
 10
7.5692138549
 20
7.7234945051
 11
7.561958512
 21
7.7035606144
  0
LINE
  5
262
100
AcDbEntity
  8
0
100
AcDbLine
 62
7
  6
CONTINUOUS
 10
7.5298361153
 20
7.7059624059
 11
7.5218895094
 21
7.6862938662
  0
LINE
  5
263
100
AcDbEntity
  8
0
100
AcDbLine
 62
7
  6
CONTINUOUS
 10
7.4898705021
 20
7.68981525
 11
7.4812423149
 21
7.6704360244
  0
LINE
  5
264
100
AcDbEntity
  8
0
100
AcDbLine
 62
7
  6
CONTINUOUS
 10
7.4493657072
 20
7.6750727104
 11
7.4400664509
 21
7.6560064094
  0
LINE
  5
265
100
AcDbEntity
  8
0
100
AcDbLine
 62
7
  6
CONTINUOUS
 10
8.2382276375
 20
9.2224859393
 11
8.2282686417
 21
9.2037557924
  0
LINE
  5
266
100
AcDbEntity
  8
0
100
AcDbLine
 62
7
  6
CONTINUOUS
 10
7.4083710796
 20
7.6617527484
 11
7.3984120838
 21
7.6430226015
  0
LINE
  5
267
100
AcDbEntity
  8
0
100
AcDbLine
 62
7
  6
CONTINUOUS
 10
8.2507563994
 20
9.1806924507
 11
8.2401497977
 21
9.1623212776
  0
LINE
  5
268
100
AcDbEntity
  8
0
100
AcDbLine
 62
7
  6
CONTINUOUS
 10
7.3669365648
 20
7.6498715925
 11
7.3563299631
 21
7.6315004194
  0
LINE
  5
269
100
AcDbEntity
  8
0
100
AcDbLine
 62
7
  6
CONTINUOUS
 10
8.1731438126
 20
9.8060727063
 11
7.3180551179
 21
9.2125749531
  0
LINE
  5
26A
100
AcDbEntity
  8
0
100
AcDbLine
 62
7
  6
CONTINUOUS
 10
5.8361157066
 20
9.1517146759
 11
5.8544868796
 21
9.1623212776
  0
LINE
  5
26B
100
AcDbEntity
  8
0
100
AcDbLine
 62
7
  6
CONTINUOUS
 10
7.3669365648
 20
10.0355345105
 11
7.3853077379
 21
10.0461411122
  0
LINE
  5
26C
100
AcDbEntity
  8
0
100
AcDbLine
 62
7
  6
CONTINUOUS
 10
5.8476378887
 20
9.1937967967
 11
5.8663680356
 21
9.2037557924
  0
LINE
  5
26D
100
AcDbEntity
  8
0
100
AcDbLine
 62
7
  6
CONTINUOUS
 10
7.4083710796
 20
10.0236533546
 11
7.4271012265
 21
10.0336123504
  0
LINE
  5
26E
100
AcDbEntity
  8
0
100
AcDbLine
 62
7
  6
CONTINUOUS
 10
5.8606216966
 20
9.2354511637
 11
5.8620133817
 21
9.2361299339
  0
LINE
  5
26F
100
AcDbEntity
  8
0
100
AcDbLine
 62
7
  6
CONTINUOUS
 10
7.4493657072
 20
10.0103333926
 11
7.4684320082
 21
10.0196326489
  0
LINE
  5
270
100
AcDbEntity
  8
0
100
AcDbLine
 62
7
  6
CONTINUOUS
 10
7.4898705021
 20
9.995590853
 11
7.5092497277
 21
10.0042190401
  0
LINE
  5
271
100
AcDbEntity
  8
0
100
AcDbLine
 62
7
  6
CONTINUOUS
 10
7.5298361153
 20
9.9794436971
 11
7.549504655
 21
9.987390303
  0
LINE
  5
272
100
AcDbEntity
  8
0
100
AcDbLine
 62
7
  6
CONTINUOUS
 10
7.5692138549
 20
9.9619115978
 11
7.5891477456
 21
9.9691669407
  0
LINE
  5
273
100
AcDbEntity
  8
0
100
AcDbLine
 62
7
  6
CONTINUOUS
 10
7.6079557452
 20
9.9430159154
 11
7.6281307006
 21
9.9495711558
  0
LINE
  5
274
100
AcDbEntity
  8
0
100
AcDbLine
 62
7
  6
CONTINUOUS
 10
7.6460145852
 20
9.9227796712
 11
7.6664060251
 21
9.9286268225
  0
LINE
  5
275
100
AcDbEntity
  8
0
100
AcDbLine
 62
7
  6
CONTINUOUS
 10
5.8276121332
 20
9.0358855362
 11
5.815143325
 21
9.0530473783
  0
LINE
  5
276
100
AcDbEntity
  8
0
100
AcDbLine
 62
7
  6
CONTINUOUS
 10
5.8350971167
 20
9.0783349874
 11
5.8232348439
 21
9.09592153
  0
LINE
  5
277
100
AcDbEntity
  8
0
100
AcDbLine
 62
7
  6
CONTINUOUS
 10
6.780765318
 20
7.6214539012
 11
6.7695240329
 21
7.639443718
  0
LINE
  5
278
100
AcDbEntity
  8
0
100
AcDbLine
 62
7
  6
CONTINUOUS
 10
5.8440590051
 20
9.1204973573
 11
5.83281772
 21
9.1384871741
  0
LINE
  5
279
100
AcDbEntity
  8
0
100
AcDbLine
 62
7
  6
CONTINUOUS
 10
6.7383067142
 20
7.6315004194
 11
6.7277001125
 21
7.6498715925
  0
LINE
  5
27A
100
AcDbEntity
  8
0
100
AcDbLine
 62
7
  6
CONTINUOUS
 10
5.8544868796
 20
9.1623212776
 11
5.8438802779
 21
9.1806924507
  0
LINE
  5
27B
100
AcDbEntity
  8
0
100
AcDbLine
 62
7
  6
CONTINUOUS
 10
6.6962245935
 20
7.6430226015
 11
6.6862655977
 21
7.6617527484
  0
LINE
  5
27C
100
AcDbEntity
  8
0
100
AcDbLine
 62
7
  6
CONTINUOUS
 10
5.8663680356
 20
9.2037557924
 11
5.8564090398
 21
9.2224859393
  0
LINE
  5
27D
100
AcDbEntity
  8
0
100
AcDbLine
 62
7
  6
CONTINUOUS
 10
6.6545702264
 20
7.6560064094
 11
6.6452709701
 21
7.6750727104
  0
LINE
  5
27E
100
AcDbEntity
  8
0
100
AcDbLine
 62
7
  6
CONTINUOUS
 10
6.6133943624
 20
7.6704360244
 11
6.6047661752
 21
7.68981525
  0
LINE
  5
27F
100
AcDbEntity
  8
0
100
AcDbLine
 62
7
  6
CONTINUOUS
 10
6.5727471679
 20
7.6862938662
 11
6.564800562
 21
7.7059624059
  0
LINE
  5
280
100
AcDbEntity
  8
0
100
AcDbLine
 62
7
  6
CONTINUOUS
 10
7.8222549972
 20
9.8235053635
 11
7.8244723807
 21
9.8024083682
  0
LINE
  5
281
100
AcDbEntity
  8
0
100
AcDbLine
 62
7
  6
CONTINUOUS
 10
8.0070236554
 20
8.0655490094
 11
8.009241039
 21
8.0444520141
  0
LINE
  5
282
100
AcDbEntity
  8
0
100
AcDbLine
 62
7
  6
CONTINUOUS
 10
7.8560124338
 20
9.7958629859
 11
7.857492192
 21
9.7747014568
  0
LINE
  5
283
100
AcDbEntity
  8
0
100
AcDbLine
 62
7
  6
CONTINUOUS
 10
7.9793167439
 20
8.0325291981
 11
7.9807965022
 21
8.011367669
  0
LINE
  5
284
100
AcDbEntity
  8
0
100
AcDbLine
 62
7
  6
CONTINUOUS
 10
7.9512146661
 20
7.979296178
 11
7.950474336
 21
8.0004964589
  0
LINE
  5
285
100
AcDbEntity
  8
0
100
AcDbLine
 62
7
  6
CONTINUOUS
 10
7.8895249313
 20
9.7458590488
 11
7.8887846011
 21
9.7670593297
  0
LINE
  5
286
100
AcDbEntity
  8
0
100
AcDbLine
 62
7
  6
CONTINUOUS
 10
7.9205315715
 20
7.9482766152
 11
7.9205315715
 21
7.9694898186
  0
LINE
  5
287
100
AcDbEntity
  8
0
100
AcDbLine
 62
7
  6
CONTINUOUS
 10
7.9205315715
 20
9.7159162844
 11
7.9205315715
 21
9.7371294878
  0
LINE
  5
288
100
AcDbEntity
  8
0
100
AcDbLine
 62
7
  6
CONTINUOUS
 10
7.8887846011
 20
7.9183467733
 11
7.8895249313
 21
7.9395470542
  0
LINE
  5
289
100
AcDbEntity
  8
0
100
AcDbLine
 62
7
  6
CONTINUOUS
 10
7.950474336
 20
9.6849096441
 11
7.9512146661
 21
9.706109925
  0
LINE
  5
28A
100
AcDbEntity
  8
0
100
AcDbLine
 62
7
  6
CONTINUOUS
 10
7.9807965022
 20
9.674038434
 11
7.9806884919
 21
9.6724938142
  0
LINE
  5
28B
100
AcDbEntity
  8
0
100
AcDbLine
 62
7
  6
CONTINUOUS
 10
7.857492192
 20
7.9107046462
 11
7.8560124338
 21
7.8895431171
  0
LINE
  5
28C
100
AcDbEntity
  8
0
100
AcDbLine
 62
7
  6
CONTINUOUS
 10
7.8244723807
 20
7.8829977348
 11
7.8222549972
 21
7.8619007395
  0
LINE
  5
28D
100
AcDbEntity
  8
0
100
AcDbLine
 62
7
  6
CONTINUOUS
 10
8.2618189574
 20
9.1384871741
 11
8.2505776722
 21
9.1204973573
  0
LINE
  5
28E
100
AcDbEntity
  8
0
100
AcDbLine
 62
7
  6
CONTINUOUS
 10
7.3251126444
 20
7.639443718
 11
7.3138713593
 21
7.6214539012
  0
LINE
  5
28F
100
AcDbEntity
  8
0
100
AcDbLine
 62
7
  6
CONTINUOUS
 10
8.2714018334
 20
9.09592153
 11
8.2595395606
 21
9.0783349874
  0
LINE
  5
290
100
AcDbEntity
  8
0
100
AcDbLine
 62
7
  6
CONTINUOUS
 10
8.2794933523
 20
9.0530473783
 11
8.2670245441
 21
9.0358855362
  0
LINE
  5
291
100
AcDbEntity
  8
0
100
AcDbLine
 62
7
  6
CONTINUOUS
 10
8.2860836557
 20
9.0099169544
 11
8.2730235036
 21
8.993200722
  0
LINE
  5
292
100
AcDbEntity
  8
0
100
AcDbLine
 62
7
  6
CONTINUOUS
 10
8.2911647144
 20
8.9665828061
 11
8.27752913
 21
8.9503325495
  0
LINE
  5
293
100
AcDbEntity
  8
0
100
AcDbLine
 62
7
  6
CONTINUOUS
 10
8.2947303379
 20
8.9230977294
 11
8.2805359342
 21
8.9073332471
  0
LINE
  5
294
100
AcDbEntity
  8
0
100
AcDbLine
 62
7
  6
CONTINUOUS
 10
8.296776182
 20
8.8795147042
 11
8.2820402526
 21
8.8642552027
  0
LINE
  5
295
100
AcDbEntity
  8
0
100
AcDbLine
 62
7
  6
CONTINUOUS
 10
8.2972997542
 20
8.8358868297
 11
8.2820402526
 21
8.8211509003
  0
LINE
  5
296
100
AcDbEntity
  8
0
100
AcDbLine
 62
7
  6
CONTINUOUS
 10
8.2963004165
 20
8.7922672596
 11
8.2805359342
 21
8.7780728559
  0
LINE
  5
297
100
AcDbEntity
  8
0
100
AcDbLine
 62
7
  6
CONTINUOUS
 10
8.2937793867
 20
8.7487091378
 11
8.27752913
 21
8.7350735535
  0
LINE
  5
298
100
AcDbEntity
  8
0
100
AcDbLine
 62
7
  6
CONTINUOUS
 10
8.289739736
 20
8.7052655332
 11
8.2730235036
 21
8.692205381
  0
LINE
  5
299
100
AcDbEntity
  8
0
100
AcDbLine
 62
7
  6
CONTINUOUS
 10
8.2841863862
 20
8.6619893749
 11
8.2670245441
 21
8.6495205668
  0
LINE
  5
29A
100
AcDbEntity
  8
0
100
AcDbLine
 62
7
  6
CONTINUOUS
 10
8.2771261033
 20
8.6189333885
 11
8.2595395606
 21
8.6070711156
  0
LINE
  5
29B
100
AcDbEntity
  8
0
100
AcDbLine
 62
7
  6
CONTINUOUS
 10
6.7953835349
 20
7.6194854063
 11
6.7940998601
 21
7.6186195567
  0
LINE
  5
29C
100
AcDbEntity
  8
0
100
AcDbLine
 62
7
  6
CONTINUOUS
 10
8.4445335717
 20
9.3360116385
 11
7.5030051912
 21
8.8922320293
  0
LINE
  5
29D
100
AcDbEntity
  8
0
100
AcDbLine
 62
7
  6
CONTINUOUS
 10
5.8141007431
 20
8.7780728559
 11
5.7983362608
 21
8.7922672596
  0
LINE
  5
29E
100
AcDbEntity
  8
0
100
AcDbLine
 62
7
  6
CONTINUOUS
 10
5.8125964247
 20
8.8211509003
 11
5.7973369231
 21
8.8358868297
  0
LINE
  5
29F
100
AcDbEntity
  8
0
100
AcDbLine
 62
7
  6
CONTINUOUS
 10
5.8125964247
 20
8.8642552027
 11
5.7978604953
 21
8.8795147042
  0
LINE
  5
2A0
100
AcDbEntity
  8
0
100
AcDbLine
 62
7
  6
CONTINUOUS
 10
5.8141007431
 20
8.9073332471
 11
5.7999063395
 21
8.9230977294
  0
LINE
  5
2A1
100
AcDbEntity
  8
0
100
AcDbLine
 62
7
  6
CONTINUOUS
 10
5.8171075473
 20
8.9503325495
 11
5.8034719629
 21
8.9665828061
  0
LINE
  5
2A2
100
AcDbEntity
  8
0
100
AcDbLine
 62
7
  6
CONTINUOUS
 10
5.8216131737
 20
8.993200722
 11
5.8085530216
 21
9.0099169544
  0
LINE
  5
2A3
100
AcDbEntity
  8
0
100
AcDbLine
 62
7
  6
CONTINUOUS
 10
7.561958512
 20
9.9818454886
 11
7.5692138549
 21
9.9619115978
  0
LINE
  5
2A4
100
AcDbEntity
  8
0
100
AcDbLine
 62
7
  6
CONTINUOUS
 10
8.166526885
 20
8.3208075353
 11
8.1737822279
 21
8.3008736445
  0
LINE
  5
2A5
100
AcDbEntity
  8
0
100
AcDbLine
 62
7
  6
CONTINUOUS
 10
7.6014005049
 20
9.9631908708
 11
7.6079557452
 21
9.9430159154
  0
LINE
  5
2A6
100
AcDbEntity
  8
0
100
AcDbLine
 62
7
  6
CONTINUOUS
 10
8.1476312026
 20
8.2820656449
 11
8.1541864429
 21
8.2618906896
  0
LINE
  5
2A7
100
AcDbEntity
  8
0
100
AcDbLine
 62
7
  6
CONTINUOUS
 10
10.9340243031
 20
-2.7848488556
 11
10.9427954542
 21
-2.8135379982
  0
LINE
  5
2A8
100
AcDbEntity
  8
0
100
AcDbLine
 62
7
  6
CONTINUOUS
 10
11.1518412231
 20
-3.4972958988
 11
11.1606123742
 21
-3.5259850414
  0
LINE
  5
2A9
100
AcDbEntity
  8
0
100
AcDbLine
 62
7
  6
CONTINUOUS
 10
7.6401674339
 20
9.9431711111
 11
7.6460145852
 21
9.9227796712
  0
LINE
  5
2AA
100
AcDbEntity
  8
0
100
AcDbLine
 62
7
  6
CONTINUOUS
 10
8.1273949584
 20
8.2440068049
 11
8.1332421097
 21
8.223615365
  0
LINE
  5
2AB
100
AcDbEntity
  8
0
100
AcDbLine
 62
7
  6
CONTINUOUS
 10
7.6782120677
 20
9.9218106007
 11
7.6833440061
 21
9.90122752
  0
LINE
  5
2AC
100
AcDbEntity
  8
0
100
AcDbLine
 62
7
  6
CONTINUOUS
 10
8.1058428072
 20
8.2066773841
 11
8.1109747456
 21
8.1860943034
  0
LINE
  5
2AD
100
AcDbEntity
  8
0
100
AcDbLine
 62
7
  6
CONTINUOUS
 10
7.7154880546
 20
9.8991353639
 11
7.7198985276
 21
9.8783857198
  0
LINE
  5
2AE
100
AcDbEntity
  8
0
100
AcDbLine
 62
7
  6
CONTINUOUS
 10
8.083001007
 20
8.1701228625
 11
8.08741148
 21
8.1493732185
  0
LINE
  5
2AF
100
AcDbEntity
  8
0
100
AcDbLine
 62
7
  6
CONTINUOUS
 10
7.7519499797
 20
9.8751730271
 11
7.7556336138
 21
9.8542820999
  0
LINE
  5
2B0
100
AcDbEntity
  8
0
100
AcDbLine
 62
7
  6
CONTINUOUS
 10
8.058897387
 20
8.1343877763
 11
8.0625810211
 21
8.1134968491
  0
LINE
  5
2B1
100
AcDbEntity
  8
0
100
AcDbLine
 62
7
  6
CONTINUOUS
 10
7.7875534196
 20
9.8499527846
 11
7.7905057269
 21
9.8289460266
  0
LINE
  5
2B2
100
AcDbEntity
  8
0
100
AcDbLine
 62
7
  6
CONTINUOUS
 10
8.0335613138
 20
8.0995156632
 11
8.0365136211
 21
8.0785089052
  0
LINE
  5
2B3
100
AcDbEntity
  8
0
100
AcDbLine
 62
7
  6
CONTINUOUS
 10
8.268567489
 20
8.5761500309
 11
8.2505776722
 21
8.5649087457
  0
LINE
  5
2B4
100
AcDbEntity
  8
0
100
AcDbLine
 62
7
  6
CONTINUOUS
 10
6.7695240329
 20
7.639443718
 11
6.7515342161
 21
7.6282024328
  0
LINE
  5
2B5
100
AcDbEntity
  8
0
100
AcDbLine
 62
7
  6
CONTINUOUS
 10
8.2585209707
 20
8.5336914271
 11
8.2401497977
 21
8.5230848253
  0
LINE
  5
2B6
100
AcDbEntity
  8
0
100
AcDbLine
 62
7
  6
CONTINUOUS
 10
6.7277001125
 20
7.6498715925
 11
6.7093289394
 21
7.6392649908
  0
LINE
  5
2B7
100
AcDbEntity
  8
0
100
AcDbLine
 62
7
  6
CONTINUOUS
 10
8.2469987887
 20
8.4916093063
 11
8.2282686417
 21
8.4816503106
  0
LINE
  5
2B8
100
AcDbEntity
  8
0
100
AcDbLine
 62
7
  6
CONTINUOUS
 10
6.6862655977
 20
7.6617527484
 11
6.6675354508
 21
7.6517937526
  0
LINE
  5
2B9
100
AcDbEntity
  8
0
100
AcDbLine
 62
7
  6
CONTINUOUS
 10
8.2340149807
 20
8.4499549392
 11
8.2149486798
 21
8.4406556829
  0
LINE
  5
2BA
100
AcDbEntity
  8
0
100
AcDbLine
 62
7
  6
CONTINUOUS
 10
6.6452709701
 20
7.6750727104
 11
6.6262046691
 21
7.6657734541
  0
LINE
  5
2BB
100
AcDbEntity
  8
0
100
AcDbLine
 62
7
  6
CONTINUOUS
 10
8.2195853658
 20
8.4087790752
 11
8.2002061401
 21
8.4001508881
  0
LINE
  5
2BC
100
AcDbEntity
  8
0
100
AcDbLine
 62
7
  6
CONTINUOUS
 10
6.6047661752
 20
7.68981525
 11
6.5853869496
 21
7.6811870629
  0
LINE
  5
2BD
100
AcDbEntity
  8
0
100
AcDbLine
 62
7
  6
CONTINUOUS
 10
8.203727524
 20
8.3681318808
 11
8.1840589843
 21
8.3601852749
  0
LINE
  5
2BE
100
AcDbEntity
  8
0
100
AcDbLine
 62
7
  6
CONTINUOUS
 10
6.564800562
 20
7.7059624059
 11
6.5451320223
 21
7.6980158
  0
LINE
  5
2BF
100
AcDbEntity
  8
0
100
AcDbLine
 62
7
  6
CONTINUOUS
 10
8.1864607757
 20
8.3280628781
 11
8.166526885
 21
8.3208075353
  0
LINE
  5
2C0
100
AcDbEntity
  8
0
100
AcDbLine
 62
7
  6
CONTINUOUS
 10
6.5254228224
 20
7.7234945051
 11
6.5054889317
 21
7.7162391623
  0
LINE
  5
2C1
100
AcDbEntity
  8
0
100
AcDbLine
 62
7
  6
CONTINUOUS
 10
8.1678061579
 20
8.2886208853
 11
8.1476312026
 21
8.2820656449
  0
LINE
  5
2C2
100
AcDbEntity
  8
0
100
AcDbLine
 62
7
  6
CONTINUOUS
 10
6.4866809321
 20
7.7423901876
 11
6.4665059767
 21
7.7358349472
  0
LINE
  5
2C3
100
AcDbEntity
  8
0
100
AcDbLine
 62
7
  6
CONTINUOUS
 10
7.3853077379
 20
7.6392649908
 11
7.3669365648
 21
7.6498715925
  0
LINE
  5
2C4
100
AcDbEntity
  8
0
100
AcDbLine
 62
7
  6
CONTINUOUS
 10
5.8544868796
 20
8.5230848253
 11
5.8361157066
 21
8.5336914271
  0
LINE
  5
2C5
100
AcDbEntity
  8
0
100
AcDbLine
 62
7
  6
CONTINUOUS
 10
7.3431024612
 20
7.6282024328
 11
7.3251126444
 21
7.639443718
  0
LINE
  5
2C6
100
AcDbEntity
  8
0
100
AcDbLine
 62
7
  6
CONTINUOUS
 10
5.8440590051
 20
8.5649087457
 11
5.8260691883
 21
8.5761500309
  0
LINE
  5
2C7
100
AcDbEntity
  8
0
100
AcDbLine
 62
7
  6
CONTINUOUS
 10
7.3005368172
 20
7.6186195567
 11
7.2992531424
 21
7.6194854063
  0
LINE
  5
2C8
100
AcDbEntity
  8
0
100
AcDbLine
 62
7
  6
CONTINUOUS
 10
5.8350971167
 20
8.6070711156
 11
5.817510574
 21
8.6189333885
  0
LINE
  5
2C9
100
AcDbEntity
  8
0
100
AcDbLine
 62
7
  6
CONTINUOUS
 10
5.8276121332
 20
8.6495205668
 11
5.8104502911
 21
8.6619893749
  0
LINE
  5
2CA
100
AcDbEntity
  8
0
100
AcDbLine
 62
7
  6
CONTINUOUS
 10
5.8216131737
 20
8.692205381
 11
5.8048969413
 21
8.7052655332
  0
LINE
  5
2CB
100
AcDbEntity
  8
0
100
AcDbLine
 62
7
  6
CONTINUOUS
 10
5.8171075473
 20
8.7350735535
 11
5.8008572907
 21
8.7487091378
  0
LINE
  5
2CC
100
AcDbEntity
  8
0
100
AcDbLine
 62
7
  6
CONTINUOUS
 10
7.2710880017
 20
10.0725108161
 11
7.2829502745
 21
10.0549242734
  0
LINE
  5
2CD
100
AcDbEntity
  8
0
100
AcDbLine
 62
7
  6
CONTINUOUS
 10
8.2595395606
 20
8.6070711156
 11
8.2714018334
 21
8.589484573
  0
LINE
  5
2CE
100
AcDbEntity
  8
0
100
AcDbLine
 62
7
  6
CONTINUOUS
 10
7.3138713593
 20
10.0639522018
 11
7.3251126444
 21
10.045962385
  0
LINE
  5
2CF
100
AcDbEntity
  8
0
100
AcDbLine
 62
7
  6
CONTINUOUS
 10
8.2505776722
 20
8.5649087457
 11
8.2618189574
 21
8.5469189289
  0
LINE
  5
2D0
100
AcDbEntity
  8
0
100
AcDbLine
 62
7
  6
CONTINUOUS
 10
7.3563299631
 20
10.0539056836
 11
7.3669365648
 21
10.0355345105
  0
LINE
  5
2D1
100
AcDbEntity
  8
0
100
AcDbLine
 62
7
  6
CONTINUOUS
 10
8.2401497977
 20
8.5230848253
 11
8.2507563994
 21
8.5047136523
  0
LINE
  5
2D2
100
AcDbEntity
  8
0
100
AcDbLine
 62
7
  6
CONTINUOUS
 10
7.3984120838
 20
10.0423835015
 11
7.4083710796
 21
10.0236533546
  0
LINE
  5
2D3
100
AcDbEntity
  8
0
100
AcDbLine
 62
7
  6
CONTINUOUS
 10
8.2282686417
 20
8.4816503106
 11
8.2382276375
 21
8.4629201637
  0
LINE
  5
2D4
100
AcDbEntity
  8
0
100
AcDbLine
 62
7
  6
CONTINUOUS
 10
7.4400664509
 20
10.0293996936
 11
7.4493657072
 21
10.0103333926
  0
LINE
  5
2D5
100
AcDbEntity
  8
0
100
AcDbLine
 62
7
  6
CONTINUOUS
 10
8.2149486798
 20
8.4406556829
 11
8.2242479361
 21
8.421589382
  0
LINE
  5
2D6
100
AcDbEntity
  8
0
100
AcDbLine
 62
7
  6
CONTINUOUS
 10
7.4812423149
 20
10.0149700786
 11
7.4898705021
 21
9.995590853
  0
LINE
  5
2D7
100
AcDbEntity
  8
0
100
AcDbLine
 62
7
  6
CONTINUOUS
 10
8.2002061401
 20
8.4001508881
 11
8.2088343273
 21
8.3807716624
  0
LINE
  5
2D8
100
AcDbEntity
  8
0
100
AcDbLine
 62
7
  6
CONTINUOUS
 10
7.5218895094
 20
9.9991122368
 11
7.5298361153
 21
9.9794436971
  0
LINE
  5
2D9
100
AcDbEntity
  8
0
100
AcDbLine
 62
7
  6
CONTINUOUS
 10
8.1840589843
 20
8.3601852749
 11
8.1920055901
 21
8.3405167352
  0
LINE
  5
2DA
100
AcDbEntity
  8
0
100
AcDbLine
 62
7
  6
CONTINUOUS
 10
15.5692138549
 20
9.9619115978
 11
15.5891477456
 21
9.9691669407
  0
LINE
  5
2DB
100
AcDbEntity
  8
0
100
AcDbLine
 62
7
  6
CONTINUOUS
 10
15.6079557452
 20
9.9430159154
 11
15.6281307006
 21
9.9495711558
  0
LINE
  5
2DC
100
AcDbEntity
  8
0
100
AcDbLine
 62
7
  6
CONTINUOUS
 10
8.1477863983
 20
8.2498539562
 11
8.1273949584
 21
8.2440068049
  0
LINE
  5
2DD
100
AcDbEntity
  8
0
100
AcDbLine
 62
7
  6
CONTINUOUS
 10
6.4486220921
 20
7.7626264318
 11
6.4282306522
 21
7.7567792805
  0
LINE
  5
2DE
100
AcDbEntity
  8
0
100
AcDbLine
 62
7
  6
CONTINUOUS
 10
15.6460145852
 20
9.9227796712
 11
15.6664060251
 21
9.9286268225
  0
LINE
  5
2DF
100
AcDbEntity
  8
0
100
AcDbLine
 62
7
  6
CONTINUOUS
 10
7.6281307006
 20
7.7358349472
 11
7.6079557452
 21
7.7423901876
  0
LINE
  5
2E0
100
AcDbEntity
  8
0
100
AcDbLine
 62
7
  6
CONTINUOUS
 10
5.9470054748
 20
8.2820656449
 11
5.9268305194
 21
8.2886208853
  0
LINE
  5
2E1
100
AcDbEntity
  8
0
100
AcDbLine
 62
7
  6
CONTINUOUS
 10
7.5891477456
 20
7.7162391623
 11
7.5692138549
 21
7.7234945051
  0
LINE
  5
2E2
100
AcDbEntity
  8
0
100
AcDbLine
 62
7
  6
CONTINUOUS
 10
5.9281097923
 20
8.3208075353
 11
5.9081759016
 21
8.3280628781
  0
LINE
  5
2E3
100
AcDbEntity
  8
0
100
AcDbLine
 62
7
  6
CONTINUOUS
 10
7.549504655
 20
7.6980158
 11
7.5298361153
 21
7.7059624059
  0
LINE
  5
2E4
100
AcDbEntity
  8
0
100
AcDbLine
 62
7
  6
CONTINUOUS
 10
5.9105776931
 20
8.3601852749
 11
5.8909091533
 21
8.3681318808
  0
LINE
  5
2E5
100
AcDbEntity
  8
0
100
AcDbLine
 62
7
  6
CONTINUOUS
 10
7.5092497277
 20
7.6811870629
 11
7.4898705021
 21
7.68981525
  0
LINE
  5
2E6
100
AcDbEntity
  8
0
100
AcDbLine
 62
7
  6
CONTINUOUS
 10
5.8944305372
 20
8.4001508881
 11
5.8750513116
 21
8.4087790752
  0
LINE
  5
2E7
100
AcDbEntity
  8
0
100
AcDbLine
 62
7
  6
CONTINUOUS
 10
7.4684320082
 20
7.6657734541
 11
7.4493657072
 21
7.6750727104
  0
LINE
  5
2E8
100
AcDbEntity
  8
0
100
AcDbLine
 62
7
  6
CONTINUOUS
 10
5.8796879975
 20
8.4406556829
 11
5.8606216966
 21
8.4499549392
  0
LINE
  5
2E9
100
AcDbEntity
  8
0
100
AcDbLine
 62
7
  6
CONTINUOUS
 10
7.4271012265
 20
7.6517937526
 11
7.4083710796
 21
7.6617527484
  0
LINE
  5
2EA
100
AcDbEntity
  8
0
100
AcDbLine
 62
7
  6
CONTINUOUS
 10
5.8663680356
 20
8.4816503106
 11
5.8476378887
 21
8.4916093063
  0
LINE
  5
2EB
100
AcDbEntity
  8
0
100
AcDbLine
 62
7
  6
CONTINUOUS
 10
5.9214929539
 20
9.8060726444
 11
6.7765815594
 21
9.2125749531
  0
LINE
  5
2EC
100
AcDbEntity
  8
0
100
AcDbLine
 62
7
  6
CONTINUOUS
 10
6.9669236607
 20
10.0901150507
 11
6.9826881431
 21
10.075920647
  0
LINE
  5
2ED
100
AcDbEntity
  8
0
100
AcDbLine
 62
7
  6
CONTINUOUS
 10
8.2805359342
 20
8.9073332471
 11
8.2963004165
 21
8.8931388434
  0
LINE
  5
2EE
100
AcDbEntity
  8
0
100
AcDbLine
 62
7
  6
CONTINUOUS
 10
7.010506686
 20
10.0921608948
 11
7.0257661875
 21
10.0774249655
  0
LINE
  5
2EF
100
AcDbEntity
  8
0
100
AcDbLine
 62
7
  6
CONTINUOUS
 10
8.2820402526
 20
8.8642552027
 11
8.2972997542
 21
8.8495192733
  0
LINE
  5
2F0
100
AcDbEntity
  8
0
100
AcDbLine
 62
7
  6
CONTINUOUS
 10
7.0541345605
 20
10.092684467
 11
7.0688704898
 21
10.0774249655
  0
LINE
  5
2F1
100
AcDbEntity
  8
0
100
AcDbLine
 62
7
  6
CONTINUOUS
 10
8.2820402526
 20
8.8211509003
 11
8.296776182
 21
8.8058913988
  0
LINE
  5
2F2
100
AcDbEntity
  8
0
100
AcDbLine
 62
7
  6
CONTINUOUS
 10
7.0977541305
 20
10.0916851294
 11
7.1119485342
 21
10.075920647
  0
LINE
  5
2F3
100
AcDbEntity
  8
0
100
AcDbLine
 62
7
  6
CONTINUOUS
 10
8.2805359342
 20
8.7780728559
 11
8.2947303379
 21
8.7623083736
  0
LINE
  5
2F4
100
AcDbEntity
  8
0
100
AcDbLine
 62
7
  6
CONTINUOUS
 10
7.1413122523
 20
10.0891640995
 11
7.1549478367
 21
10.0729138429
  0
LINE
  5
2F5
100
AcDbEntity
  8
0
100
AcDbLine
 62
7
  6
CONTINUOUS
 10
8.27752913
 20
8.7350735535
 11
8.2911647144
 21
8.7188232969
  0
LINE
  5
2F6
100
AcDbEntity
  8
0
100
AcDbLine
 62
7
  6
CONTINUOUS
 10
7.184755857
 20
10.0851244488
 11
7.1978160091
 21
10.0684082164
  0
LINE
  5
2F7
100
AcDbEntity
  8
0
100
AcDbLine
 62
7
  6
CONTINUOUS
 10
8.2730235036
 20
8.692205381
 11
8.2860836557
 21
8.6754891486
  0
LINE
  5
2F8
100
AcDbEntity
  8
0
100
AcDbLine
 62
7
  6
CONTINUOUS
 10
7.2280320152
 20
10.0795710991
 11
7.2405008234
 21
10.062409257
  0
LINE
  5
2F9
100
AcDbEntity
  8
0
100
AcDbLine
 62
7
  6
CONTINUOUS
 10
8.2670245441
 20
8.6495205668
 11
8.2794933523
 21
8.6323587247
  0
LINE
  5
2FA
100
AcDbEntity
  8
0
100
AcDbLine
 62
9
  6
CONTINUOUS
 10
8.4284762038
 20
9.3671857412
 11
8.1921126701
 21
9.7765795011
  0
LINE
  5
2FB
100
AcDbEntity
  8
0
100
AcDbLine
 62
7
  6
CONTINUOUS
 10
8.4621204488
 20
9.3921939141
 11
8.2305924403
 21
9.7932121882
  0
LINE
  5
2FC
100
AcDbEntity
  8
0
100
AcDbLine
 62
7
  6
CONTINUOUS
 10
13.8260691883
 20
9.1092560721
 11
13.8440590051
 21
9.1204973573
  0
LINE
  5
2FD
100
AcDbEntity
  8
0
100
AcDbLine
 62
7
  6
CONTINUOUS
 10
15.3251126444
 20
10.045962385
 11
15.3431024612
 21
10.0572036702
  0
LINE
  5
2FE
100
AcDbEntity
  8
0
100
AcDbLine
 62
7
  6
CONTINUOUS
 10
13.8361157066
 20
9.1517146759
 11
13.8544868796
 21
9.1623212776
  0
LINE
  5
2FF
100
AcDbEntity
  8
0
100
AcDbLine
 62
7
  6
CONTINUOUS
 10
15.3669365648
 20
10.0355345105
 11
15.3853077379
 21
10.0461411122
  0
LINE
  5
300
100
AcDbEntity
  8
0
100
AcDbLine
 62
7
  6
CONTINUOUS
 10
13.8476378887
 20
9.1937967967
 11
13.8663680356
 21
9.2037557924
  0
LINE
  5
301
100
AcDbEntity
  8
0
100
AcDbLine
 62
7
  6
CONTINUOUS
 10
15.4083710796
 20
10.0236533546
 11
15.4271012265
 21
10.0336123504
  0
LINE
  5
302
100
AcDbEntity
  8
0
100
AcDbLine
 62
7
  6
CONTINUOUS
 10
13.8606216966
 20
9.2354511637
 11
13.8620133817
 21
9.2361299339
  0
LINE
  5
303
100
AcDbEntity
  8
0
100
AcDbLine
 62
7
  6
CONTINUOUS
 10
15.4493657072
 20
10.0103333926
 11
15.4684320082
 21
10.0196326489
  0
LINE
  5
304
100
AcDbEntity
  8
0
100
AcDbLine
 62
7
  6
CONTINUOUS
 10
15.4898705021
 20
9.995590853
 11
15.5092497277
 21
10.0042190401
  0
LINE
  5
305
100
AcDbEntity
  8
0
100
AcDbLine
 62
7
  6
CONTINUOUS
 10
15.5298361153
 20
9.9794436971
 11
15.549504655
 21
9.987390303
  0
LINE
  5
306
100
AcDbEntity
  8
0
100
AcDbLine
 62
7
  6
CONTINUOUS
 10
16.1264258878
 20
8.2118093225
 11
16.1058428072
 21
8.2066773841
  0
LINE
  5
307
100
AcDbEntity
  8
0
100
AcDbLine
 62
7
  6
CONTINUOUS
 10
14.4112926712
 20
7.784178583
 11
14.3907095906
 21
7.7790466446
  0
LINE
  5
308
100
AcDbEntity
  8
0
100
AcDbLine
 62
7
  6
CONTINUOUS
 10
16.103750651
 20
8.1745333355
 11
16.083001007
 21
8.1701228625
  0
LINE
  5
309
100
AcDbEntity
  8
0
100
AcDbLine
 62
7
  6
CONTINUOUS
 10
14.3747381497
 20
7.8070203832
 11
14.3539885056
 21
7.8026099102
  0
LINE
  5
30A
100
AcDbEntity
  8
0
100
AcDbLine
 62
7
  6
CONTINUOUS
 10
16.0797883142
 20
8.1380714105
 11
16.058897387
 21
8.1343877763
  0
LINE
  5
30B
100
AcDbEntity
  8
0
100
AcDbLine
 62
7
  6
CONTINUOUS
 10
14.3390030635
 20
7.8311240031
 11
14.3181121363
 21
7.827440369
  0
LINE
  5
30C
100
AcDbEntity
  8
0
100
AcDbLine
 62
7
  6
CONTINUOUS
 10
16.0545680718
 20
8.1024679705
 11
16.0335613138
 21
8.0995156632
  0
LINE
  5
30D
100
AcDbEntity
  8
0
100
AcDbLine
 62
7
  6
CONTINUOUS
 10
14.3041309504
 20
7.8564600764
 11
14.2831241924
 21
7.8535077691
  0
LINE
  5
30E
100
AcDbEntity
  8
0
100
AcDbLine
 62
7
  6
CONTINUOUS
 10
16.0281206507
 20
8.067766393
 11
16.0070236554
 21
8.0655490094
  0
LINE
  5
30F
100
AcDbEntity
  8
0
100
AcDbLine
 62
7
  6
CONTINUOUS
 10
14.2701642966
 20
7.8829977348
 11
14.2490673013
 21
7.8807803512
  0
LINE
  5
310
100
AcDbEntity
  8
0
100
AcDbLine
 62
7
  6
CONTINUOUS
 10
6.8157903298
 20
7.3427030515
 11
7.2788463467
 21
7.3427030515
  0
LINE
  5
311
100
AcDbEntity
  8
0
100
AcDbLine
 62
7
  6
CONTINUOUS
 10
14.8157903298
 20
7.3427030515
 11
15.2788463467
 21
7.3427030515
  0
LINE
  5
312
100
AcDbEntity
  8
0
100
AcDbLine
 62
9
  6
CONTINUOUS
 10
6.8109547398
 20
7.3843438571
 11
7.2836819032
 21
7.3843438335
  0
LINE
  5
313
100
AcDbEntity
  8
0
100
AcDbLine
 62
9
  6
CONTINUOUS
 10
14.8109547398
 20
7.3843438555
 11
15.2836819032
 21
7.3843438297
  0
LINE
  5
314
100
AcDbEntity
  8
0
100
AcDbLine
 62
7
  6
CONTINUOUS
 10
7.845569376
 20
7.8807803512
 11
7.8244723807
 21
7.8829977348
  0
LINE
  5
315
100
AcDbEntity
  8
0
100
AcDbLine
 62
7
  6
CONTINUOUS
 10
6.0876130219
 20
8.0655490094
 11
6.0665160266
 21
8.067766393
  0
LINE
  5
316
100
AcDbEntity
  8
0
100
AcDbLine
 62
7
  6
CONTINUOUS
 10
7.8115124849
 20
7.8535077691
 11
7.7905057269
 21
7.8564600764
  0
LINE
  5
317
100
AcDbEntity
  8
0
100
AcDbLine
 62
7
  6
CONTINUOUS
 10
6.0610753635
 20
8.0995156632
 11
6.0400686055
 21
8.1024679705
  0
LINE
  5
318
100
AcDbEntity
  8
0
100
AcDbLine
 62
7
  6
CONTINUOUS
 10
7.776524541
 20
7.827440369
 11
7.7556336138
 21
7.8311240031
  0
LINE
  5
319
100
AcDbEntity
  8
0
100
AcDbLine
 62
7
  6
CONTINUOUS
 10
6.0357392903
 20
8.1343877763
 11
6.0148483631
 21
8.1380714105
  0
LINE
  5
31A
100
AcDbEntity
  8
0
100
AcDbLine
 62
7
  6
CONTINUOUS
 10
7.7406481717
 20
7.8026099102
 11
7.7198985276
 21
7.8070203832
  0
LINE
  5
31B
100
AcDbEntity
  8
0
100
AcDbLine
 62
7
  6
CONTINUOUS
 10
6.0116356703
 20
8.1701228625
 11
5.9908860263
 21
8.1745333355
  0
LINE
  5
31C
100
AcDbEntity
  8
0
100
AcDbLine
 62
7
  6
CONTINUOUS
 10
7.7039270867
 20
7.7790466446
 11
7.6833440061
 21
7.784178583
  0
LINE
  5
31D
100
AcDbEntity
  8
0
100
AcDbLine
 62
7
  6
CONTINUOUS
 10
5.9887938701
 20
8.2066773841
 11
5.9682107895
 21
8.2118093225
  0
LINE
  5
31E
100
AcDbEntity
  8
0
100
AcDbLine
 62
7
  6
CONTINUOUS
 10
7.6664060251
 20
7.7567792805
 11
7.6460145852
 21
7.7626264318
  0
LINE
  5
31F
100
AcDbEntity
  8
0
100
AcDbLine
 62
7
  6
CONTINUOUS
 10
5.9672417189
 20
8.2440068049
 11
5.946850279
 21
8.2498539562
  0
LINE
  5
320
100
AcDbEntity
  8
0
100
AcDbLine
 62
7
  6
CONTINUOUS
 10
5.6501030074
 20
9.3360116848
 11
6.5916314861
 21
8.8922320293
  0
LINE
  5
321
100
AcDbEntity
  8
0
100
AcDbLine
 62
7
  6
CONTINUOUS
 10
6.7093289394
 20
10.0461411122
 11
6.7277001125
 21
10.0355345105
  0
LINE
  5
322
100
AcDbEntity
  8
0
100
AcDbLine
 62
7
  6
CONTINUOUS
 10
8.2401497977
 20
9.1623212776
 11
8.2585209707
 21
9.1517146759
  0
LINE
  5
323
100
AcDbEntity
  8
0
100
AcDbLine
 62
7
  6
CONTINUOUS
 10
6.7515342161
 20
10.0572036702
 11
6.7695240329
 21
10.045962385
  0
LINE
  5
324
100
AcDbEntity
  8
0
100
AcDbLine
 62
7
  6
CONTINUOUS
 10
8.2505776722
 20
9.1204973573
 11
8.268567489
 21
9.1092560721
  0
LINE
  5
325
100
AcDbEntity
  8
0
100
AcDbLine
 62
7
  6
CONTINUOUS
 10
6.7940998601
 20
10.0667865462
 11
6.8116864028
 21
10.0549242734
  0
LINE
  5
326
100
AcDbEntity
  8
0
100
AcDbLine
 62
7
  6
CONTINUOUS
 10
8.2595395606
 20
9.0783349874
 11
8.2771261033
 21
9.0664727145
  0
LINE
  5
327
100
AcDbEntity
  8
0
100
AcDbLine
 62
7
  6
CONTINUOUS
 10
6.8369740119
 20
10.0748780651
 11
6.8541358539
 21
10.062409257
  0
LINE
  5
328
100
AcDbEntity
  8
0
100
AcDbLine
 62
7
  6
CONTINUOUS
 10
8.2670245441
 20
9.0358855362
 11
8.2841863862
 21
9.0234167281
  0
LINE
  5
329
100
AcDbEntity
  8
0
100
AcDbLine
 62
7
  6
CONTINUOUS
 10
6.8801044358
 20
10.0814683685
 11
6.8968206682
 21
10.0684082164
  0
LINE
  5
32A
100
AcDbEntity
  8
0
100
AcDbLine
 62
7
  6
CONTINUOUS
 10
8.2730235036
 20
8.993200722
 11
8.289739736
 21
8.9801405698
  0
LINE
  5
32B
100
AcDbEntity
  8
0
100
AcDbLine
 62
7
  6
CONTINUOUS
 10
6.923438584
 20
10.0865494272
 11
6.9396888407
 21
10.0729138429
  0
LINE
  5
32C
100
AcDbEntity
  8
0
100
AcDbLine
 62
7
  6
CONTINUOUS
 10
8.27752913
 20
8.9503325495
 11
8.2937793867
 21
8.9366969652
  0
LINE
  5
32D
100
AcDbEntity
  8
0
100
AcDbLine
 62
7
  6
CONTINUOUS
 10
13.7973369231
 20
8.8495192733
 11
13.8125964247
 21
8.8642552027
  0
LINE
  5
32E
100
AcDbEntity
  8
0
100
AcDbLine
 62
7
  6
CONTINUOUS
 10
15.0688704898
 20
10.0774249655
 11
15.0841299914
 21
10.0921608948
  0
LINE
  5
32F
100
AcDbEntity
  8
0
100
AcDbLine
 62
7
  6
CONTINUOUS
 10
13.7983362608
 20
8.8931388434
 11
13.8141007431
 21
8.9073332471
  0
LINE
  5
330
100
AcDbEntity
  8
0
100
AcDbLine
 62
7
  6
CONTINUOUS
 10
15.1119485342
 20
10.075920647
 11
15.1277130166
 21
10.0901150507
  0
LINE
  5
331
100
AcDbEntity
  8
0
100
AcDbLine
 62
7
  6
CONTINUOUS
 10
13.8008572907
 20
8.9366969652
 11
13.8171075473
 21
8.9503325495
  0
LINE
  5
332
100
AcDbEntity
  8
0
100
AcDbLine
 62
7
  6
CONTINUOUS
 10
15.1549478367
 20
10.0729138429
 11
15.1711980933
 21
10.0865494272
  0
LINE
  5
333
100
AcDbEntity
  8
0
100
AcDbLine
 62
7
  6
CONTINUOUS
 10
13.8048969413
 20
8.9801405698
 11
13.8216131737
 21
8.993200722
  0
LINE
  5
334
100
AcDbEntity
  8
0
100
AcDbLine
 62
7
  6
CONTINUOUS
 10
15.1978160091
 20
10.0684082164
 11
15.2145322416
 21
10.0814683685
  0
LINE
  5
335
100
AcDbEntity
  8
0
100
AcDbLine
 62
7
  6
CONTINUOUS
 10
13.8104502911
 20
9.0234167281
 11
13.8276121332
 21
9.0358855362
  0
LINE
  5
336
100
AcDbEntity
  8
0
100
AcDbLine
 62
7
  6
CONTINUOUS
 10
15.2405008234
 20
10.062409257
 11
15.2576626655
 21
10.0748780651
  0
LINE
  5
337
100
AcDbEntity
  8
0
100
AcDbLine
 62
7
  6
CONTINUOUS
 10
13.817510574
 20
9.0664727145
 11
13.8350971167
 21
9.0783349874
  0
LINE
  5
338
100
AcDbEntity
  8
0
100
AcDbLine
 62
7
  6
CONTINUOUS
 10
15.2829502745
 20
10.0549242734
 11
15.3005368172
 21
10.0667865462
  0
LINE
  5
339
100
AcDbEntity
  8
0
100
AcDbLine
 62
7
  6
CONTINUOUS
 10
16.4445335717
 20
9.3360116385
 11
15.5030051912
 21
8.8922320293
  0
LINE
  5
33A
100
AcDbEntity
  8
0
100
AcDbLine
 62
7
  6
CONTINUOUS
 10
16.1678061579
 20
8.2886208853
 11
16.1476312026
 21
8.2820656449
  0
LINE
  5
33B
100
AcDbEntity
  8
0
100
AcDbLine
 62
7
  6
CONTINUOUS
 10
14.4866809321
 20
7.7423901876
 11
14.4665059767
 21
7.7358349472
  0
LINE
  5
33C
100
AcDbEntity
  8
0
100
AcDbLine
 62
7
  6
CONTINUOUS
 10
16.1477863983
 20
8.2498539562
 11
16.1273949584
 21
8.2440068049
  0
LINE
  5
33D
100
AcDbEntity
  8
0
100
AcDbLine
 62
7
  6
CONTINUOUS
 10
14.4486220921
 20
7.7626264318
 11
14.4282306522
 21
7.7567792805
  0
LINE
  5
33E
100
AcDbEntity
  8
0
100
AcDbLine
 62
7
  6
CONTINUOUS
 10
8.0281206507
 20
8.067766393
 11
8.0070236554
 21
8.0655490094
  0
LINE
  5
33F
100
AcDbEntity
  8
0
100
AcDbLine
 62
7
  6
CONTINUOUS
 10
6.2701642966
 20
7.8829977348
 11
6.2490673013
 21
7.8807803512
  0
LINE
  5
340
100
AcDbEntity
  8
0
100
AcDbLine
 62
7
  6
CONTINUOUS
 10
16.0004782731
 20
8.0340089564
 11
15.9793167439
 21
8.0325291981
  0
LINE
  5
341
100
AcDbEntity
  8
0
100
AcDbLine
 62
7
  6
CONTINUOUS
 10
14.2371444853
 20
7.9107046462
 11
14.2159829562
 21
7.909224888
  0
LINE
  5
342
100
AcDbEntity
  8
0
100
AcDbLine
 62
7
  6
CONTINUOUS
 10
8.0004782731
 20
8.0340089564
 11
7.9793167439
 21
8.0325291981
  0
LINE
  5
343
100
AcDbEntity
  8
0
100
AcDbLine
 62
7
  6
CONTINUOUS
 10
6.2371444853
 20
7.9107046462
 11
6.2159829562
 21
7.909224888
  0
LINE
  5
344
100
AcDbEntity
  8
0
100
AcDbLine
 62
7
  6
CONTINUOUS
 10
14.1839114651
 20
7.9388067241
 11
14.205111746
 21
7.9395470542
  0
LINE
  5
345
100
AcDbEntity
  8
0
100
AcDbLine
 62
7
  6
CONTINUOUS
 10
15.950474336
 20
8.0004964589
 11
15.9716746169
 21
8.001236789
  0
LINE
  5
346
100
AcDbEntity
  8
0
100
AcDbLine
 62
7
  6
CONTINUOUS
 10
6.1839114651
 20
7.9388067241
 11
6.205111746
 21
7.9395470542
  0
LINE
  5
347
100
AcDbEntity
  8
0
100
AcDbLine
 62
7
  6
CONTINUOUS
 10
7.950474336
 20
8.0004964589
 11
7.9716746169
 21
8.001236789
  0
LINE
  5
348
100
AcDbEntity
  8
0
100
AcDbLine
 62
7
  6
CONTINUOUS
 10
6.1528919024
 20
7.9694898186
 11
6.1741051058
 21
7.9694898186
  0
LINE
  5
349
100
AcDbEntity
  8
0
100
AcDbLine
 62
7
  6
CONTINUOUS
 10
7.9205315715
 20
7.9694898186
 11
7.941744775
 21
7.9694898186
  0
LINE
  5
34A
100
AcDbEntity
  8
0
100
AcDbLine
 62
7
  6
CONTINUOUS
 10
14.1528919024
 20
7.9694898186
 11
14.1741051058
 21
7.9694898186
  0
LINE
  5
34B
100
AcDbEntity
  8
0
100
AcDbLine
 62
7
  6
CONTINUOUS
 10
15.9205315715
 20
7.9694898186
 11
15.941744775
 21
7.9694898186
  0
LINE
  5
34C
100
AcDbEntity
  8
0
100
AcDbLine
 62
7
  6
CONTINUOUS
 10
6.1229620604
 20
8.001236789
 11
6.1441623414
 21
8.0004964589
  0
LINE
  5
34D
100
AcDbEntity
  8
0
100
AcDbLine
 62
7
  6
CONTINUOUS
 10
7.8895249313
 20
7.9395470542
 11
7.9107252122
 21
7.9388067241
  0
LINE
  5
34E
100
AcDbEntity
  8
0
100
AcDbLine
 62
7
  6
CONTINUOUS
 10
14.1229620604
 20
8.001236789
 11
14.1441623414
 21
8.0004964589
  0
LINE
  5
34F
100
AcDbEntity
  8
0
100
AcDbLine
 62
7
  6
CONTINUOUS
 10
15.8895249313
 20
7.9395470542
 11
15.9107252122
 21
7.9388067241
  0
LINE
  5
350
100
AcDbEntity
  8
0
100
AcDbLine
 62
7
  6
CONTINUOUS
 10
7.8786537212
 20
7.909224888
 11
7.857492192
 21
7.9107046462
  0
LINE
  5
351
100
AcDbEntity
  8
0
100
AcDbLine
 62
7
  6
CONTINUOUS
 10
6.1153199334
 20
8.0325291981
 11
6.0941584043
 21
8.0340089564
  0
LINE
  5
352
100
AcDbEntity
  8
0
100
AcDbLine
 62
7
  6
CONTINUOUS
 10
15.8786537212
 20
7.909224888
 11
15.857492192
 21
7.9107046462
  0
LINE
  5
353
100
AcDbEntity
  8
0
100
AcDbLine
 62
7
  6
CONTINUOUS
 10
14.1153199334
 20
8.0325291981
 11
14.0941584043
 21
8.0340089564
  0
LINE
  5
354
100
AcDbEntity
  8
0
100
AcDbLine
 62
7
  6
CONTINUOUS
 10
15.845569376
 20
7.8807803512
 11
15.8244723807
 21
7.8829977348
  0
LINE
  5
355
100
AcDbEntity
  8
0
100
AcDbLine
 62
7
  6
CONTINUOUS
 10
14.0876130219
 20
8.0655490094
 11
14.0665160266
 21
8.067766393
  0
LINE
  5
356
100
AcDbEntity
  8
0
100
AcDbLine
 62
7
  6
CONTINUOUS
 10
6.4665059767
 20
9.9495711558
 11
6.4866809321
 21
9.9430159154
  0
LINE
  5
357
100
AcDbEntity
  8
0
100
AcDbLine
 62
7
  6
CONTINUOUS
 10
6.5054889317
 20
9.9691669407
 11
6.5254228224
 21
9.9619115978
  0
LINE
  5
358
100
AcDbEntity
  8
0
100
AcDbLine
 62
7
  6
CONTINUOUS
 10
6.5451320223
 20
9.987390303
 11
6.564800562
 21
9.9794436971
  0
LINE
  5
359
100
AcDbEntity
  8
0
100
AcDbLine
 62
7
  6
CONTINUOUS
 10
6.5853869496
 20
10.0042190401
 11
6.6047661752
 21
9.995590853
  0
LINE
  5
35A
100
AcDbEntity
  8
0
100
AcDbLine
 62
7
  6
CONTINUOUS
 10
6.6262046691
 20
10.0196326489
 11
6.6452709701
 21
10.0103333926
  0
LINE
  5
35B
100
AcDbEntity
  8
0
100
AcDbLine
 62
7
  6
CONTINUOUS
 10
8.2326232956
 20
9.2361299339
 11
8.2340149807
 21
9.2354511637
  0
LINE
  5
35C
100
AcDbEntity
  8
0
100
AcDbLine
 62
7
  6
CONTINUOUS
 10
6.6675354508
 20
10.0336123504
 11
6.6862655977
 21
10.0236533546
  0
LINE
  5
35D
100
AcDbEntity
  8
0
100
AcDbLine
 62
7
  6
CONTINUOUS
 10
8.2282686417
 20
9.2037557924
 11
8.2469987887
 21
9.1937967967
  0
LINE
  5
35E
100
AcDbEntity
  8
0
100
AcDbLine
 62
7
  6
CONTINUOUS
 10
13.8640442374
 20
9.7932121889
 11
13.6325162289
 21
9.3921939148
  0
LINE
  5
35F
100
AcDbEntity
  8
0
100
AcDbLine
 62
9
  6
CONTINUOUS
 10
13.902524073
 20
9.7765795044
 11
13.6661604403
 21
9.3671858017
  0
LINE
  5
360
100
AcDbEntity
  8
0
100
AcDbLine
 62
7
  6
CONTINUOUS
 10
13.83281772
 20
8.5469189289
 11
13.8440590051
 21
8.5649087457
  0
LINE
  5
361
100
AcDbEntity
  8
0
100
AcDbLine
 62
7
  6
CONTINUOUS
 10
14.7695240329
 20
10.045962385
 11
14.780765318
 21
10.0639522018
  0
LINE
  5
362
100
AcDbEntity
  8
0
100
AcDbLine
 62
7
  6
CONTINUOUS
 10
13.8232348439
 20
8.589484573
 11
13.8350971167
 21
8.6070711156
  0
LINE
  5
363
100
AcDbEntity
  8
0
100
AcDbLine
 62
7
  6
CONTINUOUS
 10
14.8116864028
 20
10.0549242734
 11
14.8235486756
 21
10.0725108161
  0
LINE
  5
364
100
AcDbEntity
  8
0
100
AcDbLine
 62
7
  6
CONTINUOUS
 10
13.815143325
 20
8.6323587247
 11
13.8276121332
 21
8.6495205668
  0
LINE
  5
365
100
AcDbEntity
  8
0
100
AcDbLine
 62
7
  6
CONTINUOUS
 10
14.8541358539
 20
10.062409257
 11
14.8666046621
 21
10.0795710991
  0
LINE
  5
366
100
AcDbEntity
  8
0
100
AcDbLine
 62
7
  6
CONTINUOUS
 10
13.8085530216
 20
8.6754891486
 11
13.8216131737
 21
8.692205381
  0
LINE
  5
367
100
AcDbEntity
  8
0
100
AcDbLine
 62
7
  6
CONTINUOUS
 10
14.8968206682
 20
10.0684082164
 11
14.9098808203
 21
10.0851244488
  0
LINE
  5
368
100
AcDbEntity
  8
0
100
AcDbLine
 62
7
  6
CONTINUOUS
 10
13.8034719629
 20
8.7188232969
 11
13.8171075473
 21
8.7350735535
  0
LINE
  5
369
100
AcDbEntity
  8
0
100
AcDbLine
 62
7
  6
CONTINUOUS
 10
14.9396888407
 20
10.0729138429
 11
14.953324425
 21
10.0891640995
  0
LINE
  5
36A
100
AcDbEntity
  8
0
100
AcDbLine
 62
7
  6
CONTINUOUS
 10
13.7999063395
 20
8.7623083736
 11
13.8141007431
 21
8.7780728559
  0
LINE
  5
36B
100
AcDbEntity
  8
0
100
AcDbLine
 62
7
  6
CONTINUOUS
 10
14.9826881431
 20
10.075920647
 11
14.9968825468
 21
10.0916851294
  0
LINE
  5
36C
100
AcDbEntity
  8
0
100
AcDbLine
 62
7
  6
CONTINUOUS
 10
13.7978604953
 20
8.8058913988
 11
13.8125964247
 21
8.8211509003
  0
LINE
  5
36D
100
AcDbEntity
  8
0
100
AcDbLine
 62
7
  6
CONTINUOUS
 10
15.0257661875
 20
10.0774249655
 11
15.0405021168
 21
10.092684467
  0
LINE
  5
36E
100
AcDbEntity
  8
0
100
AcDbLine
 62
7
  6
CONTINUOUS
 10
16.1731438126
 20
9.8060727063
 11
15.3180551179
 21
9.2125749531
  0
LINE
  5
36F
100
AcDbEntity
  8
0
100
AcDbLine
 62
7
  6
CONTINUOUS
 10
16.2585209707
 20
8.5336914271
 11
16.2401497977
 21
8.5230848253
  0
LINE
  5
370
100
AcDbEntity
  8
0
100
AcDbLine
 62
7
  6
CONTINUOUS
 10
14.7277001125
 20
7.6498715925
 11
14.7093289394
 21
7.6392649908
  0
LINE
  5
371
100
AcDbEntity
  8
0
100
AcDbLine
 62
7
  6
CONTINUOUS
 10
16.2469987887
 20
8.4916093063
 11
16.2282686417
 21
8.4816503106
  0
LINE
  5
372
100
AcDbEntity
  8
0
100
AcDbLine
 62
7
  6
CONTINUOUS
 10
14.6862655977
 20
7.6617527484
 11
14.6675354508
 21
7.6517937526
  0
LINE
  5
373
100
AcDbEntity
  8
0
100
AcDbLine
 62
7
  6
CONTINUOUS
 10
16.2340149807
 20
8.4499549392
 11
16.2149486798
 21
8.4406556829
  0
LINE
  5
374
100
AcDbEntity
  8
0
100
AcDbLine
 62
7
  6
CONTINUOUS
 10
14.6452709701
 20
7.6750727104
 11
14.6262046691
 21
7.6657734541
  0
LINE
  5
375
100
AcDbEntity
  8
0
100
AcDbLine
 62
7
  6
CONTINUOUS
 10
16.2195853658
 20
8.4087790752
 11
16.2002061401
 21
8.4001508881
  0
LINE
  5
376
100
AcDbEntity
  8
0
100
AcDbLine
 62
7
  6
CONTINUOUS
 10
14.6047661752
 20
7.68981525
 11
14.5853869496
 21
7.6811870629
  0
LINE
  5
377
100
AcDbEntity
  8
0
100
AcDbLine
 62
7
  6
CONTINUOUS
 10
16.203727524
 20
8.3681318808
 11
16.1840589843
 21
8.3601852749
  0
LINE
  5
378
100
AcDbEntity
  8
0
100
AcDbLine
 62
7
  6
CONTINUOUS
 10
14.564800562
 20
7.7059624059
 11
14.5451320223
 21
7.6980158
  0
LINE
  5
379
100
AcDbEntity
  8
0
100
AcDbLine
 62
7
  6
CONTINUOUS
 10
16.1864607757
 20
8.3280628781
 11
16.166526885
 21
8.3208075353
  0
LINE
  5
37A
100
AcDbEntity
  8
0
100
AcDbLine
 62
7
  6
CONTINUOUS
 10
14.5254228224
 20
7.7234945051
 11
14.5054889317
 21
7.7162391623
  0
LINE
  5
37B
100
AcDbEntity
  8
0
100
AcDbLine
 62
7
  6
CONTINUOUS
 10
15.6833440061
 20
9.90122752
 11
15.7039270867
 21
9.9063594584
  0
LINE
  5
37C
100
AcDbEntity
  8
0
100
AcDbLine
 62
7
  6
CONTINUOUS
 10
8.1264258878
 20
8.2118093225
 11
8.1058428072
 21
8.2066773841
  0
LINE
  5
37D
100
AcDbEntity
  8
0
100
AcDbLine
 62
7
  6
CONTINUOUS
 10
6.4112926712
 20
7.784178583
 11
6.3907095906
 21
7.7790466446
  0
LINE
  5
37E
100
AcDbEntity
  8
0
100
AcDbLine
 62
7
  6
CONTINUOUS
 10
8.103750651
 20
8.1745333355
 11
8.083001007
 21
8.1701228625
  0
LINE
  5
37F
100
AcDbEntity
  8
0
100
AcDbLine
 62
7
  6
CONTINUOUS
 10
6.3747381497
 20
7.8070203832
 11
6.3539885056
 21
7.8026099102
  0
LINE
  5
380
100
AcDbEntity
  8
0
100
AcDbLine
 62
7
  6
CONTINUOUS
 10
15.7198985276
 20
9.8783857198
 11
15.7406481717
 21
9.8827961928
  0
LINE
  5
381
100
AcDbEntity
  8
0
100
AcDbLine
 62
7
  6
CONTINUOUS
 10
8.0797883142
 20
8.1380714105
 11
8.058897387
 21
8.1343877763
  0
LINE
  5
382
100
AcDbEntity
  8
0
100
AcDbLine
 62
7
  6
CONTINUOUS
 10
6.3390030635
 20
7.8311240031
 11
6.3181121363
 21
7.827440369
  0
LINE
  5
383
100
AcDbEntity
  8
0
100
AcDbLine
 62
7
  6
CONTINUOUS
 10
15.7556336138
 20
9.8542820999
 11
15.776524541
 21
9.857965734
  0
LINE
  5
384
100
AcDbEntity
  8
0
100
AcDbLine
 62
7
  6
CONTINUOUS
 10
8.0545680718
 20
8.1024679705
 11
8.0335613138
 21
8.0995156632
  0
LINE
  5
385
100
AcDbEntity
  8
0
100
AcDbLine
 62
7
  6
CONTINUOUS
 10
6.3041309504
 20
7.8564600764
 11
6.2831241924
 21
7.8535077691
  0
LINE
  5
386
100
AcDbEntity
  8
0
100
AcDbLine
 62
7
  6
CONTINUOUS
 10
15.7905057269
 20
9.8289460266
 11
15.8115124849
 21
9.8318983339
  0
LINE
  5
387
100
AcDbEntity
  8
0
100
AcDbLine
 62
7
  6
CONTINUOUS
 10
15.8115124849
 20
7.8535077691
 11
15.7905057269
 21
7.8564600764
  0
LINE
  5
388
100
AcDbEntity
  8
0
100
AcDbLine
 62
7
  6
CONTINUOUS
 10
14.0610753635
 20
8.0995156632
 11
14.0400686055
 21
8.1024679705
  0
LINE
  5
389
100
AcDbEntity
  8
0
100
AcDbLine
 62
7
  6
CONTINUOUS
 10
6.2831241924
 20
9.8318983339
 11
6.3041309504
 21
9.8289460266
  0
LINE
  5
38A
100
AcDbEntity
  8
0
100
AcDbLine
 62
7
  6
CONTINUOUS
 10
15.776524541
 20
7.827440369
 11
15.7556336138
 21
7.8311240031
  0
LINE
  5
38B
100
AcDbEntity
  8
0
100
AcDbLine
 62
7
  6
CONTINUOUS
 10
14.0357392903
 20
8.1343877763
 11
14.0148483631
 21
8.1380714105
  0
LINE
  5
38C
100
AcDbEntity
  8
0
100
AcDbLine
 62
7
  6
CONTINUOUS
 10
6.3181121363
 20
9.857965734
 11
6.3390030635
 21
9.8542820999
  0
LINE
  5
38D
100
AcDbEntity
  8
0
100
AcDbLine
 62
7
  6
CONTINUOUS
 10
15.7406481717
 20
7.8026099102
 11
15.7198985276
 21
7.8070203832
  0
LINE
  5
38E
100
AcDbEntity
  8
0
100
AcDbLine
 62
7
  6
CONTINUOUS
 10
14.0116356703
 20
8.1701228625
 11
13.9908860263
 21
8.1745333355
  0
LINE
  5
38F
100
AcDbEntity
  8
0
100
AcDbLine
 62
7
  6
CONTINUOUS
 10
6.3539885056
 20
9.8827961928
 11
6.3747381497
 21
9.8783857198
  0
LINE
  5
390
100
AcDbEntity
  8
0
100
AcDbLine
 62
7
  6
CONTINUOUS
 10
6.3907095906
 20
9.9063594584
 11
6.4112926712
 21
9.90122752
  0
LINE
  5
391
100
AcDbEntity
  8
0
100
AcDbLine
 62
7
  6
CONTINUOUS
 10
15.7039270867
 20
7.7790466446
 11
15.6833440061
 21
7.784178583
  0
LINE
  5
392
100
AcDbEntity
  8
0
100
AcDbLine
 62
7
  6
CONTINUOUS
 10
13.9887938701
 20
8.2066773841
 11
13.9682107895
 21
8.2118093225
  0
LINE
  5
393
100
AcDbEntity
  8
0
100
AcDbLine
 62
7
  6
CONTINUOUS
 10
6.4282306522
 20
9.9286268225
 11
6.4486220921
 21
9.9227796712
  0
LINE
  5
394
100
AcDbEntity
  8
0
100
AcDbLine
 62
7
  6
CONTINUOUS
 10
15.6664060251
 20
7.7567792805
 11
15.6460145852
 21
7.7626264318
  0
LINE
  5
395
100
AcDbEntity
  8
0
100
AcDbLine
 62
7
  6
CONTINUOUS
 10
13.9672417189
 20
8.2440068049
 11
13.946850279
 21
8.2498539562
  0
LINE
  5
396
100
AcDbEntity
  8
0
100
AcDbLine
 62
7
  6
CONTINUOUS
 10
15.6281307006
 20
7.7358349472
 11
15.6079557452
 21
7.7423901876
  0
LINE
  5
397
100
AcDbEntity
  8
0
100
AcDbLine
 62
7
  6
CONTINUOUS
 10
13.9470054748
 20
8.2820656449
 11
13.9268305194
 21
8.2886208853
  0
LINE
  5
398
100
AcDbEntity
  8
0
100
AcDbLine
 62
7
  6
CONTINUOUS
 10
15.5891477456
 20
7.7162391623
 11
15.5692138549
 21
7.7234945051
  0
LINE
  5
399
100
AcDbEntity
  8
0
100
AcDbLine
 62
7
  6
CONTINUOUS
 10
13.9281097923
 20
8.3208075353
 11
13.9081759016
 21
8.3280628781
  0
LINE
  5
39A
100
AcDbEntity
  8
0
100
AcDbLine
 62
7
  6
CONTINUOUS
 10
13.9613945676
 20
8.223615365
 11
13.9672417189
 21
8.2440068049
  0
LINE
  5
39B
100
AcDbEntity
  8
0
100
AcDbLine
 62
7
  6
CONTINUOUS
 10
14.4486220921
 20
9.9227796712
 11
14.4544692434
 21
9.9431711111
  0
LINE
  5
39C
100
AcDbEntity
  8
0
100
AcDbLine
 62
7
  6
CONTINUOUS
 10
13.9404502344
 20
8.2618906896
 11
13.9470054748
 21
8.2820656449
  0
LINE
  5
39D
100
AcDbEntity
  8
0
100
AcDbLine
 62
7
  6
CONTINUOUS
 10
14.4866809321
 20
9.9430159154
 11
14.4932361725
 21
9.9631908708
  0
LINE
  5
39E
100
AcDbEntity
  8
0
100
AcDbLine
 62
7
  6
CONTINUOUS
 10
13.9208544494
 20
8.3008736445
 11
13.9281097923
 21
8.3208075353
  0
LINE
  5
39F
100
AcDbEntity
  8
0
100
AcDbLine
 62
7
  6
CONTINUOUS
 10
14.5254228224
 20
9.9619115978
 11
14.5326781653
 21
9.9818454886
  0
LINE
  5
3A0
100
AcDbEntity
  8
0
100
AcDbLine
 62
7
  6
CONTINUOUS
 10
13.9026310872
 20
8.3405167352
 11
13.9105776931
 21
8.3601852749
  0
LINE
  5
3A1
100
AcDbEntity
  8
0
100
AcDbLine
 62
7
  6
CONTINUOUS
 10
14.564800562
 20
9.9794436971
 11
14.5727471679
 21
9.9991122368
  0
LINE
  5
3A2
100
AcDbEntity
  8
0
100
AcDbLine
 62
7
  6
CONTINUOUS
 10
13.88580235
 20
8.3807716624
 11
13.8944305372
 21
8.4001508881
  0
LINE
  5
3A3
100
AcDbEntity
  8
0
100
AcDbLine
 62
7
  6
CONTINUOUS
 10
14.6047661752
 20
9.995590853
 11
14.6133943624
 21
10.0149700786
  0
LINE
  5
3A4
100
AcDbEntity
  8
0
100
AcDbLine
 62
7
  6
CONTINUOUS
 10
13.8703887412
 20
8.421589382
 11
13.8796879975
 21
8.4406556829
  0
LINE
  5
3A5
100
AcDbEntity
  8
0
100
AcDbLine
 62
7
  6
CONTINUOUS
 10
14.6452709701
 20
10.0103333926
 11
14.6545702264
 21
10.0293996936
  0
LINE
  5
3A6
100
AcDbEntity
  8
0
100
AcDbLine
 62
7
  6
CONTINUOUS
 10
13.8564090398
 20
8.4629201637
 11
13.8663680356
 21
8.4816503106
  0
LINE
  5
3A7
100
AcDbEntity
  8
0
100
AcDbLine
 62
7
  6
CONTINUOUS
 10
14.6862655977
 20
10.0236533546
 11
14.6962245935
 21
10.0423835015
  0
LINE
  5
3A8
100
AcDbEntity
  8
0
100
AcDbLine
 62
7
  6
CONTINUOUS
 10
13.8438802779
 20
8.5047136523
 11
13.8544868796
 21
8.5230848253
  0
LINE
  5
3A9
100
AcDbEntity
  8
0
100
AcDbLine
 62
7
  6
CONTINUOUS
 10
14.7277001125
 20
10.0355345105
 11
14.7383067142
 21
10.0539056836
  0
LINE
  5
3AA
100
AcDbEntity
  8
0
100
AcDbLine
 62
7
  6
CONTINUOUS
 10
16.2963004165
 20
8.7922672596
 11
16.2805359342
 21
8.7780728559
  0
LINE
  5
3AB
100
AcDbEntity
  8
0
100
AcDbLine
 62
7
  6
CONTINUOUS
 10
16.2937793867
 20
8.7487091378
 11
16.27752913
 21
8.7350735535
  0
LINE
  5
3AC
100
AcDbEntity
  8
0
100
AcDbLine
 62
7
  6
CONTINUOUS
 10
16.289739736
 20
8.7052655332
 11
16.2730235036
 21
8.692205381
  0
LINE
  5
3AD
100
AcDbEntity
  8
0
100
AcDbLine
 62
7
  6
CONTINUOUS
 10
16.2841863862
 20
8.6619893749
 11
16.2670245441
 21
8.6495205668
  0
LINE
  5
3AE
100
AcDbEntity
  8
0
100
AcDbLine
 62
7
  6
CONTINUOUS
 10
16.2771261033
 20
8.6189333885
 11
16.2595395606
 21
8.6070711156
  0
LINE
  5
3AF
100
AcDbEntity
  8
0
100
AcDbLine
 62
7
  6
CONTINUOUS
 10
14.7953835349
 20
7.6194854063
 11
14.7940998601
 21
7.6186195567
  0
LINE
  5
3B0
100
AcDbEntity
  8
0
100
AcDbLine
 62
7
  6
CONTINUOUS
 10
16.268567489
 20
8.5761500309
 11
16.2505776722
 21
8.5649087457
  0
LINE
  5
3B1
100
AcDbEntity
  8
0
100
AcDbLine
 62
7
  6
CONTINUOUS
 10
14.7695240329
 20
7.639443718
 11
14.7515342161
 21
7.6282024328
  0
LINE
  5
3B2
100
AcDbEntity
  8
0
100
AcDbLine
 62
7
  6
CONTINUOUS
 10
15.8244723807
 20
9.8024083682
 11
15.845569376
 21
9.8046257518
  0
LINE
  5
3B3
100
AcDbEntity
  8
0
100
AcDbLine
 62
7
  6
CONTINUOUS
 10
15.857492192
 20
9.7747014568
 11
15.8786537212
 21
9.776181215
  0
LINE
  5
3B4
100
AcDbEntity
  8
0
100
AcDbLine
 62
7
  6
CONTINUOUS
 10
7.857492192
 20
9.7747014568
 11
7.8786537212
 21
9.776181215
  0
LINE
  5
3B5
100
AcDbEntity
  8
0
100
AcDbLine
 62
7
  6
CONTINUOUS
 10
15.9107252122
 20
9.7465993789
 11
15.8895249313
 21
9.7458590488
  0
LINE
  5
3B6
100
AcDbEntity
  8
0
100
AcDbLine
 62
7
  6
CONTINUOUS
 10
14.1441623414
 20
9.6849096441
 11
14.1229620604
 21
9.684169314
  0
LINE
  5
3B7
100
AcDbEntity
  8
0
100
AcDbLine
 62
7
  6
CONTINUOUS
 10
7.9107252122
 20
9.7465993789
 11
7.8895249313
 21
9.7458590488
  0
LINE
  5
3B8
100
AcDbEntity
  8
0
100
AcDbLine
 62
7
  6
CONTINUOUS
 10
6.1441623414
 20
9.6849096441
 11
6.1229620604
 21
9.684169314
  0
LINE
  5
3B9
100
AcDbEntity
  8
0
100
AcDbLine
 62
7
  6
CONTINUOUS
 10
15.941744775
 20
9.7159162844
 11
15.9205315715
 21
9.7159162844
  0
LINE
  5
3BA
100
AcDbEntity
  8
0
100
AcDbLine
 62
7
  6
CONTINUOUS
 10
14.1741051058
 20
9.7159162844
 11
14.1528919024
 21
9.7159162844
  0
LINE
  5
3BB
100
AcDbEntity
  8
0
100
AcDbLine
 62
7
  6
CONTINUOUS
 10
7.941744775
 20
9.7159162844
 11
7.9205315715
 21
9.7159162844
  0
LINE
  5
3BC
100
AcDbEntity
  8
0
100
AcDbLine
 62
7
  6
CONTINUOUS
 10
6.1741051058
 20
9.7159162844
 11
6.1528919024
 21
9.7159162844
  0
LINE
  5
3BD
100
AcDbEntity
  8
0
100
AcDbLine
 62
7
  6
CONTINUOUS
 10
7.9716746169
 20
9.684169314
 11
7.950474336
 21
9.6849096441
  0
LINE
  5
3BE
100
AcDbEntity
  8
0
100
AcDbLine
 62
7
  6
CONTINUOUS
 10
6.205111746
 20
9.7458590488
 11
6.1839114651
 21
9.7465993789
  0
LINE
  5
3BF
100
AcDbEntity
  8
0
100
AcDbLine
 62
7
  6
CONTINUOUS
 10
15.9716746169
 20
9.684169314
 11
15.950474336
 21
9.6849096441
  0
LINE
  5
3C0
100
AcDbEntity
  8
0
100
AcDbLine
 62
7
  6
CONTINUOUS
 10
14.205111746
 20
9.7458590488
 11
14.1839114651
 21
9.7465993789
  0
LINE
  5
3C1
100
AcDbEntity
  8
0
100
AcDbLine
 62
7
  6
CONTINUOUS
 10
6.2159829562
 20
9.776181215
 11
6.2371444853
 21
9.7747014568
  0
LINE
  5
3C2
100
AcDbEntity
  8
0
100
AcDbLine
 62
7
  6
CONTINUOUS
 10
14.2159829562
 20
9.776181215
 11
14.2371444853
 21
9.7747014568
  0
LINE
  5
3C3
100
AcDbEntity
  8
0
100
AcDbLine
 62
7
  6
CONTINUOUS
 10
6.2490673013
 20
9.8046257518
 11
6.2701642966
 21
9.8024083682
  0
LINE
  5
3C4
100
AcDbEntity
  8
0
100
AcDbLine
 62
7
  6
CONTINUOUS
 10
15.549504655
 20
7.6980158
 11
15.5298361153
 21
7.7059624059
  0
LINE
  5
3C5
100
AcDbEntity
  8
0
100
AcDbLine
 62
7
  6
CONTINUOUS
 10
13.9105776931
 20
8.3601852749
 11
13.8909091533
 21
8.3681318808
  0
LINE
  5
3C6
100
AcDbEntity
  8
0
100
AcDbLine
 62
7
  6
CONTINUOUS
 10
15.5092497277
 20
7.6811870629
 11
15.4898705021
 21
7.68981525
  0
LINE
  5
3C7
100
AcDbEntity
  8
0
100
AcDbLine
 62
7
  6
CONTINUOUS
 10
13.8944305372
 20
8.4001508881
 11
13.8750513116
 21
8.4087790752
  0
LINE
  5
3C8
100
AcDbEntity
  8
0
100
AcDbLine
 62
7
  6
CONTINUOUS
 10
15.4684320082
 20
7.6657734541
 11
15.4493657072
 21
7.6750727104
  0
LINE
  5
3C9
100
AcDbEntity
  8
0
100
AcDbLine
 62
7
  6
CONTINUOUS
 10
13.8796879975
 20
8.4406556829
 11
13.8606216966
 21
8.4499549392
  0
LINE
  5
3CA
100
AcDbEntity
  8
0
100
AcDbLine
 62
7
  6
CONTINUOUS
 10
15.4271012265
 20
7.6517937526
 11
15.4083710796
 21
7.6617527484
  0
LINE
  5
3CB
100
AcDbEntity
  8
0
100
AcDbLine
 62
7
  6
CONTINUOUS
 10
13.8663680356
 20
8.4816503106
 11
13.8476378887
 21
8.4916093063
  0
LINE
  5
3CC
100
AcDbEntity
  8
0
100
AcDbLine
 62
7
  6
CONTINUOUS
 10
15.3853077379
 20
7.6392649908
 11
15.3669365648
 21
7.6498715925
  0
LINE
  5
3CD
100
AcDbEntity
  8
0
100
AcDbLine
 62
7
  6
CONTINUOUS
 10
13.8544868796
 20
8.5230848253
 11
13.8361157066
 21
8.5336914271
  0
LINE
  5
3CE
100
AcDbEntity
  8
0
100
AcDbLine
 62
7
  6
CONTINUOUS
 10
15.3431024612
 20
7.6282024328
 11
15.3251126444
 21
7.639443718
  0
LINE
  5
3CF
100
AcDbEntity
  8
0
100
AcDbLine
 62
7
  6
CONTINUOUS
 10
13.8440590051
 20
8.5649087457
 11
13.8260691883
 21
8.5761500309
  0
LINE
  5
3D0
100
AcDbEntity
  8
0
100
AcDbLine
 62
7
  6
CONTINUOUS
 10
15.3005368172
 20
7.6186195567
 11
15.2992531424
 21
7.6194854063
  0
LINE
  5
3D1
100
AcDbEntity
  8
0
100
AcDbLine
 62
7
  6
CONTINUOUS
 10
13.8350971167
 20
8.6070711156
 11
13.817510574
 21
8.6189333885
  0
LINE
  5
3D2
100
AcDbEntity
  8
0
100
AcDbLine
 62
7
  6
CONTINUOUS
 10
13.8276121332
 20
8.6495205668
 11
13.8104502911
 21
8.6619893749
  0
LINE
  5
3D3
100
AcDbEntity
  8
0
100
AcDbLine
 62
7
  6
CONTINUOUS
 10
14.2723816801
 20
7.8619007395
 11
14.2701642966
 21
7.8829977348
  0
LINE
  5
3D4
100
AcDbEntity
  8
0
100
AcDbLine
 62
7
  6
CONTINUOUS
 10
14.2386242436
 20
7.8895431171
 11
14.2371444853
 21
7.9107046462
  0
LINE
  5
3D5
100
AcDbEntity
  8
0
100
AcDbLine
 62
7
  6
CONTINUOUS
 10
14.1139481855
 20
9.6724938142
 11
14.1138401751
 21
9.674038434
  0
LINE
  5
3D6
100
AcDbEntity
  8
0
100
AcDbLine
 62
7
  6
CONTINUOUS
 10
14.1434220112
 20
9.706109925
 11
14.1441623414
 21
9.6849096441
  0
LINE
  5
3D7
100
AcDbEntity
  8
0
100
AcDbLine
 62
7
  6
CONTINUOUS
 10
14.205111746
 20
7.9395470542
 11
14.2058520762
 21
7.9183467733
  0
LINE
  5
3D8
100
AcDbEntity
  8
0
100
AcDbLine
 62
7
  6
CONTINUOUS
 10
14.1741051058
 20
9.7371294878
 11
14.1741051058
 21
9.7159162844
  0
LINE
  5
3D9
100
AcDbEntity
  8
0
100
AcDbLine
 62
7
  6
CONTINUOUS
 10
14.1741051058
 20
7.9694898186
 11
14.1741051058
 21
7.9482766152
  0
LINE
  5
3DA
100
AcDbEntity
  8
0
100
AcDbLine
 62
7
  6
CONTINUOUS
 10
14.2058520762
 20
9.7670593297
 11
14.205111746
 21
9.7458590488
  0
LINE
  5
3DB
100
AcDbEntity
  8
0
100
AcDbLine
 62
7
  6
CONTINUOUS
 10
14.1441623414
 20
8.0004964589
 11
14.1434220112
 21
7.979296178
  0
LINE
  5
3DC
100
AcDbEntity
  8
0
100
AcDbLine
 62
7
  6
CONTINUOUS
 10
14.1138401751
 20
8.011367669
 11
14.1153199334
 21
8.0325291981
  0
LINE
  5
3DD
100
AcDbEntity
  8
0
100
AcDbLine
 62
7
  6
CONTINUOUS
 10
14.2371444853
 20
9.7747014568
 11
14.2386242436
 21
9.7958629859
  0
LINE
  5
3DE
100
AcDbEntity
  8
0
100
AcDbLine
 62
7
  6
CONTINUOUS
 10
14.0853956384
 20
8.0444520141
 11
14.0876130219
 21
8.0655490094
  0
LINE
  5
3DF
100
AcDbEntity
  8
0
100
AcDbLine
 62
7
  6
CONTINUOUS
 10
14.2701642966
 20
9.8024083682
 11
14.2723816801
 21
9.8235053635
  0
LINE
  5
3E0
100
AcDbEntity
  8
0
100
AcDbLine
 62
7
  6
CONTINUOUS
 10
14.0581230562
 20
8.0785089052
 11
14.0610753635
 21
8.0995156632
  0
LINE
  5
3E1
100
AcDbEntity
  8
0
100
AcDbLine
 62
7
  6
CONTINUOUS
 10
14.3041309504
 20
9.8289460266
 11
14.3070832577
 21
9.8499527846
  0
LINE
  5
3E2
100
AcDbEntity
  8
0
100
AcDbLine
 62
7
  6
CONTINUOUS
 10
14.0320556562
 20
8.1134968491
 11
14.0357392903
 21
8.1343877763
  0
LINE
  5
3E3
100
AcDbEntity
  8
0
100
AcDbLine
 62
7
  6
CONTINUOUS
 10
14.3390030635
 20
9.8542820999
 11
14.3426866976
 21
9.8751730271
  0
LINE
  5
3E4
100
AcDbEntity
  8
0
100
AcDbLine
 62
7
  6
CONTINUOUS
 10
14.0072251973
 20
8.1493732185
 11
14.0116356703
 21
8.1701228625
  0
LINE
  5
3E5
100
AcDbEntity
  8
0
100
AcDbLine
 62
7
  6
CONTINUOUS
 10
14.3747381497
 20
9.8783857198
 11
14.3791486227
 21
9.8991353639
  0
LINE
  5
3E6
100
AcDbEntity
  8
0
100
AcDbLine
 62
7
  6
CONTINUOUS
 10
13.9836619317
 20
8.1860943034
 11
13.9887938701
 21
8.2066773841
  0
LINE
  5
3E7
100
AcDbEntity
  8
0
100
AcDbLine
 62
7
  6
CONTINUOUS
 10
14.4112926712
 20
9.90122752
 11
14.4164246096
 21
9.9218106007
  0
LINE
  5
3E8
100
AcDbEntity
  8
0
100
AcDbLine
 62
7
  6
CONTINUOUS
 10
10.9340243031
 20
-3.5259850414
 11
10.9427954542
 21
-3.4972958988
  0
LINE
  5
3E9
100
AcDbEntity
  8
0
100
AcDbLine
 62
7
  6
CONTINUOUS
 10
11.1518412231
 20
-2.8135379982
 11
11.1606123742
 21
-2.7848488556
  0
LINE
  5
3EA
100
AcDbEntity
  8
0
100
AcDbLine
 62
7
  6
CONTINUOUS
 10
16.2714018334
 20
9.09592153
 11
16.2595395606
 21
9.0783349874
  0
LINE
  5
3EB
100
AcDbEntity
  8
0
100
AcDbLine
 62
7
  6
CONTINUOUS
 10
16.2794933523
 20
9.0530473783
 11
16.2670245441
 21
9.0358855362
  0
LINE
  5
3EC
100
AcDbEntity
  8
0
100
AcDbLine
 62
7
  6
CONTINUOUS
 10
16.2860836557
 20
9.0099169544
 11
16.2730235036
 21
8.993200722
  0
LINE
  5
3ED
100
AcDbEntity
  8
0
100
AcDbLine
 62
7
  6
CONTINUOUS
 10
16.2911647144
 20
8.9665828061
 11
16.27752913
 21
8.9503325495
  0
LINE
  5
3EE
100
AcDbEntity
  8
0
100
AcDbLine
 62
7
  6
CONTINUOUS
 10
16.2947303379
 20
8.9230977294
 11
16.2805359342
 21
8.9073332471
  0
LINE
  5
3EF
100
AcDbEntity
  8
0
100
AcDbLine
 62
7
  6
CONTINUOUS
 10
16.296776182
 20
8.8795147042
 11
16.2820402526
 21
8.8642552027
  0
LINE
  5
3F0
100
AcDbEntity
  8
0
100
AcDbLine
 62
7
  6
CONTINUOUS
 10
16.2972997542
 20
8.8358868297
 11
16.2820402526
 21
8.8211509003
  0
LINE
  5
3F1
100
AcDbEntity
  8
0
100
AcDbLine
 62
7
  6
CONTINUOUS
 10
7.6833440061
 20
9.90122752
 11
7.7039270867
 21
9.9063594584
  0
LINE
  5
3F2
100
AcDbEntity
  8
0
100
AcDbLine
 62
7
  6
CONTINUOUS
 10
7.7198985276
 20
9.8783857198
 11
7.7406481717
 21
9.8827961928
  0
LINE
  5
3F3
100
AcDbEntity
  8
0
100
AcDbLine
 62
7
  6
CONTINUOUS
 10
7.7556336138
 20
9.8542820999
 11
7.776524541
 21
9.857965734
  0
LINE
  5
3F4
100
AcDbEntity
  8
0
100
AcDbLine
 62
7
  6
CONTINUOUS
 10
7.7905057269
 20
9.8289460266
 11
7.8115124849
 21
9.8318983339
  0
LINE
  5
3F5
100
AcDbEntity
  8
0
100
AcDbLine
 62
7
  6
CONTINUOUS
 10
7.8244723807
 20
9.8024083682
 11
7.845569376
 21
9.8046257518
  0
LINE
  5
3F6
100
AcDbEntity
  8
0
100
AcDbLine
 62
7
  6
CONTINUOUS
 10
14.2490673013
 20
9.8046257518
 11
14.2701642966
 21
9.8024083682
  0
LINE
  5
3F7
100
AcDbEntity
  8
0
100
AcDbLine
 62
7
  6
CONTINUOUS
 10
14.2831241924
 20
9.8318983339
 11
14.3041309504
 21
9.8289460266
  0
LINE
  5
3F8
100
AcDbEntity
  8
0
100
AcDbLine
 62
7
  6
CONTINUOUS
 10
14.3181121363
 20
9.857965734
 11
14.3390030635
 21
9.8542820999
  0
LINE
  5
3F9
100
AcDbEntity
  8
0
100
AcDbLine
 62
7
  6
CONTINUOUS
 10
14.3539885056
 20
9.8827961928
 11
14.3747381497
 21
9.8783857198
  0
LINE
  5
3FA
100
AcDbEntity
  8
0
100
AcDbLine
 62
7
  6
CONTINUOUS
 10
14.3907095906
 20
9.9063594584
 11
14.4112926712
 21
9.90122752
  0
LINE
  5
3FB
100
AcDbEntity
  8
0
100
AcDbLine
 62
7
  6
CONTINUOUS
 10
14.4282306522
 20
9.9286268225
 11
14.4486220921
 21
9.9227796712
  0
LINE
  5
3FC
100
AcDbEntity
  8
0
100
AcDbLine
 62
7
  6
CONTINUOUS
 10
14.4665059767
 20
9.9495711558
 11
14.4866809321
 21
9.9430159154
  0
LINE
  5
3FD
100
AcDbEntity
  8
0
100
AcDbLine
 62
7
  6
CONTINUOUS
 10
13.6501030074
 20
9.3360116848
 11
14.5916314861
 21
8.8922320293
  0
LINE
  5
3FE
100
AcDbEntity
  8
0
100
AcDbLine
 62
7
  6
CONTINUOUS
 10
13.8216131737
 20
8.692205381
 11
13.8048969413
 21
8.7052655332
  0
LINE
  5
3FF
100
AcDbEntity
  8
0
100
AcDbLine
 62
7
  6
CONTINUOUS
 10
13.8171075473
 20
8.7350735535
 11
13.8008572907
 21
8.7487091378
  0
LINE
  5
400
100
AcDbEntity
  8
0
100
AcDbLine
 62
7
  6
CONTINUOUS
 10
13.8141007431
 20
8.7780728559
 11
13.7983362608
 21
8.7922672596
  0
LINE
  5
401
100
AcDbEntity
  8
0
100
AcDbLine
 62
7
  6
CONTINUOUS
 10
13.8125964247
 20
8.8211509003
 11
13.7973369231
 21
8.8358868297
  0
LINE
  5
402
100
AcDbEntity
  8
0
100
AcDbLine
 62
7
  6
CONTINUOUS
 10
13.8125964247
 20
8.8642552027
 11
13.7978604953
 21
8.8795147042
  0
LINE
  5
403
100
AcDbEntity
  8
0
100
AcDbLine
 62
7
  6
CONTINUOUS
 10
13.8141007431
 20
8.9073332471
 11
13.7999063395
 21
8.9230977294
  0
LINE
  5
404
100
AcDbEntity
  8
0
100
AcDbLine
 62
7
  6
CONTINUOUS
 10
13.8171075473
 20
8.9503325495
 11
13.8034719629
 21
8.9665828061
  0
LINE
  5
405
100
AcDbEntity
  8
0
100
AcDbLine
 62
7
  6
CONTINUOUS
 10
13.8216131737
 20
8.993200722
 11
13.8085530216
 21
9.0099169544
  0
LINE
  5
406
100
AcDbEntity
  8
0
100
AcDbLine
 62
7
  6
CONTINUOUS
 10
13.8276121332
 20
9.0358855362
 11
13.815143325
 21
9.0530473783
  0
LINE
  5
407
100
AcDbEntity
  8
0
100
AcDbLine
 62
7
  6
CONTINUOUS
 10
13.8350971167
 20
9.0783349874
 11
13.8232348439
 21
9.09592153
  0
LINE
  5
408
100
AcDbEntity
  8
0
100
AcDbLine
 62
7
  6
CONTINUOUS
 10
14.780765318
 20
7.6214539012
 11
14.7695240329
 21
7.639443718
  0
LINE
  5
409
100
AcDbEntity
  8
0
100
AcDbLine
 62
7
  6
CONTINUOUS
 10
13.8440590051
 20
9.1204973573
 11
13.83281772
 21
9.1384871741
  0
LINE
  5
40A
100
AcDbEntity
  8
0
100
AcDbLine
 62
7
  6
CONTINUOUS
 10
14.7383067142
 20
7.6315004194
 11
14.7277001125
 21
7.6498715925
  0
LINE
  5
40B
100
AcDbEntity
  8
0
100
AcDbLine
 62
7
  6
CONTINUOUS
 10
13.8544868796
 20
9.1623212776
 11
13.8438802779
 21
9.1806924507
  0
LINE
  5
40C
100
AcDbEntity
  8
0
100
AcDbLine
 62
7
  6
CONTINUOUS
 10
14.6962245935
 20
7.6430226015
 11
14.6862655977
 21
7.6617527484
  0
LINE
  5
40D
100
AcDbEntity
  8
0
100
AcDbLine
 62
7
  6
CONTINUOUS
 10
13.8663680356
 20
9.2037557924
 11
13.8564090398
 21
9.2224859393
  0
LINE
  5
40E
100
AcDbEntity
  8
0
100
AcDbLine
 62
7
  6
CONTINUOUS
 10
14.6545702264
 20
7.6560064094
 11
14.6452709701
 21
7.6750727104
  0
LINE
  5
40F
100
AcDbEntity
  8
0
100
AcDbLine
 62
7
  6
CONTINUOUS
 10
14.6133943624
 20
7.6704360244
 11
14.6047661752
 21
7.68981525
  0
LINE
  5
410
100
AcDbEntity
  8
0
100
AcDbLine
 62
7
  6
CONTINUOUS
 10
14.5727471679
 20
7.6862938662
 11
14.564800562
 21
7.7059624059
  0
LINE
  5
411
100
AcDbEntity
  8
0
100
AcDbLine
 62
7
  6
CONTINUOUS
 10
14.5326781653
 20
7.7035606144
 11
14.5254228224
 21
7.7234945051
  0
LINE
  5
412
100
AcDbEntity
  8
0
100
AcDbLine
 62
7
  6
CONTINUOUS
 10
14.4932361725
 20
7.7222152322
 11
14.4866809321
 21
7.7423901876
  0
LINE
  5
413
100
AcDbEntity
  8
0
100
AcDbLine
 62
7
  6
CONTINUOUS
 10
14.4544692434
 20
7.7422349919
 11
14.4486220921
 21
7.7626264318
  0
LINE
  5
414
100
AcDbEntity
  8
0
100
AcDbLine
 62
7
  6
CONTINUOUS
 10
14.4164246096
 20
7.7635955023
 11
14.4112926712
 21
7.784178583
  0
LINE
  5
415
100
AcDbEntity
  8
0
100
AcDbLine
 62
7
  6
CONTINUOUS
 10
14.3791486227
 20
7.7862707391
 11
14.3747381497
 21
7.8070203832
  0
LINE
  5
416
100
AcDbEntity
  8
0
100
AcDbLine
 62
7
  6
CONTINUOUS
 10
14.3426866976
 20
7.8102330759
 11
14.3390030635
 21
7.8311240031
  0
LINE
  5
417
100
AcDbEntity
  8
0
100
AcDbLine
 62
7
  6
CONTINUOUS
 10
14.3070832577
 20
7.8354533184
 11
14.3041309504
 21
7.8564600764
  0
LINE
  5
418
100
AcDbEntity
  8
0
100
AcDbLine
 62
7
  6
CONTINUOUS
 10
15.3187081956
 20
7.3860247681
 11
15.2322684119
 21
8.4233021721
  0
LINE
  5
419
100
AcDbEntity
  8
0
100
AcDbLine
 62
7
  6
CONTINUOUS
 10
14.7759284812
 20
7.386024762
 11
14.8623682654
 21
8.4233021721
  0
LINE
  5
41A
100
AcDbEntity
  8
0
100
AcDbLine
 62
7
  6
CONTINUOUS
 10
15.6079557452
 20
7.7423901876
 11
15.6014005049
 21
7.7222152322
  0
LINE
  5
41B
100
AcDbEntity
  8
0
100
AcDbLine
 62
7
  6
CONTINUOUS
 10
15.5692138549
 20
7.7234945051
 11
15.561958512
 21
7.7035606144
  0
LINE
  5
41C
100
AcDbEntity
  8
0
100
AcDbLine
 62
7
  6
CONTINUOUS
 10
15.5298361153
 20
7.7059624059
 11
15.5218895094
 21
7.6862938662
  0
LINE
  5
41D
100
AcDbEntity
  8
0
100
AcDbLine
 62
7
  6
CONTINUOUS
 10
15.4898705021
 20
7.68981525
 11
15.4812423149
 21
7.6704360244
  0
LINE
  5
41E
100
AcDbEntity
  8
0
100
AcDbLine
 62
7
  6
CONTINUOUS
 10
15.4493657072
 20
7.6750727104
 11
15.4400664509
 21
7.6560064094
  0
LINE
  5
41F
100
AcDbEntity
  8
0
100
AcDbLine
 62
7
  6
CONTINUOUS
 10
16.2382276375
 20
9.2224859393
 11
16.2282686417
 21
9.2037557924
  0
LINE
  5
420
100
AcDbEntity
  8
0
100
AcDbLine
 62
7
  6
CONTINUOUS
 10
15.4083710796
 20
7.6617527484
 11
15.3984120838
 21
7.6430226015
  0
LINE
  5
421
100
AcDbEntity
  8
0
100
AcDbLine
 62
7
  6
CONTINUOUS
 10
16.2507563994
 20
9.1806924507
 11
16.2401497977
 21
9.1623212776
  0
LINE
  5
422
100
AcDbEntity
  8
0
100
AcDbLine
 62
7
  6
CONTINUOUS
 10
15.3669365648
 20
7.6498715925
 11
15.3563299631
 21
7.6315004194
  0
LINE
  5
423
100
AcDbEntity
  8
0
100
AcDbLine
 62
7
  6
CONTINUOUS
 10
16.2618189574
 20
9.1384871741
 11
16.2505776722
 21
9.1204973573
  0
LINE
  5
424
100
AcDbEntity
  8
0
100
AcDbLine
 62
7
  6
CONTINUOUS
 10
15.3251126444
 20
7.639443718
 11
15.3138713593
 21
7.6214539012
  0
LINE
  5
425
100
AcDbEntity
  8
0
100
AcDbLine
 62
7
  6
CONTINUOUS
 10
14.5054889317
 20
9.9691669407
 11
14.5254228224
 21
9.9619115978
  0
LINE
  5
426
100
AcDbEntity
  8
0
100
AcDbLine
 62
7
  6
CONTINUOUS
 10
14.5451320223
 20
9.987390303
 11
14.564800562
 21
9.9794436971
  0
LINE
  5
427
100
AcDbEntity
  8
0
100
AcDbLine
 62
7
  6
CONTINUOUS
 10
14.5853869496
 20
10.0042190401
 11
14.6047661752
 21
9.995590853
  0
LINE
  5
428
100
AcDbEntity
  8
0
100
AcDbLine
 62
7
  6
CONTINUOUS
 10
14.6262046691
 20
10.0196326489
 11
14.6452709701
 21
10.0103333926
  0
LINE
  5
429
100
AcDbEntity
  8
0
100
AcDbLine
 62
7
  6
CONTINUOUS
 10
16.2326232956
 20
9.2361299339
 11
16.2340149807
 21
9.2354511637
  0
LINE
  5
42A
100
AcDbEntity
  8
0
100
AcDbLine
 62
7
  6
CONTINUOUS
 10
14.6675354508
 20
10.0336123504
 11
14.6862655977
 21
10.0236533546
  0
LINE
  5
42B
100
AcDbEntity
  8
0
100
AcDbLine
 62
7
  6
CONTINUOUS
 10
16.2282686417
 20
9.2037557924
 11
16.2469987887
 21
9.1937967967
  0
LINE
  5
42C
100
AcDbEntity
  8
0
100
AcDbLine
 62
7
  6
CONTINUOUS
 10
14.7093289394
 20
10.0461411122
 11
14.7277001125
 21
10.0355345105
  0
LINE
  5
42D
100
AcDbEntity
  8
0
100
AcDbLine
 62
7
  6
CONTINUOUS
 10
16.2401497977
 20
9.1623212776
 11
16.2585209707
 21
9.1517146759
  0
LINE
  5
42E
100
AcDbEntity
  8
0
100
AcDbLine
 62
7
  6
CONTINUOUS
 10
14.7515342161
 20
10.0572036702
 11
14.7695240329
 21
10.045962385
  0
LINE
  5
42F
100
AcDbEntity
  8
0
100
AcDbLine
 62
7
  6
CONTINUOUS
 10
16.2505776722
 20
9.1204973573
 11
16.268567489
 21
9.1092560721
  0
LINE
  5
430
100
AcDbEntity
  8
0
100
AcDbLine
 62
7
  6
CONTINUOUS
 10
14.7940998601
 20
10.0667865462
 11
14.8116864028
 21
10.0549242734
  0
LINE
  5
431
100
AcDbEntity
  8
0
100
AcDbLine
 62
7
  6
CONTINUOUS
 10
16.2595395606
 20
9.0783349874
 11
16.2771261033
 21
9.0664727145
  0
LINE
  5
432
100
AcDbEntity
  8
0
100
AcDbLine
 62
7
  6
CONTINUOUS
 10
13.9214929539
 20
9.8060726444
 11
14.7765815594
 21
9.2125749531
  0
LINE
  5
433
100
AcDbEntity
  8
0
100
AcDbLine
 62
7
  6
CONTINUOUS
 10
14.8369740119
 20
10.0748780651
 11
14.8541358539
 21
10.062409257
  0
LINE
  5
434
100
AcDbEntity
  8
0
100
AcDbLine
 62
7
  6
CONTINUOUS
 10
16.2670245441
 20
9.0358855362
 11
16.2841863862
 21
9.0234167281
  0
LINE
  5
435
100
AcDbEntity
  8
0
100
AcDbLine
 62
7
  6
CONTINUOUS
 10
15.8222549972
 20
9.8235053635
 11
15.8244723807
 21
9.8024083682
  0
LINE
  5
436
100
AcDbEntity
  8
0
100
AcDbLine
 62
7
  6
CONTINUOUS
 10
16.0070236554
 20
8.0655490094
 11
16.009241039
 21
8.0444520141
  0
LINE
  5
437
100
AcDbEntity
  8
0
100
AcDbLine
 62
7
  6
CONTINUOUS
 10
15.8560124338
 20
9.7958629859
 11
15.857492192
 21
9.7747014568
  0
LINE
  5
438
100
AcDbEntity
  8
0
100
AcDbLine
 62
7
  6
CONTINUOUS
 10
15.9793167439
 20
8.0325291981
 11
15.9807965022
 21
8.011367669
  0
LINE
  5
439
100
AcDbEntity
  8
0
100
AcDbLine
 62
7
  6
CONTINUOUS
 10
15.9512146661
 20
7.979296178
 11
15.950474336
 21
8.0004964589
  0
LINE
  5
43A
100
AcDbEntity
  8
0
100
AcDbLine
 62
7
  6
CONTINUOUS
 10
15.8895249313
 20
9.7458590488
 11
15.8887846011
 21
9.7670593297
  0
LINE
  5
43B
100
AcDbEntity
  8
0
100
AcDbLine
 62
7
  6
CONTINUOUS
 10
15.9205315715
 20
7.9482766152
 11
15.9205315715
 21
7.9694898186
  0
LINE
  5
43C
100
AcDbEntity
  8
0
100
AcDbLine
 62
7
  6
CONTINUOUS
 10
15.9205315715
 20
9.7159162844
 11
15.9205315715
 21
9.7371294878
  0
LINE
  5
43D
100
AcDbEntity
  8
0
100
AcDbLine
 62
7
  6
CONTINUOUS
 10
15.8887846011
 20
7.9183467733
 11
15.8895249313
 21
7.9395470542
  0
LINE
  5
43E
100
AcDbEntity
  8
0
100
AcDbLine
 62
7
  6
CONTINUOUS
 10
15.950474336
 20
9.6849096441
 11
15.9512146661
 21
9.706109925
  0
LINE
  5
43F
100
AcDbEntity
  8
0
100
AcDbLine
 62
7
  6
CONTINUOUS
 10
15.9807965022
 20
9.674038434
 11
15.9806884919
 21
9.6724938142
  0
LINE
  5
440
100
AcDbEntity
  8
0
100
AcDbLine
 62
7
  6
CONTINUOUS
 10
15.857492192
 20
7.9107046462
 11
15.8560124338
 21
7.8895431171
  0
LINE
  5
441
100
AcDbEntity
  8
0
100
AcDbLine
 62
7
  6
CONTINUOUS
 10
15.8244723807
 20
7.8829977348
 11
15.8222549972
 21
7.8619007395
  0
LINE
  5
442
100
AcDbEntity
  8
0
100
AcDbLine
 62
7
  6
CONTINUOUS
 10
15.7905057269
 20
7.8564600764
 11
15.7875534196
 21
7.8354533184
  0
LINE
  5
443
100
AcDbEntity
  8
0
100
AcDbLine
 62
7
  6
CONTINUOUS
 10
15.7556336138
 20
7.8311240031
 11
15.7519499797
 21
7.8102330759
  0
LINE
  5
444
100
AcDbEntity
  8
0
100
AcDbLine
 62
7
  6
CONTINUOUS
 10
15.7198985276
 20
7.8070203832
 11
15.7154880546
 21
7.7862707391
  0
LINE
  5
445
100
AcDbEntity
  8
0
100
AcDbLine
 62
7
  6
CONTINUOUS
 10
15.6833440061
 20
7.784178583
 11
15.6782120677
 21
7.7635955023
  0
LINE
  5
446
100
AcDbEntity
  8
0
100
AcDbLine
 62
7
  6
CONTINUOUS
 10
15.6460145852
 20
7.7626264318
 11
15.6401674339
 21
7.7422349919
  0
LINE
  5
447
100
AcDbEntity
  8
0
100
AcDbLine
 62
7
  6
CONTINUOUS
 10
10.8653981081
 20
-3.4975591407
 11
10.879482255
 21
-3.4710707129
  0
LINE
  5
448
100
AcDbEntity
  8
0
100
AcDbLine
 62
7
  6
CONTINUOUS
 10
11.2151544224
 20
-2.8397631841
 11
11.2292385692
 21
-2.8132747563
  0
LINE
  5
449
100
AcDbEntity
  8
0
100
AcDbLine
 62
7
  6
CONTINUOUS
 10
14.8801044358
 20
10.0814683685
 11
14.8968206682
 21
10.0684082164
  0
LINE
  5
44A
100
AcDbEntity
  8
0
100
AcDbLine
 62
7
  6
CONTINUOUS
 10
16.2730235036
 20
8.993200722
 11
16.289739736
 21
8.9801405698
  0
LINE
  5
44B
100
AcDbEntity
  8
0
100
AcDbLine
 62
7
  6
CONTINUOUS
 10
14.923438584
 20
10.0865494272
 11
14.9396888407
 21
10.0729138429
  0
LINE
  5
44C
100
AcDbEntity
  8
0
100
AcDbLine
 62
7
  6
CONTINUOUS
 10
16.27752913
 20
8.9503325495
 11
16.2937793867
 21
8.9366969652
  0
LINE
  5
44D
100
AcDbEntity
  8
0
100
AcDbLine
 62
7
  6
CONTINUOUS
 10
14.9669236607
 20
10.0901150507
 11
14.9826881431
 21
10.075920647
  0
LINE
  5
44E
100
AcDbEntity
  8
0
100
AcDbLine
 62
7
  6
CONTINUOUS
 10
16.2805359342
 20
8.9073332471
 11
16.2963004165
 21
8.8931388434
  0
LINE
  5
44F
100
AcDbEntity
  8
0
100
AcDbLine
 62
7
  6
CONTINUOUS
 10
15.010506686
 20
10.0921608948
 11
15.0257661875
 21
10.0774249655
  0
LINE
  5
450
100
AcDbEntity
  8
0
100
AcDbLine
 62
7
  6
CONTINUOUS
 10
16.2820402526
 20
8.8642552027
 11
16.2972997542
 21
8.8495192733
  0
LINE
  5
451
100
AcDbEntity
  8
0
100
AcDbLine
 62
7
  6
CONTINUOUS
 10
15.0541345605
 20
10.092684467
 11
15.0688704898
 21
10.0774249655
  0
LINE
  5
452
100
AcDbEntity
  8
0
100
AcDbLine
 62
7
  6
CONTINUOUS
 10
16.2820402526
 20
8.8211509003
 11
16.296776182
 21
8.8058913988
  0
LINE
  5
453
100
AcDbEntity
  8
0
100
AcDbLine
 62
7
  6
CONTINUOUS
 10
15.0977541305
 20
10.0916851294
 11
15.1119485342
 21
10.075920647
  0
LINE
  5
454
100
AcDbEntity
  8
0
100
AcDbLine
 62
7
  6
CONTINUOUS
 10
16.2805359342
 20
8.7780728559
 11
16.2947303379
 21
8.7623083736
  0
LINE
  5
455
100
AcDbEntity
  8
0
100
AcDbLine
 62
7
  6
CONTINUOUS
 10
15.1413122523
 20
10.0891640995
 11
15.1549478367
 21
10.0729138429
  0
LINE
  5
456
100
AcDbEntity
  8
0
100
AcDbLine
 62
7
  6
CONTINUOUS
 10
16.27752913
 20
8.7350735535
 11
16.2911647144
 21
8.7188232969
  0
LINE
  5
457
100
AcDbEntity
  8
0
100
AcDbLine
 62
7
  6
CONTINUOUS
 10
15.184755857
 20
10.0851244488
 11
15.1978160091
 21
10.0684082164
  0
LINE
  5
458
100
AcDbEntity
  8
0
100
AcDbLine
 62
7
  6
CONTINUOUS
 10
16.2730235036
 20
8.692205381
 11
16.2860836557
 21
8.6754891486
  0
LINE
  5
459
100
AcDbEntity
  8
0
100
AcDbLine
 62
7
  6
CONTINUOUS
 10
15.2280320152
 20
10.0795710991
 11
15.2405008234
 21
10.062409257
  0
LINE
  5
45A
100
AcDbEntity
  8
0
100
AcDbLine
 62
7
  6
CONTINUOUS
 10
16.2670245441
 20
8.6495205668
 11
16.2794933523
 21
8.6323587247
  0
LINE
  5
45B
100
AcDbEntity
  8
0
100
AcDbLine
 62
7
  6
CONTINUOUS
 10
15.2710880017
 20
10.0725108161
 11
15.2829502745
 21
10.0549242734
  0
LINE
  5
45C
100
AcDbEntity
  8
0
100
AcDbLine
 62
7
  6
CONTINUOUS
 10
16.2595395606
 20
8.6070711156
 11
16.2714018334
 21
8.589484573
  0
LINE
  5
45D
100
AcDbEntity
  8
0
100
AcDbLine
 62
7
  6
CONTINUOUS
 10
15.3138713593
 20
10.0639522018
 11
15.3251126444
 21
10.045962385
  0
LINE
  5
45E
100
AcDbEntity
  8
0
100
AcDbLine
 62
7
  6
CONTINUOUS
 10
16.2505776722
 20
8.5649087457
 11
16.2618189574
 21
8.5469189289
  0
LINE
  5
45F
100
AcDbEntity
  8
0
100
AcDbLine
 62
7
  6
CONTINUOUS
 10
15.3563299631
 20
10.0539056836
 11
15.3669365648
 21
10.0355345105
  0
LINE
  5
460
100
AcDbEntity
  8
0
100
AcDbLine
 62
7
  6
CONTINUOUS
 10
16.2401497977
 20
8.5230848253
 11
16.2507563994
 21
8.5047136523
  0
LINE
  5
461
100
AcDbEntity
  8
0
100
AcDbLine
 62
7
  6
CONTINUOUS
 10
15.3984120838
 20
10.0423835015
 11
15.4083710796
 21
10.0236533546
  0
LINE
  5
462
100
AcDbEntity
  8
0
100
AcDbLine
 62
7
  6
CONTINUOUS
 10
16.2282686417
 20
8.4816503106
 11
16.2382276375
 21
8.4629201637
  0
LINE
  5
463
100
AcDbEntity
  8
0
100
AcDbLine
 62
7
  6
CONTINUOUS
 10
15.4400664509
 20
10.0293996936
 11
15.4493657072
 21
10.0103333926
  0
LINE
  5
464
100
AcDbEntity
  8
0
100
AcDbLine
 62
7
  6
CONTINUOUS
 10
16.2149486798
 20
8.4406556829
 11
16.2242479361
 21
8.421589382
  0
LINE
  5
465
100
AcDbEntity
  8
0
100
AcDbLine
 62
7
  6
CONTINUOUS
 10
15.4812423149
 20
10.0149700786
 11
15.4898705021
 21
9.995590853
  0
LINE
  5
466
100
AcDbEntity
  8
0
100
AcDbLine
 62
7
  6
CONTINUOUS
 10
16.2002061401
 20
8.4001508881
 11
16.2088343273
 21
8.3807716624
  0
LINE
  5
467
100
AcDbEntity
  8
0
100
AcDbLine
 62
7
  6
CONTINUOUS
 10
15.5218895094
 20
9.9991122368
 11
15.5298361153
 21
9.9794436971
  0
LINE
  5
468
100
AcDbEntity
  8
0
100
AcDbLine
 62
7
  6
CONTINUOUS
 10
16.1840589843
 20
8.3601852749
 11
16.1920055901
 21
8.3405167352
  0
LINE
  5
469
100
AcDbEntity
  8
0
100
AcDbLine
 62
7
  6
CONTINUOUS
 10
15.561958512
 20
9.9818454886
 11
15.5692138549
 21
9.9619115978
  0
LINE
  5
46A
100
AcDbEntity
  8
0
100
AcDbLine
 62
7
  6
CONTINUOUS
 10
16.166526885
 20
8.3208075353
 11
16.1737822279
 21
8.3008736445
  0
LINE
  5
46B
100
AcDbEntity
  8
0
100
AcDbLine
 62
7
  6
CONTINUOUS
 10
15.6014005049
 20
9.9631908708
 11
15.6079557452
 21
9.9430159154
  0
LINE
  5
46C
100
AcDbEntity
  8
0
100
AcDbLine
 62
7
  6
CONTINUOUS
 10
16.1476312026
 20
8.2820656449
 11
16.1541864429
 21
8.2618906896
  0
LINE
  5
46D
100
AcDbEntity
  8
0
100
AcDbLine
 62
7
  6
CONTINUOUS
 10
15.6401674339
 20
9.9431711111
 11
15.6460145852
 21
9.9227796712
  0
LINE
  5
46E
100
AcDbEntity
  8
0
100
AcDbLine
 62
7
  6
CONTINUOUS
 10
16.1273949584
 20
8.2440068049
 11
16.1332421097
 21
8.223615365
  0
LINE
  5
46F
100
AcDbEntity
  8
0
100
AcDbLine
 62
7
  6
CONTINUOUS
 10
15.6782120677
 20
9.9218106007
 11
15.6833440061
 21
9.90122752
  0
LINE
  5
470
100
AcDbEntity
  8
0
100
AcDbLine
 62
7
  6
CONTINUOUS
 10
16.1058428072
 20
8.2066773841
 11
16.1109747456
 21
8.1860943034
  0
LINE
  5
471
100
AcDbEntity
  8
0
100
AcDbLine
 62
7
  6
CONTINUOUS
 10
15.7154880546
 20
9.8991353639
 11
15.7198985276
 21
9.8783857198
  0
LINE
  5
472
100
AcDbEntity
  8
0
100
AcDbLine
 62
7
  6
CONTINUOUS
 10
16.083001007
 20
8.1701228625
 11
16.08741148
 21
8.1493732185
  0
LINE
  5
473
100
AcDbEntity
  8
0
100
AcDbLine
 62
7
  6
CONTINUOUS
 10
15.7519499797
 20
9.8751730271
 11
15.7556336138
 21
9.8542820999
  0
LINE
  5
474
100
AcDbEntity
  8
0
100
AcDbLine
 62
7
  6
CONTINUOUS
 10
16.058897387
 20
8.1343877763
 11
16.0625810211
 21
8.1134968491
  0
LINE
  5
475
100
AcDbEntity
  8
0
100
AcDbLine
 62
7
  6
CONTINUOUS
 10
15.7875534196
 20
9.8499527846
 11
15.7905057269
 21
9.8289460266
  0
LINE
  5
476
100
AcDbEntity
  8
0
100
AcDbLine
 62
7
  6
CONTINUOUS
 10
16.0335613138
 20
8.0995156632
 11
16.0365136211
 21
8.0785089052
  0
LINE
  5
477
100
AcDbEntity
  8
0
100
AcDbLine
 62
9
  6
CONTINUOUS
 10
16.4284762038
 20
9.3671857412
 11
16.1921126734
 21
9.776579503
  0
LINE
  5
478
100
AcDbEntity
  8
0
100
AcDbLine
 62
7
  6
CONTINUOUS
 10
16.4621204488
 20
9.3921939141
 11
16.2305924403
 21
9.7932121882
  0
LINE
  5
479
100
AcDbEntity
  8
0
100
AcDbLine
 62
7
  6
CONTINUOUS
 10
10.7051761464
 20
-3.3373371791
 11
10.7316645742
 21
-3.3232530322
  0
LINE
  5
47A
100
AcDbEntity
  8
0
100
AcDbLine
 62
7
  6
CONTINUOUS
 10
11.3629721031
 20
-2.9875808648
 11
11.3894605309
 21
-2.9734967179
  0
LINE
  5
47B
100
AcDbEntity
  8
0
100
AcDbLine
 62
7
  6
CONTINUOUS
 10
10.6767502457
 20
-3.2687109841
 11
10.7054393884
 21
-3.2599398329
  0
LINE
  5
47C
100
AcDbEntity
  8
0
100
AcDbLine
 62
7
  6
CONTINUOUS
 10
11.3891972889
 20
-3.0508940641
 11
11.4178864316
 21
-3.0421229129
  0
ARC
  5
47D
100
AcDbEntity
  8
0
100
AcDbCircle
 62
9
  6
CONTINUOUS
 10
-140.7421371981
 20
-201.5478781406
 40
257.221075951
100
AcDbArc
 50
55.0101190284
 51
55.242007731
  0
ARC
  5
47E
100
AcDbEntity
  8
0
100
AcDbCircle
 62
9
  6
CONTINUOUS
 10
-132.7421362683
 20
-201.5478768084
 40
257.2210743264
100
AcDbArc
 50
55.010119028
 51
55.2420077331
  0
ARC
  5
47F
100
AcDbEntity
  8
0
100
AcDbCircle
 62
9
  6
CONTINUOUS
 10
-249.0513675521
 20
-13.9514618698
 40
257.2214474716
100
AcDbArc
 50
4.7579926674
 51
4.9898807673
  0
ARC
  5
480
100
AcDbEntity
  8
0
100
AcDbCircle
 62
9
  6
CONTINUOUS
 10
-241.0513661361
 20
-13.9514617483
 40
257.2214460504
100
AcDbArc
 50
4.7579926658
 51
4.9898807678
  0
ARC
  5
481
100
AcDbEntity
  8
0
100
AcDbCircle
 62
9
  6
CONTINUOUS
 10
6.7623620828
 20
8.4334119384
 40
0.1375526075
100
AcDbArc
 50
355.0767514269
 51
357.5610833218
  0
ARC
  5
482
100
AcDbEntity
  8
0
100
AcDbCircle
 62
7
  6
CONTINUOUS
 10
6.7627136895
 20
8.4316067201
 40
0.1
100
AcDbArc
 50
355.2363583093
 51
55.3046606014
  0
ARC
  5
483
100
AcDbEntity
  8
0
100
AcDbCircle
 62
7
  6
CONTINUOUS
 10
6.8157903206
 20
7.3827030515
 40
0.04
100
AcDbArc
 50
175.2364357443
 51
270.0
  0
ARC
  5
484
100
AcDbEntity
  8
0
100
AcDbCircle
 62
9
  6
CONTINUOUS
 10
6.2156330591
 20
8.7769445725
 40
0.4342237099
100
AcDbArc
 50
7.2561742008
 51
8.6644660465
  0
ARC
  5
485
100
AcDbEntity
  8
0
100
AcDbCircle
 62
9
  6
CONTINUOUS
 10
6.2733899722
 20
8.7854855168
 40
0.3758393613
100
AcDbArc
 50
8.7037179004
 51
8.9955698454
  0
ARC
  5
486
100
AcDbEntity
  8
0
100
AcDbCircle
 62
9
  6
CONTINUOUS
 10
6.550099373
 20
8.799977707
 40
0.1382088946
100
AcDbArc
 50
62.4479478651
 51
64.9203370067
  0
ARC
  5
487
100
AcDbEntity
  8
0
100
AcDbCircle
 62
9
  6
CONTINUOUS
 10
6.8349626477
 20
9.2935747378
 40
0.1368829961
100
AcDbArc
 50
235.0746082433
 51
237.5702726762
  0
ARC
  5
488
100
AcDbEntity
  8
0
100
AcDbCircle
 62
7
  6
CONTINUOUS
 10
6.5489961477
 20
8.801776361
 40
0.1
100
AcDbArc
 50
4.6941912694
 51
64.7636416907
  0
ARC
  5
489
100
AcDbEntity
  8
0
100
AcDbCircle
 62
7
  6
CONTINUOUS
 10
6.8336007968
 20
9.2947260734
 40
0.1
100
AcDbArc
 50
235.2363583093
 51
295.3051869081
  0
ARC
  5
48A
100
AcDbEntity
  8
0
100
AcDbCircle
 62
7
  6
CONTINUOUS
 10
5.8986852582
 20
9.7732121968
 40
0.04
100
AcDbArc
 50
55.2364357439
 51
150.0
  0
ARC
  5
48B
100
AcDbEntity
  8
0
100
AcDbCircle
 62
7
  6
CONTINUOUS
 10
5.6671572401
 20
9.3721939062
 40
0.04
100
AcDbArc
 50
150.0
 51
244.7635652646
  0
ARC
  5
48C
100
AcDbEntity
  8
0
100
AcDbCircle
 62
9
  6
CONTINUOUS
 10
7.3321521695
 20
8.4334013198
 40
0.1374297293
100
AcDbArc
 50
182.4366483504
 51
184.923133241
  0
ARC
  5
48D
100
AcDbEntity
  8
0
100
AcDbCircle
 62
7
  6
CONTINUOUS
 10
7.3319229878
 20
8.4316067201
 40
0.1
100
AcDbArc
 50
124.6952023384
 51
184.7636416907
  0
ARC
  5
48E
100
AcDbEntity
  8
0
100
AcDbCircle
 62
7
  6
CONTINUOUS
 10
7.2788463567
 20
7.3827030515
 40
0.04
100
AcDbArc
 50
270.0
 51
4.7635686101
  0
ARC
  5
48F
100
AcDbEntity
  8
0
100
AcDbCircle
 62
9
  6
CONTINUOUS
 10
7.0473183352
 20
8.8236224043
 40
0.4226439011
100
AcDbArc
 50
249.57034496
 51
290.429675178
  0
ARC
  5
490
100
AcDbEntity
  8
0
100
AcDbCircle
 62
7
  6
CONTINUOUS
 10
7.0473183387
 20
8.8427030515
 40
1.25
100
AcDbArc
 50
318.3571304608
 51
319.6526461076
  0
ARC
  5
491
100
AcDbEntity
  8
0
100
AcDbCircle
 62
7
  6
CONTINUOUS
 10
7.0473183387
 20
8.8427030515
 40
1.25
100
AcDbArc
 50
310.3473538924
 51
311.6428695392
  0
ARC
  5
492
100
AcDbEntity
  8
0
100
AcDbCircle
 62
7
  6
CONTINUOUS
 10
7.0473183387
 20
8.8427030515
 40
1.25
100
AcDbArc
 50
258.3499230491
 51
258.4498169832
  0
ARC
  5
493
100
AcDbEntity
  8
0
100
AcDbCircle
 62
7
  6
CONTINUOUS
 10
7.0473183387
 20
8.8427030515
 40
1.25
100
AcDbArc
 50
228.3571304608
 51
229.6526461076
  0
ARC
  5
494
100
AcDbEntity
  8
0
100
AcDbCircle
 62
7
  6
CONTINUOUS
 10
7.0473183387
 20
8.8427030515
 40
1.25
100
AcDbArc
 50
220.3473538924
 51
221.6428695392
  0
ARC
  5
495
100
AcDbEntity
  8
0
100
AcDbCircle
 62
7
  6
CONTINUOUS
 10
7.0473183387
 20
8.8427030515
 40
1.25
100
AcDbArc
 50
161.5773280491
 51
161.6421769358
  0
ARC
  5
496
100
AcDbEntity
  8
0
100
AcDbCircle
 62
7
  6
CONTINUOUS
 10
7.0473183387
 20
8.8427030515
 40
1.25
100
AcDbArc
 50
130.3473538924
 51
131.6428695392
  0
ARC
  5
497
100
AcDbEntity
  8
0
100
AcDbCircle
 62
7
  6
CONTINUOUS
 10
7.0473183387
 20
8.8427030515
 40
1.25
100
AcDbArc
 50
48.3571304608
 51
49.6526461076
  0
ARC
  5
498
100
AcDbEntity
  8
0
100
AcDbCircle
 62
7
  6
CONTINUOUS
 10
7.0473183387
 20
8.8427030515
 40
1.25
100
AcDbArc
 50
18.3578230642
 51
18.4226719509
  0
ARC
  5
499
100
AcDbEntity
  8
0
100
AcDbCircle
 62
7
  6
CONTINUOUS
 10
7.0473183387
 20
8.8427030515
 40
1.25
100
AcDbArc
 50
221.6875658564
 51
228.3124341436
  0
ARC
  5
49A
100
AcDbEntity
  8
0
100
AcDbCircle
 62
7
  6
CONTINUOUS
 10
7.0473183387
 20
8.8427030515
 40
1.25
100
AcDbArc
 50
195.6875658564
 51
220.3124341436
  0
ARC
  5
49B
100
AcDbEntity
  8
0
100
AcDbCircle
 62
7
  6
CONTINUOUS
 10
7.0473183387
 20
8.8427030515
 40
1.25
100
AcDbArc
 50
187.6875658564
 51
195.6397271706
  0
ARC
  5
49C
100
AcDbEntity
  8
0
100
AcDbCircle
 62
7
  6
CONTINUOUS
 10
7.0473183387
 20
8.8427030515
 40
1.25
100
AcDbArc
 50
172.3484517069
 51
187.6515482931
  0
ARC
  5
49D
100
AcDbEntity
  8
0
100
AcDbCircle
 62
7
  6
CONTINUOUS
 10
7.0473183387
 20
8.8427030515
 40
1.25
100
AcDbArc
 50
164.3602728294
 51
172.3124341436
  0
ARC
  5
49E
100
AcDbEntity
  8
0
100
AcDbCircle
 62
7
  6
CONTINUOUS
 10
7.0473183387
 20
8.8427030515
 40
1.25
100
AcDbArc
 50
161.6875658564
 51
164.3124341436
  0
ARC
  5
49F
100
AcDbEntity
  8
0
100
AcDbCircle
 62
7
  6
CONTINUOUS
 10
7.0473183387
 20
8.8427030515
 40
1.25
100
AcDbArc
 50
131.6875658564
 51
138.3124341436
  0
ARC
  5
4A0
100
AcDbEntity
  8
0
100
AcDbCircle
 62
7
  6
CONTINUOUS
 10
7.0473183387
 20
8.8427030515
 40
1.25
100
AcDbArc
 50
105.6875658564
 51
130.3124341436
  0
ARC
  5
4A1
100
AcDbEntity
  8
0
100
AcDbCircle
 62
7
  6
CONTINUOUS
 10
7.0473183387
 20
8.8427030515
 40
1.25
100
AcDbArc
 50
97.6875658564
 51
105.6397271706
  0
ARC
  5
4A2
100
AcDbEntity
  8
0
100
AcDbCircle
 62
7
  6
CONTINUOUS
 10
7.0473183387
 20
8.8427030515
 40
1.25
100
AcDbArc
 50
82.3484517068
 51
97.6515482931
  0
ARC
  5
4A3
100
AcDbEntity
  8
0
100
AcDbCircle
 62
7
  6
CONTINUOUS
 10
7.0473183387
 20
8.8427030515
 40
1.25
100
AcDbArc
 50
74.3602728294
 51
82.3124341436
  0
ARC
  5
4A4
100
AcDbEntity
  8
0
100
AcDbCircle
 62
7
  6
CONTINUOUS
 10
7.0473183387
 20
8.8427030515
 40
1.25
100
AcDbArc
 50
49.6875658564
 51
74.3124341436
  0
ARC
  5
4A5
100
AcDbEntity
  8
0
100
AcDbCircle
 62
7
  6
CONTINUOUS
 10
7.0473183387
 20
8.8427030515
 40
1.25
100
AcDbArc
 50
41.6875658564
 51
48.3124341436
  0
ARC
  5
4A6
100
AcDbEntity
  8
0
100
AcDbCircle
 62
7
  6
CONTINUOUS
 10
7.0473183387
 20
8.8427030515
 40
1.25
100
AcDbArc
 50
15.6875658564
 51
18.3124341436
  0
ARC
  5
4A7
100
AcDbEntity
  8
0
100
AcDbCircle
 62
7
  6
CONTINUOUS
 10
7.0473183387
 20
8.8427030515
 40
1.25
100
AcDbArc
 50
7.6875658564
 51
15.6397271706
  0
ARC
  5
4A8
100
AcDbEntity
  8
0
100
AcDbCircle
 62
7
  6
CONTINUOUS
 10
7.0473183387
 20
8.8427030515
 40
1.25
100
AcDbArc
 50
352.3484517069
 51
7.6515482931
  0
ARC
  5
4A9
100
AcDbEntity
  8
0
100
AcDbCircle
 62
7
  6
CONTINUOUS
 10
7.0473183387
 20
8.8427030515
 40
1.25
100
AcDbArc
 50
344.3602728294
 51
352.3124341436
  0
ARC
  5
4AA
100
AcDbEntity
  8
0
100
AcDbCircle
 62
7
  6
CONTINUOUS
 10
7.0473183387
 20
8.8427030515
 40
1.25
100
AcDbArc
 50
319.6875658564
 51
344.3124341436
  0
ARC
  5
4AB
100
AcDbEntity
  8
0
100
AcDbCircle
 62
7
  6
CONTINUOUS
 10
7.0473183387
 20
8.8427030515
 40
1.25
100
AcDbArc
 50
311.6875658564
 51
318.3124341436
  0
ARC
  5
4AC
100
AcDbEntity
  8
0
100
AcDbCircle
 62
7
  6
CONTINUOUS
 10
7.0473183387
 20
8.8427030515
 40
1.25
100
AcDbArc
 50
285.6875658564
 51
310.3124341436
  0
ARC
  5
4AD
100
AcDbEntity
  8
0
100
AcDbCircle
 62
7
  6
CONTINUOUS
 10
7.0473183387
 20
8.8427030515
 40
1.25
100
AcDbArc
 50
281.6875658564
 51
285.6397271706
  0
ARC
  5
4AE
100
AcDbEntity
  8
0
100
AcDbCircle
 62
7
  6
CONTINUOUS
 10
7.0473183387
 20
8.8427030515
 40
1.25
100
AcDbArc
 50
254.3602728294
 51
258.3124341436
  0
ARC
  5
4AF
100
AcDbEntity
  8
0
100
AcDbCircle
 62
7
  6
CONTINUOUS
 10
7.0473183387
 20
8.8427030515
 40
1.25
100
AcDbArc
 50
229.6875658564
 51
254.3124341436
  0
ARC
  5
4B0
100
AcDbEntity
  8
0
100
AcDbCircle
 62
9
  6
CONTINUOUS
 10
7.0473183387
 20
8.8427030515
 40
1.175
100
AcDbArc
 50
282.0791223207
 51
17.9211746841
  0
ARC
  5
4B1
100
AcDbEntity
  8
0
100
AcDbCircle
 62
9
  6
CONTINUOUS
 10
7.0473183387
 20
8.8427030515
 40
1.175
100
AcDbArc
 50
42.0792476659
 51
137.919941735
  0
ARC
  5
4B2
100
AcDbEntity
  8
0
100
AcDbCircle
 62
9
  6
CONTINUOUS
 10
7.0473183387
 20
8.8427030515
 40
1.175
100
AcDbArc
 50
162.0783725783
 51
257.9203952998
  0
ARC
  5
4B3
100
AcDbEntity
  8
0
100
AcDbCircle
 62
7
  6
CONTINUOUS
 10
7.0473183387
 20
8.8427030515
 40
1.075
100
AcDbArc
 50
162.7575594018
 51
257.2426214277
  0
ARC
  5
4B4
100
AcDbEntity
  8
0
100
AcDbCircle
 62
7
  6
CONTINUOUS
 10
7.0473183387
 20
8.8427030515
 40
1.075
100
AcDbArc
 50
42.7585030646
 51
137.2423246191
  0
ARC
  5
4B5
100
AcDbEntity
  8
0
100
AcDbCircle
 62
7
  6
CONTINUOUS
 10
7.0473183387
 20
8.8427030515
 40
1.075
100
AcDbArc
 50
282.7580219971
 51
17.242889099
  0
ARC
  5
4B6
100
AcDbEntity
  8
0
100
AcDbCircle
 62
7
  6
CONTINUOUS
 10
7.0473183387
 20
8.8427030515
 40
1.025
100
AcDbArc
 50
163.1608466881
 51
256.824475064
  0
ARC
  5
4B7
100
AcDbEntity
  8
0
100
AcDbCircle
 62
7
  6
CONTINUOUS
 10
7.0473183387
 20
8.8427030515
 40
1.025
100
AcDbArc
 50
43.1661819893
 51
136.8341609227
  0
ARC
  5
4B8
100
AcDbEntity
  8
0
100
AcDbCircle
 62
7
  6
CONTINUOUS
 10
7.0473183387
 20
8.8427030515
 40
1.025
100
AcDbArc
 50
283.1731900567
 51
16.8405567138
  0
ARC
  5
4B9
100
AcDbEntity
  8
0
100
AcDbCircle
 62
7
  6
CONTINUOUS
 10
7.0473183387
 20
8.8427030515
 40
0.95
100
AcDbArc
 50
163.8386052124
 51
256.1559236474
  0
ARC
  5
4BA
100
AcDbEntity
  8
0
100
AcDbCircle
 62
7
  6
CONTINUOUS
 10
7.0473183387
 20
8.8427030515
 40
0.95
100
AcDbArc
 50
43.8263854332
 51
136.1736145668
  0
ARC
  5
4BB
100
AcDbEntity
  8
0
100
AcDbCircle
 62
7
  6
CONTINUOUS
 10
7.0473183387
 20
8.8427030515
 40
0.95
100
AcDbArc
 50
283.8440763526
 51
16.1613947876
  0
ARC
  5
4BC
100
AcDbEntity
  8
0
100
AcDbCircle
 62
7
  6
CONTINUOUS
 10
7.0473183387
 20
8.8427030515
 40
0.85
100
AcDbArc
 50
164.9207458654
 51
255.0784830357
  0
ARC
  5
4BD
100
AcDbEntity
  8
0
100
AcDbCircle
 62
7
  6
CONTINUOUS
 10
7.0473183387
 20
8.8427030515
 40
0.85
100
AcDbArc
 50
44.8935109138
 51
135.1063401755
  0
ARC
  5
4BE
100
AcDbEntity
  8
0
100
AcDbCircle
 62
7
  6
CONTINUOUS
 10
7.0473183387
 20
8.8427030515
 40
0.85
100
AcDbArc
 50
284.9184910309
 51
15.0822020851
  0
ARC
  5
4BF
100
AcDbEntity
  8
0
100
AcDbCircle
 62
7
  6
CONTINUOUS
 10
7.0473183387
 20
8.8427030515
 40
0.75
100
AcDbArc
 50
166.3011824037
 51
253.7131229629
  0
ARC
  5
4C0
100
AcDbEntity
  8
0
100
AcDbCircle
 62
7
  6
CONTINUOUS
 10
7.0473183387
 20
8.8427030515
 40
0.75
100
AcDbArc
 50
46.2768831883
 51
133.7236224578
  0
ARC
  5
4C1
100
AcDbEntity
  8
0
100
AcDbCircle
 62
7
  6
CONTINUOUS
 10
7.0473183387
 20
8.8427030515
 40
0.75
100
AcDbArc
 50
286.2868625496
 51
13.7025171535
  0
ARC
  5
4C2
100
AcDbEntity
  8
0
100
AcDbCircle
 62
9
  6
CONTINUOUS
 10
7.0307939944
 20
8.8522429563
 40
0.4226439971
100
AcDbArc
 50
129.570248621
 51
170.4295419297
  0
ARC
  5
4C3
100
AcDbEntity
  8
0
100
AcDbCircle
 62
9
  6
CONTINUOUS
 10
7.0638435565
 20
8.8522431394
 40
0.4226430883
100
AcDbArc
 50
9.5704573278
 51
50.4298446073
  0
CIRCLE
  5
4C4
100
AcDbEntity
  8
0
100
AcDbCircle
 62
7
  6
CONTINUOUS
 10
7.0473183387
 20
8.8427030515
 40
0.4
  0
CIRCLE
  5
4C5
100
AcDbEntity
  8
0
100
AcDbCircle
 62
9
  6
CONTINUOUS
 10
7.0473183387
 20
8.8427030515
 40
0.3875
  0
CIRCLE
  5
4C6
100
AcDbEntity
  8
0
100
AcDbCircle
 62
7
  6
CONTINUOUS
 10
7.0473183387
 20
8.8427030515
 40
0.3125
  0
CIRCLE
  5
4C7
100
AcDbEntity
  8
0
100
AcDbCircle
 62
9
  6
CONTINUOUS
 10
7.0473183387
 20
8.8427030515
 40
0.2825
  0
CIRCLE
  5
4C8
100
AcDbEntity
  8
0
100
AcDbCircle
 62
7
  6
CONTINUOUS
 10
7.0473183387
 20
8.8427030515
 40
0.2625
  0
ARC
  5
4C9
100
AcDbEntity
  8
0
100
AcDbCircle
 62
9
  6
CONTINUOUS
 10
7.5445492833
 20
8.7999536297
 40
0.138235793
100
AcDbArc
 50
115.078915771
 51
117.5517980778
  0
ARC
  5
4CA
100
AcDbEntity
  8
0
100
AcDbCircle
 62
7
  6
CONTINUOUS
 10
7.5456405296
 20
8.801776361
 40
0.1
100
AcDbArc
 50
115.2363583093
 51
175.3056441734
  0
ARC
  5
4CB
100
AcDbEntity
  8
0
100
AcDbCircle
 62
9
  6
CONTINUOUS
 10
7.4309294785
 20
8.8365334924
 40
0.0206005152
100
AcDbArc
 50
19.9179062104
 51
22.0013202749
  0
ARC
  5
4CC
100
AcDbEntity
  8
0
100
AcDbCircle
 62
9
  6
CONTINUOUS
 10
7.2596449918
 20
9.2936218272
 40
0.1369382497
100
AcDbArc
 50
302.4293478302
 51
304.9249170222
  0
ARC
  5
4CD
100
AcDbEntity
  8
0
100
AcDbCircle
 62
7
  6
CONTINUOUS
 10
7.2610358805
 20
9.2947260734
 40
0.1
100
AcDbArc
 50
244.6946730165
 51
304.7636416907
  0
ARC
  5
4CE
100
AcDbEntity
  8
0
100
AcDbCircle
 62
9
  6
CONTINUOUS
 10
7.914835678
 20
8.7716146806
 40
0.470446833
100
AcDbArc
 50
171.1179806322
 51
171.3517759049
  0
ARC
  5
4CF
100
AcDbEntity
  8
0
100
AcDbCircle
 62
9
  6
CONTINUOUS
 10
7.8983109424
 20
8.7741025319
 40
0.4537358896
100
AcDbArc
 50
171.3485914452
 51
172.5803278134
  0
ARC
  5
4D0
100
AcDbEntity
  8
0
100
AcDbCircle
 62
7
  6
CONTINUOUS
 10
8.1959514191
 20
9.7732121968
 40
0.04
100
AcDbArc
 50
30.0
 51
124.763566941
  0
ARC
  5
4D1
100
AcDbEntity
  8
0
100
AcDbCircle
 62
7
  6
CONTINUOUS
 10
8.4274794372
 20
9.3721939062
 40
0.04
100
AcDbArc
 50
295.2364357443
 51
30.0
  0
ARC
  5
4D2
100
AcDbEntity
  8
0
100
AcDbCircle
 62
7
  6
CONTINUOUS
 10
11.0172663387
 20
17.8447030515
 40
1.0775
100
AcDbArc
 50
143.6026297633
 51
171.3973702366
  0
ARC
  5
4D3
100
AcDbEntity
  8
0
100
AcDbCircle
 62
7
  6
CONTINUOUS
 10
11.0172663387
 20
17.8447030515
 40
1.0775
100
AcDbArc
 50
98.6026297633
 51
126.3973702367
  0
ARC
  5
4D4
100
AcDbEntity
  8
0
100
AcDbCircle
 62
7
  6
CONTINUOUS
 10
11.0172663387
 20
17.8447030515
 40
1.0775
100
AcDbArc
 50
53.6026297633
 51
81.3973702367
  0
ARC
  5
4D5
100
AcDbEntity
  8
0
100
AcDbCircle
 62
7
  6
CONTINUOUS
 10
11.0172663387
 20
17.8447030515
 40
1.0775
100
AcDbArc
 50
8.6026297634
 51
36.3973702367
  0
ARC
  5
4D6
100
AcDbEntity
  8
0
100
AcDbCircle
 62
7
  6
CONTINUOUS
 10
11.0172663387
 20
17.8447030515
 40
1.0775
100
AcDbArc
 50
278.6026297634
 51
306.3973702367
  0
ARC
  5
4D7
100
AcDbEntity
  8
0
100
AcDbCircle
 62
7
  6
CONTINUOUS
 10
11.0172663387
 20
17.8447030515
 40
1.0775
100
AcDbArc
 50
233.6026297633
 51
261.3973702366
  0
ARC
  5
4D8
100
AcDbEntity
  8
0
100
AcDbCircle
 62
7
  6
CONTINUOUS
 10
11.0172663387
 20
17.8447030515
 40
1.0775
100
AcDbArc
 50
188.6026297634
 51
216.3973702367
  0
ARC
  5
4D9
100
AcDbEntity
  8
0
100
AcDbCircle
 62
7
  6
CONTINUOUS
 10
11.0172663387
 20
17.8447030515
 40
1.0775
100
AcDbArc
 50
323.6026297633
 51
351.3973702366
  0
ARC
  5
4DA
100
AcDbEntity
  8
0
100
AcDbCircle
 62
7
  6
CONTINUOUS
 10
11.0172663387
 20
17.8447030515
 40
1.0125
100
AcDbArc
 50
310.3936547761
 51
319.6168178528
  0
ARC
  5
4DB
100
AcDbEntity
  8
0
100
AcDbCircle
 62
7
  6
CONTINUOUS
 10
11.0172663387
 20
17.8447030515
 40
1.0125
100
AcDbArc
 50
265.1717954214
 51
274.8531177106
  0
ARC
  5
4DC
100
AcDbEntity
  8
0
100
AcDbCircle
 62
7
  6
CONTINUOUS
 10
11.0172663387
 20
17.8447030515
 40
1.0125
100
AcDbArc
 50
220.4218505866
 51
229.6395366893
  0
ARC
  5
4DD
100
AcDbEntity
  8
0
100
AcDbCircle
 62
7
  6
CONTINUOUS
 10
11.0172663387
 20
17.8447030515
 40
1.0125
100
AcDbArc
 50
175.4746279558
 51
184.4864274222
  0
ARC
  5
4DE
100
AcDbEntity
  8
0
100
AcDbCircle
 62
7
  6
CONTINUOUS
 10
11.0172663387
 20
17.8447030515
 40
1.0125
100
AcDbArc
 50
130.3936547761
 51
139.6168178528
  0
ARC
  5
4DF
100
AcDbEntity
  8
0
100
AcDbCircle
 62
7
  6
CONTINUOUS
 10
11.0172663387
 20
17.8447030515
 40
1.0125
100
AcDbArc
 50
85.1717954208
 51
94.8531177103
  0
ARC
  5
4E0
100
AcDbEntity
  8
0
100
AcDbCircle
 62
7
  6
CONTINUOUS
 10
11.0172663387
 20
17.8447030515
 40
1.0125
100
AcDbArc
 50
40.4218505866
 51
49.6395366892
  0
ARC
  5
4E1
100
AcDbEntity
  8
0
100
AcDbCircle
 62
7
  6
CONTINUOUS
 10
11.0172663387
 20
17.8447030515
 40
1.0125
100
AcDbArc
 50
355.4746279558
 51
4.4864274222
  0
CIRCLE
  5
4E2
100
AcDbEntity
  8
0
100
AcDbCircle
 62
7
  6
CONTINUOUS
 10
11.0172663387
 20
17.8447030515
 40
0.935
  0
CIRCLE
  5
4E3
100
AcDbEntity
  8
0
100
AcDbCircle
 62
9
  6
CONTINUOUS
 10
11.0172663387
 20
17.8447030515
 40
0.909136433
  0
ARC
  5
4E4
100
AcDbEntity
  8
0
100
AcDbCircle
 62
7
  6
CONTINUOUS
 10
10.1687382012
 20
18.6932311889
 40
0.21
100
AcDbArc
 50
264.870833936
 51
5.1291660639
  0
ARC
  5
4E5
100
AcDbEntity
  8
0
100
AcDbCircle
 62
7
  6
CONTINUOUS
 10
11.0172663387
 20
19.0447030515
 40
0.21
100
AcDbArc
 50
219.8708339353
 51
320.1291660647
  0
ARC
  5
4E6
100
AcDbEntity
  8
0
100
AcDbCircle
 62
7
  6
CONTINUOUS
 10
11.0172663387
 20
16.6447030515
 40
0.21
100
AcDbArc
 50
39.8708339359
 51
140.1291660641
  0
ARC
  5
4E7
100
AcDbEntity
  8
0
100
AcDbCircle
 62
7
  6
CONTINUOUS
 10
10.1687382012
 20
16.9961749141
 40
0.21
100
AcDbArc
 50
354.8708339361
 51
95.129166064
  0
ARC
  5
4E8
100
AcDbEntity
  8
0
100
AcDbCircle
 62
7
  6
CONTINUOUS
 10
9.8172663387
 20
17.8447030515
 40
0.21
100
AcDbArc
 50
309.8708339358
 51
50.1291660642
  0
ARC
  5
4E9
100
AcDbEntity
  8
0
100
AcDbCircle
 62
9
  6
CONTINUOUS
 10
-101.2607887255
 20
242.0258135019
 40
257.2193047718
100
AcDbArc
 50
295.0101189453
 51
295.2420082505
  0
ARC
  5
4EA
100
AcDbEntity
  8
0
100
AcDbCircle
 62
9
  6
CONTINUOUS
 10
-93.2607880118
 20
242.0258119775
 40
257.2193030887
100
AcDbArc
 50
295.0101189448
 51
295.2420082526
  0
CIRCLE
  5
4EB
100
AcDbEntity
  8
0
100
AcDbCircle
 62
7
  6
CONTINUOUS
 10
11.0473183387
 20
-3.1554169485
 40
0.79
  0
CIRCLE
  5
4EC
100
AcDbEntity
  8
0
100
AcDbCircle
 62
7
  6
CONTINUOUS
 10
11.0473183387
 20
-0.1572969485
 40
0.656
  0
CIRCLE
  5
4ED
100
AcDbEntity
  8
0
100
AcDbCircle
 62
7
  6
CONTINUOUS
 10
11.0473183387
 20
-3.1554169485
 40
0.495
  0
CIRCLE
  5
4EE
100
AcDbEntity
  8
0
100
AcDbCircle
 62
9
  6
CONTINUOUS
 10
11.0473183387
 20
-3.1554169485
 40
0.49
  0
CIRCLE
  5
4EF
100
AcDbEntity
  8
0
100
AcDbCircle
 62
9
  6
CONTINUOUS
 10
11.0473183387
 20
-0.1572969485
 40
0.4795772124
  0
CIRCLE
  5
4F0
100
AcDbEntity
  8
0
100
AcDbCircle
 62
7
  6
CONTINUOUS
 10
11.0473183387
 20
-3.1554169485
 40
0.47
  0
CIRCLE
  5
4F1
100
AcDbEntity
  8
0
100
AcDbCircle
 62
7
  6
CONTINUOUS
 10
11.0473183387
 20
-0.1572969485
 40
0.46875
  0
CIRCLE
  5
4F2
100
AcDbEntity
  8
0
100
AcDbCircle
 62
7
  6
CONTINUOUS
 10
11.0473183387
 20
-3.1554169485
 40
0.4625
  0
CIRCLE
  5
4F3
100
AcDbEntity
  8
0
100
AcDbCircle
 62
9
  6
CONTINUOUS
 10
11.0473183387
 20
-3.1554169485
 40
0.4272880871
  0
CIRCLE
  5
4F4
100
AcDbEntity
  8
0
100
AcDbCircle
 62
9
  6
CONTINUOUS
 10
11.0473183387
 20
-3.1554169485
 40
0.4181683849
  0
CIRCLE
  5
4F5
100
AcDbEntity
  8
0
100
AcDbCircle
 62
7
  6
CONTINUOUS
 10
11.0473183387
 20
-0.1572969485
 40
0.4
  0
CIRCLE
  5
4F6
100
AcDbEntity
  8
0
100
AcDbCircle
 62
7
  6
CONTINUOUS
 10
11.0473183387
 20
-3.1554169485
 40
0.396
  0
CIRCLE
  5
4F7
100
AcDbEntity
  8
0
100
AcDbCircle
 62
7
  6
CONTINUOUS
 10
11.0473183387
 20
-3.1554169485
 40
0.395
  0
CIRCLE
  5
4F8
100
AcDbEntity
  8
0
100
AcDbCircle
 62
9
  6
CONTINUOUS
 10
11.0473183387
 20
-0.1572969485
 40
0.3875
  0
CIRCLE
  5
4F9
100
AcDbEntity
  8
0
100
AcDbCircle
 62
7
  6
CONTINUOUS
 10
11.0473183387
 20
-3.1554169485
 40
0.3875
  0
ARC
  5
4FA
100
AcDbEntity
  8
0
100
AcDbCircle
 62
7
  6
CONTINUOUS
 10
11.0473183387
 20
-3.1554169485
 40
0.375
100
AcDbArc
 50
196.9999999999
 51
208.0000000005
  0
ARC
  5
4FB
100
AcDbEntity
  8
0
100
AcDbCircle
 62
7
  6
CONTINUOUS
 10
11.0473183387
 20
-3.1554169485
 40
0.375
100
AcDbArc
 50
106.9999999998
 51
117.9999999998
  0
ARC
  5
4FC
100
AcDbEntity
  8
0
100
AcDbCircle
 62
7
  6
CONTINUOUS
 10
11.0473183387
 20
-3.1554169485
 40
0.375
100
AcDbArc
 50
152.0000000006
 51
162.9999999998
  0
ARC
  5
4FD
100
AcDbEntity
  8
0
100
AcDbCircle
 62
7
  6
CONTINUOUS
 10
11.0473183387
 20
-3.1554169485
 40
0.375
100
AcDbArc
 50
286.9999999998
 51
297.9999999998
  0
ARC
  5
4FE
100
AcDbEntity
  8
0
100
AcDbCircle
 62
7
  6
CONTINUOUS
 10
11.0473183387
 20
-3.1554169485
 40
0.375
100
AcDbArc
 50
16.9999999999
 51
28.0000000005
  0
ARC
  5
4FF
100
AcDbEntity
  8
0
100
AcDbCircle
 62
7
  6
CONTINUOUS
 10
11.0473183387
 20
-3.1554169485
 40
0.375
100
AcDbArc
 50
241.9999999999
 51
253.0000000001
  0
ARC
  5
500
100
AcDbEntity
  8
0
100
AcDbCircle
 62
7
  6
CONTINUOUS
 10
11.0473183387
 20
-3.1554169485
 40
0.375
100
AcDbArc
 50
332.0000000006
 51
342.9999999998
  0
ARC
  5
501
100
AcDbEntity
  8
0
100
AcDbCircle
 62
7
  6
CONTINUOUS
 10
11.0473183387
 20
-3.1554169485
 40
0.375
100
AcDbArc
 50
61.9999999999
 51
73.0000000001
  0
ARC
  5
502
100
AcDbEntity
  8
0
100
AcDbCircle
 62
7
  6
CONTINUOUS
 10
11.0473183387
 20
-3.1554169485
 40
0.3575
100
AcDbArc
 50
342.9999999998
 51
16.9999999998
  0
ARC
  5
503
100
AcDbEntity
  8
0
100
AcDbCircle
 62
7
  6
CONTINUOUS
 10
11.0473183387
 20
-3.1554169485
 40
0.3575
100
AcDbArc
 50
297.9999999998
 51
332.0000000007
  0
ARC
  5
504
100
AcDbEntity
  8
0
100
AcDbCircle
 62
7
  6
CONTINUOUS
 10
11.0473183387
 20
-3.1554169485
 40
0.3575
100
AcDbArc
 50
253.0000000001
 51
286.9999999998
  0
ARC
  5
505
100
AcDbEntity
  8
0
100
AcDbCircle
 62
7
  6
CONTINUOUS
 10
11.0473183387
 20
-3.1554169485
 40
0.3575
100
AcDbArc
 50
208.0000000006
 51
241.9999999998
  0
ARC
  5
506
100
AcDbEntity
  8
0
100
AcDbCircle
 62
7
  6
CONTINUOUS
 10
11.0473183387
 20
-3.1554169485
 40
0.3575
100
AcDbArc
 50
162.9999999998
 51
196.9999999998
  0
ARC
  5
507
100
AcDbEntity
  8
0
100
AcDbCircle
 62
7
  6
CONTINUOUS
 10
11.0473183387
 20
-3.1554169485
 40
0.3575
100
AcDbArc
 50
117.9999999998
 51
152.0000000007
  0
ARC
  5
508
100
AcDbEntity
  8
0
100
AcDbCircle
 62
7
  6
CONTINUOUS
 10
11.0473183387
 20
-3.1554169485
 40
0.3575
100
AcDbArc
 50
73.0000000001
 51
106.9999999998
  0
ARC
  5
509
100
AcDbEntity
  8
0
100
AcDbCircle
 62
7
  6
CONTINUOUS
 10
11.0473183387
 20
-3.1554169485
 40
0.3575
100
AcDbArc
 50
28.0000000006
 51
61.9999999998
  0
CIRCLE
  5
50A
100
AcDbEntity
  8
0
100
AcDbCircle
 62
7
  6
CONTINUOUS
 10
11.0473183387
 20
-0.1572969485
 40
0.3125
  0
CIRCLE
  5
50B
100
AcDbEntity
  8
0
100
AcDbCircle
 62
7
  6
CONTINUOUS
 10
11.0473183387
 20
-3.1554169485
 40
0.3125
  0
CIRCLE
  5
50C
100
AcDbEntity
  8
0
100
AcDbCircle
 62
7
  6
CONTINUOUS
 10
11.0473183387
 20
-0.1572969485
 40
0.2625
  0
ARC
  5
50D
100
AcDbEntity
  8
0
100
AcDbCircle
 62
7
  6
CONTINUOUS
 10
11.8657944761
 20
18.6932311889
 40
0.21
100
AcDbArc
 50
174.8708339361
 51
275.129166064
  0
ARC
  5
50E
100
AcDbEntity
  8
0
100
AcDbCircle
 62
7
  6
CONTINUOUS
 10
11.8657944761
 20
16.9961749141
 40
0.21
100
AcDbArc
 50
84.870833936
 51
185.1291660639
  0
ARC
  5
50F
100
AcDbEntity
  8
0
100
AcDbCircle
 62
7
  6
CONTINUOUS
 10
12.2172663387
 20
17.8447030515
 40
0.21
100
AcDbArc
 50
129.8708339358
 51
230.1291660642
  0
ARC
  5
510
100
AcDbEntity
  8
0
100
AcDbCircle
 62
7
  6
CONTINUOUS
 10
13.6671572401
 20
9.3721939062
 40
0.04
100
AcDbArc
 50
150.0
 51
244.7635652646
  0
ARC
  5
511
100
AcDbEntity
  8
0
100
AcDbCircle
 62
7
  6
CONTINUOUS
 10
14.8157903206
 20
7.3827030515
 40
0.04
100
AcDbArc
 50
175.2364357443
 51
270.0
  0
ARC
  5
512
100
AcDbEntity
  8
0
100
AcDbCircle
 62
7
  6
CONTINUOUS
 10
15.2788463567
 20
7.3827030515
 40
0.04
100
AcDbArc
 50
270.0
 51
4.7635686101
  0
ARC
  5
513
100
AcDbEntity
  8
0
100
AcDbCircle
 62
9
  6
CONTINUOUS
 10
14.215582976
 20
8.776938206
 40
0.4342741459
100
AcDbArc
 50
7.2667150174
 51
8.6642693925
  0
ARC
  5
514
100
AcDbEntity
  8
0
100
AcDbCircle
 62
9
  6
CONTINUOUS
 10
14.2729118432
 20
8.7854179749
 40
0.3763221704
100
AcDbArc
 50
8.702830539
 51
8.9943444903
  0
ARC
  5
515
100
AcDbEntity
  8
0
100
AcDbCircle
 62
9
  6
CONTINUOUS
 10
14.550099373
 20
8.799977707
 40
0.1382088946
100
AcDbArc
 50
62.4479478652
 51
64.9203370066
  0
ARC
  5
516
100
AcDbEntity
  8
0
100
AcDbCircle
 62
7
  6
CONTINUOUS
 10
14.5489961477
 20
8.801776361
 40
0.1
100
AcDbArc
 50
4.6941912694
 51
64.7636416907
  0
ARC
  5
517
100
AcDbEntity
  8
0
100
AcDbCircle
 62
9
  6
CONTINUOUS
 10
14.7623620828
 20
8.4334119384
 40
0.1375526074
100
AcDbArc
 50
355.0767514267
 51
357.561083322
  0
ARC
  5
518
100
AcDbEntity
  8
0
100
AcDbCircle
 62
7
  6
CONTINUOUS
 10
14.7627136895
 20
8.4316067201
 40
0.1
100
AcDbArc
 50
355.2363583093
 51
55.3046606014
  0
ARC
  5
519
100
AcDbEntity
  8
0
100
AcDbCircle
 62
9
  6
CONTINUOUS
 10
15.0307926455
 20
8.852243735
 40
0.4226425662
100
AcDbArc
 50
129.5701749219
 51
170.4296156295
  0
ARC
  5
51A
100
AcDbEntity
  8
0
100
AcDbCircle
 62
9
  6
CONTINUOUS
 10
15.0473183352
 20
8.8236179535
 40
0.422639759
100
AcDbArc
 50
249.5701343497
 51
290.4298857882
  0
ARC
  5
51B
100
AcDbEntity
  8
0
100
AcDbCircle
 62
7
  6
CONTINUOUS
 10
15.0473183387
 20
8.8427030515
 40
1.25
100
AcDbArc
 50
318.3571304608
 51
319.6526461076
  0
ARC
  5
51C
100
AcDbEntity
  8
0
100
AcDbCircle
 62
7
  6
CONTINUOUS
 10
15.0473183387
 20
8.8427030515
 40
1.25
100
AcDbArc
 50
310.3473538924
 51
311.6428695392
  0
ARC
  5
51D
100
AcDbEntity
  8
0
100
AcDbCircle
 62
7
  6
CONTINUOUS
 10
15.0473183387
 20
8.8427030515
 40
1.25
100
AcDbArc
 50
258.3499230491
 51
258.4498169832
  0
ARC
  5
51E
100
AcDbEntity
  8
0
100
AcDbCircle
 62
7
  6
CONTINUOUS
 10
15.0473183387
 20
8.8427030515
 40
1.25
100
AcDbArc
 50
228.3571304608
 51
229.6526461076
  0
ARC
  5
51F
100
AcDbEntity
  8
0
100
AcDbCircle
 62
7
  6
CONTINUOUS
 10
15.0473183387
 20
8.8427030515
 40
1.25
100
AcDbArc
 50
220.3473538924
 51
221.6428695392
  0
ARC
  5
520
100
AcDbEntity
  8
0
100
AcDbCircle
 62
7
  6
CONTINUOUS
 10
15.0473183387
 20
8.8427030515
 40
1.25
100
AcDbArc
 50
161.5773280491
 51
161.6421769358
  0
ARC
  5
521
100
AcDbEntity
  8
0
100
AcDbCircle
 62
7
  6
CONTINUOUS
 10
15.0473183387
 20
8.8427030515
 40
1.25
100
AcDbArc
 50
130.3473538924
 51
131.6428695392
  0
ARC
  5
522
100
AcDbEntity
  8
0
100
AcDbCircle
 62
7
  6
CONTINUOUS
 10
15.0473183387
 20
8.8427030515
 40
1.25
100
AcDbArc
 50
48.3571304608
 51
49.6526461076
  0
ARC
  5
523
100
AcDbEntity
  8
0
100
AcDbCircle
 62
7
  6
CONTINUOUS
 10
15.0473183387
 20
8.8427030515
 40
1.25
100
AcDbArc
 50
18.3578230642
 51
18.4226719509
  0
ARC
  5
524
100
AcDbEntity
  8
0
100
AcDbCircle
 62
7
  6
CONTINUOUS
 10
15.0473183387
 20
8.8427030515
 40
1.25
100
AcDbArc
 50
221.6875658564
 51
228.3124341436
  0
ARC
  5
525
100
AcDbEntity
  8
0
100
AcDbCircle
 62
7
  6
CONTINUOUS
 10
15.0473183387
 20
8.8427030515
 40
1.25
100
AcDbArc
 50
195.6875658564
 51
220.3124341436
  0
ARC
  5
526
100
AcDbEntity
  8
0
100
AcDbCircle
 62
7
  6
CONTINUOUS
 10
15.0473183387
 20
8.8427030515
 40
1.25
100
AcDbArc
 50
187.6875658564
 51
195.6397271706
  0
ARC
  5
527
100
AcDbEntity
  8
0
100
AcDbCircle
 62
7
  6
CONTINUOUS
 10
15.0473183387
 20
8.8427030515
 40
1.25
100
AcDbArc
 50
172.3484517069
 51
187.6515482931
  0
ARC
  5
528
100
AcDbEntity
  8
0
100
AcDbCircle
 62
7
  6
CONTINUOUS
 10
15.0473183387
 20
8.8427030515
 40
1.25
100
AcDbArc
 50
164.3602728294
 51
172.3124341436
  0
ARC
  5
529
100
AcDbEntity
  8
0
100
AcDbCircle
 62
7
  6
CONTINUOUS
 10
15.0473183387
 20
8.8427030515
 40
1.25
100
AcDbArc
 50
161.6875658564
 51
164.3124341436
  0
ARC
  5
52A
100
AcDbEntity
  8
0
100
AcDbCircle
 62
7
  6
CONTINUOUS
 10
15.0473183387
 20
8.8427030515
 40
1.25
100
AcDbArc
 50
131.6875658564
 51
138.3124341436
  0
ARC
  5
52B
100
AcDbEntity
  8
0
100
AcDbCircle
 62
7
  6
CONTINUOUS
 10
15.0473183387
 20
8.8427030515
 40
1.25
100
AcDbArc
 50
105.6875658564
 51
130.3124341436
  0
ARC
  5
52C
100
AcDbEntity
  8
0
100
AcDbCircle
 62
7
  6
CONTINUOUS
 10
15.0473183387
 20
8.8427030515
 40
1.25
100
AcDbArc
 50
97.6875658564
 51
105.6397271706
  0
ARC
  5
52D
100
AcDbEntity
  8
0
100
AcDbCircle
 62
7
  6
CONTINUOUS
 10
15.0473183387
 20
8.8427030515
 40
1.25
100
AcDbArc
 50
82.3484517068
 51
97.6515482931
  0
ARC
  5
52E
100
AcDbEntity
  8
0
100
AcDbCircle
 62
7
  6
CONTINUOUS
 10
15.0473183387
 20
8.8427030515
 40
1.25
100
AcDbArc
 50
74.3602728294
 51
82.3124341436
  0
ARC
  5
52F
100
AcDbEntity
  8
0
100
AcDbCircle
 62
7
  6
CONTINUOUS
 10
15.0473183387
 20
8.8427030515
 40
1.25
100
AcDbArc
 50
49.6875658564
 51
74.3124341436
  0
ARC
  5
530
100
AcDbEntity
  8
0
100
AcDbCircle
 62
7
  6
CONTINUOUS
 10
15.0473183387
 20
8.8427030515
 40
1.25
100
AcDbArc
 50
41.6875658564
 51
48.3124341436
  0
ARC
  5
531
100
AcDbEntity
  8
0
100
AcDbCircle
 62
7
  6
CONTINUOUS
 10
15.0473183387
 20
8.8427030515
 40
1.25
100
AcDbArc
 50
15.6875658564
 51
18.3124341436
  0
ARC
  5
532
100
AcDbEntity
  8
0
100
AcDbCircle
 62
7
  6
CONTINUOUS
 10
15.0473183387
 20
8.8427030515
 40
1.25
100
AcDbArc
 50
7.6875658564
 51
15.6397271706
  0
ARC
  5
533
100
AcDbEntity
  8
0
100
AcDbCircle
 62
7
  6
CONTINUOUS
 10
15.0473183387
 20
8.8427030515
 40
1.25
100
AcDbArc
 50
352.3484517069
 51
7.6515482931
  0
ARC
  5
534
100
AcDbEntity
  8
0
100
AcDbCircle
 62
7
  6
CONTINUOUS
 10
15.0473183387
 20
8.8427030515
 40
1.25
100
AcDbArc
 50
344.3602728294
 51
352.3124341436
  0
ARC
  5
535
100
AcDbEntity
  8
0
100
AcDbCircle
 62
7
  6
CONTINUOUS
 10
15.0473183387
 20
8.8427030515
 40
1.25
100
AcDbArc
 50
319.6875658564
 51
344.3124341436
  0
ARC
  5
536
100
AcDbEntity
  8
0
100
AcDbCircle
 62
7
  6
CONTINUOUS
 10
15.0473183387
 20
8.8427030515
 40
1.25
100
AcDbArc
 50
311.6875658564
 51
318.3124341436
  0
ARC
  5
537
100
AcDbEntity
  8
0
100
AcDbCircle
 62
7
  6
CONTINUOUS
 10
15.0473183387
 20
8.8427030515
 40
1.25
100
AcDbArc
 50
285.6875658564
 51
310.3124341436
  0
ARC
  5
538
100
AcDbEntity
  8
0
100
AcDbCircle
 62
7
  6
CONTINUOUS
 10
15.0473183387
 20
8.8427030515
 40
1.25
100
AcDbArc
 50
281.6875658564
 51
285.6397271706
  0
ARC
  5
539
100
AcDbEntity
  8
0
100
AcDbCircle
 62
7
  6
CONTINUOUS
 10
15.0473183387
 20
8.8427030515
 40
1.25
100
AcDbArc
 50
254.3602728294
 51
258.3124341436
  0
ARC
  5
53A
100
AcDbEntity
  8
0
100
AcDbCircle
 62
7
  6
CONTINUOUS
 10
15.0473183387
 20
8.8427030515
 40
1.25
100
AcDbArc
 50
229.6875658564
 51
254.3124341436
  0
ARC
  5
53B
100
AcDbEntity
  8
0
100
AcDbCircle
 62
9
  6
CONTINUOUS
 10
15.0473183387
 20
8.8427030515
 40
1.175
100
AcDbArc
 50
282.0791223207
 51
17.9211746841
  0
ARC
  5
53C
100
AcDbEntity
  8
0
100
AcDbCircle
 62
9
  6
CONTINUOUS
 10
15.0473183387
 20
8.8427030515
 40
1.175
100
AcDbArc
 50
42.0792476659
 51
137.919941735
  0
ARC
  5
53D
100
AcDbEntity
  8
0
100
AcDbCircle
 62
9
  6
CONTINUOUS
 10
15.0473183387
 20
8.8427030515
 40
1.175
100
AcDbArc
 50
162.0783725783
 51
257.9203952998
  0
ARC
  5
53E
100
AcDbEntity
  8
0
100
AcDbCircle
 62
7
  6
CONTINUOUS
 10
15.0473183387
 20
8.8427030515
 40
1.075
100
AcDbArc
 50
162.7575594018
 51
257.2426214277
  0
ARC
  5
53F
100
AcDbEntity
  8
0
100
AcDbCircle
 62
7
  6
CONTINUOUS
 10
15.0473183387
 20
8.8427030515
 40
1.075
100
AcDbArc
 50
42.7585030646
 51
137.2423246191
  0
ARC
  5
540
100
AcDbEntity
  8
0
100
AcDbCircle
 62
7
  6
CONTINUOUS
 10
15.0473183387
 20
8.8427030515
 40
1.075
100
AcDbArc
 50
282.7580219971
 51
17.242889099
  0
ARC
  5
541
100
AcDbEntity
  8
0
100
AcDbCircle
 62
7
  6
CONTINUOUS
 10
15.0473183387
 20
8.8427030515
 40
1.025
100
AcDbArc
 50
163.1608466881
 51
256.824475064
  0
ARC
  5
542
100
AcDbEntity
  8
0
100
AcDbCircle
 62
7
  6
CONTINUOUS
 10
15.0473183387
 20
8.8427030515
 40
1.025
100
AcDbArc
 50
43.1661819893
 51
136.8341609227
  0
ARC
  5
543
100
AcDbEntity
  8
0
100
AcDbCircle
 62
7
  6
CONTINUOUS
 10
15.0473183387
 20
8.8427030515
 40
1.025
100
AcDbArc
 50
283.1731900567
 51
16.8405567138
  0
ARC
  5
544
100
AcDbEntity
  8
0
100
AcDbCircle
 62
7
  6
CONTINUOUS
 10
15.0473183387
 20
8.8427030515
 40
0.95
100
AcDbArc
 50
163.8386052124
 51
256.1559236474
  0
ARC
  5
545
100
AcDbEntity
  8
0
100
AcDbCircle
 62
7
  6
CONTINUOUS
 10
15.0473183387
 20
8.8427030515
 40
0.95
100
AcDbArc
 50
43.8263854332
 51
136.1736145668
  0
ARC
  5
546
100
AcDbEntity
  8
0
100
AcDbCircle
 62
7
  6
CONTINUOUS
 10
15.0473183387
 20
8.8427030515
 40
0.95
100
AcDbArc
 50
283.8440763526
 51
16.1613947876
  0
ARC
  5
547
100
AcDbEntity
  8
0
100
AcDbCircle
 62
7
  6
CONTINUOUS
 10
15.0473183387
 20
8.8427030515
 40
0.85
100
AcDbArc
 50
164.9207458654
 51
255.0784830357
  0
ARC
  5
548
100
AcDbEntity
  8
0
100
AcDbCircle
 62
7
  6
CONTINUOUS
 10
15.0473183387
 20
8.8427030515
 40
0.85
100
AcDbArc
 50
44.8935109138
 51
135.1063401755
  0
ARC
  5
549
100
AcDbEntity
  8
0
100
AcDbCircle
 62
7
  6
CONTINUOUS
 10
15.0473183387
 20
8.8427030515
 40
0.85
100
AcDbArc
 50
284.9184910309
 51
15.0822020851
  0
ARC
  5
54A
100
AcDbEntity
  8
0
100
AcDbCircle
 62
7
  6
CONTINUOUS
 10
15.0473183387
 20
8.8427030515
 40
0.75
100
AcDbArc
 50
166.3011824037
 51
253.7131229629
  0
ARC
  5
54B
100
AcDbEntity
  8
0
100
AcDbCircle
 62
7
  6
CONTINUOUS
 10
15.0473183387
 20
8.8427030515
 40
0.75
100
AcDbArc
 50
46.2768831883
 51
133.7236224578
  0
ARC
  5
54C
100
AcDbEntity
  8
0
100
AcDbCircle
 62
7
  6
CONTINUOUS
 10
15.0473183387
 20
8.8427030515
 40
0.75
100
AcDbArc
 50
286.2868625496
 51
13.7025171535
  0
ARC
  5
54D
100
AcDbEntity
  8
0
100
AcDbCircle
 62
9
  6
CONTINUOUS
 10
15.0637667624
 20
8.8521991082
 40
0.42272892
100
AcDbArc
 50
9.574611628
 51
50.4256229533
  0
CIRCLE
  5
54E
100
AcDbEntity
  8
0
100
AcDbCircle
 62
7
  6
CONTINUOUS
 10
15.0473183387
 20
8.8427030515
 40
0.4
  0
CIRCLE
  5
54F
100
AcDbEntity
  8
0
100
AcDbCircle
 62
9
  6
CONTINUOUS
 10
15.0473183387
 20
8.8427030515
 40
0.3875
  0
CIRCLE
  5
550
100
AcDbEntity
  8
0
100
AcDbCircle
 62
7
  6
CONTINUOUS
 10
15.0473183387
 20
8.8427030515
 40
0.3125
  0
CIRCLE
  5
551
100
AcDbEntity
  8
0
100
AcDbCircle
 62
9
  6
CONTINUOUS
 10
15.0473183387
 20
8.8427030515
 40
0.2825
  0
CIRCLE
  5
552
100
AcDbEntity
  8
0
100
AcDbCircle
 62
7
  6
CONTINUOUS
 10
15.0473183387
 20
8.8427030515
 40
0.2625
  0
ARC
  5
553
100
AcDbEntity
  8
0
100
AcDbCircle
 62
9
  6
CONTINUOUS
 10
14.8349626477
 20
9.2935747378
 40
0.1368829961
100
AcDbArc
 50
235.0746082433
 51
237.5702726762
  0
ARC
  5
554
100
AcDbEntity
  8
0
100
AcDbCircle
 62
7
  6
CONTINUOUS
 10
14.8336007968
 20
9.2947260734
 40
0.1
100
AcDbArc
 50
235.2363583093
 51
295.3051869081
  0
ARC
  5
555
100
AcDbEntity
  8
0
100
AcDbCircle
 62
7
  6
CONTINUOUS
 10
13.8986852582
 20
9.7732121968
 40
0.04
100
AcDbArc
 50
55.2364357439
 51
150.0
  0
ARC
  5
556
100
AcDbEntity
  8
0
100
AcDbCircle
 62
9
  6
CONTINUOUS
 10
15.9169933289
 20
8.7713085637
 40
0.4726258757
100
AcDbArc
 50
171.1217018606
 51
171.3544108835
  0
ARC
  5
557
100
AcDbEntity
  8
0
100
AcDbCircle
 62
9
  6
CONTINUOUS
 10
15.9001053945
 20
8.7738502411
 40
0.4555477681
100
AcDbArc
 50
171.3511619004
 51
172.5829761911
  0
ARC
  5
558
100
AcDbEntity
  8
0
100
AcDbCircle
 62
9
  6
CONTINUOUS
 10
15.5445492833
 20
8.7999536297
 40
0.138235793
100
AcDbArc
 50
115.078915771
 51
117.5517980779
  0
ARC
  5
559
100
AcDbEntity
  8
0
100
AcDbCircle
 62
9
  6
CONTINUOUS
 10
15.3321521695
 20
8.4334013198
 40
0.1374297293
100
AcDbArc
 50
182.436648351
 51
184.9231332411
  0
ARC
  5
55A
100
AcDbEntity
  8
0
100
AcDbCircle
 62
7
  6
CONTINUOUS
 10
15.5456405296
 20
8.801776361
 40
0.1
100
AcDbArc
 50
115.2363583093
 51
175.3056441734
  0
ARC
  5
55B
100
AcDbEntity
  8
0
100
AcDbCircle
 62
7
  6
CONTINUOUS
 10
15.3319229878
 20
8.4316067201
 40
0.1
100
AcDbArc
 50
124.6952023384
 51
184.7636416907
  0
ARC
  5
55C
100
AcDbEntity
  8
0
100
AcDbCircle
 62
9
  6
CONTINUOUS
 10
15.4309294782
 20
8.8365334922
 40
0.0206005156
100
AcDbArc
 50
19.9179062624
 51
22.0013202593
  0
ARC
  5
55D
100
AcDbEntity
  8
0
100
AcDbCircle
 62
9
  6
CONTINUOUS
 10
15.2596449918
 20
9.2936218272
 40
0.1369382497
100
AcDbArc
 50
302.4293478307
 51
304.9249170222
  0
ARC
  5
55E
100
AcDbEntity
  8
0
100
AcDbCircle
 62
7
  6
CONTINUOUS
 10
15.2610358805
 20
9.2947260734
 40
0.1
100
AcDbArc
 50
244.6946730165
 51
304.7636416907
  0
ARC
  5
55F
100
AcDbEntity
  8
0
100
AcDbCircle
 62
7
  6
CONTINUOUS
 10
16.4274794372
 20
9.3721939062
 40
0.04
100
AcDbArc
 50
295.2364357443
 51
30.0
  0
ARC
  5
560
100
AcDbEntity
  8
0
100
AcDbCircle
 62
7
  6
CONTINUOUS
 10
16.1959514191
 20
9.7732121968
 40
0.04
100
AcDbArc
 50
30.0
 51
124.763566941
  0
ARC
  5
561
100
AcDbEntity
  8
0
100
AcDbCircle
 62
9
  6
CONTINUOUS
 10
154.8374177282
 20
-201.5488010601
 40
257.2222012574
100
AcDbArc
 50
124.7579928949
 51
124.9898807304
  0
ARC
  5
562
100
AcDbEntity
  8
0
100
AcDbCircle
 62
9
  6
CONTINUOUS
 10
162.8374170851
 20
-201.5488001387
 40
257.2222001338
100
AcDbArc
 50
124.7579928934
 51
124.9898807307
  0
ARC
  5
563
100
AcDbEntity
  8
0
100
AcDbCircle
 62
9
  6
CONTINUOUS
 10
263.1447587979
 20
-13.9513552435
 40
257.2201974898
100
AcDbArc
 50
175.010118988
 51
175.2420079861
  0
ARC
  5
564
100
AcDbEntity
  8
0
100
AcDbCircle
 62
9
  6
CONTINUOUS
 10
271.1447581629
 20
-13.951355189
 40
257.2201968523
100
AcDbArc
 50
175.0101189878
 51
175.2420079868
  0
ARC
  5
565
100
AcDbEntity
  8
0
100
AcDbCircle
 62
9
  6
CONTINUOUS
 10
115.3558399095
 20
242.0266988134
 40
257.2202823104
100
AcDbArc
 50
244.7579923321
 51
244.9898808205
  0
ARC
  5
566
100
AcDbEntity
  8
0
100
AcDbCircle
 62
9
  6
CONTINUOUS
 10
123.3558393965
 20
242.0266977177
 40
257.2202811005
100
AcDbArc
 50
244.7579923306
 51
244.9898808208
  0
SPLINE
  5
567
100
AcDbEntity
  8
0
100
AcDbSpline
 62
9
  6
CONTINUOUS
 70
0
 71
3
 72
14
 73
10
 74
0
 42
0.0000001
 43
0.0000001
 44
0.0000000001
 40
0.0
 40
0.0
 40
0.0
 40
0.0
 40
0.0322663527
 40
0.0839788778
 40
0.1616640764
 40
0.2677474191
 40
0.4036286825
 40
0.570367775
 40
1.0
 40
1.0
 40
1.0
 40
1.0
 10
14.7801328646
 20
9.2102205593
 30
0.0
 10
14.7801498025
 20
9.2102098426
 30
0.0
 10
14.7801743494
 20
9.2101573159
 30
0.0
 10
14.7801696913
 20
9.2100569726
 30
0.0
 10
14.780142886
 20
9.2099126188
 30
0.0
 10
14.7800860187
 20
9.2097222287
 30
0.0
 10
14.7800002583
 20
9.2094831773
 30
0.0
 10
14.7798293893
 20
9.2090615387
 30
0.0
 10
14.7796752181
 20
9.2087244977
 30
0.0
 10
14.7795611018
 20
9.2084832446
 30
0.0
  0
SPLINE
  5
568
100
AcDbEntity
  8
0
100
AcDbSpline
 62
9
  6
CONTINUOUS
 70
0
 71
3
 72
14
 73
10
 74
0
 42
0.0000001
 43
0.0000001
 44
0.0000000001
 40
0.0
 40
0.0
 40
0.0
 40
0.0
 40
0.0623787187
 40
0.1497419054
 40
0.2599750674
 40
0.390171818
 40
0.5349750574
 40
0.6885203318
 40
1.0
 40
1.0
 40
1.0
 40
1.0
 10
14.7795611018
 20
9.2084832446
 30
0.0
 10
14.7792465417
 20
9.2078182335
 30
0.0
 10
14.7784364478
 20
9.2062482453
 30
0.0
 10
14.7769627093
 20
9.2035597237
 30
0.0
 10
14.7750464079
 20
9.2002020773
 30
0.0
 10
14.7727463288
 20
9.1962840847
 30
0.0
 10
14.7701496173
 20
9.1919481257
 30
0.0
 10
14.7664087946
 20
9.1858056008
 30
0.0
 10
14.763512713
 20
9.1811482465
 30
0.0
 10
14.7615570892
 20
9.1780386894
 30
0.0
  0
SPLINE
  5
569
100
AcDbEntity
  8
0
100
AcDbSpline
 62
9
  6
CONTINUOUS
 70
0
 71
3
 72
24
 73
20
 74
0
 42
0.0000001
 43
0.0000001
 44
0.0000000001
 40
0.0
 40
0.0
 40
0.0
 40
0.0
 40
0.186269729
 40
0.3735212707
 40
0.5515405565
 40
0.633644492
 40
0.7092660648
 40
0.7771448482
 40
0.8366093953
 40
0.8871369962
 40
0.9282089651
 40
0.9594888749
 40
0.971563146
 40
0.9813558347
 40
0.9889471333
 40
0.9944352456
 40
0.9964372074
 40
0.9979850485
 40
1.0
 40
1.0
 40
1.0
 40
1.0
 10
14.6140284853
 20
8.9225124659
 30
0.0
 10
14.6129487758
 20
8.9204675321
 30
0.0
 10
14.6107700131
 20
8.9163740764
 30
0.0
 10
14.6075104269
 20
8.9103524664
 30
0.0
 10
14.604824344
 20
8.9054910922
 30
0.0
 10
14.6027787536
 20
8.9018593951
 30
0.0
 10
14.6013885268
 20
8.899427962
 30
0.0
 10
14.6001200012
 20
8.897250786
 30
0.0
 10
14.5989895146
 20
8.8953538592
 30
0.0
 10
14.5980092632
 20
8.8937549319
 30
0.0
 10
14.5971893451
 20
8.892468431
 30
0.0
 10
14.5966028971
 20
8.8915993858
 30
0.0
 10
14.5962133586
 20
8.8910667395
 30
0.0
 10
14.595987776
 20
8.8907787835
 30
0.0
 10
14.5958012147
 20
8.8905644166
 30
0.0
 10
14.5956680044
 20
8.8904326566
 30
0.0
 10
14.5955770862
 20
8.890365328
 30
0.0
 10
14.5955182939
 20
8.8903318489
 30
0.0
 10
14.5954680132
 20
8.8903222144
 30
0.0
 10
14.5954458608
 20
8.890333834
 30
0.0
  0
SPLINE
  5
56A
100
AcDbEntity
  8
0
100
AcDbSpline
 62
9
  6
CONTINUOUS
 70
0
 71
3
 72
18
 73
14
 74
0
 42
0.0000001
 43
0.0000001
 44
0.0000000001
 40
0.0
 40
0.0
 40
0.0
 40
0.0
 40
0.1703881429
 40
0.3423142149
 40
0.5082159076
 40
0.659947732
 40
0.7892629584
 40
0.8436664517
 40
0.8906923272
 40
0.9299541255
 40
0.9611185137
 40
0.9843260407
 40
1.0
 40
1.0
 40
1.0
 40
1.0
 10
14.6086828027
 20
8.9251555876
 30
0.0
 10
14.6077884061
 20
8.9232706008
 30
0.0
 10
14.6059810197
 20
8.9194885953
 30
0.0
 10
14.6032654174
 20
8.913889185
 30
0.0
 10
14.6006118153
 20
8.9085137394
 30
0.0
 10
14.5981493397
 20
8.9036260361
 30
0.0
 10
14.5962613984
 20
8.8999778211
 30
0.0
 10
14.5949301765
 20
8.8974855595
 30
0.0
 10
14.5941027176
 20
8.8959744468
 30
0.0
 10
14.5933945746
 20
8.8947226533
 30
0.0
 10
14.5928101776
 20
8.8937359095
 30
0.0
 10
14.5923494193
 20
8.8930126093
 30
0.0
 10
14.5920734349
 20
8.8926235617
 30
0.0
 10
14.5919506678
 20
8.8924760326
 30
0.0
  0
LINE
  5
56B
100
AcDbEntity
  8
0
100
AcDbLine
 62
9
  6
CONTINUOUS
 10
14.5919506678
 20
8.8924760326
 11
14.591629823
 21
8.8922328538
  0
SPLINE
  5
56C
100
AcDbEntity
  8
0
100
AcDbSpline
 62
9
  6
CONTINUOUS
 70
0
 71
3
 72
24
 73
20
 74
0
 42
0.0000001
 43
0.0000001
 44
0.0000000001
 40
0.0
 40
0.0
 40
0.0
 40
0.0
 40
0.1862709283
 40
0.3735229605
 40
0.5515421328
 40
0.6336458636
 40
0.7092671828
 40
0.7771456981
 40
0.8366099851
 40
0.8871373537
 40
0.9282091379
 40
0.9594889253
 40
0.9715631572
 40
0.9813558195
 40
0.9889471036
 40
0.9944352126
 40
0.9964371773
 40
0.9979850245
 40
1.0
 40
1.0
 40
1.0
 40
1.0
 10
15.3330793885
 20
9.178038638
 30
0.0
 10
15.3318483026
 20
9.1799961435
 30
0.0
 10
15.3293927001
 20
9.1839296928
 30
0.0
 10
15.3258077097
 20
9.1897633096
 30
0.0
 10
15.3229407523
 20
9.1945201416
 30
0.0
 10
15.3208184662
 20
9.1981074624
 30
0.0
 10
15.3194079394
 20
9.2005271058
 30
0.0
 10
15.3181567516
 20
9.2027142272
 30
0.0
 10
15.3170792428
 20
9.204641683
 30
0.0
 10
15.3161846865
 20
9.2062900367
 30
0.0
 10
15.315480527
 20
9.2076433305
 30
0.0
 10
15.315021152
 20
9.2085857138
 30
0.0
 10
15.314754646
 20
9.2091893758
 30
0.0
 10
15.3146180655
 20
9.209528708
 30
0.0
 10
15.3145257031
 20
9.2097974536
 30
0.0
 10
15.3144782033
 20
9.2099786941
 30
0.0
 10
15.3144653556
 20
9.210091094
 30
0.0
 10
15.3144657588
 20
9.2101587484
 30
0.0
 10
15.314482556
 20
9.2102071091
 30
0.0
 10
15.314503695
 20
9.2102204837
 30
0.0
  0
SPLINE
  5
56D
100
AcDbEntity
  8
0
100
AcDbSpline
 62
9
  6
CONTINUOUS
 70
0
 71
3
 72
23
 73
19
 74
0
 42
0.0000001
 43
0.0000001
 44
0.0000000001
 40
0.0
 40
0.0
 40
0.0
 40
0.0
 40
0.1887922402
 40
0.3719808015
 40
0.5416523827
 40
0.6193693858
 40
0.6913341411
 40
0.7568644306
 40
0.8152923793
 40
0.8660722525
 40
0.9088303633
 40
0.9432670914
 40
0.9573294996
 40
0.9693272106
 40
0.9793438799
 40
0.9875401262
 40
0.9942292702
 40
1.0
 40
1.0
 40
1.0
 40
1.0
 10
16.4284762004
 20
9.3671857582
 30
0.0
 10
16.4307992648
 20
9.3685116912
 30
0.0
 10
16.435341209
 20
9.3711863837
 30
0.0
 10
16.4418568633
 20
9.3752422147
 30
0.0
 10
16.446951067
 20
9.378600365
 30
0.0
 10
16.4506645826
 20
9.381185744
 30
0.0
 10
16.4531332605
 20
9.3829757876
 30
0.0
 10
16.455343734
 20
9.3846553197
 30
0.0
 10
16.4572730961
 20
9.3862072487
 30
0.0
 10
16.4589023834
 20
9.3876158454
 30
0.0
 10
16.46021633
 20
9.3888661762
 30
0.0
 10
16.4610922629
 20
9.3898201126
 30
0.0
 10
16.4616128775
 20
9.3905018084
 30
0.0
 10
16.461890859
 20
9.3909315572
 30
0.0
 10
16.4620840621
 20
9.3913147957
 30
0.0
 10
16.4621923852
 20
9.3916527049
 30
0.0
 10
16.462214349
 20
9.3919486375
 30
0.0
 10
16.4621613317
 20
9.3921231091
 30
0.0
 10
16.4621204488
 20
9.3921939141
 30
0.0
  0
SPLINE
  5
56E
100
AcDbEntity
  8
0
100
AcDbSpline
 62
9
  6
CONTINUOUS
 70
0
 71
3
 72
23
 73
19
 74
0
 42
0.0000001
 43
0.0000001
 44
0.0000000001
 40
0.0
 40
0.0
 40
0.0
 40
0.0
 40
0.0019902081
 40
0.0036615033
 40
0.0058594866
 40
0.0119002579
 40
0.0201751597
 40
0.0434485226
 40
0.0756226938
 40
0.1164492088
 40
0.1656003377
 40
0.2227289271
 40
0.2873595288
 40
0.3589198151
 40
0.436836516
 40
0.6092440011
 40
0.7992208988
 40
1.0
 40
1.0
 40
1.0
 40
1.0
 10
16.4445335586
 20
9.3360116323
 30
0.0
 10
16.4445125627
 20
9.336001521
 30
0.0
 10
16.4444644671
 20
9.3360208756
 30
0.0
 10
16.4444119338
 20
9.3360608106
 30
0.0
 10
16.4443261919
 20
9.3361411321
 30
0.0
 10
16.4442022669
 20
9.3362889953
 30
0.0
 10
16.4439409717
 20
9.3366439121
 30
0.0
 10
16.4435408475
 20
9.3372740982
 30
0.0
 10
16.4429743184
 20
9.3382488582
 30
0.0
 10
16.4422835533
 20
9.3395013739
 30
0.0
 10
16.4414686203
 20
9.3410189154
 30
0.0
 10
16.4405307931
 20
9.3427868029
 30
0.0
 10
16.4394797849
 20
9.3447916542
 30
0.0
 10
16.438331005
 20
9.3470200315
 30
0.0
 10
16.43663246
 20
9.3503846769
 30
0.0
 10
16.4343621061
 20
9.35501356
 30
0.0
 10
16.4314742282
 20
9.3609417478
 30
0.0
 10
16.4294867864
 20
9.3650630769
 30
0.0
 10
16.4284762004
 20
9.3671857582
 30
0.0
  0
SPLINE
  5
56F
100
AcDbEntity
  8
0
100
AcDbSpline
 62
9
  6
CONTINUOUS
 70
0
 71
3
 72
23
 73
19
 74
0
 42
0.0000001
 43
0.0000001
 44
0.0000000001
 40
0.0
 40
0.0
 40
0.0
 40
0.0
 40
0.0019902085
 40
0.0036615039
 40
0.0058594873
 40
0.0119002587
 40
0.0201751604
 40
0.0434485225
 40
0.075622693
 40
0.1164492075
 40
0.1656003364
 40
0.2227289263
 40
0.2873595282
 40
0.358919814
 40
0.4368365133
 40
0.6092439961
 40
0.7992208966
 40
1.0
 40
1.0
 40
1.0
 40
1.0
 10
14.7759284915
 20
7.386024886
 30
0.0
 10
14.7759302329
 20
7.3860481247
 30
0.0
 10
14.7759710422
 20
7.3860800994
 30
0.0
 10
14.7760318936
 20
7.3861056271
 30
0.0
 10
14.7761443251
 20
7.386139721
 30
0.0
 10
14.7763343408
 20
7.3861731116
 30
0.0
 10
14.7767723554
 20
7.3862219415
 30
0.0
 10
14.7775181746
 20
7.3862533662
 30
0.0
 10
14.778645606
 20
7.3862566146
 30
0.0
 10
14.780075699
 20
7.3862285767
 30
0.0
 10
14.7817973949
 20
7.3861755588
 30
0.0
 10
14.7837973441
 20
7.3861037978
 30
0.0
 10
14.7860591003
 20
7.3860115725
 30
0.0
 10
14.7885633215
 20
7.3858922563
 30
0.0
 10
14.7923264621
 20
7.3856809142
 30
0.0
 10
14.797470369
 20
7.3853326507
 30
0.0
 10
14.8040482701
 20
7.3848695473
 30
0.0
 10
14.8086111676
 20
7.38453007
 30
0.0
 10
14.8109547566
 20
7.3843439225
 30
0.0
  0
SPLINE
  5
570
100
AcDbEntity
  8
0
100
AcDbSpline
 62
9
  6
CONTINUOUS
 70
0
 71
3
 72
23
 73
19
 74
0
 42
0.0000001
 43
0.0000001
 44
0.0000000001
 40
0.0
 40
0.0
 40
0.0
 40
0.0
 40
0.1887916037
 40
0.3719795981
 40
0.5416507648
 40
0.6193676362
 40
0.6913323183
 40
0.7568625955
 40
0.8152905939
 40
0.8660705842
 40
0.908828884
 40
0.9432658813
 40
0.9573284579
 40
0.9693263601
 40
0.9793432416
 40
0.9875397154
 40
0.9942290854
 40
1.0
 40
1.0
 40
1.0
 40
1.0
 10
14.8109547566
 20
7.3843439225
 30
0.0
 10
14.8109415162
 20
7.3816691314
 30
0.0
 10
14.8109868946
 20
7.3763983616
 30
0.0
 10
14.8112415169
 20
7.3687277444
 30
0.0
 10
14.811602656
 20
7.3626369732
 30
0.0
 10
14.8119849002
 20
7.3581282922
 30
0.0
 10
14.812300783
 20
7.3550953346
 30
0.0
 10
14.8126500617
 20
7.3523412418
 30
0.0
 10
14.8130293874
 20
7.3498943973
 30
0.0
 10
14.8134346201
 20
7.3477790881
 30
0.0
 10
14.8138604619
 20
7.3460160019
 30
0.0
 10
14.814248628
 20
7.3447804435
 30
0.0
 10
14.8145786882
 20
7.3439887209
 30
0.0
 10
14.8148118732
 20
7.3435330995
 30
0.0
 10
14.8150471693
 20
7.3431741528
 30
0.0
 10
14.81528565
 20
7.3429113786
 30
0.0
 10
14.8155309574
 20
7.3427443817
 30
0.0
 10
14.8157085667
 20
7.3427030522
 30
0.0
 10
14.8157903298
 20
7.3427030515
 30
0.0
  0
SPLINE
  5
571
100
AcDbEntity
  8
0
100
AcDbSpline
 62
9
  6
CONTINUOUS
 70
0
 71
3
 72
16
 73
12
 74
0
 42
0.0000001
 43
0.0000001
 44
0.0000000001
 40
0.0
 40
0.0
 40
0.0
 40
0.0
 40
0.2641992656
 40
0.3950638965
 40
0.5242493517
 40
0.6508973646
 40
0.7736092441
 40
0.8332029976
 40
0.8910748643
 40
0.946760641
 40
1.0
 40
1.0
 40
1.0
 40
1.0
 10
15.2182914341
 20
9.204321139
 30
0.0
 10
15.2278391285
 20
9.1998080241
 30
0.0
 10
15.2423277085
 20
9.1934875336
 30
0.0
 10
15.2619748474
 20
9.1861849342
 30
0.0
 10
15.2767148861
 20
9.1815059019
 30
0.0
 10
15.2914007219
 20
9.1778119409
 30
0.0
 10
15.3036379456
 20
9.1759320422
 30
0.0
 10
15.3132339483
 20
9.1754462671
 30
0.0
 10
15.3201611016
 20
9.1756337932
 30
0.0
 10
15.3267914529
 20
9.1764241729
 30
0.0
 10
15.3310445804
 20
9.1774152486
 30
0.0
 10
15.3330792357
 20
9.1780389128
 30
0.0
  0
SPLINE
  5
572
100
AcDbEntity
  8
0
100
AcDbSpline
 62
9
  6
CONTINUOUS
 70
0
 71
3
 72
14
 73
10
 74
0
 42
0.0000001
 43
0.0000001
 44
0.0000000001
 40
0.0
 40
0.0
 40
0.0
 40
0.0
 40
0.1099253828
 40
0.2267304818
 40
0.3485679573
 40
0.4743435299
 40
0.6028607746
 40
0.7336279313
 40
1.0
 40
1.0
 40
1.0
 40
1.0
 10
15.4806079976
 20
8.9225128679
 30
0.0
 10
15.4783188708
 20
8.9203803266
 30
0.0
 10
15.4740256682
 20
8.9155139156
 30
0.0
 10
15.4686003974
 20
8.9071780269
 30
0.0
 10
15.4640135888
 20
8.8978534821
 30
0.0
 10
15.4601677239
 20
8.8878527733
 30
0.0
 10
15.4569111672
 20
8.8773820117
 30
0.0
 10
15.4532502222
 20
8.862870645
 30
0.0
 10
15.4512090064
 20
8.8517410119
 30
0.0
 10
15.4500295293
 20
8.844252195
 30
0.0
  0
SPLINE
  5
573
100
AcDbEntity
  8
0
100
AcDbSpline
 62
9
  6
CONTINUOUS
 70
0
 71
3
 72
14
 73
10
 74
0
 42
0.0000001
 43
0.0000001
 44
0.0000000001
 40
0.0
 40
0.0
 40
0.0
 40
0.0
 40
0.0300502557
 40
0.0802369952
 40
0.157116063
 40
0.2630074995
 40
0.3992606971
 40
0.5669153733
 40
1.0
 40
1.0
 40
1.0
 40
1.0
 10
14.7765800137
 20
9.2125759815
 30
0.0
 10
14.7765956189
 20
9.2125660148
 30
0.0
 10
14.7766160052
 20
9.2125140259
 30
0.0
 10
14.7766037312
 20
9.2124183457
 30
0.0
 10
14.7765682793
 20
9.2122786041
 30
0.0
 10
14.776500183
 20
9.2120941125
 30
0.0
 10
14.776401082
 20
9.2118617636
 30
0.0
 10
14.7762070274
 20
9.211451119
 30
0.0
 10
14.7760352836
 20
9.211123039
 30
0.0
 10
14.7759087217
 20
9.2108881011
 30
0.0
  0
SPLINE
  5
574
100
AcDbEntity
  8
0
100
AcDbSpline
 62
9
  6
CONTINUOUS
 70
0
 71
3
 72
14
 73
10
 74
0
 42
0.0000001
 43
0.0000001
 44
0.0000000001
 40
0.0
 40
0.0
 40
0.0
 40
0.0
 40
0.0623174206
 40
0.1496184158
 40
0.2597987826
 40
0.3899581199
 40
0.5347472785
 40
0.6883181454
 40
1.0
 40
1.0
 40
1.0
 40
1.0
 10
14.7759087217
 20
9.2108881011
 30
0.0
 10
14.7755609188
 20
9.2102424715
 30
0.0
 10
14.7746766672
 20
9.2087192164
 30
0.0
 10
14.7730812242
 20
9.2061112357
 30
0.0
 10
14.7710172393
 20
9.202854295
 30
0.0
 10
14.7685483154
 20
9.1990535616
 30
0.0
 10
14.7657673036
 20
9.1948468393
 30
0.0
 10
14.7617675084
 20
9.1888853127
 30
0.0
 10
14.7586782248
 20
9.1843648676
 30
0.0
 10
14.7565945826
 20
9.1813463046
 30
0.0
  0
SPLINE
  5
575
100
AcDbEntity
  8
0
100
AcDbSpline
 62
9
  6
CONTINUOUS
 70
0
 71
3
 72
23
 73
19
 74
0
 42
0.0000001
 43
0.0000001
 44
0.0000000001
 40
0.0
 40
0.0
 40
0.0
 40
0.0
 40
0.001990208
 40
0.0036615031
 40
0.0058594864
 40
0.0119002577
 40
0.0201751596
 40
0.0434485227
 40
0.075622694
 40
0.1164492089
 40
0.1656003378
 40
0.2227289272
 40
0.2873595288
 40
0.3589198152
 40
0.4368365161
 40
0.6092440012
 40
0.7992208988
 40
1.0
 40
1.0
 40
1.0
 40
1.0
 10
13.9214929658
 20
9.8060726362
 30
0.0
 10
13.9215122204
 20
9.8060595088
 30
0.0
 10
13.9215195067
 20
9.8060081795
 30
0.0
 10
13.9215111886
 20
9.8059427168
 30
0.0
 10
13.921484499
 20
9.8058283014
 30
0.0
 10
13.9214184083
 20
9.8056470476
 30
0.0
 10
13.9212416889
 20
9.8052433009
 30
0.0
 10
13.9208959938
 20
9.8045816901
 30
0.0
 10
13.9203350915
 20
9.8036036816
 30
0.0
 10
13.9195957635
 20
9.8023792036
 30
0.0
 10
13.9186890006
 20
9.8009146802
 30
0.0
 10
13.9176268787
 20
9.7992185542
 30
0.0
 10
13.9164161306
 20
9.7973059288
 30
0.0
 10
13.9150606892
 20
9.7951968675
 30
0.0
 10
13.9129960934
 20
9.7920435617
 30
0.0
 10
13.9101225399
 20
9.787762936
 30
0.0
 10
13.9064325177
 20
9.7822978665
 30
0.0
 10
13.9038570629
 20
9.7785160269
 30
0.0
 10
13.9025240599
 20
9.7765794931
 30
0.0
  0
SPLINE
  5
576
100
AcDbEntity
  8
0
100
AcDbSpline
 62
9
  6
CONTINUOUS
 70
0
 71
3
 72
23
 73
19
 74
0
 42
0.0000001
 43
0.0000001
 44
0.0000000001
 40
0.0
 40
0.0
 40
0.0
 40
0.0
 40
0.18879224
 40
0.371980801
 40
0.541652382
 40
0.619369385
 40
0.6913341403
 40
0.7568644298
 40
0.8152923784
 40
0.8660722517
 40
0.9088303625
 40
0.9432670907
 40
0.957329499
 40
0.96932721
 40
0.9793438795
 40
0.9875401259
 40
0.99422927
 40
1.0
 40
1.0
 40
1.0
 40
1.0
 10
13.9025240599
 20
9.7765794931
 30
0.0
 10
13.900214236
 20
9.7779283593
 30
0.0
 10
13.8956269124
 20
9.7805244522
 30
0.0
 10
13.8888566325
 20
9.7841392589
 30
0.0
 10
13.8834012872
 20
9.7868718935
 30
0.0
 10
13.8793055256
 20
9.7887952028
 30
0.0
 10
13.8765209633
 20
9.7900381188
 30
0.0
 10
13.8739612091
 20
9.791112679
 30
0.0
 10
13.8716525181
 20
9.792007591
 30
0.0
 10
13.8696179939
 20
9.7927142969
 30
0.0
 10
13.8678782024
 20
9.7932270426
 30
0.0
 10
13.8666141028
 20
9.7935086546
 30
0.0
 10
13.8657634296
 20
9.7936186721
 30
0.0
 10
13.8652522655
 20
9.7936445368
 30
0.0
 10
13.8648237697
 20
9.7936202364
 30
0.0
 10
13.8644769701
 20
9.7935450923
 30
0.0
 10
13.8642097031
 20
9.7934161472
 30
0.0
 10
13.8640851149
 20
9.793282997
 30
0.0
 10
13.8640442374
 20
9.7932121889
 30
0.0
  0
SPLINE
  5
577
100
AcDbEntity
  8
0
100
AcDbSpline
 62
9
  6
CONTINUOUS
 70
0
 71
3
 72
23
 73
19
 74
0
 42
0.0000001
 43
0.0000001
 44
0.0000000001
 40
0.0
 40
0.0
 40
0.0
 40
0.0
 40
0.1887939862
 40
0.3719825989
 40
0.5416526023
 40
0.6193689621
 40
0.6913335755
 40
0.7568635643
 40
0.8152904944
 40
0.86606992
 40
0.9088276499
 40
0.9432632614
 40
0.9573252967
 40
0.9693230178
 40
0.979340044
 40
0.987537017
 40
0.9942273747
 40
1.0
 40
1.0
 40
1.0
 40
1.0
 10
13.6661604403
 20
9.3671858017
 30
0.0
 10
13.663837323
 20
9.3685117654
 30
0.0
 10
13.6592952791
 20
9.3711864789
 30
0.0
 10
13.652779493
 20
9.3752423014
 30
0.0
 10
13.6476852313
 20
9.3786004603
 30
0.0
 10
13.643971725
 20
9.3811859021
 30
0.0
 10
13.6415030545
 20
9.3829760002
 30
0.0
 10
13.6392925832
 20
9.3846555631
 30
0.0
 10
13.6373632019
 20
9.3862074807
 30
0.0
 10
13.63573385
 20
9.3876160061
 30
0.0
 10
13.6344198315
 20
9.3888662568
 30
0.0
 10
13.6335438794
 20
9.3898201675
 30
0.0
 10
13.6330232985
 20
9.3905018782
 30
0.0
 10
13.6327453463
 20
9.3909316549
 30
0.0
 10
13.6325521818
 20
9.3913149378
 30
0.0
 10
13.6324439101
 20
9.3916529047
 30
0.0
 10
13.6324220205
 20
9.3919489043
 30
0.0
 10
13.6324751044
 20
9.3921234051
 30
0.0
 10
13.6325160184
 20
9.3921942245
 30
0.0
  0
SPLINE
  5
578
100
AcDbEntity
  8
0
100
AcDbSpline
 62
9
  6
CONTINUOUS
 70
0
 71
3
 72
11
 73
7
 74
0
 42
0.0000001
 43
0.0000001
 44
0.0000000001
 40
0.0
 40
0.0
 40
0.0
 40
0.0
 40
0.2468840978
 40
0.4940083367
 40
0.7446439877
 40
1.0
 40
1.0
 40
1.0
 40
1.0
 10
15.4507125887
 20
8.8332198209
 30
0.0
 10
15.4509848709
 20
8.8340418946
 30
0.0
 10
15.4513651618
 20
8.8357458418
 30
0.0
 10
15.451451124
 20
8.8383692809
 30
0.0
 10
15.451097875
 20
8.840997965
 30
0.0
 10
15.4506027747
 20
8.8427093831
 30
0.0
 10
15.450297706
 20
8.8435515398
 30
0.0
  0
SPLINE
  5
579
100
AcDbEntity
  8
0
100
AcDbSpline
 62
9
  6
CONTINUOUS
 70
0
 71
3
 72
14
 73
10
 74
0
 42
0.0000001
 43
0.0000001
 44
0.0000000001
 40
0.0
 40
0.0
 40
0.0
 40
0.0
 40
0.2662425579
 40
0.3969636698
 40
0.5254538747
 40
0.6512271117
 40
0.7730957816
 40
0.8899702536
 40
1.0
 40
1.0
 40
1.0
 40
1.0
 10
14.6446071176
 20
8.8442522476
 30
0.0
 10
14.6434286346
 20
8.8517374789
 30
0.0
 10
14.6413889657
 20
8.8628622955
 30
0.0
 10
14.6377301437
 20
8.8773682297
 30
0.0
 10
14.6344747237
 20
8.8878370771
 30
0.0
 10
14.6306294427
 20
8.8978380493
 30
0.0
 10
14.626042433
 20
8.9071655463
 30
0.0
 10
14.6206162012
 20
8.9155077217
 30
0.0
 10
14.6163201471
 20
8.9203784399
 30
0.0
 10
14.6140285796
 20
8.9225127123
 30
0.0
  0
SPLINE
  5
57A
100
AcDbEntity
  8
0
100
AcDbSpline
 62
9
  6
CONTINUOUS
 70
0
 71
3
 72
16
 73
12
 74
0
 42
0.0000001
 43
0.0000001
 44
0.0000000001
 40
0.0
 40
0.0
 40
0.0
 40
0.0
 40
0.0531705937
 40
0.1088006641
 40
0.1666287457
 40
0.2261920577
 40
0.3488851538
 40
0.4755422582
 40
0.604742107
 40
0.7356721019
 40
1.0
 40
1.0
 40
1.0
 40
1.0
 10
14.7615572144
 20
9.1780389298
 30
0.0
 10
14.7635893994
 20
9.1774166159
 30
0.0
 10
14.76783768
 20
9.1764270999
 30
0.0
 10
14.7744611575
 20
9.175636505
 30
0.0
 10
14.781383015
 20
9.175447158
 30
0.0
 10
14.7909754199
 20
9.1759298676
 30
0.0
 10
14.803211395
 20
9.1778073163
 30
0.0
 10
14.817897921
 20
9.18149905
 30
0.0
 10
14.8326417325
 20
9.1861778308
 30
0.0
 10
14.8522966048
 20
9.1934832732
 30
0.0
 10
14.8667927734
 20
9.1998056192
 30
0.0
 10
14.8763450505
 20
9.2043209671
 30
0.0
  0
SPLINE
  5
57B
100
AcDbEntity
  8
0
100
AcDbSpline
 62
9
  6
CONTINUOUS
 70
0
 71
3
 72
14
 73
10
 74
0
 42
0.0000001
 43
0.0000001
 44
0.0000000001
 40
0.0
 40
0.0
 40
0.0
 40
0.0
 40
0.0587749547
 40
0.1277702105
 40
0.2135811154
 40
0.320318032
 40
0.4506308658
 40
0.6064107175
 40
1.0
 40
1.0
 40
1.0
 40
1.0
 10
14.6473188102
 20
8.842702465
 30
0.0
 10
14.6473188921
 20
8.8427662543
 30
0.0
 10
14.647287178
 20
8.8429057957
 30
0.0
 10
14.6471563101
 20
8.8431010807
 30
0.0
 10
14.6469456693
 20
8.8432938801
 30
0.0
 10
14.6466520261
 20
8.8434868779
 30
0.0
 10
14.64627172
 20
8.8436809049
 30
0.0
 10
14.6455895061
 20
8.8439628889
 30
0.0
 10
14.6450183093
 20
8.8441384019
 30
0.0
 10
14.6446064836
 20
8.8442518567
 30
0.0
  0
SPLINE
  5
57C
100
AcDbEntity
  8
0
100
AcDbSpline
 62
9
  6
CONTINUOUS
 70
0
 71
3
 72
23
 73
19
 74
0
 42
0.0000001
 43
0.0000001
 44
0.0000000001
 40
0.0
 40
0.0
 40
0.0
 40
0.0
 40
0.2007669132
 40
0.3907269516
 40
0.5631424104
 40
0.641065602
 40
0.7126317572
 40
0.7772667773
 40
0.8343971249
 40
0.8835456393
 40
0.9243674362
 40
0.9565382632
 40
0.9798130356
 40
0.9880903578
 40
0.994134356
 40
0.9963341461
 40
0.9980072565
 40
1.0
 40
1.0
 40
1.0
 40
1.0
 10
13.6661605008
 20
9.3671857823
 30
0.0
 10
13.6651499648
 20
9.3650632062
 30
0.0
 10
13.6631622536
 20
9.3609423275
 30
0.0
 10
13.6602747269
 20
9.3550141637
 30
0.0
 10
13.6580046373
 20
9.3503851155
 30
0.0
 10
13.6563057094
 20
9.3470203491
 30
0.0
 10
13.6551567318
 20
9.3447918218
 30
0.0
 10
13.6541057024
 20
9.3427867944
 30
0.0
 10
13.6531681391
 20
9.3410186952
 30
0.0
 10
13.6523538603
 20
9.3395008559
 30
0.0
 10
13.6516637238
 20
9.3382481176
 30
0.0
 10
13.6510973998
 20
9.3372733085
 30
0.0
 10
13.6506968318
 20
9.3366433691
 30
0.0
 10
13.6504350229
 20
9.3362887191
 30
0.0
 10
13.6503107905
 20
9.3361409942
 30
0.0
 10
13.6502248488
 20
9.3360607672
 30
0.0
 10
13.6501721776
 20
9.3360208921
 30
0.0
 10
13.6501240304
 20
9.3360015607
 30
0.0
 10
13.6501030073
 20
9.3360116848
 30
0.0
  0
SPLINE
  5
57D
100
AcDbEntity
  8
0
100
AcDbSpline
 62
9
  6
CONTINUOUS
 70
0
 71
3
 72
9
 73
5
 74
0
 42
0.0000001
 43
0.0000001
 44
0.0000000001
 40
0.0
 40
0.0
 40
0.0
 40
0.0
 40
0.2527098759
 40
1.0
 40
1.0
 40
1.0
 40
1.0
 10
14.6446068553
 20
8.8442510443
 30
0.0
 10
14.6444806972
 20
8.843938717
 30
0.0
 10
14.6440114185
 20
8.8426910627
 30
0.0
 10
14.6436663156
 20
8.8413955768
 30
0.0
 10
14.6434928107
 20
8.8404147191
 30
0.0
  0
SPLINE
  5
57E
100
AcDbEntity
  8
0
100
AcDbSpline
 62
9
  6
CONTINUOUS
 70
0
 71
3
 72
9
 73
5
 74
0
 42
0.0000001
 43
0.0000001
 44
0.0000000001
 40
0.0
 40
0.0
 40
0.0
 40
0.0
 40
0.2523087705
 40
1.0
 40
1.0
 40
1.0
 40
1.0
 10
14.6434928107
 20
8.8404147191
 30
0.0
 10
14.6434385435
 20
8.8401079358
 30
0.0
 10
14.6432559173
 20
8.8388866663
 30
0.0
 10
14.6432097583
 20
8.8376437805
 30
0.0
 10
14.6432633291
 20
8.8367221013
 30
0.0
  0
SPLINE
  5
57F
100
AcDbEntity
  8
0
100
AcDbSpline
 62
9
  6
CONTINUOUS
 70
0
 71
3
 72
9
 73
5
 74
0
 42
0.0000001
 43
0.0000001
 44
0.0000000001
 40
0.0
 40
0.0
 40
0.0
 40
0.0
 40
0.7487796986
 40
1.0
 40
1.0
 40
1.0
 40
1.0
 10
14.6432633291
 20
8.8367221013
 30
0.0
 10
14.6433150303
 20
8.8358325893
 30
0.0
 10
14.6434948065
 20
8.834645937
 30
0.0
 10
14.6438301824
 20
8.8335036985
 30
0.0
 10
14.6439241746
 20
8.8332199188
 30
0.0
  0
SPLINE
  5
580
100
AcDbEntity
  8
0
100
AcDbSpline
 62
9
  6
CONTINUOUS
 70
0
 71
3
 72
23
 73
19
 74
0
 42
0.0000001
 43
0.0000001
 44
0.0000000001
 40
0.0
 40
0.0
 40
0.0
 40
0.0
 40
0.1887939862
 40
0.3719825988
 40
0.5416526022
 40
0.619368962
 40
0.6913335753
 40
0.756863564
 40
0.8152904941
 40
0.8660699196
 40
0.9088276494
 40
0.9432632609
 40
0.9573252962
 40
0.9693230173
 40
0.9793400436
 40
0.9875370166
 40
0.9942273744
 40
1.0
 40
1.0
 40
1.0
 40
1.0
 10
16.1921126734
 20
9.776579503
 30
0.0
 10
16.1944225503
 20
9.7779283997
 30
0.0
 10
16.1990099421
 20
9.7805245684
 30
0.0
 10
16.2057802804
 20
9.7841394935
 30
0.0
 10
16.2112356623
 20
9.7868721741
 30
0.0
 10
16.2153314737
 20
9.788795444
 30
0.0
 10
16.2181160794
 20
9.7900383264
 30
0.0
 10
16.2206758591
 20
9.7911128692
 30
0.0
 10
16.2229845498
 20
9.7920078036
 30
0.0
 10
16.2250190446
 20
9.7927146011
 30
0.0
 10
16.2267588026
 20
9.7932274491
 30
0.0
 10
16.2280228896
 20
9.7935090905
 30
0.0
 10
16.2288735589
 20
9.7936190714
 30
0.0
 10
16.2293847325
 20
9.7936448967
 30
0.0
 10
16.2298132476
 20
9.7936205407
 30
0.0
 10
16.2301600713
 20
9.7935453232
 30
0.0
 10
16.2304273593
 20
9.7934162804
 30
0.0
 10
16.2305519395
 20
9.793283058
 30
0.0
 10
16.2305928138
 20
9.7932122157
 30
0.0
  0
SPLINE
  5
581
100
AcDbEntity
  8
0
100
AcDbSpline
 62
9
  6
CONTINUOUS
 70
0
 71
3
 72
14
 73
10
 74
0
 42
0.0000001
 43
0.0000001
 44
0.0000000001
 40
0.0
 40
0.0
 40
0.0
 40
0.0
 40
0.0620735988
 40
0.1347254256
 40
0.2244634425
 40
0.3345746553
 40
0.4666403771
 40
0.6214072701
 40
1.0
 40
1.0
 40
1.0
 40
1.0
 10
15.4473179712
 20
8.8427023215
 30
0.0
 10
15.4473178667
 20
8.8427696778
 30
0.0
 10
15.4473535435
 20
8.8429167617
 30
0.0
 10
15.4474962527
 20
8.8431183816
 30
0.0
 10
15.4477197288
 20
8.8433145001
 30
0.0
 10
15.4480244578
 20
8.8435082326
 30
0.0
 10
15.4484105423
 20
8.8437004031
 30
0.0
 10
15.4490798574
 20
8.8439725245
 30
0.0
 10
15.4496342124
 20
8.8441427181
 30
0.0
 10
15.45003027
 20
8.8442518297
 30
0.0
  0
SPLINE
  5
582
100
AcDbEntity
  8
0
100
AcDbSpline
 62
9
  6
CONTINUOUS
 70
0
 71
3
 72
24
 73
20
 74
0
 42
0.0000001
 43
0.0000001
 44
0.0000000001
 40
0.0
 40
0.0
 40
0.0
 40
0.0
 40
0.2007748058
 40
0.3907503845
 40
0.4795249287
 40
0.5632198832
 40
0.6411530152
 40
0.7127087513
 40
0.7773261218
 40
0.8344527691
 40
0.8836279448
 40
0.9244927447
 40
0.9566933031
 40
0.9799566543
 40
0.9882100222
 40
0.9942180269
 40
0.9963955837
 40
0.9980447231
 40
1.0
 40
1.0
 40
1.0
 40
1.0
 10
15.283680795
 20
7.3843438116
 30
0.0
 10
15.286024164
 20
7.3845299412
 30
0.0
 10
15.2905850267
 20
7.3848902494
 30
0.0
 10
15.296185728
 20
7.3852848381
 30
0.0
 10
15.3004213595
 20
7.385545804
 30
0.0
 10
15.3033482113
 20
7.385716289
 30
0.0
 10
15.3060739932
 20
7.3858716692
 30
0.0
 10
15.3085770444
 20
7.3860094988
 30
0.0
 10
15.3108375364
 20
7.3861212093
 30
0.0
 10
15.312837307
 20
7.3861982192
 30
0.0
 10
15.3145600113
 20
7.3862376705
 30
0.0
 10
15.3159912952
 20
7.3862472699
 30
0.0
 10
15.3171191399
 20
7.3862318745
 30
0.0
 10
15.3178647185
 20
7.3862037951
 30
0.0
 10
15.3183026377
 20
7.3861619992
 30
0.0
 10
15.3184924381
 20
7.3861331351
 30
0.0
 10
15.3186048584
 20
7.3861021637
 30
0.0
 10
15.318665561
 20
7.3860788228
 30
0.0
 10
15.3187064749
 20
7.3860477078
 30
0.0
 10
15.3187081864
 20
7.3860248787
 30
0.0
  0
SPLINE
  5
583
100
AcDbEntity
  8
0
100
AcDbSpline
 62
9
  6
CONTINUOUS
 70
0
 71
3
 72
18
 73
14
 74
0
 42
0.0000001
 43
0.0000001
 44
0.0000000001
 40
0.0
 40
0.0
 40
0.0
 40
0.0
 40
0.1703878573
 40
0.3423136535
 40
0.5082151249
 40
0.6599468318
 40
0.7892620842
 40
0.8436656421
 40
0.8906916182
 40
0.9299535552
 40
0.9611181166
 40
0.9843258351
 40
1.0
 40
1.0
 40
1.0
 40
1.0
 10
15.1952301157
 20
8.4216072663
 30
0.0
 10
15.1973097561
 20
8.4217751891
 30
0.0
 10
15.2014887537
 20
8.4221009487
 30
0.0
 10
15.2076957744
 20
8.4225488726
 30
0.0
 10
15.213677838
 20
8.4229385081
 30
0.0
 10
15.219141945
 20
8.4232497934
 30
0.0
 10
15.2232453606
 20
8.4234388961
 30
0.0
 10
15.2260693346
 20
8.4235321556
 30
0.0
 10
15.2277917291
 20
8.423571112
 30
0.0
 10
15.2292298901
 20
8.4235837395
 30
0.0
 10
15.2303766395
 20
8.4235710095
 30
0.0
 10
15.2312334216
 20
8.4235336319
 30
0.0
 10
15.2317083437
 20
8.4234891468
 30
0.0
 10
15.2318974937
 20
8.4234565924
 30
0.0
  0
LINE
  5
584
100
AcDbEntity
  8
0
100
AcDbLine
 62
9
  6
CONTINUOUS
 10
15.2318974937
 20
8.4234565924
 11
15.2322685295
 21
8.4233003195
  0
SPLINE
  5
585
100
AcDbEntity
  8
0
100
AcDbSpline
 62
9
  6
CONTINUOUS
 70
0
 71
3
 72
23
 73
19
 74
0
 42
0.0000001
 43
0.0000001
 44
0.0000000001
 40
0.0
 40
0.0
 40
0.0
 40
0.0
 40
0.1887905809
 40
0.3719742456
 40
0.5416394206
 40
0.6193549977
 40
0.6913204163
 40
0.7568514748
 40
0.8152781714
 40
0.8660564152
 40
0.9088122995
 40
0.9432460955
 40
0.9573087999
 40
0.9693085679
 40
0.9793286378
 40
0.9875292789
 40
0.994223559
 40
1.0
 40
1.0
 40
1.0
 40
1.0
 10
15.2836819032
 20
7.3843438297
 30
0.0
 10
15.2836951445
 20
7.3816690211
 30
0.0
 10
15.283649499
 20
7.3763982644
 30
0.0
 10
15.2833949267
 20
7.3687277237
 30
0.0
 10
15.2830343591
 20
7.3626370065
 30
0.0
 10
15.2826519129
 20
7.3581283783
 30
0.0
 10
15.2823356685
 20
7.3550954178
 30
0.0
 10
15.2819860829
 20
7.3523413284
 30
0.0
 10
15.281606763
 20
7.3498944901
 30
0.0
 10
15.2812019569
 20
7.3477791568
 30
0.0
 10
15.2807766597
 20
7.3460160263
 30
0.0
 10
15.2803887835
 20
7.344780434
 30
0.0
 10
15.2800587632
 20
7.3439887002
 30
0.0
 10
15.2798255312
 20
7.343533012
 30
0.0
 10
15.2795901224
 20
7.3431739748
 30
0.0
 10
15.279351474
 20
7.3429111087
 30
0.0
 10
15.2791059524
 20
7.3427440471
 30
0.0
 10
15.2789281891
 20
7.3427027108
 30
0.0
 10
15.2788463467
 20
7.3427027143
 30
0.0
  0
SPLINE
  5
586
100
AcDbEntity
  8
0
100
AcDbSpline
 62
9
  6
CONTINUOUS
 70
0
 71
3
 72
23
 73
19
 74
0
 42
0.0000001
 43
0.0000001
 44
0.0000000001
 40
0.0
 40
0.0
 40
0.0
 40
0.0
 40
0.2007669134
 40
0.3907269518
 40
0.5631424107
 40
0.6410656024
 40
0.7126317577
 40
0.7772667778
 40
0.8343971253
 40
0.8835456396
 40
0.9243674365
 40
0.9565382634
 40
0.9798130358
 40
0.9880903581
 40
0.9941343562
 40
0.9963341462
 40
0.9980072566
 40
1.0
 40
1.0
 40
1.0
 40
1.0
 10
16.1921126264
 20
9.7765794603
 30
0.0
 10
16.1907796895
 20
9.7785158982
 30
0.0
 10
16.1882047595
 20
9.7822977459
 30
0.0
 10
16.1845145824
 20
9.7877624994
 30
0.0
 10
16.1816407538
 20
9.7920429787
 30
0.0
 10
16.1795762446
 20
9.7951966766
 30
0.0
 10
16.1782207721
 20
9.7973059841
 30
0.0
 10
16.1770098822
 20
9.7992187159
 30
0.0
 10
16.175947445
 20
9.8009147192
 30
0.0
 10
16.175040097
 20
9.802378825
 30
0.0
 10
16.1743002621
 20
9.8036028698
 30
0.0
 10
16.1737392146
 20
9.8045807254
 30
0.0
 10
16.1733939551
 20
9.8052425972
 30
0.0
 10
16.1732177236
 20
9.8056466553
 30
0.0
 10
16.1731519063
 20
9.8058281061
 30
0.0
 10
16.1731253985
 20
9.8059426473
 30
0.0
 10
16.1731172013
 20
9.8060081995
 30
0.0
 10
16.1731245334
 20
9.8060595618
 30
0.0
 10
16.1731438126
 20
9.8060727063
 30
0.0
  0
SPLINE
  5
587
100
AcDbEntity
  8
0
100
AcDbSpline
 62
9
  6
CONTINUOUS
 70
0
 71
3
 72
18
 73
14
 74
0
 42
0.0000001
 43
0.0000001
 44
0.0000000001
 40
0.0
 40
0.0
 40
0.0
 40
0.0
 40
0.170387085
 40
0.3423121349
 40
0.508213007
 40
0.6599443959
 40
0.7892597186
 40
0.8436634512
 40
0.8906896994
 40
0.9299520118
 40
0.9611170416
 40
0.9843252787
 40
1.0
 40
1.0
 40
1.0
 40
1.0
 10
15.3380420975
 20
9.1813463006
 30
0.0
 10
15.3368568585
 20
9.183063351
 30
0.0
 10
15.3344852566
 20
9.1865195702
 30
0.0
 10
15.3309938508
 20
9.1916710187
 30
0.0
 10
15.3276653992
 20
9.1966567974
 30
0.0
 10
15.3246637729
 20
9.2012331962
 30
0.0
 10
15.3224482991
 20
9.2046923018
 30
0.0
 10
15.320955544
 20
9.2070913073
 30
0.0
 10
15.3200606041
 20
9.2085634729
 30
0.0
 10
15.3193305803
 20
9.2098026526
 30
0.0
 10
15.3187682208
 20
9.2108021442
 30
0.0
 10
15.3183721889
 20
9.2115628428
 30
0.0
 10
15.3181732455
 20
9.2119963902
 30
0.0
 10
15.3181068587
 20
9.2121764815
 30
0.0
  0
LINE
  5
588
100
AcDbEntity
  8
0
100
AcDbLine
 62
9
  6
CONTINUOUS
 10
15.3181068587
 20
9.2121764815
 11
15.3180566635
 21
9.2125759811
  0
SPLINE
  5
589
100
AcDbEntity
  8
0
100
AcDbSpline
 62
9
  6
CONTINUOUS
 70
0
 71
3
 72
14
 73
10
 74
0
 42
0.0000001
 43
0.0000001
 44
0.0000000001
 40
0.0
 40
0.0
 40
0.0
 40
0.0
 40
0.0300502475
 40
0.0802369732
 40
0.1571160302
 40
0.2630074608
 40
0.3992606583
 40
0.5669153406
 40
1.0
 40
1.0
 40
1.0
 40
1.0
 10
14.8623681476
 20
8.4233003192
 30
0.0
 10
14.8623689764
 20
8.4233188171
 30
0.0
 10
14.8624038069
 20
8.4233624666
 30
0.0
 10
14.8624928054
 20
8.4233996772
 30
0.0
 10
14.8626315511
 20
8.4234388457
 30
0.0
 10
14.8628253736
 20
8.4234721184
 30
0.0
 10
14.8630761442
 20
8.4235024688
 30
0.0
 10
14.8635288001
 20
8.423539735
 30
0.0
 10
14.8638987977
 20
8.4235550405
 30
0.0
 10
14.8641655409
 20
8.4235629036
 30
0.0
  0
SPLINE
  5
58A
100
AcDbEntity
  8
0
100
AcDbSpline
 62
9
  6
CONTINUOUS
 70
0
 71
3
 72
14
 73
10
 74
0
 42
0.0000001
 43
0.0000001
 44
0.0000000001
 40
0.0
 40
0.0
 40
0.0
 40
0.0
 40
0.0623174207
 40
0.1496184158
 40
0.2597987826
 40
0.3899581198
 40
0.5347472784
 40
0.6883181452
 40
1.0
 40
1.0
 40
1.0
 40
1.0
 10
14.8641655409
 20
8.4235629036
 30
0.0
 10
14.8648985739
 20
8.4235845122
 30
0.0
 10
14.8666598773
 20
8.4235803554
 30
0.0
 10
14.8697161764
 20
8.4235026516
 30
0.0
 10
14.8735687622
 20
8.4233436586
 30
0.0
 10
14.8780947558
 20
8.4231058744
 30
0.0
 10
14.8831283901
 20
8.4228008088
 30
0.0
 10
14.8902911212
 20
8.4223176478
 30
0.0
 10
14.8957505833
 20
8.4219024723
 30
0.0
 10
14.8994065566
 20
8.4216072667
 30
0.0
  0
SPLINE
  5
58B
100
AcDbEntity
  8
0
100
AcDbSpline
 62
9
  6
CONTINUOUS
 70
0
 71
3
 72
14
 73
10
 74
0
 42
0.0000001
 43
0.0000001
 44
0.0000000001
 40
0.0
 40
0.0
 40
0.0
 40
0.0
 40
0.0300502524
 40
0.0802369863
 40
0.1571160498
 40
0.263007484
 40
0.3992606815
 40
0.5669153601
 40
1.0
 40
1.0
 40
1.0
 40
1.0
 10
15.5030068548
 20
8.8922328537
 30
0.0
 10
15.5029904207
 20
8.8922243226
 30
0.0
 10
15.5029352038
 20
8.8922326619
 30
0.0
 10
15.5028584793
 20
8.8922911316
 30
0.0
 10
15.5027551856
 20
8.8923917047
 30
0.0
 10
15.5026294592
 20
8.8925429235
 30
0.0
 10
15.5024777898
 20
8.892744922
 30
0.0
 10
15.5022191884
 20
8.8931183005
 30
0.0
 10
15.5020209346
 20
8.893431075
 30
0.0
 10
15.5018807533
 20
8.8936581498
 30
0.0
  0
SPLINE
  5
58C
100
AcDbEntity
  8
0
100
AcDbSpline
 62
9
  6
CONTINUOUS
 70
0
 71
3
 72
14
 73
10
 74
0
 42
0.0000001
 43
0.0000001
 44
0.0000000001
 40
0.0
 40
0.0
 40
0.0
 40
0.0
 40
0.0623174206
 40
0.1496184158
 40
0.2597987826
 40
0.3899581199
 40
0.5347472785
 40
0.6883181454
 40
1.0
 40
1.0
 40
1.0
 40
1.0
 10
15.5018807533
 20
8.8936581498
 30
0.0
 10
15.5014955232
 20
8.8942821707
 30
0.0
 10
15.5006184714
 20
8.8958095826
 30
0.0
 10
15.4991576154
 20
8.8984952672
 30
0.0
 10
15.4973690144
 20
8.9019112009
 30
0.0
 10
15.4953119448
 20
8.9059497184
 30
0.0
 10
15.4930593222
 20
8.9104615064
 30
0.0
 10
15.4898963864
 20
8.916906194
 30
0.0
 10
15.4875262079
 20
8.9218418146
 30
0.0
 10
15.4859538767
 20
8.9251555832
 30
0.0
  0
SPLINE
  5
58D
100
AcDbEntity
  8
0
100
AcDbSpline
 62
9
  6
CONTINUOUS
 70
0
 71
3
 72
24
 73
20
 74
0
 42
0.0000001
 43
0.0000001
 44
0.0000000001
 40
0.0
 40
0.0
 40
0.0
 40
0.0
 40
0.0020149008
 40
0.0035627005
 40
0.0055646179
 40
0.0110526386
 40
0.0186438472
 40
0.0284364497
 40
0.04051064
 40
0.0717904082
 40
0.1128622683
 40
0.1633897955
 40
0.2228543056
 40
0.29073309
 40
0.3663547018
 40
0.448458709
 40
0.6264782084
 40
0.8137300124
 40
1.0
 40
1.0
 40
1.0
 40
1.0
 10
15.4991908279
 20
8.8903338389
 30
0.0
 10
15.4991686767
 20
8.8903222182
 30
0.0
 10
15.4991183964
 20
8.8903318502
 30
0.0
 10
15.4990596051
 20
8.8903653278
 30
0.0
 10
15.4989686878
 20
8.890432654
 30
0.0
 10
15.4988354788
 20
8.8905644115
 30
0.0
 10
15.498648919
 20
8.8907787754
 30
0.0
 10
15.4984233378
 20
8.8910667287
 30
0.0
 10
15.4980338009
 20
8.8915993717
 30
0.0
 10
15.4974473545
 20
8.8924684136
 30
0.0
 10
15.4966274379
 20
8.8937549113
 30
0.0
 10
15.4956471873
 20
8.8953538367
 30
0.0
 10
15.4945167009
 20
8.897250763
 30
0.0
 10
15.4932481748
 20
8.8994279398
 30
0.0
 10
15.4918579469
 20
8.9018593752
 30
0.0
 10
15.4898123538
 20
8.9054910772
 30
0.0
 10
15.487126267
 20
8.9103524594
 30
0.0
 10
15.4838666757
 20
8.91637408
 30
0.0
 10
15.4816879096
 20
8.9204675431
 30
0.0
 10
15.4806081984
 20
8.9225124807
 30
0.0
  0
SPLINE
  5
58E
100
AcDbEntity
  8
0
100
AcDbSpline
 62
9
  6
CONTINUOUS
 70
0
 71
3
 72
24
 73
20
 74
0
 42
0.0000001
 43
0.0000001
 44
0.0000000001
 40
0.0
 40
0.0
 40
0.0
 40
0.0
 40
0.1862704871
 40
0.3735223377
 40
0.5515415466
 40
0.6336453489
 40
0.7092667572
 40
0.7771453668
 40
0.8366097458
 40
0.8871371978
 40
0.9282090503
 40
0.9594888861
 40
0.9715631354
 40
0.9813558111
 40
0.9889471049
 40
0.99443522
 40
0.996437186
 40
0.9979850329
 40
1.0
 40
1.0
 40
1.0
 40
1.0
 10
15.1948466986
 20
8.4275585335
 30
0.0
 10
15.1971575016
 20
8.4276459398
 30
0.0
 10
15.2017918808
 20
8.4278057942
 30
0.0
 10
15.2086364767
 20
8.4279937007
 30
0.0
 10
15.2141895306
 20
8.4280981606
 30
0.0
 10
15.2183574162
 20
8.4281424675
 30
0.0
 10
15.2211581751
 20
8.4281542069
 30
0.0
 10
15.2236778929
 20
8.4281442147
 30
0.0
 10
15.225885892
 20
8.428113644
 30
0.0
 10
15.2277607028
 20
8.4280641817
 30
0.0
 10
15.2292847827
 20
8.4279973597
 30
0.0
 10
15.2303306074
 20
8.4279240019
 30
0.0
 10
15.2309866529
 20
8.4278529741
 30
0.0
 10
15.2313488168
 20
8.4278015914
 30
0.0
 10
15.2316277411
 20
8.4277472078
 30
0.0
 10
15.2318084516
 20
8.4276977241
 30
0.0
 10
15.2319122177
 20
8.427652651
 30
0.0
 10
15.2319706072
 20
8.427618475
 30
0.0
 10
15.2320040909
 20
8.4275797481
 30
0.0
 10
15.2320051043
 20
8.4275547538
 30
0.0
  0
SPLINE
  5
58F
100
AcDbEntity
  8
0
100
AcDbSpline
 62
9
  6
CONTINUOUS
 70
0
 71
3
 72
14
 73
10
 74
0
 42
0.0000001
 43
0.0000001
 44
0.0000000001
 40
0.0
 40
0.0
 40
0.0
 40
0.0
 40
0.0322661432
 40
0.0839785509
 40
0.1616636898
 40
0.2677470164
 40
0.4036283061
 40
0.5703674704
 40
1.0
 40
1.0
 40
1.0
 40
1.0
 10
14.8626315714
 20
8.4275547372
 30
0.0
 10
14.8626323834
 20
8.4275747642
 30
0.0
 10
14.8626656001
 20
8.427622286
 30
0.0
 10
14.86275483
 20
8.4276684235
 30
0.0
 10
14.8628932483
 20
8.4277173862
 30
0.0
 10
14.8630865668
 20
8.4277633325
 30
0.0
 10
14.8633364745
 20
8.4278085872
 30
0.0
 10
14.863787064
 20
8.4278714288
 30
0.0
 10
14.86415604
 20
8.4279064326
 30
0.0
 10
14.8644220326
 20
8.4279282311
 30
0.0
  0
SPLINE
  5
590
100
AcDbEntity
  8
0
100
AcDbSpline
 62
9
  6
CONTINUOUS
 70
0
 71
3
 72
14
 73
10
 74
0
 42
0.0000001
 43
0.0000001
 44
0.0000000001
 40
0.0
 40
0.0
 40
0.0
 40
0.0
 40
0.062378872
 40
0.1497422583
 40
0.2599756322
 40
0.3901725643
 40
0.5349758909
 40
0.6885210923
 40
1.0
 40
1.0
 40
1.0
 40
1.0
 10
14.8644220326
 20
8.4279282311
 30
0.0
 10
14.8651552372
 20
8.4279883183
 30
0.0
 10
14.8669199528
 20
8.4280717473
 30
0.0
 10
14.8699851822
 20
8.4281397073
 30
0.0
 10
14.8738511791
 20
8.4281589572
 30
0.0
 10
14.878394343
 20
8.4281260175
 30
0.0
 10
14.8834477933
 20
8.4280451686
 30
0.0
 10
14.8906378377
 20
8.427876769
 30
0.0
 10
14.8961193008
 20
8.4276973548
 30
0.0
 10
14.8997900894
 20
8.4275585059
 30
0.0
  0
SPLINE
  5
591
100
AcDbEntity
  8
0
100
AcDbSpline
 62
9
  6
CONTINUOUS
 70
0
 71
3
 72
16
 73
12
 74
0
 42
0.0000001
 43
0.0000001
 44
0.0000000001
 40
0.0
 40
0.0
 40
0.0
 40
0.0
 40
0.2642056455
 40
0.3950639589
 40
0.5242392002
 40
0.6508859811
 40
0.7736029938
 40
0.8331994816
 40
0.8910734329
 40
0.9467603987
 40
1.0
 40
1.0
 40
1.0
 40
1.0
 10
15.2750012371
 20
8.5138263386
 30
0.0
 10
15.2663187226
 20
8.5078143021
 30
0.0
 10
15.2536009476
 20
8.498426934
 30
0.0
 10
15.2374534806
 20
8.4850637523
 30
0.0
 10
15.226032011
 20
8.4746384312
 30
0.0
 10
15.2154905901
 20
8.4637670433
 30
0.0
 10
15.2077439305
 20
8.4541090375
 30
0.0
 10
15.2025248455
 20
8.4460413998
 30
0.0
 10
15.1992233398
 20
8.4399485037
 30
0.0
 10
15.1965923635
 20
8.4338112778
 30
0.0
 10
15.1953239705
 20
8.4296324257
 30
0.0
 10
15.1948467294
 20
8.4275585395
 30
0.0
  0
SPLINE
  5
592
100
AcDbEntity
  8
0
100
AcDbSpline
 62
9
  6
CONTINUOUS
 70
0
 71
3
 72
16
 73
12
 74
0
 42
0.0000001
 43
0.0000001
 44
0.0000000001
 40
0.0
 40
0.0
 40
0.0
 40
0.0
 40
0.0531705737
 40
0.108801545
 40
0.1666314817
 40
0.2261974521
 40
0.3488962939
 40
0.4755538433
 40
0.6047450243
 40
0.7356652227
 40
1.0
 40
1.0
 40
1.0
 40
1.0
 10
14.8997901908
 20
8.4275585095
 30
0.0
 10
14.899313028
 20
8.4296295673
 30
0.0
 10
14.8980457342
 20
8.4338034149
 30
0.0
 10
14.8954184112
 20
8.4399347552
 30
0.0
 10
14.8921211421
 20
8.446023934
 30
0.0
 10
14.8869064763
 20
8.4540899511
 30
0.0
 10
14.8791624166
 20
8.4637480558
 30
0.0
 10
14.8686224195
 20
8.47462115
 30
0.0
 10
14.8571993804
 20
8.4850498887
 30
0.0
 10
14.8410457806
 20
8.4984184153
 30
0.0
 10
14.8283224876
 20
8.5078109869
 30
0.0
 10
14.8196358596
 20
8.5138260212
 30
0.0
  0
SPLINE
  5
593
100
AcDbEntity
  8
0
100
AcDbSpline
 62
9
  6
CONTINUOUS
 70
0
 71
3
 72
14
 73
10
 74
0
 42
0.0000001
 43
0.0000001
 44
0.0000000001
 40
0.0
 40
0.0
 40
0.0
 40
0.0
 40
0.0322663527
 40
0.0839788778
 40
0.1616640764
 40
0.2677474191
 40
0.4036286825
 40
0.570367775
 40
1.0
 40
1.0
 40
1.0
 40
1.0
 10
6.7801328646
 20
9.2102205593
 30
0.0
 10
6.7801498025
 20
9.2102098426
 30
0.0
 10
6.7801743494
 20
9.2101573159
 30
0.0
 10
6.7801696913
 20
9.2100569726
 30
0.0
 10
6.780142886
 20
9.2099126188
 30
0.0
 10
6.7800860187
 20
9.2097222287
 30
0.0
 10
6.7800002583
 20
9.2094831773
 30
0.0
 10
6.7798293893
 20
9.2090615387
 30
0.0
 10
6.7796752181
 20
9.2087244977
 30
0.0
 10
6.7795611018
 20
9.2084832446
 30
0.0
  0
SPLINE
  5
594
100
AcDbEntity
  8
0
100
AcDbSpline
 62
9
  6
CONTINUOUS
 70
0
 71
3
 72
14
 73
10
 74
0
 42
0.0000001
 43
0.0000001
 44
0.0000000001
 40
0.0
 40
0.0
 40
0.0
 40
0.0
 40
0.0623787187
 40
0.1497419054
 40
0.2599750674
 40
0.390171818
 40
0.5349750574
 40
0.6885203318
 40
1.0
 40
1.0
 40
1.0
 40
1.0
 10
6.7795611018
 20
9.2084832446
 30
0.0
 10
6.7792465417
 20
9.2078182335
 30
0.0
 10
6.7784364478
 20
9.2062482453
 30
0.0
 10
6.7769627093
 20
9.2035597237
 30
0.0
 10
6.7750464079
 20
9.2002020773
 30
0.0
 10
6.7727463288
 20
9.1962840847
 30
0.0
 10
6.7701496173
 20
9.1919481257
 30
0.0
 10
6.7664087946
 20
9.1858056008
 30
0.0
 10
6.763512713
 20
9.1811482465
 30
0.0
 10
6.7615570892
 20
9.1780386894
 30
0.0
  0
SPLINE
  5
595
100
AcDbEntity
  8
0
100
AcDbSpline
 62
9
  6
CONTINUOUS
 70
0
 71
3
 72
24
 73
20
 74
0
 42
0.0000001
 43
0.0000001
 44
0.0000000001
 40
0.0
 40
0.0
 40
0.0
 40
0.0
 40
0.186269729
 40
0.3735212707
 40
0.5515405565
 40
0.633644492
 40
0.7092660648
 40
0.7771448482
 40
0.8366093953
 40
0.8871369962
 40
0.9282089651
 40
0.9594888749
 40
0.971563146
 40
0.9813558347
 40
0.9889471333
 40
0.9944352456
 40
0.9964372074
 40
0.9979850485
 40
1.0
 40
1.0
 40
1.0
 40
1.0
 10
6.6140284853
 20
8.9225124659
 30
0.0
 10
6.6129487758
 20
8.9204675321
 30
0.0
 10
6.6107700131
 20
8.9163740764
 30
0.0
 10
6.6075104269
 20
8.9103524664
 30
0.0
 10
6.604824344
 20
8.9054910922
 30
0.0
 10
6.6027787536
 20
8.9018593951
 30
0.0
 10
6.6013885268
 20
8.899427962
 30
0.0
 10
6.6001200012
 20
8.897250786
 30
0.0
 10
6.5989895146
 20
8.8953538592
 30
0.0
 10
6.5980092632
 20
8.8937549319
 30
0.0
 10
6.5971893451
 20
8.892468431
 30
0.0
 10
6.5966028971
 20
8.8915993858
 30
0.0
 10
6.5962133586
 20
8.8910667395
 30
0.0
 10
6.595987776
 20
8.8907787835
 30
0.0
 10
6.5958012147
 20
8.8905644166
 30
0.0
 10
6.5956680044
 20
8.8904326566
 30
0.0
 10
6.5955770862
 20
8.890365328
 30
0.0
 10
6.5955182939
 20
8.8903318489
 30
0.0
 10
6.5954680132
 20
8.8903222144
 30
0.0
 10
6.5954458608
 20
8.890333834
 30
0.0
  0
SPLINE
  5
596
100
AcDbEntity
  8
0
100
AcDbSpline
 62
9
  6
CONTINUOUS
 70
0
 71
3
 72
18
 73
14
 74
0
 42
0.0000001
 43
0.0000001
 44
0.0000000001
 40
0.0
 40
0.0
 40
0.0
 40
0.0
 40
0.1703881429
 40
0.3423142149
 40
0.5082159076
 40
0.659947732
 40
0.7892629584
 40
0.8436664517
 40
0.8906923272
 40
0.9299541255
 40
0.9611185137
 40
0.9843260407
 40
1.0
 40
1.0
 40
1.0
 40
1.0
 10
6.6086828027
 20
8.9251555876
 30
0.0
 10
6.6077884061
 20
8.9232706008
 30
0.0
 10
6.6059810197
 20
8.9194885953
 30
0.0
 10
6.6032654174
 20
8.913889185
 30
0.0
 10
6.6006118153
 20
8.9085137394
 30
0.0
 10
6.5981493397
 20
8.9036260361
 30
0.0
 10
6.5962613984
 20
8.8999778211
 30
0.0
 10
6.5949301765
 20
8.8974855595
 30
0.0
 10
6.5941027176
 20
8.8959744468
 30
0.0
 10
6.5933945746
 20
8.8947226533
 30
0.0
 10
6.5928101776
 20
8.8937359095
 30
0.0
 10
6.5923494193
 20
8.8930126093
 30
0.0
 10
6.5920734349
 20
8.8926235617
 30
0.0
 10
6.5919506678
 20
8.8924760326
 30
0.0
  0
LINE
  5
597
100
AcDbEntity
  8
0
100
AcDbLine
 62
9
  6
CONTINUOUS
 10
6.5919506678
 20
8.8924760326
 11
6.591629823
 21
8.8922328538
  0
SPLINE
  5
598
100
AcDbEntity
  8
0
100
AcDbSpline
 62
9
  6
CONTINUOUS
 70
0
 71
3
 72
24
 73
20
 74
0
 42
0.0000001
 43
0.0000001
 44
0.0000000001
 40
0.0
 40
0.0
 40
0.0
 40
0.0
 40
0.1862709283
 40
0.3735229605
 40
0.5515421328
 40
0.6336458636
 40
0.7092671828
 40
0.7771456981
 40
0.8366099851
 40
0.8871373537
 40
0.9282091379
 40
0.9594889253
 40
0.9715631572
 40
0.9813558195
 40
0.9889471036
 40
0.9944352126
 40
0.9964371773
 40
0.9979850245
 40
1.0
 40
1.0
 40
1.0
 40
1.0
 10
7.3330793885
 20
9.178038638
 30
0.0
 10
7.3318483026
 20
9.1799961435
 30
0.0
 10
7.3293927001
 20
9.1839296928
 30
0.0
 10
7.3258077097
 20
9.1897633096
 30
0.0
 10
7.3229407523
 20
9.1945201416
 30
0.0
 10
7.3208184662
 20
9.1981074624
 30
0.0
 10
7.3194079394
 20
9.2005271058
 30
0.0
 10
7.3181567516
 20
9.2027142272
 30
0.0
 10
7.3170792428
 20
9.204641683
 30
0.0
 10
7.3161846865
 20
9.2062900367
 30
0.0
 10
7.315480527
 20
9.2076433305
 30
0.0
 10
7.315021152
 20
9.2085857138
 30
0.0
 10
7.314754646
 20
9.2091893758
 30
0.0
 10
7.3146180655
 20
9.209528708
 30
0.0
 10
7.3145257031
 20
9.2097974536
 30
0.0
 10
7.3144782033
 20
9.2099786941
 30
0.0
 10
7.3144653556
 20
9.210091094
 30
0.0
 10
7.3144657588
 20
9.2101587484
 30
0.0
 10
7.314482556
 20
9.2102071091
 30
0.0
 10
7.314503695
 20
9.2102204837
 30
0.0
  0
SPLINE
  5
599
100
AcDbEntity
  8
0
100
AcDbSpline
 62
9
  6
CONTINUOUS
 70
0
 71
3
 72
23
 73
19
 74
0
 42
0.0000001
 43
0.0000001
 44
0.0000000001
 40
0.0
 40
0.0
 40
0.0
 40
0.0
 40
0.1887895362
 40
0.3719746272
 40
0.5416409257
 40
0.619355769
 40
0.6913193196
 40
0.7568486739
 40
0.815275023
 40
0.8660530076
 40
0.9088091349
 40
0.9432444148
 40
0.9573071485
 40
0.9693062661
 40
0.9793256039
 40
0.9875260662
 40
0.9942213094
 40
1.0
 40
1.0
 40
1.0
 40
1.0
 10
8.4284762004
 20
9.3671857582
 30
0.0
 10
8.4307992658
 20
9.3685116918
 30
0.0
 10
8.4353407964
 20
9.3711870814
 30
0.0
 10
8.4418561689
 20
9.3752432358
 30
0.0
 10
8.4469509552
 20
9.3786003807
 30
0.0
 10
8.450664611
 20
9.3811854667
 30
0.0
 10
8.4531332528
 20
9.3829755347
 30
0.0
 10
8.4553436698
 20
9.3846551206
 30
0.0
 10
8.4572730784
 20
9.3862069446
 30
0.0
 10
8.458902582
 20
9.387615217
 30
0.0
 10
8.4602167789
 20
9.3888652116
 30
0.0
 10
8.4610928527
 20
9.3898189963
 30
0.0
 10
8.4616134477
 20
9.3905007314
 30
0.0
 10
8.4618913895
 20
9.390930592
 30
0.0
 10
8.462084518
 20
9.39131401
 30
0.0
 10
8.4621927302
 20
9.3916521591
 30
0.0
 10
8.4622145285
 20
9.3919483715
 30
0.0
 10
8.4621613887
 20
9.3921230104
 30
0.0
 10
8.4621204488
 20
9.3921939141
 30
0.0
  0
SPLINE
  5
59A
100
AcDbEntity
  8
0
100
AcDbSpline
 62
9
  6
CONTINUOUS
 70
0
 71
3
 72
23
 73
19
 74
0
 42
0.0000001
 43
0.0000001
 44
0.0000000001
 40
0.0
 40
0.0
 40
0.0
 40
0.0
 40
0.0019897664
 40
0.003660833
 40
0.0058586439
 40
0.0118992548
 40
0.0201742031
 40
0.0434480401
 40
0.0756230972
 40
0.1164508785
 40
0.1656026681
 40
0.222730774
 40
0.2873609697
 40
0.3589211931
 40
0.4368380622
 40
0.6092456726
 40
0.7992213854
 40
1.0
 40
1.0
 40
1.0
 40
1.0
 10
8.444533559
 20
9.3360116324
 30
0.0
 10
8.4445125677
 20
9.3360015234
 30
0.0
 10
8.4444644804
 20
9.3360208888
 30
0.0
 10
8.4444119733
 20
9.3360608399
 30
0.0
 10
8.4443262653
 20
9.3361411886
 30
0.0
 10
8.4442023894
 20
9.3362890869
 30
0.0
 10
8.4439411626
 20
9.3366440582
 30
0.0
 10
8.4435410374
 20
9.3372742571
 30
0.0
 10
8.442974301
 20
9.338248931
 30
0.0
 10
8.4422833243
 20
9.3395013674
 30
0.0
 10
8.4414682987
 20
9.3410188776
 30
0.0
 10
8.4405307026
 20
9.3427868836
 30
0.0
 10
8.4394799739
 20
9.3447918666
 30
0.0
 10
8.4383311892
 20
9.347020234
 30
0.0
 10
8.4366316681
 20
9.3503843826
 30
0.0
 10
8.4343586612
 20
9.3550119488
 30
0.0
 10
8.4314722205
 20
9.36094082
 30
0.0
 10
8.4294867833
 20
9.3650630835
 30
0.0
 10
8.4284762004
 20
9.3671857582
 30
0.0
  0
SPLINE
  5
59B
100
AcDbEntity
  8
0
100
AcDbSpline
 62
9
  6
CONTINUOUS
 70
0
 71
3
 72
23
 73
19
 74
0
 42
0.0000001
 43
0.0000001
 44
0.0000000001
 40
0.0
 40
0.0
 40
0.0
 40
0.0
 40
0.0019897666
 40
0.0036608333
 40
0.0058586443
 40
0.0118992552
 40
0.0201742035
 40
0.04344804
 40
0.0756230966
 40
0.1164508774
 40
0.1656026669
 40
0.2227307729
 40
0.2873609686
 40
0.3589211915
 40
0.4368380593
 40
0.6092456681
 40
0.7992213836
 40
1.0
 40
1.0
 40
1.0
 40
1.0
 10
6.7759284915
 20
7.3860248857
 30
0.0
 10
6.7759302325
 20
7.3860481192
 30
0.0
 10
6.775971047
 20
7.3860800813
 30
0.0
 10
6.7760318993
 20
7.3861055782
 30
0.0
 10
6.7761443372
 20
7.3861396292
 30
0.0
 10
6.7763343589
 20
7.3861729597
 30
0.0
 10
6.7767723865
 20
7.3862217031
 30
0.0
 10
6.7775182173
 20
7.3862531222
 30
0.0
 10
6.7786456778
 20
7.3862565933
 30
0.0
 10
6.7800758078
 20
7.3862287784
 30
0.0
 10
6.7817975231
 20
7.3861758562
 30
0.0
 10
6.7837974591
 20
7.3861038356
 30
0.0
 10
6.7860591897
 20
7.3860113024
 30
0.0
 10
6.7885634048
 20
7.3858919954
 30
0.0
 10
6.7923266033
 20
7.3856817478
 30
0.0
 10
6.7974706963
 20
7.3853364422
 30
0.0
 10
6.8040484706
 20
7.3848717513
 30
0.0
 10
6.8086111749
 20
7.3845300694
 30
0.0
 10
6.8109547566
 20
7.3843439225
 30
0.0
  0
SPLINE
  5
59C
100
AcDbEntity
  8
0
100
AcDbSpline
 62
9
  6
CONTINUOUS
 70
0
 71
3
 72
23
 73
19
 74
0
 42
0.0000001
 43
0.0000001
 44
0.0000000001
 40
0.0
 40
0.0
 40
0.0
 40
0.0
 40
0.188788906
 40
0.3719734361
 40
0.5416393233
 40
0.6193540361
 40
0.6913175148
 40
0.7568468585
 40
0.8152732601
 40
0.8660513664
 40
0.9088076882
 40
0.9432432407
 40
0.957306143
 40
0.9693054504
 40
0.9793249969
 40
0.9875256803
 40
0.9942211392
 40
1.0
 40
1.0
 40
1.0
 40
1.0
 10
6.8109547566
 20
7.3843439225
 30
0.0
 10
6.8109415162
 20
7.3816691303
 30
0.0
 10
6.8109877052
 20
7.3763983701
 30
0.0
 10
6.8112427486
 20
7.3687278352
 30
0.0
 10
6.8116027256
 20
7.3626370623
 30
0.0
 10
6.8119846458
 20
7.3581284062
 30
0.0
 10
6.8123005678
 20
7.3550954678
 30
0.0
 10
6.8126499213
 20
7.352341397
 30
0.0
 10
6.8130291333
 20
7.3498945647
 30
0.0
 10
6.8134339778
 20
7.3477792304
 30
0.0
 10
6.8138594039
 20
7.3460160955
 30
0.0
 10
6.8142473686
 20
7.3447804911
 30
0.0
 10
6.8145774725
 20
7.3439887658
 30
0.0
 10
6.8148107741
 20
7.3435331228
 30
0.0
 10
6.8150462626
 20
7.3431741509
 30
0.0
 10
6.8152850059
 20
7.3429113529
 30
0.0
 10
6.8155306379
 20
7.3427443593
 30
0.0
 10
6.8157084529
 20
7.3427030522
 30
0.0
 10
6.8157903298
 20
7.3427030515
 30
0.0
  0
SPLINE
  5
59D
100
AcDbEntity
  8
0
100
AcDbSpline
 62
9
  6
CONTINUOUS
 70
0
 71
3
 72
16
 73
12
 74
0
 42
0.0000001
 43
0.0000001
 44
0.0000000001
 40
0.0
 40
0.0
 40
0.0
 40
0.0
 40
0.2641993988
 40
0.3950640969
 40
0.5242496112
 40
0.6508976603
 40
0.7736095291
 40
0.8332032478
 40
0.8910750547
 40
0.9467607477
 40
1.0
 40
1.0
 40
1.0
 40
1.0
 10
7.2182913827
 20
9.2043211633
 30
0.0
 10
7.2278390864
 20
9.199808068
 30
0.0
 10
7.2423276796
 20
9.1934876075
 30
0.0
 10
7.2619748326
 20
9.186185046
 30
0.0
 10
7.2767148784
 20
9.1815060401
 30
0.0
 10
7.2914007159
 20
9.1778121032
 30
0.0
 10
7.3036379353
 20
9.1759322207
 30
0.0
 10
7.3132339294
 20
9.1754464547
 30
0.0
 10
7.3201610719
 20
9.1756339855
 30
0.0
 10
7.3267914096
 20
9.1764243676
 30
0.0
 10
7.3310445269
 20
9.1774154435
 30
0.0
 10
7.3330791768
 20
9.1780391075
 30
0.0
  0
SPLINE
  5
59E
100
AcDbEntity
  8
0
100
AcDbSpline
 62
9
  6
CONTINUOUS
 70
0
 71
3
 72
14
 73
10
 74
0
 42
0.0000001
 43
0.0000001
 44
0.0000000001
 40
0.0
 40
0.0
 40
0.0
 40
0.0
 40
0.109925339
 40
0.2267304123
 40
0.3485678793
 40
0.4743434562
 40
0.6028607136
 40
0.7336278879
 40
1.0
 40
1.0
 40
1.0
 40
1.0
 10
7.4806080297
 20
8.9225128337
 30
0.0
 10
7.4783189039
 20
8.9203802939
 30
0.0
 10
7.4740257028
 20
8.9155138858
 30
0.0
 10
7.4686004328
 20
8.9071780013
 30
0.0
 10
7.4640136234
 20
8.89785346
 30
0.0
 10
7.4601677562
 20
8.8878527538
 30
0.0
 10
7.4569111961
 20
8.8773819943
 30
0.0
 10
7.4532502456
 20
8.8628706295
 30
0.0
 10
7.4512090249
 20
8.8517409975
 30
0.0
 10
7.4500295444
 20
8.8442521813
 30
0.0
  0
SPLINE
  5
59F
100
AcDbEntity
  8
0
100
AcDbSpline
 62
9
  6
CONTINUOUS
 70
0
 71
3
 72
14
 73
10
 74
0
 42
0.0000001
 43
0.0000001
 44
0.0000000001
 40
0.0
 40
0.0
 40
0.0
 40
0.0
 40
0.0300502501
 40
0.0802369801
 40
0.1571160405
 40
0.2630074729
 40
0.3992606704
 40
0.5669153508
 40
1.0
 40
1.0
 40
1.0
 40
1.0
 10
6.7765800136
 20
9.2125759815
 30
0.0
 10
6.7765956188
 20
9.2125660148
 30
0.0
 10
6.7766160052
 20
9.2125140259
 30
0.0
 10
6.7766037312
 20
9.2124183457
 30
0.0
 10
6.7765682793
 20
9.2122786042
 30
0.0
 10
6.7765001831
 20
9.2120941125
 30
0.0
 10
6.776401082
 20
9.2118617637
 30
0.0
 10
6.7762070275
 20
9.2114511191
 30
0.0
 10
6.7760352836
 20
9.211123039
 30
0.0
 10
6.7759087217
 20
9.2108881011
 30
0.0
  0
SPLINE
  5
5A0
100
AcDbEntity
  8
0
100
AcDbSpline
 62
9
  6
CONTINUOUS
 70
0
 71
3
 72
14
 73
10
 74
0
 42
0.0000001
 43
0.0000001
 44
0.0000000001
 40
0.0
 40
0.0
 40
0.0
 40
0.0
 40
0.0623174207
 40
0.1496184158
 40
0.2597987826
 40
0.3899581199
 40
0.5347472785
 40
0.6883181454
 40
1.0
 40
1.0
 40
1.0
 40
1.0
 10
6.7759087217
 20
9.2108881011
 30
0.0
 10
6.7755609188
 20
9.2102424715
 30
0.0
 10
6.7746766672
 20
9.2087192164
 30
0.0
 10
6.7730812242
 20
9.2061112357
 30
0.0
 10
6.7710172393
 20
9.202854295
 30
0.0
 10
6.7685483154
 20
9.1990535616
 30
0.0
 10
6.7657673036
 20
9.1948468393
 30
0.0
 10
6.7617675084
 20
9.1888853127
 30
0.0
 10
6.7586782248
 20
9.1843648676
 30
0.0
 10
6.7565945826
 20
9.1813463046
 30
0.0
  0
SPLINE
  5
5A1
100
AcDbEntity
  8
0
100
AcDbSpline
 62
9
  6
CONTINUOUS
 70
0
 71
3
 72
23
 73
19
 74
0
 42
0.0000001
 43
0.0000001
 44
0.0000000001
 40
0.0
 40
0.0
 40
0.0
 40
0.0
 40
0.0019897664
 40
0.0036608329
 40
0.0058586438
 40
0.0118992547
 40
0.0201742031
 40
0.0434480401
 40
0.0756230973
 40
0.1164508786
 40
0.1656026682
 40
0.2227307741
 40
0.2873609697
 40
0.3589211932
 40
0.4368380622
 40
0.6092456726
 40
0.7992213854
 40
1.0
 40
1.0
 40
1.0
 40
1.0
 10
5.9214929655
 20
9.8060726364
 30
0.0
 10
5.9215122158
 20
9.8060595119
 30
0.0
 10
5.9215194886
 20
9.8060081844
 30
0.0
 10
5.9215111434
 20
9.8059427363
 30
0.0
 10
5.9214844134
 20
9.8058283367
 30
0.0
 10
5.9214182677
 20
9.8056471079
 30
0.0
 10
5.9212414669
 20
9.8052433931
 30
0.0
 10
5.9208957612
 20
9.8045817752
 30
0.0
 10
5.9203350371
 20
9.8036036301
 30
0.0
 10
5.9195958837
 20
9.8023790086
 30
0.0
 10
5.9186891941
 20
9.8009144205
 30
0.0
 10
5.9176268541
 20
9.7992184355
 30
0.0
 10
5.9164158522
 20
9.7973059862
 30
0.0
 10
5.9150604218
 20
9.7951969258
 30
0.0
 10
5.9129967442
 20
9.792043023
 30
0.0
 10
5.9101256577
 20
9.7877607582
 30
0.0
 10
5.906434325
 20
9.7822965917
 30
0.0
 10
5.9038570587
 20
9.7785160208
 30
0.0
 10
5.9025240599
 20
9.7765794931
 30
0.0
  0
SPLINE
  5
5A2
100
AcDbEntity
  8
0
100
AcDbSpline
 62
9
  6
CONTINUOUS
 70
0
 71
3
 72
23
 73
19
 74
0
 42
0.0000001
 43
0.0000001
 44
0.0000000001
 40
0.0
 40
0.0
 40
0.0
 40
0.0
 40
0.1887895359
 40
0.3719746267
 40
0.541640925
 40
0.6193557682
 40
0.6913193188
 40
0.7568486731
 40
0.8152750222
 40
0.8660530068
 40
0.9088091341
 40
0.9432444141
 40
0.9573071479
 40
0.9693062655
 40
0.9793256034
 40
0.9875260659
 40
0.9942213093
 40
1.0
 40
1.0
 40
1.0
 40
1.0
 10
5.9025240599
 20
9.7765794931
 30
0.0
 10
5.9002142351
 20
9.7779283599
 30
0.0
 10
5.8956265144
 20
9.7805237459
 30
0.0
 10
5.8888560954
 20
9.7841381469
 30
0.0
 10
5.8834013295
 20
9.7868717888
 30
0.0
 10
5.8793057514
 20
9.7887953661
 30
0.0
 10
5.8765211862
 20
9.7900382386
 30
0.0
 10
5.8739614137
 20
9.7911127229
 30
0.0
 10
5.8716527903
 20
9.7920077277
 30
0.0
 10
5.8696184388
 20
9.7927147831
 30
0.0
 10
5.8678788134
 20
9.7932279137
 30
0.0
 10
5.8666147747
 20
9.7935097235
 30
0.0
 10
5.8657640773
 20
9.7936197044
 30
0.0
 10
5.8652528361
 20
9.7936454788
 30
0.0
 10
5.8648242221
 20
9.793621024
 30
0.0
 10
5.8644772703
 20
9.7935456639
 30
0.0
 10
5.8642098437
 20
9.7934164356
 30
0.0
 10
5.8640851719
 20
9.7932830958
 30
0.0
 10
5.8640442374
 20
9.7932121889
 30
0.0
  0
SPLINE
  5
5A3
100
AcDbEntity
  8
0
100
AcDbSpline
 62
9
  6
CONTINUOUS
 70
0
 71
3
 72
23
 73
19
 74
0
 42
0.0000001
 43
0.0000001
 44
0.0000000001
 40
0.0
 40
0.0
 40
0.0
 40
0.0
 40
0.1887909411
 40
0.3719765213
 40
0.5416421879
 40
0.6193567266
 40
0.6913202107
 40
0.7568493834
 40
0.815275167
 40
0.8660530001
 40
0.9088090368
 40
0.9432437133
 40
0.9573061816
 40
0.9693051919
 40
0.9793245451
 40
0.9875251412
 40
0.994220692
 40
1.0
 40
1.0
 40
1.0
 40
1.0
 10
5.6661604436
 20
9.3671857999
 30
0.0
 10
5.6638373364
 20
9.3685117578
 30
0.0
 10
5.6592957175
 20
9.37118716
 30
0.0
 10
5.6527802256
 20
9.3752433116
 30
0.0
 10
5.6476853816
 20
9.3786004765
 30
0.0
 10
5.6439717105
 20
9.3811856003
 30
0.0
 10
5.6415030591
 20
9.382975697
 30
0.0
 10
5.639292635
 20
9.3846553031
 30
0.0
 10
5.637363217
 20
9.386207137
 30
0.0
 10
5.6357336915
 20
9.3876154012
 30
0.0
 10
5.6344194734
 20
9.3888653842
 30
0.0
 10
5.6335434049
 20
9.3898191759
 30
0.0
 10
5.6330228356
 20
9.390500925
 30
0.0
 10
5.6327449134
 20
9.390930799
 30
0.0
 10
5.6325518078
 20
9.3913142349
 30
0.0
 10
5.6324436241
 20
9.3916524046
 30
0.0
 10
5.6324218649
 20
9.3919486399
 30
0.0
 10
5.6324750412
 20
9.3921232844
 30
0.0
 10
5.6325159982
 20
9.3921941894
 30
0.0
  0
SPLINE
  5
5A4
100
AcDbEntity
  8
0
100
AcDbSpline
 62
9
  6
CONTINUOUS
 70
0
 71
3
 72
11
 73
7
 74
0
 42
0.0000001
 43
0.0000001
 44
0.0000000001
 40
0.0
 40
0.0
 40
0.0
 40
0.0
 40
0.2468840827
 40
0.4940083167
 40
0.7446439724
 40
1.0
 40
1.0
 40
1.0
 40
1.0
 10
7.4507125887
 20
8.833219821
 30
0.0
 10
7.4509848709
 20
8.8340418946
 30
0.0
 10
7.4513651618
 20
8.8357458417
 30
0.0
 10
7.451451124
 20
8.8383692807
 30
0.0
 10
7.451097875
 20
8.8409979649
 30
0.0
 10
7.4506027748
 20
8.8427093831
 30
0.0
 10
7.450297706
 20
8.8435515398
 30
0.0
  0
SPLINE
  5
5A5
100
AcDbEntity
  8
0
100
AcDbSpline
 62
9
  6
CONTINUOUS
 70
0
 71
3
 72
14
 73
10
 74
0
 42
0.0000001
 43
0.0000001
 44
0.0000000001
 40
0.0
 40
0.0
 40
0.0
 40
0.0
 40
0.266242707
 40
0.3969638796
 40
0.5254541283
 40
0.6512273801
 40
0.7730960212
 40
0.889970404
 40
1.0
 40
1.0
 40
1.0
 40
1.0
 10
6.6446070658
 20
8.8442521976
 30
0.0
 10
6.6434285713
 20
8.851737427
 30
0.0
 10
6.6413888856
 20
8.8628622399
 30
0.0
 10
6.6377300445
 20
8.8773681679
 30
0.0
 10
6.6344746132
 20
8.8878370087
 30
0.0
 10
6.6306293242
 20
8.8978379722
 30
0.0
 10
6.6260423111
 20
8.9071654575
 30
0.0
 10
6.6206160823
 20
8.9155076188
 30
0.0
 10
6.6163200332
 20
8.9203783273
 30
0.0
 10
6.614028469
 20
8.9225125944
 30
0.0
  0
SPLINE
  5
5A6
100
AcDbEntity
  8
0
100
AcDbSpline
 62
9
  6
CONTINUOUS
 70
0
 71
3
 72
16
 73
12
 74
0
 42
0.0000001
 43
0.0000001
 44
0.0000000001
 40
0.0
 40
0.0
 40
0.0
 40
0.0
 40
0.0531705913
 40
0.1088006598
 40
0.1666287401
 40
0.2261920513
 40
0.3488851472
 40
0.4755422524
 40
0.6047421025
 40
0.7356720989
 40
1.0
 40
1.0
 40
1.0
 40
1.0
 10
6.7615572157
 20
9.1780389341
 30
0.0
 10
6.7635894006
 20
9.1774166203
 30
0.0
 10
6.767837681
 20
9.1764271042
 30
0.0
 10
6.7744611582
 20
9.1756365093
 30
0.0
 10
6.7813830154
 20
9.1754471622
 30
0.0
 10
6.7909754201
 20
9.1759298716
 30
0.0
 10
6.8032113952
 20
9.1778073199
 30
0.0
 10
6.8178979212
 20
9.1814990531
 30
0.0
 10
6.8326417329
 20
9.1861778333
 30
0.0
 10
6.8522966054
 20
9.1934832749
 30
0.0
 10
6.8667927743
 20
9.1998056202
 30
0.0
 10
6.8763450517
 20
9.2043209677
 30
0.0
  0
SPLINE
  5
5A7
100
AcDbEntity
  8
0
100
AcDbSpline
 62
9
  6
CONTINUOUS
 70
0
 71
3
 72
14
 73
10
 74
0
 42
0.0000001
 43
0.0000001
 44
0.0000000001
 40
0.0
 40
0.0
 40
0.0
 40
0.0
 40
0.0587746464
 40
0.1277695512
 40
0.2135800732
 40
0.3203166576
 40
0.4506293159
 40
0.6064092617
 40
1.0
 40
1.0
 40
1.0
 40
1.0
 10
6.6473188102
 20
8.842702465
 30
0.0
 10
6.6473188921
 20
8.8427662539
 30
0.0
 10
6.6472871784
 20
8.8429057947
 30
0.0
 10
6.6471563117
 20
8.8431010791
 30
0.0
 10
6.6469456721
 20
8.8432938781
 30
0.0
 10
6.6466520299
 20
8.8434868759
 30
0.0
 10
6.6462717244
 20
8.843680903
 30
0.0
 10
6.6455895092
 20
8.843962888
 30
0.0
 10
6.6450183108
 20
8.8441384015
 30
0.0
 10
6.6446064835
 20
8.8442518567
 30
0.0
  0
SPLINE
  5
5A8
100
AcDbEntity
  8
0
100
AcDbSpline
 62
9
  6
CONTINUOUS
 70
0
 71
3
 72
23
 73
19
 74
0
 42
0.0000001
 43
0.0000001
 44
0.0000000001
 40
0.0
 40
0.0
 40
0.0
 40
0.0
 40
0.2007682643
 40
0.3907289295
 40
0.5631463002
 40
0.6410704175
 40
0.7126371954
 40
0.7772726166
 40
0.8344036343
 40
0.8835541829
 40
0.924378515
 40
0.956550634
 40
0.979823937
 40
0.988099277
 40
0.9941404774
 40
0.9963385963
 40
0.9980099413
 40
1.0
 40
1.0
 40
1.0
 40
1.0
 10
5.6661605008
 20
9.3671857823
 30
0.0
 10
5.6651499683
 20
9.3650632134
 30
0.0
 10
5.6631643128
 20
9.360941376
 30
0.0
 10
5.6602781484
 20
9.3550125631
 30
0.0
 10
5.6580053537
 20
9.3503848556
 30
0.0
 10
5.6563055865
 20
9.3470205147
 30
0.0
 10
5.655156694
 20
9.3447919477
 30
0.0
 10
5.6541058961
 20
9.3427868023
 30
0.0
 10
5.6531682163
 20
9.3410187454
 30
0.0
 10
5.6523532241
 20
9.3395012377
 30
0.0
 10
5.6516623372
 20
9.3382488511
 30
0.0
 10
5.6510956553
 20
9.3372742365
 30
0.0
 10
5.6506955115
 20
9.3366440895
 30
0.0
 10
5.6504342459
 20
9.3362891387
 30
0.0
 10
5.6503103423
 20
9.3361412438
 30
0.0
 10
5.650224615
 20
9.3360608947
 30
0.0
 10
5.6501720955
 20
9.3360209442
 30
0.0
 10
5.6501240019
 20
9.3360015745
 30
0.0
 10
5.6501030073
 20
9.3360116848
 30
0.0
  0
SPLINE
  5
5A9
100
AcDbEntity
  8
0
100
AcDbSpline
 62
9
  6
CONTINUOUS
 70
0
 71
3
 72
9
 73
5
 74
0
 42
0.0000001
 43
0.0000001
 44
0.0000000001
 40
0.0
 40
0.0
 40
0.0
 40
0.0
 40
0.2527099237
 40
1.0
 40
1.0
 40
1.0
 40
1.0
 10
6.6446068553
 20
8.8442510443
 30
0.0
 10
6.6444806972
 20
8.843938717
 30
0.0
 10
6.6440114185
 20
8.8426910627
 30
0.0
 10
6.6436663156
 20
8.8413955769
 30
0.0
 10
6.6434928108
 20
8.8404147193
 30
0.0
  0
SPLINE
  5
5AA
100
AcDbEntity
  8
0
100
AcDbSpline
 62
9
  6
CONTINUOUS
 70
0
 71
3
 72
9
 73
5
 74
0
 42
0.0000001
 43
0.0000001
 44
0.0000000001
 40
0.0
 40
0.0
 40
0.0
 40
0.0
 40
0.25230881
 40
1.0
 40
1.0
 40
1.0
 40
1.0
 10
6.6434928108
 20
8.8404147193
 30
0.0
 10
6.6434385435
 20
8.8401079359
 30
0.0
 10
6.6432559174
 20
8.8388866663
 30
0.0
 10
6.6432097584
 20
8.8376437805
 30
0.0
 10
6.6432633292
 20
8.8367221013
 30
0.0
  0
SPLINE
  5
5AB
100
AcDbEntity
  8
0
100
AcDbSpline
 62
9
  6
CONTINUOUS
 70
0
 71
3
 72
9
 73
5
 74
0
 42
0.0000001
 43
0.0000001
 44
0.0000000001
 40
0.0
 40
0.0
 40
0.0
 40
0.0
 40
0.7487797424
 40
1.0
 40
1.0
 40
1.0
 40
1.0
 10
6.6432633292
 20
8.8367221013
 30
0.0
 10
6.6433150303
 20
8.8358325893
 30
0.0
 10
6.6434948065
 20
8.834645937
 30
0.0
 10
6.6438301824
 20
8.8335036985
 30
0.0
 10
6.6439241746
 20
8.8332199188
 30
0.0
  0
SPLINE
  5
5AC
100
AcDbEntity
  8
0
100
AcDbSpline
 62
9
  6
CONTINUOUS
 70
0
 71
3
 72
23
 73
19
 74
0
 42
0.0000001
 43
0.0000001
 44
0.0000000001
 40
0.0
 40
0.0
 40
0.0
 40
0.0
 40
0.1887909411
 40
0.3719765212
 40
0.5416421878
 40
0.6193567266
 40
0.6913202106
 40
0.7568493832
 40
0.8152751667
 40
0.8660529997
 40
0.9088090364
 40
0.9432437128
 40
0.9573061811
 40
0.9693051914
 40
0.9793245446
 40
0.9875251408
 40
0.9942206918
 40
1.0
 40
1.0
 40
1.0
 40
1.0
 10
8.1921126701
 20
9.7765795011
 30
0.0
 10
8.194422537
 20
9.777928392
 30
0.0
 10
8.1990103128
 20
9.7805238483
 30
0.0
 10
8.205780789
 20
9.784138354
 30
0.0
 10
8.2112356011
 20
9.7868720358
 30
0.0
 10
8.2153312195
 20
9.7887956075
 30
0.0
 10
8.2181158144
 20
9.790038474
 30
0.0
 10
8.2206756081
 20
9.7911129544
 30
0.0
 10
8.2229842446
 20
9.7920079624
 30
0.0
 10
8.2250186
 20
9.7927150408
 30
0.0
 10
8.2267582261
 20
9.7932281955
 30
0.0
 10
8.2280222681
 20
9.7935099972
 30
0.0
 10
8.2288729649
 20
9.7936199489
 30
0.0
 10
8.2293842078
 20
9.7936456996
 30
0.0
 10
8.2298128258
 20
9.793621216
 30
0.0
 10
8.2301597812
 20
9.793545821
 30
0.0
 10
8.2304272081
 20
9.7934165473
 30
0.0
 10
8.2305518665
 20
9.793283173
 30
0.0
 10
8.2305927936
 20
9.7932122507
 30
0.0
  0
SPLINE
  5
5AD
100
AcDbEntity
  8
0
100
AcDbSpline
 62
9
  6
CONTINUOUS
 70
0
 71
3
 72
14
 73
10
 74
0
 42
0.0000001
 43
0.0000001
 44
0.0000000001
 40
0.0
 40
0.0
 40
0.0
 40
0.0
 40
0.0620735987
 40
0.1347254255
 40
0.2244634424
 40
0.3345746552
 40
0.4666403769
 40
0.62140727
 40
1.0
 40
1.0
 40
1.0
 40
1.0
 10
7.4473179712
 20
8.8427023215
 30
0.0
 10
7.4473178667
 20
8.8427696778
 30
0.0
 10
7.4473535435
 20
8.8429167617
 30
0.0
 10
7.4474962527
 20
8.8431183816
 30
0.0
 10
7.4477197288
 20
8.8433145001
 30
0.0
 10
7.4480244578
 20
8.8435082326
 30
0.0
 10
7.4484105423
 20
8.8437004031
 30
0.0
 10
7.4490798574
 20
8.8439725245
 30
0.0
 10
7.4496342124
 20
8.8441427181
 30
0.0
 10
7.45003027
 20
8.8442518297
 30
0.0
  0
SPLINE
  5
5AE
100
AcDbEntity
  8
0
100
AcDbSpline
 62
9
  6
CONTINUOUS
 70
0
 71
3
 72
24
 73
20
 74
0
 42
0.0000001
 43
0.0000001
 44
0.0000000001
 40
0.0
 40
0.0
 40
0.0
 40
0.0
 40
0.2007288055
 40
0.3906285579
 40
0.4793954007
 40
0.5630940077
 40
0.6410347773
 40
0.7126079956
 40
0.7772425013
 40
0.8343783363
 40
0.883566929
 40
0.9244448305
 40
0.956652539
 40
0.9799258809
 40
0.9881864922
 40
0.9942028368
 40
0.9963848517
 40
0.998038435
 40
1.0
 40
1.0
 40
1.0
 40
1.0
 10
7.2836806034
 20
7.3843437977
 30
0.0
 10
7.2860234885
 20
7.3845298889
 30
0.0
 10
7.290583377
 20
7.3848858659
 30
0.0
 10
7.2961830103
 20
7.3852754343
 30
0.0
 10
7.3004176203
 20
7.3855392164
 30
0.0
 10
7.3033443836
 20
7.3857130463
 30
0.0
 10
7.3060703831
 20
7.3858715977
 30
0.0
 10
7.3085739559
 20
7.3860100172
 30
0.0
 10
7.3108350338
 20
7.3861213701
 30
0.0
 10
7.3128353305
 20
7.386197832
 30
0.0
 10
7.3145584481
 20
7.3862387711
 30
0.0
 10
7.3159901447
 20
7.3862502453
 30
0.0
 10
7.3171183881
 20
7.3862360157
 30
0.0
 10
7.3178642684
 20
7.3862070239
 30
0.0
 10
7.3183023771
 20
7.3861639147
 30
0.0
 10
7.3184923029
 20
7.3861342543
 30
0.0
 10
7.3186047868
 20
7.3861027468
 30
0.0
 10
7.3186655409
 20
7.3860790375
 30
0.0
 10
7.3187064694
 20
7.3860477821
 30
0.0
 10
7.3187081864
 20
7.386024879
 30
0.0
  0
SPLINE
  5
5AF
100
AcDbEntity
  8
0
100
AcDbSpline
 62
9
  6
CONTINUOUS
 70
0
 71
3
 72
18
 73
14
 74
0
 42
0.0000001
 43
0.0000001
 44
0.0000000001
 40
0.0
 40
0.0
 40
0.0
 40
0.0
 40
0.170387858
 40
0.3423136549
 40
0.5082151267
 40
0.6599468339
 40
0.7892620863
 40
0.843665644
 40
0.8906916199
 40
0.9299535566
 40
0.9611181175
 40
0.9843258356
 40
1.0
 40
1.0
 40
1.0
 40
1.0
 10
7.1952301157
 20
8.4216072663
 30
0.0
 10
7.1973097561
 20
8.4217751891
 30
0.0
 10
7.2014887537
 20
8.4221009487
 30
0.0
 10
7.2076957745
 20
8.4225488726
 30
0.0
 10
7.2136778381
 20
8.4229385081
 30
0.0
 10
7.2191419451
 20
8.4232497934
 30
0.0
 10
7.2232453607
 20
8.4234388961
 30
0.0
 10
7.2260693347
 20
8.4235321556
 30
0.0
 10
7.2277917292
 20
8.423571112
 30
0.0
 10
7.2292298901
 20
8.4235837395
 30
0.0
 10
7.2303766396
 20
8.4235710095
 30
0.0
 10
7.2312334217
 20
8.4235336319
 30
0.0
 10
7.2317083437
 20
8.4234891468
 30
0.0
 10
7.2318974938
 20
8.4234565924
 30
0.0
  0
LINE
  5
5B0
100
AcDbEntity
  8
0
100
AcDbLine
 62
9
  6
CONTINUOUS
 10
7.2318974938
 20
8.4234565924
 11
7.2322685295
 21
8.4233003195
  0
SPLINE
  5
5B1
100
AcDbEntity
  8
0
100
AcDbSpline
 62
9
  6
CONTINUOUS
 70
0
 71
3
 72
23
 73
19
 74
0
 42
0.0000001
 43
0.0000001
 44
0.0000000001
 40
0.0
 40
0.0
 40
0.0
 40
0.0
 40
0.1887904936
 40
0.3719740866
 40
0.5416390908
 40
0.6193545746
 40
0.6913199193
 40
0.7568509222
 40
0.8152775751
 40
0.8660557834
 40
0.9088116493
 40
0.9432454605
 40
0.9573081943
 40
0.969308012
 40
0.9793281584
 40
0.9875289123
 40
0.9942233519
 40
1.0
 40
1.0
 40
1.0
 40
1.0
 10
7.2836819032
 20
7.3843438335
 30
0.0
 10
7.2836951447
 20
7.3816690246
 30
0.0
 10
7.2836494395
 20
7.3763982671
 30
0.0
 10
7.2833948261
 20
7.3687277293
 30
0.0
 10
7.2830343336
 20
7.3626370092
 30
0.0
 10
7.2826519272
 20
7.3581283797
 30
0.0
 10
7.2823356984
 20
7.3550954189
 30
0.0
 10
7.2819861205
 20
7.3523413294
 30
0.0
 10
7.2816068048
 20
7.3498944909
 30
0.0
 10
7.2812020015
 20
7.3477791572
 30
0.0
 10
7.2807767045
 20
7.346016026
 30
0.0
 10
7.2803888251
 20
7.3447804335
 30
0.0
 10
7.2800587994
 20
7.3439886999
 30
0.0
 10
7.2798255623
 20
7.3435330115
 30
0.0
 10
7.2795901472
 20
7.343173974
 30
0.0
 10
7.2793514912
 20
7.3429111077
 30
0.0
 10
7.2791059608
 20
7.3427440464
 30
0.0
 10
7.2789281921
 20
7.3427027108
 30
0.0
 10
7.2788463467
 20
7.3427027143
 30
0.0
  0
SPLINE
  5
5B2
100
AcDbEntity
  8
0
100
AcDbSpline
 62
9
  6
CONTINUOUS
 70
0
 71
3
 72
23
 73
19
 74
0
 42
0.0000001
 43
0.0000001
 44
0.0000000001
 40
0.0
 40
0.0
 40
0.0
 40
0.0
 40
0.2007682644
 40
0.3907289298
 40
0.5631463005
 40
0.6410704179
 40
0.7126371958
 40
0.777272617
 40
0.8344036347
 40
0.8835541833
 40
0.9243785153
 40
0.9565506342
 40
0.9798239372
 40
0.9880992772
 40
0.9941404776
 40
0.9963385964
 40
0.9980099414
 40
1.0
 40
1.0
 40
1.0
 40
1.0
 10
8.1921126264
 20
9.7765794603
 30
0.0
 10
8.190779694
 20
9.7785158916
 30
0.0
 10
8.1882029058
 20
9.7822964384
 30
0.0
 10
8.1845114854
 20
9.7877603365
 30
0.0
 10
8.1816401705
 20
9.7920424883
 30
0.0
 10
8.1795764495
 20
9.7951967003
 30
0.0
 10
8.1782209001
 20
9.7973059538
 30
0.0
 10
8.1770097921
 20
9.7992185443
 30
0.0
 10
8.1759474499
 20
9.8009146272
 30
0.0
 10
8.1750407458
 20
9.802379185
 30
0.0
 10
8.1743015906
 20
9.8036037039
 30
0.0
 10
8.1737408905
 20
9.8045817722
 30
0.0
 10
8.1733952391
 20
9.8052433804
 30
0.0
 10
8.1732184755
 20
9.8056471184
 30
0.0
 10
8.1731523465
 20
9.8058283695
 30
0.0
 10
8.1731256259
 20
9.805942786
 30
0.0
 10
8.1731172874
 20
9.8060082445
 30
0.0
 10
8.1731245596
 20
9.8060595797
 30
0.0
 10
8.1731438126
 20
9.8060727063
 30
0.0
  0
SPLINE
  5
5B3
100
AcDbEntity
  8
0
100
AcDbSpline
 62
9
  6
CONTINUOUS
 70
0
 71
3
 72
18
 73
14
 74
0
 42
0.0000001
 43
0.0000001
 44
0.0000000001
 40
0.0
 40
0.0
 40
0.0
 40
0.0
 40
0.1703870857
 40
0.3423121361
 40
0.5082130087
 40
0.6599443979
 40
0.7892597205
 40
0.843663453
 40
0.890689701
 40
0.929952013
 40
0.9611170425
 40
0.9843252791
 40
1.0
 40
1.0
 40
1.0
 40
1.0
 10
7.3380420975
 20
9.1813463006
 30
0.0
 10
7.3368568585
 20
9.183063351
 30
0.0
 10
7.3344852566
 20
9.1865195702
 30
0.0
 10
7.3309938508
 20
9.1916710187
 30
0.0
 10
7.3276653991
 20
9.1966567975
 30
0.0
 10
7.3246637728
 20
9.2012331962
 30
0.0
 10
7.322448299
 20
9.2046923018
 30
0.0
 10
7.3209555439
 20
9.2070913074
 30
0.0
 10
7.3200606041
 20
9.2085634729
 30
0.0
 10
7.3193305803
 20
9.2098026527
 30
0.0
 10
7.3187682208
 20
9.2108021443
 30
0.0
 10
7.3183721888
 20
9.2115628428
 30
0.0
 10
7.3181732454
 20
9.2119963902
 30
0.0
 10
7.3181068587
 20
9.2121764815
 30
0.0
  0
LINE
  5
5B4
100
AcDbEntity
  8
0
100
AcDbLine
 62
9
  6
CONTINUOUS
 10
7.3181068587
 20
9.2121764815
 11
7.3180566635
 21
9.2125759811
  0
SPLINE
  5
5B5
100
AcDbEntity
  8
0
100
AcDbSpline
 62
9
  6
CONTINUOUS
 70
0
 71
3
 72
14
 73
10
 74
0
 42
0.0000001
 43
0.0000001
 44
0.0000000001
 40
0.0
 40
0.0
 40
0.0
 40
0.0
 40
0.030050247
 40
0.0802369717
 40
0.1571160279
 40
0.2630074581
 40
0.3992606555
 40
0.5669153383
 40
1.0
 40
1.0
 40
1.0
 40
1.0
 10
6.8623681476
 20
8.4233003192
 30
0.0
 10
6.8623689764
 20
8.4233188171
 30
0.0
 10
6.8624038069
 20
8.4233624666
 30
0.0
 10
6.8624928054
 20
8.4233996772
 30
0.0
 10
6.8626315511
 20
8.4234388456
 30
0.0
 10
6.8628253736
 20
8.4234721184
 30
0.0
 10
6.8630761442
 20
8.4235024688
 30
0.0
 10
6.8635288001
 20
8.423539735
 30
0.0
 10
6.8638987977
 20
8.4235550405
 30
0.0
 10
6.8641655409
 20
8.4235629036
 30
0.0
  0
SPLINE
  5
5B6
100
AcDbEntity
  8
0
100
AcDbSpline
 62
9
  6
CONTINUOUS
 70
0
 71
3
 72
14
 73
10
 74
0
 42
0.0000001
 43
0.0000001
 44
0.0000000001
 40
0.0
 40
0.0
 40
0.0
 40
0.0
 40
0.0623174207
 40
0.1496184158
 40
0.2597987826
 40
0.3899581198
 40
0.5347472784
 40
0.6883181452
 40
1.0
 40
1.0
 40
1.0
 40
1.0
 10
6.8641655409
 20
8.4235629036
 30
0.0
 10
6.8648985739
 20
8.4235845122
 30
0.0
 10
6.8666598773
 20
8.4235803554
 30
0.0
 10
6.8697161764
 20
8.4235026516
 30
0.0
 10
6.8735687622
 20
8.4233436586
 30
0.0
 10
6.8780947558
 20
8.4231058744
 30
0.0
 10
6.8831283901
 20
8.4228008088
 30
0.0
 10
6.8902911212
 20
8.4223176478
 30
0.0
 10
6.8957505833
 20
8.4219024723
 30
0.0
 10
6.8994065566
 20
8.4216072667
 30
0.0
  0
SPLINE
  5
5B7
100
AcDbEntity
  8
0
100
AcDbSpline
 62
9
  6
CONTINUOUS
 70
0
 71
3
 72
14
 73
10
 74
0
 42
0.0000001
 43
0.0000001
 44
0.0000000001
 40
0.0
 40
0.0
 40
0.0
 40
0.0
 40
0.0300502485
 40
0.080236976
 40
0.1571160344
 40
0.2630074657
 40
0.3992606632
 40
0.5669153447
 40
1.0
 40
1.0
 40
1.0
 40
1.0
 10
7.5030068548
 20
8.8922328537
 30
0.0
 10
7.5029904207
 20
8.8922243226
 30
0.0
 10
7.5029352039
 20
8.8922326619
 30
0.0
 10
7.5028584793
 20
8.8922911316
 30
0.0
 10
7.5027551856
 20
8.8923917046
 30
0.0
 10
7.5026294593
 20
8.8925429235
 30
0.0
 10
7.5024777898
 20
8.892744922
 30
0.0
 10
7.5022191884
 20
8.8931183004
 30
0.0
 10
7.5020209346
 20
8.893431075
 30
0.0
 10
7.5018807533
 20
8.8936581498
 30
0.0
  0
SPLINE
  5
5B8
100
AcDbEntity
  8
0
100
AcDbSpline
 62
9
  6
CONTINUOUS
 70
0
 71
3
 72
14
 73
10
 74
0
 42
0.0000001
 43
0.0000001
 44
0.0000000001
 40
0.0
 40
0.0
 40
0.0
 40
0.0
 40
0.0623174207
 40
0.1496184158
 40
0.2597987826
 40
0.3899581199
 40
0.5347472785
 40
0.6883181453
 40
1.0
 40
1.0
 40
1.0
 40
1.0
 10
7.5018807533
 20
8.8936581498
 30
0.0
 10
7.5014955232
 20
8.8942821707
 30
0.0
 10
7.5006184714
 20
8.8958095826
 30
0.0
 10
7.4991576154
 20
8.8984952672
 30
0.0
 10
7.4973690144
 20
8.9019112009
 30
0.0
 10
7.4953119448
 20
8.9059497184
 30
0.0
 10
7.4930593222
 20
8.9104615064
 30
0.0
 10
7.4898963864
 20
8.916906194
 30
0.0
 10
7.4875262079
 20
8.9218418146
 30
0.0
 10
7.4859538767
 20
8.9251555832
 30
0.0
  0
SPLINE
  5
5B9
100
AcDbEntity
  8
0
100
AcDbSpline
 62
9
  6
CONTINUOUS
 70
0
 71
3
 72
24
 73
20
 74
0
 42
0.0000001
 43
0.0000001
 44
0.0000000001
 40
0.0
 40
0.0
 40
0.0
 40
0.0
 40
0.0020149008
 40
0.0035627005
 40
0.0055646179
 40
0.0110526386
 40
0.0186438472
 40
0.0284364497
 40
0.04051064
 40
0.0717904082
 40
0.1128622683
 40
0.1633897955
 40
0.2228543056
 40
0.29073309
 40
0.3663547018
 40
0.448458709
 40
0.6264782084
 40
0.8137300124
 40
1.0
 40
1.0
 40
1.0
 40
1.0
 10
7.4991908279
 20
8.8903338389
 30
0.0
 10
7.4991686767
 20
8.8903222182
 30
0.0
 10
7.4991183964
 20
8.8903318502
 30
0.0
 10
7.4990596051
 20
8.8903653278
 30
0.0
 10
7.4989686878
 20
8.890432654
 30
0.0
 10
7.4988354788
 20
8.8905644115
 30
0.0
 10
7.498648919
 20
8.8907787754
 30
0.0
 10
7.4984233378
 20
8.8910667287
 30
0.0
 10
7.4980338009
 20
8.8915993717
 30
0.0
 10
7.4974473545
 20
8.8924684136
 30
0.0
 10
7.4966274379
 20
8.8937549113
 30
0.0
 10
7.4956471873
 20
8.8953538367
 30
0.0
 10
7.4945167009
 20
8.897250763
 30
0.0
 10
7.4932481748
 20
8.8994279398
 30
0.0
 10
7.4918579469
 20
8.9018593752
 30
0.0
 10
7.4898123538
 20
8.9054910772
 30
0.0
 10
7.487126267
 20
8.9103524594
 30
0.0
 10
7.4838666757
 20
8.91637408
 30
0.0
 10
7.4816879096
 20
8.9204675431
 30
0.0
 10
7.4806081984
 20
8.9225124807
 30
0.0
  0
SPLINE
  5
5BA
100
AcDbEntity
  8
0
100
AcDbSpline
 62
9
  6
CONTINUOUS
 70
0
 71
3
 72
24
 73
20
 74
0
 42
0.0000001
 43
0.0000001
 44
0.0000000001
 40
0.0
 40
0.0
 40
0.0
 40
0.0
 40
0.1862704871
 40
0.3735223377
 40
0.5515415466
 40
0.6336453489
 40
0.7092667572
 40
0.7771453668
 40
0.8366097458
 40
0.8871371978
 40
0.9282090503
 40
0.9594888861
 40
0.9715631354
 40
0.9813558111
 40
0.9889471049
 40
0.99443522
 40
0.996437186
 40
0.9979850329
 40
1.0
 40
1.0
 40
1.0
 40
1.0
 10
7.1948466986
 20
8.4275585335
 30
0.0
 10
7.1971575016
 20
8.4276459398
 30
0.0
 10
7.2017918808
 20
8.4278057942
 30
0.0
 10
7.2086364767
 20
8.4279937007
 30
0.0
 10
7.2141895306
 20
8.4280981606
 30
0.0
 10
7.2183574162
 20
8.4281424675
 30
0.0
 10
7.2211581751
 20
8.4281542069
 30
0.0
 10
7.2236778929
 20
8.4281442147
 30
0.0
 10
7.225885892
 20
8.428113644
 30
0.0
 10
7.2277607028
 20
8.4280641817
 30
0.0
 10
7.2292847827
 20
8.4279973597
 30
0.0
 10
7.2303306074
 20
8.4279240019
 30
0.0
 10
7.2309866529
 20
8.4278529741
 30
0.0
 10
7.2313488168
 20
8.4278015914
 30
0.0
 10
7.2316277411
 20
8.4277472078
 30
0.0
 10
7.2318084516
 20
8.4276977241
 30
0.0
 10
7.2319122177
 20
8.427652651
 30
0.0
 10
7.2319706072
 20
8.427618475
 30
0.0
 10
7.2320040909
 20
8.4275797481
 30
0.0
 10
7.2320051043
 20
8.4275547538
 30
0.0
  0
SPLINE
  5
5BB
100
AcDbEntity
  8
0
100
AcDbSpline
 62
9
  6
CONTINUOUS
 70
0
 71
3
 72
14
 73
10
 74
0
 42
0.0000001
 43
0.0000001
 44
0.0000000001
 40
0.0
 40
0.0
 40
0.0
 40
0.0
 40
0.0322661432
 40
0.0839785509
 40
0.1616636898
 40
0.2677470164
 40
0.4036283061
 40
0.5703674704
 40
1.0
 40
1.0
 40
1.0
 40
1.0
 10
6.8626315714
 20
8.4275547372
 30
0.0
 10
6.8626323834
 20
8.4275747642
 30
0.0
 10
6.8626656001
 20
8.427622286
 30
0.0
 10
6.86275483
 20
8.4276684235
 30
0.0
 10
6.8628932483
 20
8.4277173862
 30
0.0
 10
6.8630865668
 20
8.4277633325
 30
0.0
 10
6.8633364745
 20
8.4278085872
 30
0.0
 10
6.863787064
 20
8.4278714288
 30
0.0
 10
6.86415604
 20
8.4279064326
 30
0.0
 10
6.8644220326
 20
8.4279282311
 30
0.0
  0
SPLINE
  5
5BC
100
AcDbEntity
  8
0
100
AcDbSpline
 62
9
  6
CONTINUOUS
 70
0
 71
3
 72
14
 73
10
 74
0
 42
0.0000001
 43
0.0000001
 44
0.0000000001
 40
0.0
 40
0.0
 40
0.0
 40
0.0
 40
0.062378872
 40
0.1497422583
 40
0.2599756322
 40
0.3901725643
 40
0.5349758909
 40
0.6885210923
 40
1.0
 40
1.0
 40
1.0
 40
1.0
 10
6.8644220326
 20
8.4279282311
 30
0.0
 10
6.8651552372
 20
8.4279883183
 30
0.0
 10
6.8669199528
 20
8.4280717473
 30
0.0
 10
6.8699851822
 20
8.4281397073
 30
0.0
 10
6.8738511791
 20
8.4281589572
 30
0.0
 10
6.878394343
 20
8.4281260175
 30
0.0
 10
6.8834477933
 20
8.4280451686
 30
0.0
 10
6.8906378377
 20
8.427876769
 30
0.0
 10
6.8961193008
 20
8.4276973548
 30
0.0
 10
6.8997900894
 20
8.4275585059
 30
0.0
  0
SPLINE
  5
5BD
100
AcDbEntity
  8
0
100
AcDbSpline
 62
9
  6
CONTINUOUS
 70
0
 71
3
 72
16
 73
12
 74
0
 42
0.0000001
 43
0.0000001
 44
0.0000000001
 40
0.0
 40
0.0
 40
0.0
 40
0.0
 40
0.2642057721
 40
0.395064151
 40
0.5242394507
 40
0.6508862688
 40
0.7736032727
 40
0.8331997272
 40
0.8910736207
 40
0.9467605044
 40
1.0
 40
1.0
 40
1.0
 40
1.0
 10
7.2750013323
 20
8.5138264045
 30
0.0
 10
7.266318825
 20
8.5078143486
 30
0.0
 10
7.2536010617
 20
8.4984269513
 30
0.0
 10
7.2374536105
 20
8.4850637343
 30
0.0
 10
7.2260321529
 20
8.4746383903
 30
0.0
 10
7.2154907448
 20
8.463766985
 30
0.0
 10
7.2077440958
 20
8.4541089709
 30
0.0
 10
7.202525019
 20
8.4460413325
 30
0.0
 10
7.1992235203
 20
8.4399484406
 30
0.0
 10
7.1965925509
 20
8.4338112223
 30
0.0
 10
7.1953241624
 20
8.4296323766
 30
0.0
 10
7.1948469235
 20
8.4275584941
 30
0.0
  0
SPLINE
  5
5BE
100
AcDbEntity
  8
0
100
AcDbSpline
 62
9
  6
CONTINUOUS
 70
0
 71
3
 72
16
 73
12
 74
0
 42
0.0000001
 43
0.0000001
 44
0.0000000001
 40
0.0
 40
0.0
 40
0.0
 40
0.0
 40
0.0531705707
 40
0.1088015404
 40
0.1666314766
 40
0.226197447
 40
0.3488962904
 40
0.4755538423
 40
0.604745025
 40
0.7356652247
 40
1.0
 40
1.0
 40
1.0
 40
1.0
 10
6.8997901869
 20
8.4275585086
 30
0.0
 10
6.8993130239
 20
8.4296295673
 30
0.0
 10
6.8980457295
 20
8.4338034167
 30
0.0
 10
6.8954184049
 20
8.4399347597
 30
0.0
 10
6.8921211337
 20
8.4460239411
 30
0.0
 10
6.8869064645
 20
8.4540899616
 30
0.0
 10
6.8791623997
 20
8.4637480703
 30
0.0
 10
6.8686223963
 20
8.474621169
 30
0.0
 10
6.8571993506
 20
8.485049912
 30
0.0
 10
6.841045742
 20
8.498418444
 30
0.0
 10
6.8283224421
 20
8.5078110193
 30
0.0
 10
6.8196358096
 20
8.5138260559
 30
0.0
  0
ENDSEC
  0
SECTION
  2
OBJECTS
  0
DICTIONARY
  5
C
100
AcDbDictionary
280
0
281
1
  3
ACAD_GROUP
350
D
  3
ACAD_MLINESTYLE
350
17
  3
ACAD_LAYOUT
350
1A
  3
ACAD_PLOTSETTINGS
350
19
  3
ACAD_PLOTSTYLENAME
350
E
  0
DICTIONARY
  5
D
102
{ACAD_REACTORS
330
C
102
}
100
AcDbDictionary
280
0
281
1
  0
ACDBDICTIONARYWDFLT
  5
E
102
{ACAD_REACTORS
330
C
102
}
100
AcDbDictionary
281
1
  3
Normal
350
F
100
AcDbDictionaryWithDefault
340
F
  0
DICTIONARY
  5
17
102
{ACAD_REACTORS
330
C
102
}
100
AcDbDictionary
280
0
281
1
  3
Standard
350
18
  0
DICTIONARY
  5
19
102
{ACAD_REACTORS
330
C
102
}
100
AcDbDictionary
281
1
  0
DICTIONARY
  5
1A
102
{ACAD_REACTORS
330
C
102
}
100
AcDbDictionary
281
1
  3
Model
350
5BF
  3
Layout1
350
5C0
  0
ACDBPLACEHOLDER
  5
F
102
{ACAD_REACTORS
330
E
102
}
  0
MLINESTYLE
  5
18
102
{ACAD_REACTORS
330
17
102
}
100
AcDbMlineStyle
  2
STANDARD
 70
0
  3

 62
256
 51
90.0
 52
90.0
 71
2
 49
0.5
 62
256
  6
BYLAYER
 49
-0.5
 62
256
  6
BYLAYER
  0
LAYOUT
  5
5BF
102
{ACAD_REACTORS
330
1A
102
}
100
AcDbPlotSettings
  1

  2
none_device
  4
ANSI_C_(22.00_x_17.00_Inches)
  6

 40
0.0
 41
0.0
 42
0.0
 43
0.0
 44
558.8
 45
431.8
 46
0.0
 47
0.0
 48
0.0
 49
0.0
140
0.0
141
0.0
142
1.0
143
1.0
 70
1024
 72
0
 73
0
 74
0
  7

 75
0
147
1.0
148
0.0
149
0.0
100
AcDbLayout
  1
Model
 70
0
 71
0
 10
0.0
 20
0.0
 11
22.0
 21
17.0
 12
0.0
 22
0.0
 32
0.0
 14
0.0
 24
0.0
 34
0.0
 15
0.0
 25
0.0
 35
0.0
146
0.0
 13
0.0
 23
0.0
 33
0.0
 16
1.0
 26
0.0
 36
0.0
 17
0.0
 27
1.0
 37
0.0
 76
0
330
202
345
0
346
0
  0
LAYOUT
  5
5C0
102
{ACAD_REACTORS
330
1A
102
}
100
AcDbPlotSettings
  1

  2
none_device
  4
ANSI_C_(22.00_x_17.00_Inches)
  6

 40
0.0
 41
0.0
 42
0.0
 43
0.0
 44
558.8
 45
431.8
 46
0.0
 47
0.0
 48
0.0
 49
0.0
140
0.0
141
0.0
142
1.0
143
1.0
 70
0
 72
0
 73
0
 74
0
  7

 75
0
147
1.0
148
0.0
149
0.0
100
AcDbLayout
  1
Layout1
 70
0
 71
1
 10
0.0
 20
0.0
 11
22.0
 21
17.0
 12
0.0
 22
0.0
 32
0.0
 14
0.0
 24
0.0
 34
0.0
 15
0.0
 25
0.0
 35
0.0
146
0.0
 13
0.0
 23
0.0
 33
0.0
 16
1.0
 26
0.0
 36
0.0
 17
0.0
 27
1.0
 37
0.0
 76
0
330
203
345
0
346
0
  0
ENDSEC
  0
EOF
