999
DXF file: E:\BT Custom\CADOUTPUT\_TOP.dxf
999
Pro/ENGINEER 2018400 by Parametric Technology Corporation
  0
SECTION
  2
HEADER
  9
$ACADVER
  1
AC1018
  9
$DWGCODEPAGE
  3
ANSI_1252
  9
$EXTMAX
 10
22.0
 20
17.0
 30
0.0
  9
$EXTMIN
 10
0.0
 20
0.0
 30
0.0
  9
$LIMMIN
 10
0.0
 20
0.0
  9
$LIMMAX
 10
22.0
 20
17.0
  9
$VIEWCTR
 10
11.0
 20
8.5
  9
$VIEWSIZE
 40
17.0
  9
$CLAYER
  8
0
  9
$LTSCALE
 40
1.21
  9
$CELTYPE
  6
BYLAYER
  9
$DIMSCALE
 40
1.0
  9
$DIMASZ
 40
0.1
  9
$DIMEXO
 40
0.0625
  9
$DIMDLI
 40
0.836
  9
$DIMEXE
 40
0.125
  9
$DIMCEN
 40
0.198
  9
$DIMLFAC
 40
1.0
  9
$DIMBLK
  1
_FILLED
  9
$DIMALT
 70
1
  9
$DIMALTD
 70
2
  9
$DIMALTTD
 70
2
  9
$DIMALTF
 40
25.4
  9
$DIMTXT
 40
0.08
  9
$DIMTOL
 70
1
  9
$DIMLIM
 70
0
  9
$DIMTFAC
 40
1.0
  9
$DIMTP
 40
0.001
  9
$DIMTM
 40
0.001
  9
$DIMGAP
 40
0.09
  9
$DIMDSEP
 70
46
  9
$AUNITS
 70
0
  9
$PDMODE
 70
3
  9
$PDSIZE
 40
0.06
  9
$HANDSEED
  5
61E
  9
$TILEMODE
 70
1
  9
$MEASUREMENT
 70
0
  9
$INSUNITS
 70
1
  0
ENDSEC
  0
SECTION
  2
CLASSES
  0
CLASS
  1
ACDBDICTIONARYWDFLT
  2
AcDbDictionaryWithDefault
  3
AutoCAD 2000
 90
0
 91
1
280
0
281
0
  0
CLASS
  1
ACDBPLACEHOLDER
  2
AcDbPlaceHolder
  3
AutoCAD 2000
 90
0
 91
1
280
0
281
0
  0
CLASS
  1
LAYOUT
  2
AcDbLayout
  3
AutoCAD 2000
 90
0
 91
0
280
0
281
0
  0
ENDSEC
  0
SECTION
  2
TABLES
  0
TABLE
  2
VPORT
  5
8
100
AcDbSymbolTable
 70
2
  0
VPORT
  5
1F4
100
AcDbSymbolTableRecord
100
AcDbViewportTableRecord
  2
*ACTIVE
 70
0
 10
0.0
 20
0.0
 11
1.0
 21
1.0
 12
11.0
 22
8.5
 13
0.0
 23
0.0
 14
1.0
 24
1.0
 15
0.0
 25
0.0
 16
0.0
 26
0.0
 36
1.0
 17
0.0
 27
0.0
 37
0.0
 40
17.0
 41
1.2941176471
 42
50.0
 43
0.0
 44
0.0
 50
0.0
 51
0.0
 71
0
 72
100
 73
1
 74
1
 75
0
 76
0
 77
0
 78
0
  0
ENDTAB
  0
TABLE
  2
LTYPE
  5
5
100
AcDbSymbolTable
 70
6
  0
LTYPE
  5
14
100
AcDbSymbolTableRecord
100
AcDbLinetypeTableRecord
  2
BYBLOCK
 70
0
  3

 72
65
 73
0
 40
0.0
  0
LTYPE
  5
15
100
AcDbSymbolTableRecord
100
AcDbLinetypeTableRecord
  2
BYLAYER
 70
0
  3

 72
65
 73
0
 40
0.0
  0
LTYPE
  5
16
100
AcDbSymbolTableRecord
100
AcDbLinetypeTableRecord
  2
CONTINUOUS
 70
64
  3
Solid line
 72
65
 73
0
 40
0.0
  0
LTYPE
  5
1F5
100
AcDbSymbolTableRecord
100
AcDbLinetypeTableRecord
  2
CENTER
 70
64
  3
____ _ ____ _ ____ _ ____ _ ____ _ ____ _ ____
 72
65
 73
4
 40
0.6
 49
0.375
 74
0
 49
-0.075
 74
0
 49
0.075
 74
0
 49
-0.075
 74
0
  0
LTYPE
  5
1F6
100
AcDbSymbolTableRecord
100
AcDbLinetypeTableRecord
  2
HIDDEN
 70
64
  3
- - - - - - - - - - - - - - - - - - - -
 72
65
 73
2
 40
0.2
 49
0.1
 74
0
 49
-0.1
 74
0
  0
LTYPE
  5
1F7
100
AcDbSymbolTableRecord
100
AcDbLinetypeTableRecord
  2
PHANTOM
 70
64
  3
_____ _ _ _____ _ _ _____ _ _ _____
 72
65
 73
6
 40
0.8
 49
0.45
 74
0
 49
-0.05
 74
0
 49
0.1
 74
0
 49
-0.05
 74
0
 49
0.1
 74
0
 49
-0.05
 74
0
  0
LTYPE
  5
1F8
100
AcDbSymbolTableRecord
100
AcDbLinetypeTableRecord
  2
DOT
 70
64
  3
. . . . . . . . . . . . . . . . . . . .
 72
65
 73
2
 40
0.2
 49
0.1
 74
0
 49
-0.1
 74
0
  0
LTYPE
  5
1F9
100
AcDbSymbolTableRecord
100
AcDbLinetypeTableRecord
  2
DASHED
 70
64
  3
- - - - - - - - - - - - - - - - - - - -
 72
65
 73
2
 40
0.2
 49
0.1
 74
0
 49
-0.1
 74
0
  0
ENDTAB
  0
TABLE
  2
LAYER
  5
2
100
AcDbSymbolTable
 70
36
  0
LAYER
  5
10
100
AcDbSymbolTableRecord
100
AcDbLayerTableRecord
  2
0
 70
0
 62
7
  6
CONTINUOUS
370
-3
390
F
  0
LAYER
  5
1FA
100
AcDbSymbolTableRecord
100
AcDbLayerTableRecord
  2
DEFAULT_1
 70
0
 62
7
  6
CENTER
370
-3
390
F
  0
LAYER
  5
1FB
100
AcDbSymbolTableRecord
100
AcDbLayerTableRecord
  2
DEFAULT_2
 70
0
 62
8
  6
HIDDEN
370
-3
390
F
  0
LAYER
  5
1FC
100
AcDbSymbolTableRecord
100
AcDbLayerTableRecord
  2
DEFAULT_3
 70
0
 62
7
  6
PHANTOM
370
-3
390
F
  0
LAYER
  5
1FD
100
AcDbSymbolTableRecord
100
AcDbLayerTableRecord
  2
ALL_FEATURES
 70
0
 62
7
  6
CONTINUOUS
370
-3
390
F
  0
LAYER
  5
1FE
100
AcDbSymbolTableRecord
100
AcDbLayerTableRecord
  2
AXES_FEATURES
 70
0
 62
7
  6
CONTINUOUS
370
-3
390
F
  0
LAYER
  5
1FF
100
AcDbSymbolTableRecord
100
AcDbLayerTableRecord
  2
DIMENSIONS
 70
0
 62
7
  6
CONTINUOUS
370
-3
390
F
  0
ENDTAB
  0
TABLE
  2
STYLE
  5
3
100
AcDbSymbolTable
 70
1
  0
STYLE
  5
11
100
AcDbSymbolTableRecord
100
AcDbTextStyleTableRecord
  2
STANDARD
 70
0
 40
0.0
 41
0.8
 50
0.0
 71
0
 42
0.2
  3
txt
  4

  0
STYLE
  5
200
100
AcDbSymbolTableRecord
100
AcDbTextStyleTableRecord
  2
TEXTSTYLE_1
 70
0
 40
0.0
 41
0.8
 50
0.0
 71
0
 42
0.2
  3
gdt
  4

  0
ENDTAB
  0
TABLE
  2
VIEW
  5
6
100
AcDbSymbolTable
 70
0
  0
ENDTAB
  0
TABLE
  2
UCS
  5
7
100
AcDbSymbolTable
 70
0
  0
ENDTAB
  0
TABLE
  2
APPID
  5
9
100
AcDbSymbolTable
 70
1
  0
APPID
  5
201
100
AcDbSymbolTableRecord
100
AcDbRegAppTableRecord
  2
ACAD
 70
0
  0
ENDTAB
  0
TABLE
  2
BLOCK_RECORD
  5
1
100
AcDbSymbolTable
 70
0
  0
BLOCK_RECORD
  5
202
100
AcDbSymbolTableRecord
100
AcDbBlockTableRecord
  2
*Model_Space
  0
BLOCK_RECORD
  5
203
100
AcDbSymbolTableRecord
100
AcDbBlockTableRecord
  2
*Paper_Space
  0
BLOCK_RECORD
  5
204
100
AcDbSymbolTableRecord
100
AcDbBlockTableRecord
  2
_FILLED
  0
ENDTAB
  0
TABLE
  2
DIMSTYLE
  5
A
100
AcDbSymbolTable
 70
1
100
AcDbDimStyleTable
 71
0
  0
DIMSTYLE
105
205
100
AcDbSymbolTableRecord
100
AcDbDimStyleTableRecord
  2
STANDARD
 70
0
  3

  4

 40
1.0
 41
0.1
 42
0.0625
 43
0.38
 44
0.125
 45
0.0
 46
0.0
 47
0.001
 48
0.001
140
0.08
141
0.09
142
0.0
143
25.4
144
1.0
145
0.0
146
1.0
147
0.09
 71
1.0
 72
0.0
 73
1
 74
1
 75
0
 76
0
 77
0
 78
4
 79
1
170
1
171
2
172
0
173
0
174
0
175
0
176
0
177
0
178
0
270
2
179
3
271
3
272
3
273
2
274
2
275
0
280
0
281
0
282
0
283
1
284
4
285
0
286
0
287
3
288
0
340
11
278
46
341
204
342
204
343
204
344
204
  0
ENDTAB
  0
ENDSEC
  0
SECTION
  2
BLOCKS
  0
BLOCK
  5
20
100
AcDbEntity
  8
0
100
AcDbBlockBegin
  2
*Model_Space
 70
0
 10
0.0
 20
0.0
 30
0.0
  3
*Model_Space
  1

  0
ENDBLK
  5
21
100
AcDbEntity
  8
0
100
AcDbBlockEnd
  0
BLOCK
  5
1C
100
AcDbEntity
  8
0
100
AcDbBlockBegin
  2
*Paper_Space
 70
0
 10
0.0
 20
0.0
 30
0.0
  3
*Paper_Space
  1

  0
ENDBLK
  5
1D
100
AcDbEntity
  8
0
100
AcDbBlockEnd
  0
BLOCK
  5
206
100
AcDbEntity
  8
0
100
AcDbBlockBegin
  2
_FILLED
 70
64
 10
0.0
 20
0.0
  3
_FILLED
  1

  0
SOLID
  5
207
100
AcDbEntity
  8
0
  6
BYBLOCK
 62
0
100
AcDbTrace
 10
0.0
 20
0.0
 11
-1.0
 21
0.2
 12
-1.0
 22
-0.2
 13
-1.0
 23
-0.2
  0
ENDBLK
  5
208
100
AcDbEntity
  8
0
  6
BYBLOCK
 62
0
100
AcDbBlockEnd
  0
ENDSEC
  0
SECTION
  2
ENTITIES
  0
LINE
  5
209
100
AcDbEntity
  8
0
100
AcDbLine
 62
9
  6
CONTINUOUS
 10
4.0256199703
 20
7.9499150823
 11
4.0257733607
 21
7.9323047015
  0
LINE
  5
20A
100
AcDbEntity
  8
0
100
AcDbLine
 62
7
  6
CONTINUOUS
 10
3.9856053078
 20
7.5410753818
 11
3.9856053078
 21
7.909912043
  0
LINE
  5
20B
100
AcDbEntity
  8
0
100
AcDbLine
 62
9
  6
CONTINUOUS
 10
4.0268133197
 20
7.5187046861
 11
4.0268134884
 21
7.5010907301
  0
LINE
  5
20C
100
AcDbEntity
  8
0
100
AcDbLine
 62
9
  6
CONTINUOUS
 10
4.0270079528
 20
7.8926552308
 11
4.027007861
 21
7.5583364564
  0
LINE
  5
20D
100
AcDbEntity
  8
0
100
AcDbLine
 62
7
  6
CONTINUOUS
 10
6.2416053078
 20
11.4797488615
 11
6.2656053078
 21
11.5213180809
  0
LINE
  5
20E
100
AcDbEntity
  8
0
100
AcDbLine
 62
7
  6
CONTINUOUS
 10
5.6606053078
 20
12.1463180809
 11
5.6606053078
 21
12.0463180809
  0
LINE
  5
20F
100
AcDbEntity
  8
0
100
AcDbLine
 62
7
  6
CONTINUOUS
 10
5.6613388772
 20
11.7963180809
 11
5.6613388772
 21
11.7213180809
  0
LINE
  5
210
100
AcDbEntity
  8
0
100
AcDbLine
 62
7
  6
CONTINUOUS
 10
5.6651208041
 20
11.7963180809
 11
5.6651208041
 21
11.7213180809
  0
LINE
  5
211
100
AcDbEntity
  8
0
100
AcDbLine
 62
7
  6
CONTINUOUS
 10
5.6693019426
 20
11.7213180809
 11
5.6693019426
 21
11.7963180809
  0
LINE
  5
212
100
AcDbEntity
  8
0
100
AcDbLine
 62
7
  6
CONTINUOUS
 10
5.6721109477
 20
11.7963180809
 11
5.6721109477
 21
11.7213180809
  0
LINE
  5
213
100
AcDbEntity
  8
0
100
AcDbLine
 62
7
  6
CONTINUOUS
 10
5.6783683263
 20
11.7213180809
 11
5.6783683263
 21
11.7963180809
  0
LINE
  5
214
100
AcDbEntity
  8
0
100
AcDbLine
 62
7
  6
CONTINUOUS
 10
5.6822901484
 20
11.7963180809
 11
5.6822901484
 21
11.7213180809
  0
LINE
  5
215
100
AcDbEntity
  8
0
100
AcDbLine
 62
7
  6
CONTINUOUS
 10
5.6906066161
 20
11.7213180809
 11
5.6906066161
 21
11.7963180809
  0
LINE
  5
216
100
AcDbEntity
  8
0
100
AcDbLine
 62
7
  6
CONTINUOUS
 10
5.6956305059
 20
11.7963180809
 11
5.6956305059
 21
11.7213180809
  0
LINE
  5
217
100
AcDbEntity
  8
0
100
AcDbLine
 62
7
  6
CONTINUOUS
 10
5.7059832677
 20
11.7213180809
 11
5.7059832677
 21
11.7963180809
  0
LINE
  5
218
100
AcDbEntity
  8
0
100
AcDbLine
 62
7
  6
CONTINUOUS
 10
5.7106053078
 20
11.9963180809
 11
5.7106053078
 21
11.7963180809
  0
LINE
  5
219
100
AcDbEntity
  8
0
100
AcDbLine
 62
7
  6
CONTINUOUS
 10
5.712095455
 20
11.7963180809
 11
5.712095455
 21
11.7213180809
  0
LINE
  5
21A
100
AcDbEntity
  8
0
100
AcDbLine
 62
7
  6
CONTINUOUS
 10
5.7244561348
 20
11.7213180809
 11
5.7244561348
 21
11.7963180809
  0
LINE
  5
21B
100
AcDbEntity
  8
0
100
AcDbLine
 62
7
  6
CONTINUOUS
 10
5.7316398665
 20
11.7963180809
 11
5.7316398665
 21
11.7213180809
  0
LINE
  5
21C
100
AcDbEntity
  8
0
100
AcDbLine
 62
7
  6
CONTINUOUS
 10
5.7459745845
 20
11.7213180809
 11
5.7459745845
 21
11.7963180809
  0
LINE
  5
21D
100
AcDbEntity
  8
0
100
AcDbLine
 62
7
  6
CONTINUOUS
 10
5.7542101706
 20
11.7963180809
 11
5.7542101706
 21
11.7213180809
  0
LINE
  5
21E
100
AcDbEntity
  8
0
100
AcDbLine
 62
7
  6
CONTINUOUS
 10
5.7704796363
 20
11.7213180809
 11
5.7704796363
 21
11.7963180809
  0
LINE
  5
21F
100
AcDbEntity
  8
0
100
AcDbLine
 62
7
  6
CONTINUOUS
 10
5.7797445036
 20
11.7963180809
 11
5.7797445036
 21
11.7213180809
  0
LINE
  5
220
100
AcDbEntity
  8
0
100
AcDbLine
 62
7
  6
CONTINUOUS
 10
5.7979041236
 20
11.7213180809
 11
5.7979041236
 21
11.7963180809
  0
LINE
  5
221
100
AcDbEntity
  8
0
100
AcDbLine
 62
7
  6
CONTINUOUS
 10
5.8081728776
 20
11.7963180809
 11
5.8081728776
 21
11.7213180809
  0
LINE
  5
222
100
AcDbEntity
  8
0
100
AcDbLine
 62
7
  6
CONTINUOUS
 10
5.8281728776
 20
11.7213180809
 11
5.8281728776
 21
11.7963180809
  0
LINE
  5
223
100
AcDbEntity
  8
0
100
AcDbLine
 62
7
  6
CONTINUOUS
 10
5.8394173726
 20
11.7963180809
 11
5.8394173726
 21
11.7213180809
  0
LINE
  5
224
100
AcDbEntity
  8
0
100
AcDbLine
 62
7
  6
CONTINUOUS
 10
5.861202934
 20
11.7213180809
 11
5.861202934
 21
11.7963180809
  0
LINE
  5
225
100
AcDbEntity
  8
0
100
AcDbLine
 62
7
  6
CONTINUOUS
 10
5.8733923494
 20
11.7963180809
 11
5.8733923494
 21
11.7213180809
  0
LINE
  5
226
100
AcDbEntity
  8
0
100
AcDbLine
 62
7
  6
CONTINUOUS
 10
5.8969037595
 20
11.7213180809
 11
5.8969037595
 21
11.7963180809
  0
LINE
  5
227
100
AcDbEntity
  8
0
100
AcDbLine
 62
7
  6
CONTINUOUS
 10
5.910004685
 20
11.7963180809
 11
5.910004685
 21
11.7213180809
  0
LINE
  5
228
100
AcDbEntity
  8
0
100
AcDbLine
 62
7
  6
CONTINUOUS
 10
5.9351775007
 20
11.7213180809
 11
5.9351775007
 21
11.7963180809
  0
LINE
  5
229
100
AcDbEntity
  8
0
100
AcDbLine
 62
7
  6
CONTINUOUS
 10
5.9491540277
 20
11.7963180809
 11
5.9491540277
 21
11.7213180809
  0
LINE
  5
22A
100
AcDbEntity
  8
0
100
AcDbLine
 62
7
  6
CONTINUOUS
 10
5.9759192519
 20
11.7213180809
 11
5.9759192519
 21
11.7963180809
  0
LINE
  5
22B
100
AcDbEntity
  8
0
100
AcDbLine
 62
7
  6
CONTINUOUS
 10
5.9907330716
 20
11.7963180809
 11
5.9907330716
 21
11.7213180809
  0
LINE
  5
22C
100
AcDbEntity
  8
0
100
AcDbLine
 62
7
  6
CONTINUOUS
 10
6.0190173429
 20
11.7213180809
 11
6.0190173429
 21
11.7963180809
  0
LINE
  5
22D
100
AcDbEntity
  8
0
100
AcDbLine
 62
7
  6
CONTINUOUS
 10
6.0346278517
 20
11.7963180809
 11
6.0346278517
 21
11.7213180809
  0
LINE
  5
22E
100
AcDbEntity
  8
0
100
AcDbLine
 62
7
  6
CONTINUOUS
 10
6.0356053078
 20
8.6253338289
 11
6.0356053078
 21
8.8253338289
  0
LINE
  5
22F
100
AcDbEntity
  8
0
100
AcDbLine
 62
7
  6
CONTINUOUS
 10
8.0106053078
 20
12.0463180809
 11
7.9606053078
 21
11.9963180809
  0
LINE
  5
230
100
AcDbEntity
  8
0
100
AcDbLine
 62
7
  6
CONTINUOUS
 10
6.0643536447
 20
11.7213180809
 11
6.0643536447
 21
11.7963180809
  0
LINE
  5
231
100
AcDbEntity
  8
0
100
AcDbLine
 62
7
  6
CONTINUOUS
 10
6.0807180552
 20
11.7963180809
 11
6.0807180552
 21
11.7213180809
  0
LINE
  5
232
100
AcDbEntity
  8
0
100
AcDbLine
 62
7
  6
CONTINUOUS
 10
6.1088473823
 20
11.7963180809
 11
6.1088473823
 21
11.7213180809
  0
LINE
  5
233
100
AcDbEntity
  8
0
100
AcDbLine
 62
7
  6
CONTINUOUS
 10
6.1106053078
 20
8.5753338289
 11
6.1106053078
 21
8.6253338289
  0
LINE
  5
234
100
AcDbEntity
  8
0
100
AcDbLine
 62
7
  6
CONTINUOUS
 10
6.1106053078
 20
8.8253338289
 11
6.1106053078
 21
8.9253338289
  0
LINE
  5
235
100
AcDbEntity
  8
0
100
AcDbLine
 62
7
  6
CONTINUOUS
 10
6.1118038937
 20
11.7213180809
 11
6.1118038937
 21
11.7963180809
  0
LINE
  5
236
100
AcDbEntity
  8
0
100
AcDbLine
 62
7
  6
CONTINUOUS
 10
6.1288773523
 20
11.7963180809
 11
6.1288773523
 21
11.7213180809
  0
LINE
  5
237
100
AcDbEntity
  8
0
100
AcDbLine
 62
7
  6
CONTINUOUS
 10
6.1568133972
 20
11.7963180809
 11
6.1568133972
 21
11.7213180809
  0
LINE
  5
238
100
AcDbEntity
  8
0
100
AcDbLine
 62
7
  6
CONTINUOUS
 10
6.1612380321
 20
11.7213180809
 11
6.1612380321
 21
11.7963180809
  0
LINE
  5
239
100
AcDbEntity
  8
0
100
AcDbLine
 62
7
  6
CONTINUOUS
 10
6.1789737416
 20
11.7963180809
 11
6.1789737416
 21
11.7213180809
  0
LINE
  5
23A
100
AcDbEntity
  8
0
100
AcDbLine
 62
7
  6
CONTINUOUS
 10
6.1856053078
 20
9.0003338289
 11
6.1856053078
 21
9.2902818148
  0
LINE
  5
23B
100
AcDbEntity
  8
0
100
AcDbLine
 62
7
  6
CONTINUOUS
 10
6.2066399336
 20
11.7963180809
 11
6.2066399336
 21
11.7213180809
  0
LINE
  5
23C
100
AcDbEntity
  8
0
100
AcDbLine
 62
7
  6
CONTINUOUS
 10
6.2125205643
 20
11.7213180809
 11
6.2125205643
 21
11.7963180809
  0
LINE
  5
23D
100
AcDbEntity
  8
0
100
AcDbLine
 62
7
  6
CONTINUOUS
 10
6.2308699123
 20
11.7963180809
 11
6.2308699123
 21
11.7213180809
  0
LINE
  5
23E
100
AcDbEntity
  8
0
100
AcDbLine
 62
7
  6
CONTINUOUS
 10
6.2416053078
 20
11.3016988536
 11
6.2416053078
 21
11.4797488615
  0
LINE
  5
23F
100
AcDbEntity
  8
0
100
AcDbLine
 62
7
  6
CONTINUOUS
 10
6.2581904204
 20
11.7963180809
 11
6.2581904204
 21
11.7213180809
  0
LINE
  5
240
100
AcDbEntity
  8
0
100
AcDbLine
 62
7
  6
CONTINUOUS
 10
6.2655109285
 20
11.7213180809
 11
6.2655109285
 21
11.7963180809
  0
LINE
  5
241
100
AcDbEntity
  8
0
100
AcDbLine
 62
7
  6
CONTINUOUS
 10
6.2844236207
 20
11.7963180809
 11
6.2844236207
 21
11.7213180809
  0
LINE
  5
242
100
AcDbEntity
  8
0
100
AcDbLine
 62
7
  6
CONTINUOUS
 10
6.2856053078
 20
8.4253338289
 11
6.2856053078
 21
8.4753338289
  0
LINE
  5
243
100
AcDbEntity
  8
0
100
AcDbLine
 62
7
  6
CONTINUOUS
 10
6.3113235612
 20
11.7963180809
 11
6.3113235612
 21
11.7213180809
  0
LINE
  5
244
100
AcDbEntity
  8
0
100
AcDbLine
 62
7
  6
CONTINUOUS
 10
6.3200638817
 20
11.7213180809
 11
6.3200638817
 21
11.7963180809
  0
LINE
  5
245
100
AcDbEntity
  8
0
100
AcDbLine
 62
7
  6
CONTINUOUS
 10
6.3381615813
 20
11.4044046514
 11
6.3381615813
 21
11.2776836791
  0
LINE
  5
246
100
AcDbEntity
  8
0
100
AcDbLine
 62
7
  6
CONTINUOUS
 10
6.3394880798
 20
11.7963180809
 11
6.3394880798
 21
11.7213180809
  0
LINE
  5
247
100
AcDbEntity
  8
0
100
AcDbLine
 62
7
  6
CONTINUOUS
 10
6.3658937219
 20
11.7963180809
 11
6.3658937219
 21
11.7213180809
  0
LINE
  5
248
100
AcDbEntity
  8
0
100
AcDbLine
 62
7
  6
CONTINUOUS
 10
6.3760298981
 20
11.7213180809
 11
6.3760298981
 21
11.7963180809
  0
LINE
  5
249
100
AcDbEntity
  8
0
100
AcDbLine
 62
7
  6
CONTINUOUS
 10
6.3959123618
 20
11.7963180809
 11
6.3959123618
 21
11.7213180809
  0
LINE
  5
24A
100
AcDbEntity
  8
0
100
AcDbLine
 62
7
  6
CONTINUOUS
 10
6.4217513293
 20
11.7963180809
 11
6.4217513293
 21
11.7213180809
  0
LINE
  5
24B
100
AcDbEntity
  8
0
100
AcDbLine
 62
7
  6
CONTINUOUS
 10
6.4332555789
 20
11.7213180809
 11
6.4332555789
 21
11.7963180809
  0
LINE
  5
24C
100
AcDbEntity
  8
0
100
AcDbLine
 62
7
  6
CONTINUOUS
 10
6.4356053078
 20
8.3253338289
 11
6.4356053078
 21
8.4253338289
  0
LINE
  5
24D
100
AcDbEntity
  8
0
100
AcDbLine
 62
7
  6
CONTINUOUS
 10
6.4535418116
 20
11.7963180809
 11
6.4535418116
 21
11.7213180809
  0
LINE
  5
24E
100
AcDbEntity
  8
0
100
AcDbLine
 62
9
  6
CONTINUOUS
 10
6.4659339467
 20
7.6129623976
 11
6.4659339467
 21
7.9010019979
  0
LINE
  5
24F
100
AcDbEntity
  8
0
100
AcDbLine
 62
7
  6
CONTINUOUS
 10
6.4787432818
 20
11.7963180809
 11
6.4787432818
 21
11.7213180809
  0
LINE
  5
250
100
AcDbEntity
  8
0
100
AcDbLine
 62
7
  6
CONTINUOUS
 10
6.4915840722
 20
11.7213180809
 11
6.4915840722
 21
11.7963180809
  0
LINE
  5
251
100
AcDbEntity
  8
0
100
AcDbLine
 62
7
  6
CONTINUOUS
 10
6.5122184708
 20
11.7963180809
 11
6.5122184708
 21
11.7213180809
  0
LINE
  5
252
100
AcDbEntity
  8
0
100
AcDbLine
 62
9
  6
CONTINUOUS
 10
6.5123151852
 20
7.5385016598
 11
6.5123151852
 21
7.9765417408
  0
LINE
  5
253
100
AcDbEntity
  8
0
100
AcDbLine
 62
7
  6
CONTINUOUS
 10
6.5231053078
 20
8.0123338289
 11
6.5231053078
 21
8.3053338289
  0
LINE
  5
254
100
AcDbEntity
  8
0
100
AcDbLine
 62
7
  6
CONTINUOUS
 10
6.5367133682
 20
11.7963180809
 11
6.5367133682
 21
11.7213180809
  0
LINE
  5
255
100
AcDbEntity
  8
0
100
AcDbLine
 62
7
  6
CONTINUOUS
 10
6.5508555039
 20
11.7213180809
 11
6.5508555039
 21
11.7963180809
  0
LINE
  5
256
100
AcDbEntity
  8
0
100
AcDbLine
 62
7
  6
CONTINUOUS
 10
6.5717815109
 20
11.7963180809
 11
6.5717815109
 21
11.7213180809
  0
LINE
  5
257
100
AcDbEntity
  8
0
100
AcDbLine
 62
7
  6
CONTINUOUS
 10
6.5731053078
 20
7.3923338289
 11
6.5731053078
 21
7.4223338289
  0
LINE
  5
258
100
AcDbEntity
  8
0
100
AcDbLine
 62
7
  6
CONTINUOUS
 10
6.5955026967
 20
11.7963180809
 11
6.5955026967
 21
11.7213180809
  0
LINE
  5
259
100
AcDbEntity
  8
0
100
AcDbLine
 62
7
  6
CONTINUOUS
 10
7.4056053078
 20
10.9413180809
 11
7.4296053078
 21
10.9828873003
  0
LINE
  5
25A
100
AcDbEntity
  8
0
100
AcDbLine
 62
7
  6
CONTINUOUS
 10
6.1856053078
 20
9.0003338289
 11
6.1106053078
 21
8.9253338289
  0
LINE
  5
25B
100
AcDbEntity
  8
0
100
AcDbLine
 62
7
  6
CONTINUOUS
 10
6.6109074149
 20
11.7213180809
 11
6.6109074149
 21
11.7963180809
  0
LINE
  5
25C
100
AcDbEntity
  8
0
100
AcDbLine
 62
7
  6
CONTINUOUS
 10
6.6320676737
 20
11.7963180809
 11
6.6320676737
 21
11.7213180809
  0
LINE
  5
25D
100
AcDbEntity
  8
0
100
AcDbLine
 62
7
  6
CONTINUOUS
 10
6.6356053078
 20
8.3253338289
 11
6.6356053078
 21
8.3053338289
  0
LINE
  5
25E
100
AcDbEntity
  8
0
100
AcDbLine
 62
7
  6
CONTINUOUS
 10
6.6549501298
 20
11.7963180809
 11
6.6549501298
 21
11.7213180809
  0
LINE
  5
25F
100
AcDbEntity
  8
0
100
AcDbLine
 62
7
  6
CONTINUOUS
 10
6.6715752073
 20
11.7213180809
 11
6.6715752073
 21
11.7963180809
  0
LINE
  5
260
100
AcDbEntity
  8
0
100
AcDbLine
 62
7
  6
CONTINUOUS
 10
6.6929117189
 20
11.7963180809
 11
6.6929117189
 21
11.7213180809
  0
LINE
  5
261
100
AcDbEntity
  8
0
100
AcDbLine
 62
7
  6
CONTINUOUS
 10
6.7148927261
 20
11.7963180809
 11
6.7148927261
 21
11.7213180809
  0
LINE
  5
262
100
AcDbEntity
  8
0
100
AcDbLine
 62
7
  6
CONTINUOUS
 10
6.7326925948
 20
11.7213180809
 11
6.7326925948
 21
11.7963180809
  0
LINE
  5
263
100
AcDbEntity
  8
0
100
AcDbLine
 62
7
  6
CONTINUOUS
 10
6.7390490343
 20
11.0582315104
 11
6.7390490343
 21
11.4044046514
  0
LINE
  5
264
100
AcDbEntity
  8
0
100
AcDbLine
 62
7
  6
CONTINUOUS
 10
6.7541468774
 20
11.7963180809
 11
6.7541468774
 21
11.7213180809
  0
LINE
  5
265
100
AcDbEntity
  8
0
100
AcDbLine
 62
7
  6
CONTINUOUS
 10
6.7751661873
 20
11.7963180809
 11
6.7751661873
 21
11.7213180809
  0
LINE
  5
266
100
AcDbEntity
  8
0
100
AcDbLine
 62
7
  6
CONTINUOUS
 10
6.7940920588
 20
11.7213180809
 11
6.7940920588
 21
11.7963180809
  0
LINE
  5
267
100
AcDbEntity
  8
0
100
AcDbLine
 62
7
  6
CONTINUOUS
 10
6.8156053078
 20
11.7963180809
 11
6.8156053078
 21
11.7213180809
  0
LINE
  5
268
100
AcDbEntity
  8
0
100
AcDbLine
 62
7
  6
CONTINUOUS
 10
6.8356053078
 20
11.7963180809
 11
6.8356053078
 21
11.7213180809
  0
LINE
  5
269
100
AcDbEntity
  8
0
100
AcDbLine
 62
7
  6
CONTINUOUS
 10
6.8556053078
 20
11.7213180809
 11
6.8556053078
 21
11.7963180809
  0
LINE
  5
26A
100
AcDbEntity
  8
0
100
AcDbLine
 62
7
  6
CONTINUOUS
 10
6.8771185568
 20
11.7963180809
 11
6.8771185568
 21
11.7213180809
  0
LINE
  5
26B
100
AcDbEntity
  8
0
100
AcDbLine
 62
7
  6
CONTINUOUS
 10
6.8960444284
 20
11.7963180809
 11
6.8960444284
 21
11.7213180809
  0
LINE
  5
26C
100
AcDbEntity
  8
0
100
AcDbLine
 62
7
  6
CONTINUOUS
 10
6.9170637382
 20
11.7213180809
 11
6.9170637382
 21
11.7963180809
  0
LINE
  5
26D
100
AcDbEntity
  8
0
100
AcDbLine
 62
7
  6
CONTINUOUS
 10
6.9321615813
 20
11.4044046514
 11
6.9321615813
 21
11.0582315104
  0
LINE
  5
26E
100
AcDbEntity
  8
0
100
AcDbLine
 62
7
  6
CONTINUOUS
 10
6.9385180209
 20
11.7963180809
 11
6.9385180209
 21
11.7213180809
  0
LINE
  5
26F
100
AcDbEntity
  8
0
100
AcDbLine
 62
7
  6
CONTINUOUS
 10
6.9563178895
 20
11.7963180809
 11
6.9563178895
 21
11.7213180809
  0
LINE
  5
270
100
AcDbEntity
  8
0
100
AcDbLine
 62
7
  6
CONTINUOUS
 10
6.9782988967
 20
11.7213180809
 11
6.9782988967
 21
11.7963180809
  0
LINE
  5
271
100
AcDbEntity
  8
0
100
AcDbLine
 62
7
  6
CONTINUOUS
 10
6.9996354084
 20
11.7963180809
 11
6.9996354084
 21
11.7213180809
  0
LINE
  5
272
100
AcDbEntity
  8
0
100
AcDbLine
 62
7
  6
CONTINUOUS
 10
7.0162604859
 20
11.7963180809
 11
7.0162604859
 21
11.7213180809
  0
LINE
  5
273
100
AcDbEntity
  8
0
100
AcDbLine
 62
7
  6
CONTINUOUS
 10
7.0356053078
 20
8.3253338289
 11
7.0356053078
 21
8.3053338289
  0
LINE
  5
274
100
AcDbEntity
  8
0
100
AcDbLine
 62
7
  6
CONTINUOUS
 10
7.039142942
 20
11.7213180809
 11
7.039142942
 21
11.7963180809
  0
LINE
  5
275
100
AcDbEntity
  8
0
100
AcDbLine
 62
7
  6
CONTINUOUS
 10
7.0603032007
 20
11.7963180809
 11
7.0603032007
 21
11.7213180809
  0
LINE
  5
276
100
AcDbEntity
  8
0
100
AcDbLine
 62
7
  6
CONTINUOUS
 10
7.0757079189
 20
11.7963180809
 11
7.0757079189
 21
11.7213180809
  0
LINE
  5
277
100
AcDbEntity
  8
0
100
AcDbLine
 62
7
  6
CONTINUOUS
 10
7.0981053078
 20
7.3923338289
 11
7.0981053078
 21
7.4223338289
  0
LINE
  5
278
100
AcDbEntity
  8
0
100
AcDbLine
 62
7
  6
CONTINUOUS
 10
7.0994291048
 20
11.7213180809
 11
7.0994291048
 21
11.7963180809
  0
LINE
  5
279
100
AcDbEntity
  8
0
100
AcDbLine
 62
7
  6
CONTINUOUS
 10
7.1203551118
 20
11.7963180809
 11
7.1203551118
 21
11.7213180809
  0
LINE
  5
27A
100
AcDbEntity
  8
0
100
AcDbLine
 62
7
  6
CONTINUOUS
 10
7.1344972474
 20
11.7963180809
 11
7.1344972474
 21
11.7213180809
  0
LINE
  5
27B
100
AcDbEntity
  8
0
100
AcDbLine
 62
7
  6
CONTINUOUS
 10
7.1481053078
 20
8.0123338289
 11
7.1481053078
 21
8.3053338289
  0
LINE
  5
27C
100
AcDbEntity
  8
0
100
AcDbLine
 62
7
  6
CONTINUOUS
 10
7.1589921449
 20
11.7213180809
 11
7.1589921449
 21
11.7963180809
  0
LINE
  5
27D
100
AcDbEntity
  8
0
100
AcDbLine
 62
7
  6
CONTINUOUS
 10
7.6401999685
 20
9.8702786637
 11
7.605283224
 21
9.8258367332
  0
LINE
  5
27E
100
AcDbEntity
  8
0
100
AcDbLine
 62
9
  6
CONTINUOUS
 10
7.7065140514
 20
9.9024325562
 11
7.6715973069
 21
9.8579906257
  0
LINE
  5
27F
100
AcDbEntity
  8
0
100
AcDbLine
 62
9
  6
CONTINUOUS
 10
7.8267441098
 20
9.7733236822
 11
7.8616608543
 21
9.8177656127
  0
LINE
  5
280
100
AcDbEntity
  8
0
100
AcDbLine
 62
9
  6
CONTINUOUS
 10
7.8617842367
 20
9.7978439789
 11
7.8268674922
 21
9.7534020484
  0
LINE
  5
281
100
AcDbEntity
  8
0
100
AcDbLine
 62
7
  6
CONTINUOUS
 10
7.8438297505
 20
9.7453309279
 11
7.808913006
 21
9.7008889974
  0
LINE
  5
282
100
AcDbEntity
  8
0
100
AcDbLine
 62
9
  6
CONTINUOUS
 10
7.7414267904
 20
9.8579906257
 11
7.7634870063
 21
9.8859078124
  0
LINE
  5
283
100
AcDbEntity
  8
0
100
AcDbLine
 62
9
  6
CONTINUOUS
 10
10.9456053078
 20
3.3058456399
 11
10.8006053181
 21
3.3058456399
  0
LINE
  5
284
100
AcDbEntity
  8
0
100
AcDbLine
 62
9
  6
CONTINUOUS
 10
8.7256053078
 20
3.3058456399
 11
8.8706052989
 21
3.3058456399
  0
LINE
  5
285
100
AcDbEntity
  8
0
100
AcDbLine
 62
7
  6
CONTINUOUS
 10
7.5871233122
 20
9.7727972544
 11
7.5872466946
 21
9.7528756206
  0
LINE
  5
286
100
AcDbEntity
  8
0
100
AcDbLine
 62
9
  6
CONTINUOUS
 10
7.6662156146
 20
9.7658064568
 11
7.666338997
 21
9.745884823
  0
LINE
  5
287
100
AcDbEntity
  8
0
100
AcDbLine
 62
7
  6
CONTINUOUS
 10
7.1796265434
 20
11.7963180809
 11
7.1796265434
 21
11.7213180809
  0
LINE
  5
288
100
AcDbEntity
  8
0
100
AcDbLine
 62
7
  6
CONTINUOUS
 10
7.1924673339
 20
11.7963180809
 11
7.1924673339
 21
11.7213180809
  0
LINE
  5
289
100
AcDbEntity
  8
0
100
AcDbLine
 62
7
  6
CONTINUOUS
 10
7.2176688041
 20
11.7213180809
 11
7.2176688041
 21
11.7963180809
  0
LINE
  5
28A
100
AcDbEntity
  8
0
100
AcDbLine
 62
7
  6
CONTINUOUS
 10
7.2356053078
 20
7.5168354687
 11
7.2356053078
 21
7.9923338289
  0
LINE
  5
28B
100
AcDbEntity
  8
0
100
AcDbLine
 62
7
  6
CONTINUOUS
 10
7.2356053078
 20
8.3253338289
 11
7.2356053078
 21
8.4253338289
  0
LINE
  5
28C
100
AcDbEntity
  8
0
100
AcDbLine
 62
7
  6
CONTINUOUS
 10
7.2379550368
 20
11.7963180809
 11
7.2379550368
 21
11.7213180809
  0
LINE
  5
28D
100
AcDbEntity
  8
0
100
AcDbLine
 62
7
  6
CONTINUOUS
 10
7.2456053078
 20
10.936357451
 11
7.2456053078
 21
10.9413180809
  0
LINE
  5
28E
100
AcDbEntity
  8
0
100
AcDbLine
 62
7
  6
CONTINUOUS
 10
7.2494592863
 20
11.7963180809
 11
7.2494592863
 21
11.7213180809
  0
LINE
  5
28F
100
AcDbEntity
  8
0
100
AcDbLine
 62
7
  6
CONTINUOUS
 10
7.2752982539
 20
11.7213180809
 11
7.2752982539
 21
11.7963180809
  0
LINE
  5
290
100
AcDbEntity
  8
0
100
AcDbLine
 62
7
  6
CONTINUOUS
 10
7.2951807175
 20
11.7963180809
 11
7.2951807175
 21
11.7213180809
  0
LINE
  5
291
100
AcDbEntity
  8
0
100
AcDbLine
 62
7
  6
CONTINUOUS
 10
7.3053168938
 20
11.7963180809
 11
7.3053168938
 21
11.7213180809
  0
LINE
  5
292
100
AcDbEntity
  8
0
100
AcDbLine
 62
7
  6
CONTINUOUS
 10
7.3317225358
 20
11.7213180809
 11
7.3317225358
 21
11.7963180809
  0
LINE
  5
293
100
AcDbEntity
  8
0
100
AcDbLine
 62
7
  6
CONTINUOUS
 10
7.3330490343
 20
11.0582315104
 11
7.3330490343
 21
11.4044046514
  0
LINE
  5
294
100
AcDbEntity
  8
0
100
AcDbLine
 62
7
  6
CONTINUOUS
 10
7.351146734
 20
11.7963180809
 11
7.351146734
 21
11.7213180809
  0
LINE
  5
295
100
AcDbEntity
  8
0
100
AcDbLine
 62
7
  6
CONTINUOUS
 10
7.3598870544
 20
11.7963180809
 11
7.3598870544
 21
11.7213180809
  0
LINE
  5
296
100
AcDbEntity
  8
0
100
AcDbLine
 62
7
  6
CONTINUOUS
 10
7.3856053078
 20
8.4253338289
 11
7.3856053078
 21
8.4753338289
  0
LINE
  5
297
100
AcDbEntity
  8
0
100
AcDbLine
 62
7
  6
CONTINUOUS
 10
7.3867869949
 20
11.7213180809
 11
7.3867869949
 21
11.7963180809
  0
LINE
  5
298
100
AcDbEntity
  8
0
100
AcDbLine
 62
7
  6
CONTINUOUS
 10
7.4056996872
 20
11.7963180809
 11
7.4056996872
 21
11.7213180809
  0
LINE
  5
299
100
AcDbEntity
  8
0
100
AcDbLine
 62
7
  6
CONTINUOUS
 10
7.4130201953
 20
11.7963180809
 11
7.4130201953
 21
11.7213180809
  0
LINE
  5
29A
100
AcDbEntity
  8
0
100
AcDbLine
 62
7
  6
CONTINUOUS
 10
7.4296053078
 20
10.9828873003
 11
7.4296053078
 21
11.4797488615
  0
LINE
  5
29B
100
AcDbEntity
  8
0
100
AcDbLine
 62
7
  6
CONTINUOUS
 10
7.4403407034
 20
11.7213180809
 11
7.4403407034
 21
11.7963180809
  0
LINE
  5
29C
100
AcDbEntity
  8
0
100
AcDbLine
 62
7
  6
CONTINUOUS
 10
7.4586900514
 20
11.7963180809
 11
7.4586900514
 21
11.7213180809
  0
LINE
  5
29D
100
AcDbEntity
  8
0
100
AcDbLine
 62
7
  6
CONTINUOUS
 10
7.464570682
 20
11.7963180809
 11
7.464570682
 21
11.7213180809
  0
LINE
  5
29E
100
AcDbEntity
  8
0
100
AcDbLine
 62
7
  6
CONTINUOUS
 10
7.4856053078
 20
9.0003338289
 11
7.4856053078
 21
9.6003338289
  0
LINE
  5
29F
100
AcDbEntity
  8
0
100
AcDbLine
 62
7
  6
CONTINUOUS
 10
7.4922368741
 20
11.7213180809
 11
7.4922368741
 21
11.7963180809
  0
LINE
  5
2A0
100
AcDbEntity
  8
0
100
AcDbLine
 62
7
  6
CONTINUOUS
 10
7.5099725836
 20
11.7963180809
 11
7.5099725836
 21
11.7213180809
  0
LINE
  5
2A1
100
AcDbEntity
  8
0
100
AcDbLine
 62
7
  6
CONTINUOUS
 10
7.5143972184
 20
11.7963180809
 11
7.5143972184
 21
11.7213180809
  0
LINE
  5
2A2
100
AcDbEntity
  8
0
100
AcDbLine
 62
9
  6
CONTINUOUS
 10
7.5225322566
 20
9.9658456399
 11
7.5225322566
 21
10.6458456399
  0
LINE
  5
2A3
100
AcDbEntity
  8
0
100
AcDbLine
 62
7
  6
CONTINUOUS
 10
7.5423332634
 20
11.7213180809
 11
7.5423332634
 21
11.7963180809
  0
LINE
  5
2A4
100
AcDbEntity
  8
0
100
AcDbLine
 62
7
  6
CONTINUOUS
 10
7.559406722
 20
11.7963180809
 11
7.559406722
 21
11.7213180809
  0
LINE
  5
2A5
100
AcDbEntity
  8
0
100
AcDbLine
 62
7
  6
CONTINUOUS
 10
7.5606053078
 20
8.5753338289
 11
7.5606053078
 21
8.6253338289
  0
LINE
  5
2A6
100
AcDbEntity
  8
0
100
AcDbLine
 62
7
  6
CONTINUOUS
 10
7.5606053078
 20
8.8253338289
 11
7.5606053078
 21
8.9253338289
  0
LINE
  5
2A7
100
AcDbEntity
  8
0
100
AcDbLine
 62
7
  6
CONTINUOUS
 10
7.5623632334
 20
11.7963180809
 11
7.5623632334
 21
11.7213180809
  0
LINE
  5
2A8
100
AcDbEntity
  8
0
100
AcDbLine
 62
7
  6
CONTINUOUS
 10
7.5904925604
 20
11.7213180809
 11
7.5904925604
 21
11.7963180809
  0
LINE
  5
2A9
100
AcDbEntity
  8
0
100
AcDbLine
 62
7
  6
CONTINUOUS
 10
7.606856971
 20
11.7963180809
 11
7.606856971
 21
11.7213180809
  0
LINE
  5
2AA
100
AcDbEntity
  8
0
100
AcDbLine
 62
7
  6
CONTINUOUS
 10
7.6356053078
 20
8.6253338289
 11
7.6356053078
 21
8.8253338289
  0
LINE
  5
2AB
100
AcDbEntity
  8
0
100
AcDbLine
 62
7
  6
CONTINUOUS
 10
7.636582764
 20
11.7213180809
 11
7.636582764
 21
11.7963180809
  0
LINE
  5
2AC
100
AcDbEntity
  8
0
100
AcDbLine
 62
7
  6
CONTINUOUS
 10
7.6521932728
 20
11.7963180809
 11
7.6521932728
 21
11.7213180809
  0
LINE
  5
2AD
100
AcDbEntity
  8
0
100
AcDbLine
 62
7
  6
CONTINUOUS
 10
7.680477544
 20
11.7213180809
 11
7.680477544
 21
11.7963180809
  0
LINE
  5
2AE
100
AcDbEntity
  8
0
100
AcDbLine
 62
7
  6
CONTINUOUS
 10
7.6952913637
 20
11.7963180809
 11
7.6952913637
 21
11.7213180809
  0
LINE
  5
2AF
100
AcDbEntity
  8
0
100
AcDbLine
 62
7
  6
CONTINUOUS
 10
7.722056588
 20
11.7213180809
 11
7.722056588
 21
11.7963180809
  0
LINE
  5
2B0
100
AcDbEntity
  8
0
100
AcDbLine
 62
7
  6
CONTINUOUS
 10
7.736033115
 20
11.7963180809
 11
7.736033115
 21
11.7213180809
  0
LINE
  5
2B1
100
AcDbEntity
  8
0
100
AcDbLine
 62
7
  6
CONTINUOUS
 10
7.5872466946
 20
10.8588156592
 11
7.5871233122
 21
10.8388940255
  0
LINE
  5
2B2
100
AcDbEntity
  8
0
100
AcDbLine
 62
9
  6
CONTINUOUS
 10
7.666338997
 20
10.8658064568
 11
7.6662156146
 21
10.845884823
  0
LINE
  5
2B3
100
AcDbEntity
  8
0
100
AcDbLine
 62
9
  6
CONTINUOUS
 10
7.7360450981
 20
10.845884823
 11
7.7361684805
 21
10.8658064568
  0
LINE
  5
2B4
100
AcDbEntity
  8
0
100
AcDbLine
 62
7
  6
CONTINUOUS
 10
9.4067218482
 20
10.8945284754
 11
9.4068103308
 21
10.8945929785
  0
LWPOLYLINE
  5
2B5
100
AcDbEntity
  8
0
100
AcDbPolyline
 62
7
  6
CONTINUOUS
 90
4
 70
0
 10
9.4073107984
 20
10.8949585117
 10
9.3979257287
 20
10.8891645182
 10
9.3605956709
 20
10.8746459453
 10
9.3334573103
 20
10.8694163153
  0
LINE
  5
2B6
100
AcDbEntity
  8
0
100
AcDbLine
 62
9
  6
CONTINUOUS
 10
7.7361684805
 20
9.745884823
 11
7.7360450981
 21
9.7658064568
  0
LINE
  5
2B7
100
AcDbEntity
  8
0
100
AcDbLine
 62
9
  6
CONTINUOUS
 10
7.8267441098
 20
9.7733236822
 11
7.8268674922
 21
9.7534020484
  0
LINE
  5
2B8
100
AcDbEntity
  8
0
100
AcDbLine
 62
7
  6
CONTINUOUS
 10
7.7612059306
 20
11.7213180809
 11
7.7612059306
 21
11.7963180809
  0
LINE
  5
2B9
100
AcDbEntity
  8
0
100
AcDbLine
 62
9
  6
CONTINUOUS
 10
7.7635943596
 20
9.88588154
 11
7.7635943596
 21
10.7258097415
  0
LINE
  5
2BA
100
AcDbEntity
  8
0
100
AcDbLine
 62
7
  6
CONTINUOUS
 10
7.7743068562
 20
11.7963180809
 11
7.7743068562
 21
11.7213180809
  0
LINE
  5
2BB
100
AcDbEntity
  8
0
100
AcDbLine
 62
7
  6
CONTINUOUS
 10
7.7978182663
 20
11.7213180809
 11
7.7978182663
 21
11.7963180809
  0
LINE
  5
2BC
100
AcDbEntity
  8
0
100
AcDbLine
 62
9
  6
CONTINUOUS
 10
7.7980318028
 20
10.735048661
 11
7.7980318028
 21
9.8766426188
  0
LINE
  5
2BD
100
AcDbEntity
  8
0
100
AcDbLine
 62
7
  6
CONTINUOUS
 10
7.8100076817
 20
11.7963180809
 11
7.8100076817
 21
11.7213180809
  0
LINE
  5
2BE
100
AcDbEntity
  8
0
100
AcDbLine
 62
7
  6
CONTINUOUS
 10
7.8317932431
 20
11.7213180809
 11
7.8317932431
 21
11.7963180809
  0
LINE
  5
2BF
100
AcDbEntity
  8
0
100
AcDbLine
 62
7
  6
CONTINUOUS
 10
7.843037738
 20
11.7963180809
 11
7.843037738
 21
11.7213180809
  0
LINE
  5
2C0
100
AcDbEntity
  8
0
100
AcDbLine
 62
7
  6
CONTINUOUS
 10
7.8480318028
 20
9.8558456399
 11
7.8480318028
 21
10.7558456399
  0
LINE
  5
2C1
100
AcDbEntity
  8
0
100
AcDbLine
 62
7
  6
CONTINUOUS
 10
7.863037738
 20
11.7213180809
 11
7.863037738
 21
11.7963180809
  0
LINE
  5
2C2
100
AcDbEntity
  8
0
100
AcDbLine
 62
7
  6
CONTINUOUS
 10
7.8733064921
 20
11.7963180809
 11
7.8733064921
 21
11.7213180809
  0
LINE
  5
2C3
100
AcDbEntity
  8
0
100
AcDbLine
 62
7
  6
CONTINUOUS
 10
7.8914661121
 20
11.7213180809
 11
7.8914661121
 21
11.7963180809
  0
LINE
  5
2C4
100
AcDbEntity
  8
0
100
AcDbLine
 62
7
  6
CONTINUOUS
 10
7.9007309793
 20
11.7963180809
 11
7.9007309793
 21
11.7213180809
  0
LINE
  5
2C5
100
AcDbEntity
  8
0
100
AcDbLine
 62
7
  6
CONTINUOUS
 10
7.9170004451
 20
11.7213180809
 11
7.9170004451
 21
11.7963180809
  0
LINE
  5
2C6
100
AcDbEntity
  8
0
100
AcDbLine
 62
7
  6
CONTINUOUS
 10
7.9252360312
 20
11.7963180809
 11
7.9252360312
 21
11.7213180809
  0
LINE
  5
2C7
100
AcDbEntity
  8
0
100
AcDbLine
 62
7
  6
CONTINUOUS
 10
7.9395707491
 20
11.7213180809
 11
7.9395707491
 21
11.7963180809
  0
LINE
  5
2C8
100
AcDbEntity
  8
0
100
AcDbLine
 62
7
  6
CONTINUOUS
 10
7.9467544809
 20
11.7963180809
 11
7.9467544809
 21
11.7213180809
  0
LINE
  5
2C9
100
AcDbEntity
  8
0
100
AcDbLine
 62
7
  6
CONTINUOUS
 10
7.9591151607
 20
11.7213180809
 11
7.9591151607
 21
11.7963180809
  0
LINE
  5
2CA
100
AcDbEntity
  8
0
100
AcDbLine
 62
7
  6
CONTINUOUS
 10
7.9606053078
 20
11.9963180809
 11
7.9606053078
 21
11.7963180809
  0
LINE
  5
2CB
100
AcDbEntity
  8
0
100
AcDbLine
 62
7
  6
CONTINUOUS
 10
7.965227348
 20
11.7963180809
 11
7.965227348
 21
11.7213180809
  0
LINE
  5
2CC
100
AcDbEntity
  8
0
100
AcDbLine
 62
7
  6
CONTINUOUS
 10
7.9755801098
 20
11.7213180809
 11
7.9755801098
 21
11.7963180809
  0
LINE
  5
2CD
100
AcDbEntity
  8
0
100
AcDbLine
 62
7
  6
CONTINUOUS
 10
7.9806039996
 20
11.7963180809
 11
7.9806039996
 21
11.7213180809
  0
LINE
  5
2CE
100
AcDbEntity
  8
0
100
AcDbLine
 62
7
  6
CONTINUOUS
 10
7.9889204672
 20
11.7213180809
 11
7.9889204672
 21
11.7963180809
  0
LINE
  5
2CF
100
AcDbEntity
  8
0
100
AcDbLine
 62
7
  6
CONTINUOUS
 10
7.9928422894
 20
11.7963180809
 11
7.9928422894
 21
11.7213180809
  0
LINE
  5
2D0
100
AcDbEntity
  8
0
100
AcDbLine
 62
7
  6
CONTINUOUS
 10
7.999099668
 20
11.7213180809
 11
7.999099668
 21
11.7963180809
  0
LINE
  5
2D1
100
AcDbEntity
  8
0
100
AcDbLine
 62
7
  6
CONTINUOUS
 10
8.001908673
 20
11.7963180809
 11
8.001908673
 21
11.7213180809
  0
LINE
  5
2D2
100
AcDbEntity
  8
0
100
AcDbLine
 62
7
  6
CONTINUOUS
 10
8.0060898116
 20
11.7213180809
 11
8.0060898116
 21
11.7963180809
  0
LINE
  5
2D3
100
AcDbEntity
  8
0
100
AcDbLine
 62
7
  6
CONTINUOUS
 10
8.0098717385
 20
11.7213180809
 11
8.0098717385
 21
11.7963180809
  0
LINE
  5
2D4
100
AcDbEntity
  8
0
100
AcDbLine
 62
7
  6
CONTINUOUS
 10
8.0106053078
 20
12.1463180809
 11
8.0106053078
 21
12.0463180809
  0
LINE
  5
2D5
100
AcDbEntity
  8
0
100
AcDbLine
 62
9
  6
CONTINUOUS
 10
7.8268674922
 20
10.8582892314
 11
7.8267441098
 21
10.8383675977
  0
LINE
  5
2D6
100
AcDbEntity
  8
0
100
AcDbLine
 62
9
  6
CONTINUOUS
 10
8.4784923281
 20
10.8458456399
 11
8.4784923281
 21
9.7658456399
  0
LINE
  5
2D7
100
AcDbEntity
  8
0
100
AcDbLine
 62
7
  6
CONTINUOUS
 10
9.2856053078
 20
9.5268485307
 11
9.2856053078
 21
9.09088501
  0
LINE
  5
2D8
100
AcDbEntity
  8
0
100
AcDbLine
 62
7
  6
CONTINUOUS
 10
9.2856053078
 20
8.2823023328
 11
9.2856053078
 21
9.0523023328
  0
LINE
  5
2D9
100
AcDbEntity
  8
0
100
AcDbLine
 62
7
  6
CONTINUOUS
 10
9.3533553078
 20
9.09088501
 11
9.3533553078
 21
9.0523023328
  0
LINE
  5
2DA
100
AcDbEntity
  8
0
100
AcDbLine
 62
9
  6
CONTINUOUS
 10
9.1936668741
 20
9.0740816456
 11
9.1931896544
 21
9.0225302621
  0
LINE
  5
2DB
100
AcDbEntity
  8
0
100
AcDbLine
 62
9
  6
CONTINUOUS
 10
8.9204060968
 20
4.1948264959
 11
8.9201355426
 21
4.1835966355
  0
LINE
  5
2DC
100
AcDbEntity
  8
0
100
AcDbLine
 62
9
  6
CONTINUOUS
 10
8.9414100983
 20
4.5672135632
 11
8.9411295563
 21
4.5556424486
  0
LINE
  5
2DD
100
AcDbEntity
  8
0
100
AcDbLine
 62
9
  6
CONTINUOUS
 10
8.8969196395
 20
3.7778205733
 11
8.8966625576
 21
3.7676333556
  0
LINE
  5
2DE
100
AcDbEntity
  8
0
100
AcDbLine
 62
9
  6
CONTINUOUS
 10
8.8706059414
 20
3.3058742439
 11
9.2302902809
 21
9.6800097191
  0
LINE
  5
2DF
100
AcDbEntity
  8
0
100
AcDbLine
 62
7
  6
CONTINUOUS
 10
9.228627174
 20
9.6819305865
 11
8.8708053294
 21
3.3130205198
  0
LINE
  5
2E0
100
AcDbEntity
  8
0
100
AcDbLine
 62
7
  6
CONTINUOUS
 10
9.5206053078
 20
8.1526172935
 11
9.5206053078
 21
8.1223023328
  0
LINE
  5
2E1
100
AcDbEntity
  8
0
100
AcDbLine
 62
9
  6
CONTINUOUS
 10
9.8356055608
 20
9.3940851739
 11
9.8356062993
 21
9.6307644836
  0
LINE
  5
2E2
100
AcDbEntity
  8
0
100
AcDbLine
 62
9
  6
CONTINUOUS
 10
9.8356053078
 20
8.1223023328
 11
9.8356053078
 21
2.8183456399
  0
LINE
  5
2E3
100
AcDbEntity
  8
0
100
AcDbLine
 62
7
  6
CONTINUOUS
 10
11.8273808652
 20
10.866360352
 11
11.8622976097
 21
10.9108022824
  0
LINE
  5
2E4
100
AcDbEntity
  8
0
100
AcDbLine
 62
9
  6
CONTINUOUS
 10
11.8443431235
 20
10.8582892314
 11
11.809426379
 21
10.813847301
  0
LINE
  5
2E5
100
AcDbEntity
  8
0
100
AcDbLine
 62
9
  6
CONTINUOUS
 10
11.8095497614
 20
10.7939256672
 11
11.8444665058
 21
10.8383675977
  0
LINE
  5
2E6
100
AcDbEntity
  8
0
100
AcDbLine
 62
9
  6
CONTINUOUS
 10
11.9297838252
 20
10.7537006542
 11
11.9103293449
 21
10.7289390484
  0
LINE
  5
2E7
100
AcDbEntity
  8
0
100
AcDbLine
 62
9
  6
CONTINUOUS
 10
11.9804327409
 20
10.7292876834
 11
11.9996133088
 21
10.7537006542
  0
LINE
  5
2E8
100
AcDbEntity
  8
0
100
AcDbLine
 62
7
  6
CONTINUOUS
 10
12.0310106472
 20
10.7414126162
 11
12.0659273917
 21
10.7858545467
  0
LINE
  5
2E9
100
AcDbEntity
  8
0
100
AcDbLine
 62
7
  6
CONTINUOUS
 10
14.0106053078
 20
12.0463180809
 11
13.9606053078
 21
11.9963180809
  0
LINE
  5
2EA
100
AcDbEntity
  8
0
100
AcDbLine
 62
7
  6
CONTINUOUS
 10
7.4856053078
 20
9.0003338289
 11
7.5606053078
 21
8.9253338289
  0
LINE
  5
2EB
100
AcDbEntity
  8
0
100
AcDbLine
 62
7
  6
CONTINUOUS
 10
7.4296053078
 20
11.4797488615
 11
7.4056053078
 21
11.5213180809
  0
LINE
  5
2EC
100
AcDbEntity
  8
0
100
AcDbLine
 62
9
  6
CONTINUOUS
 10
10.4775437416
 20
9.0740816456
 11
10.4780209613
 21
9.0225302621
  0
LINE
  5
2ED
100
AcDbEntity
  8
0
100
AcDbLine
 62
7
  6
CONTINUOUS
 10
10.1506053078
 20
8.1526172935
 11
10.1506053078
 21
8.1223023328
  0
LINE
  5
2EE
100
AcDbEntity
  8
0
100
AcDbLine
 62
7
  6
CONTINUOUS
 10
10.3178553078
 20
9.09088501
 11
10.3178553078
 21
9.0523023328
  0
LINE
  5
2EF
100
AcDbEntity
  8
0
100
AcDbLine
 62
7
  6
CONTINUOUS
 10
10.3856053078
 20
8.2823023328
 11
10.3856053078
 21
9.0523023328
  0
LINE
  5
2F0
100
AcDbEntity
  8
0
100
AcDbLine
 62
7
  6
CONTINUOUS
 10
10.3856053078
 20
9.09088501
 11
10.3856053078
 21
9.5268485362
  0
LINE
  5
2F1
100
AcDbEntity
  8
0
100
AcDbLine
 62
7
  6
CONTINUOUS
 10
12.2416053078
 20
11.4797488615
 11
12.2656053078
 21
11.5213180809
  0
LINE
  5
2F2
100
AcDbEntity
  8
0
100
AcDbLine
 62
7
  6
CONTINUOUS
 10
12.1856053078
 20
9.6003338289
 11
12.2606053078
 21
9.6753338289
  0
LINE
  5
2F3
100
AcDbEntity
  8
0
100
AcDbLine
 62
7
  6
CONTINUOUS
 10
7.4856053078
 20
9.6003338289
 11
7.4106053078
 21
9.6753338289
  0
LINE
  5
2F4
100
AcDbEntity
  8
0
100
AcDbLine
 62
7
  6
CONTINUOUS
 10
5.6606053078
 20
12.0463180809
 11
5.7106053078
 21
11.9963180809
  0
LINE
  5
2F5
100
AcDbEntity
  8
0
100
AcDbLine
 62
9
  6
CONTINUOUS
 10
7.7634870069
 20
10.7257834671
 11
7.7414267904
 21
10.7537006542
  0
LINE
  5
2F6
100
AcDbEntity
  8
0
100
AcDbLine
 62
7
  6
CONTINUOUS
 10
7.605283224
 20
10.7858545467
 11
7.6401999685
 21
10.7414126162
  0
LINE
  5
2F7
100
AcDbEntity
  8
0
100
AcDbLine
 62
9
  6
CONTINUOUS
 10
7.6715973069
 20
10.7537006542
 11
7.7065140514
 21
10.7092587237
  0
LINE
  5
2F8
100
AcDbEntity
  8
0
100
AcDbLine
 62
9
  6
CONTINUOUS
 10
10.8006046825
 20
3.3058742106
 11
10.4409205367
 21
9.6800061406
  0
LINE
  5
2F9
100
AcDbEntity
  8
0
100
AcDbLine
 62
7
  6
CONTINUOUS
 10
10.8004055613
 20
3.3130156366
 11
10.551952577
 21
7.7307146006
  0
LINE
  5
2FA
100
AcDbEntity
  8
0
100
AcDbLine
 62
7
  6
CONTINUOUS
 10
10.551952577
 20
7.7307146006
 11
10.4803919082
 21
9.0226615884
  0
LINE
  5
2FB
100
AcDbEntity
  8
0
100
AcDbLine
 62
7
  6
CONTINUOUS
 10
10.4803919082
 20
9.0226615884
 11
10.4425836536
 21
9.6819270362
  0
LINE
  5
2FC
100
AcDbEntity
  8
0
100
AcDbLine
 62
7
  6
CONTINUOUS
 10
10.4775411928
 20
9.0741280332
 11
10.4775437416
 21
9.0740816456
  0
LINE
  5
2FD
100
AcDbEntity
  8
0
100
AcDbLine
 62
9
  6
CONTINUOUS
 10
10.7742914757
 20
3.7778116606
 11
10.7745479928
 21
3.7676208436
  0
LINE
  5
2FE
100
AcDbEntity
  8
0
100
AcDbLine
 62
9
  6
CONTINUOUS
 10
10.7298005173
 20
4.5672135632
 11
10.7300810593
 21
4.5556424486
  0
LINE
  5
2FF
100
AcDbEntity
  8
0
100
AcDbLine
 62
9
  6
CONTINUOUS
 10
10.7508045189
 20
4.1948264959
 11
10.7510750731
 21
4.1835966355
  0
LINE
  5
300
100
AcDbEntity
  8
0
100
AcDbLine
 62
9
  6
CONTINUOUS
 10
10.6635712776
 20
9.7658456399
 11
10.6635712776
 21
10.8458456399
  0
LINE
  5
301
100
AcDbEntity
  8
0
100
AcDbLine
 62
7
  6
CONTINUOUS
 10
12.1856053078
 20
9.0003338289
 11
12.1106053078
 21
8.9253338289
  0
LINE
  5
302
100
AcDbEntity
  8
0
100
AcDbLine
 62
7
  6
CONTINUOUS
 10
6.5731053078
 20
7.3923338289
 11
7.0981053078
 21
7.3923338289
  0
LINE
  5
303
100
AcDbEntity
  8
0
100
AcDbLine
 62
7
  6
CONTINUOUS
 10
12.5731053078
 20
7.3923338289
 11
13.0981053078
 21
7.3923338289
  0
LINE
  5
304
100
AcDbEntity
  8
0
100
AcDbLine
 62
9
  6
CONTINUOUS
 10
13.0981053078
 20
7.4223338289
 11
12.5731053078
 21
7.4223338289
  0
LINE
  5
305
100
AcDbEntity
  8
0
100
AcDbLine
 62
9
  6
CONTINUOUS
 10
7.0981053078
 20
7.4223338289
 11
6.5731053078
 21
7.4223338289
  0
LINE
  5
306
100
AcDbEntity
  8
0
100
AcDbLine
 62
7
  6
CONTINUOUS
 10
6.5231053078
 20
7.4423338289
 11
7.1481053078
 21
7.4423338289
  0
LINE
  5
307
100
AcDbEntity
  8
0
100
AcDbLine
 62
7
  6
CONTINUOUS
 10
12.5231053078
 20
7.4423338289
 11
13.1481053078
 21
7.4423338289
  0
LINE
  5
308
100
AcDbEntity
  8
0
100
AcDbLine
 62
7
  6
CONTINUOUS
 10
7.2356043334
 20
7.5173338289
 11
6.4356060898
 21
7.5173338289
  0
LINE
  5
309
100
AcDbEntity
  8
0
100
AcDbLine
 62
7
  6
CONTINUOUS
 10
12.4356062822
 20
7.5173338289
 11
13.2356045258
 21
7.5173338289
  0
LINE
  5
30A
100
AcDbEntity
  8
0
100
AcDbLine
 62
9
  6
CONTINUOUS
 10
7.8267441098
 20
10.8383675977
 11
7.8616608543
 21
10.7939256672
  0
LINE
  5
30B
100
AcDbEntity
  8
0
100
AcDbLine
 62
9
  6
CONTINUOUS
 10
7.8617842367
 20
10.813847301
 11
7.8268674922
 21
10.8582892314
  0
LINE
  5
30C
100
AcDbEntity
  8
0
100
AcDbLine
 62
7
  6
CONTINUOUS
 10
7.808913006
 20
10.9108022824
 11
7.8438297505
 21
10.866360352
  0
LINE
  5
30D
100
AcDbEntity
  8
0
100
AcDbLine
 62
7
  6
CONTINUOUS
 10
11.3160318028
 20
10.7158456399
 11
11.3160318028
 21
9.8958456399
  0
LINE
  5
30E
100
AcDbEntity
  8
0
100
AcDbLine
 62
7
  6
CONTINUOUS
 10
11.4160318028
 20
9.8958456399
 11
11.4160318028
 21
10.7158456399
  0
LINE
  5
30F
100
AcDbEntity
  8
0
100
AcDbLine
 62
7
  6
CONTINUOUS
 10
11.6606053078
 20
12.1463180809
 11
11.6606053078
 21
12.0463180809
  0
LINE
  5
310
100
AcDbEntity
  8
0
100
AcDbLine
 62
7
  6
CONTINUOUS
 10
11.6613388772
 20
11.7963180809
 11
11.6613388772
 21
11.7213180809
  0
LINE
  5
311
100
AcDbEntity
  8
0
100
AcDbLine
 62
7
  6
CONTINUOUS
 10
11.6651208041
 20
11.7963180809
 11
11.6651208041
 21
11.7213180809
  0
LINE
  5
312
100
AcDbEntity
  8
0
100
AcDbLine
 62
7
  6
CONTINUOUS
 10
11.6693019426
 20
11.7213180809
 11
11.6693019426
 21
11.7963180809
  0
LINE
  5
313
100
AcDbEntity
  8
0
100
AcDbLine
 62
7
  6
CONTINUOUS
 10
11.6721109477
 20
11.7963180809
 11
11.6721109477
 21
11.7213180809
  0
LINE
  5
314
100
AcDbEntity
  8
0
100
AcDbLine
 62
7
  6
CONTINUOUS
 10
11.6783683263
 20
11.7213180809
 11
11.6783683263
 21
11.7963180809
  0
LINE
  5
315
100
AcDbEntity
  8
0
100
AcDbLine
 62
7
  6
CONTINUOUS
 10
11.6822901484
 20
11.7963180809
 11
11.6822901484
 21
11.7213180809
  0
LINE
  5
316
100
AcDbEntity
  8
0
100
AcDbLine
 62
7
  6
CONTINUOUS
 10
13.4056053078
 20
10.9413180809
 11
13.4296053078
 21
10.9828873003
  0
LINE
  5
317
100
AcDbEntity
  8
0
100
AcDbLine
 62
7
  6
CONTINUOUS
 10
4.7293440485
 20
7.5216440207
 11
6.3789668239
 21
7.5745189327
  0
LINE
  5
318
100
AcDbEntity
  8
0
100
AcDbLine
 62
7
  6
CONTINUOUS
 10
4.0268134726
 20
7.5010938584
 11
4.7293440485
 21
7.5216440207
  0
LINE
  5
319
100
AcDbEntity
  8
0
100
AcDbLine
 62
9
  6
CONTINUOUS
 10
6.4174315823
 20
7.6228820919
 11
4.027007861
 21
7.5583364564
  0
LINE
  5
31A
100
AcDbEntity
  8
0
100
AcDbLine
 62
7
  6
CONTINUOUS
 10
14.9423294507
 20
7.9478003884
 11
13.2907935375
 21
7.9382099858
  0
LINE
  5
31B
100
AcDbEntity
  8
0
100
AcDbLine
 62
7
  6
CONTINUOUS
 10
15.6455906455
 20
7.9499117066
 11
14.9423294507
 21
7.9478003884
  0
LINE
  5
31C
100
AcDbEntity
  8
0
100
AcDbLine
 62
9
  6
CONTINUOUS
 10
3.9856053078
 20
7.5583298878
 11
4.0270079069
 21
7.5583298878
  0
LINE
  5
31D
100
AcDbEntity
  8
0
100
AcDbLine
 62
9
  6
CONTINUOUS
 10
15.6442027082
 20
7.5583298878
 11
15.6856053078
 21
7.5583298878
  0
LINE
  5
31E
100
AcDbEntity
  8
0
100
AcDbLine
 62
9
  6
CONTINUOUS
 10
15.6856053078
 20
7.8926615886
 11
13.2513330598
 21
7.8908406355
  0
LINE
  5
31F
100
AcDbEntity
  8
0
100
AcDbLine
 62
7
  6
CONTINUOUS
 10
13.2356054214
 20
7.9923338289
 11
12.4356053078
 21
7.9923338289
  0
LINE
  5
320
100
AcDbEntity
  8
0
100
AcDbLine
 62
7
  6
CONTINUOUS
 10
7.2356053078
 20
7.9923338289
 11
6.4356051943
 21
7.9923338289
  0
LINE
  5
321
100
AcDbEntity
  8
0
100
AcDbLine
 62
9
  6
CONTINUOUS
 10
6.5231053078
 20
8.0123338289
 11
7.1480596424
 21
8.0123338289
  0
LINE
  5
322
100
AcDbEntity
  8
0
100
AcDbLine
 62
9
  6
CONTINUOUS
 10
12.5231053078
 20
8.0123338289
 11
13.1480596424
 21
8.0123338289
  0
LINE
  5
323
100
AcDbEntity
  8
0
100
AcDbLine
 62
9
  6
CONTINUOUS
 10
3.9856053078
 20
7.8926615886
 11
6.4198775423
 21
7.8908406363
  0
LWPOLYLINE
  5
324
100
AcDbEntity
  8
0
100
AcDbPolyline
 62
7
  6
CONTINUOUS
 90
3
 70
0
 10
6.3804170781
 20
7.9382099858
 10
4.7288811649
 20
7.9478003884
 10
4.0256199701
 20
7.9499117066
  0
LINE
  5
325
100
AcDbEntity
  8
0
100
AcDbLine
 62
9
  6
CONTINUOUS
 10
15.6442027535
 20
7.5583363762
 11
13.2537790242
 21
7.6228820927
  0
LWPOLYLINE
  5
326
100
AcDbEntity
  8
0
100
AcDbPolyline
 62
7
  6
CONTINUOUS
 90
3
 70
0
 10
13.2922437918
 20
7.5745189327
 10
14.9418665672
 20
7.5216440207
 10
15.6443971431
 20
7.5010938584
  0
LINE
  5
327
100
AcDbEntity
  8
0
100
AcDbLine
 62
9
  6
CONTINUOUS
 10
11.8444665058
 20
10.8383675977
 11
11.8443431235
 21
10.8582892314
  0
LINE
  5
328
100
AcDbEntity
  8
0
100
AcDbLine
 62
9
  6
CONTINUOUS
 10
11.9350421351
 20
10.8658064568
 11
11.9351655175
 21
10.845884823
  0
LINE
  5
329
100
AcDbEntity
  8
0
100
AcDbLine
 62
9
  6
CONTINUOUS
 10
12.0049950011
 20
10.845884823
 11
12.0048716187
 21
10.8658064568
  0
LINE
  5
32A
100
AcDbEntity
  8
0
100
AcDbLine
 62
7
  6
CONTINUOUS
 10
12.0840873035
 20
10.8388940255
 11
12.0839639211
 21
10.8588156592
  0
LINE
  5
32B
100
AcDbEntity
  8
0
100
AcDbLine
 62
7
  6
CONTINUOUS
 10
11.6906066161
 20
11.7213180809
 11
11.6906066161
 21
11.7963180809
  0
LINE
  5
32C
100
AcDbEntity
  8
0
100
AcDbLine
 62
7
  6
CONTINUOUS
 10
11.6956305059
 20
11.7963180809
 11
11.6956305059
 21
11.7213180809
  0
LINE
  5
32D
100
AcDbEntity
  8
0
100
AcDbLine
 62
7
  6
CONTINUOUS
 10
11.7059832677
 20
11.7213180809
 11
11.7059832677
 21
11.7963180809
  0
LINE
  5
32E
100
AcDbEntity
  8
0
100
AcDbLine
 62
7
  6
CONTINUOUS
 10
11.7106053078
 20
11.9963180809
 11
11.7106053078
 21
11.7963180809
  0
LINE
  5
32F
100
AcDbEntity
  8
0
100
AcDbLine
 62
7
  6
CONTINUOUS
 10
11.712095455
 20
11.7963180809
 11
11.712095455
 21
11.7213180809
  0
LINE
  5
330
100
AcDbEntity
  8
0
100
AcDbLine
 62
7
  6
CONTINUOUS
 10
11.7244561348
 20
11.7213180809
 11
11.7244561348
 21
11.7963180809
  0
LINE
  5
331
100
AcDbEntity
  8
0
100
AcDbLine
 62
7
  6
CONTINUOUS
 10
11.7316398665
 20
11.7963180809
 11
11.7316398665
 21
11.7213180809
  0
LINE
  5
332
100
AcDbEntity
  8
0
100
AcDbLine
 62
7
  6
CONTINUOUS
 10
11.7459745845
 20
11.7213180809
 11
11.7459745845
 21
11.7963180809
  0
LINE
  5
333
100
AcDbEntity
  8
0
100
AcDbLine
 62
7
  6
CONTINUOUS
 10
11.7542101706
 20
11.7963180809
 11
11.7542101706
 21
11.7213180809
  0
LINE
  5
334
100
AcDbEntity
  8
0
100
AcDbLine
 62
7
  6
CONTINUOUS
 10
11.7704796363
 20
11.7213180809
 11
11.7704796363
 21
11.7963180809
  0
LINE
  5
335
100
AcDbEntity
  8
0
100
AcDbLine
 62
7
  6
CONTINUOUS
 10
11.7797445036
 20
11.7963180809
 11
11.7797445036
 21
11.7213180809
  0
LINE
  5
336
100
AcDbEntity
  8
0
100
AcDbLine
 62
7
  6
CONTINUOUS
 10
11.7979041236
 20
11.7213180809
 11
11.7979041236
 21
11.7963180809
  0
LINE
  5
337
100
AcDbEntity
  8
0
100
AcDbLine
 62
7
  6
CONTINUOUS
 10
11.8081728776
 20
11.7963180809
 11
11.8081728776
 21
11.7213180809
  0
LINE
  5
338
100
AcDbEntity
  8
0
100
AcDbLine
 62
7
  6
CONTINUOUS
 10
11.8281728776
 20
11.7213180809
 11
11.8281728776
 21
11.7963180809
  0
LINE
  5
339
100
AcDbEntity
  8
0
100
AcDbLine
 62
7
  6
CONTINUOUS
 10
11.8394173726
 20
11.7963180809
 11
11.8394173726
 21
11.7213180809
  0
LINE
  5
33A
100
AcDbEntity
  8
0
100
AcDbLine
 62
7
  6
CONTINUOUS
 10
11.861202934
 20
11.7213180809
 11
11.861202934
 21
11.7963180809
  0
LINE
  5
33B
100
AcDbEntity
  8
0
100
AcDbLine
 62
7
  6
CONTINUOUS
 10
11.8733923494
 20
11.7963180809
 11
11.8733923494
 21
11.7213180809
  0
LINE
  5
33C
100
AcDbEntity
  8
0
100
AcDbLine
 62
7
  6
CONTINUOUS
 10
11.8850318028
 20
10.7317500738
 11
11.8850318028
 21
9.879941206
  0
LINE
  5
33D
100
AcDbEntity
  8
0
100
AcDbLine
 62
7
  6
CONTINUOUS
 10
11.8969037595
 20
11.7213180809
 11
11.8969037595
 21
11.7963180809
  0
LINE
  5
33E
100
AcDbEntity
  8
0
100
AcDbLine
 62
7
  6
CONTINUOUS
 10
11.910004685
 20
11.7963180809
 11
11.910004685
 21
11.7213180809
  0
LINE
  5
33F
100
AcDbEntity
  8
0
100
AcDbLine
 62
7
  6
CONTINUOUS
 10
11.9351775007
 20
11.7213180809
 11
11.9351775007
 21
11.7963180809
  0
LINE
  5
340
100
AcDbEntity
  8
0
100
AcDbLine
 62
7
  6
CONTINUOUS
 10
11.9491540277
 20
11.7963180809
 11
11.9491540277
 21
11.7213180809
  0
LINE
  5
341
100
AcDbEntity
  8
0
100
AcDbLine
 62
7
  6
CONTINUOUS
 10
11.9759192519
 20
11.7213180809
 11
11.9759192519
 21
11.7963180809
  0
LINE
  5
342
100
AcDbEntity
  8
0
100
AcDbLine
 62
7
  6
CONTINUOUS
 10
11.9850318028
 20
9.8822799097
 11
11.9850318028
 21
10.7294113702
  0
LINE
  5
343
100
AcDbEntity
  8
0
100
AcDbLine
 62
7
  6
CONTINUOUS
 10
11.9907330716
 20
11.7963180809
 11
11.9907330716
 21
11.7213180809
  0
LINE
  5
344
100
AcDbEntity
  8
0
100
AcDbLine
 62
7
  6
CONTINUOUS
 10
12.0190173429
 20
11.7213180809
 11
12.0190173429
 21
11.7963180809
  0
LINE
  5
345
100
AcDbEntity
  8
0
100
AcDbLine
 62
7
  6
CONTINUOUS
 10
12.0346278517
 20
11.7963180809
 11
12.0346278517
 21
11.7213180809
  0
LINE
  5
346
100
AcDbEntity
  8
0
100
AcDbLine
 62
7
  6
CONTINUOUS
 10
12.0356053078
 20
8.6253338289
 11
12.0356053078
 21
8.8253338289
  0
LINE
  5
347
100
AcDbEntity
  8
0
100
AcDbLine
 62
7
  6
CONTINUOUS
 10
12.0450318028
 20
9.9383959347
 11
12.0450318028
 21
10.7123245194
  0
LINE
  5
348
100
AcDbEntity
  8
0
100
AcDbLine
 62
7
  6
CONTINUOUS
 10
12.0643536447
 20
11.7213180809
 11
12.0643536447
 21
11.7963180809
  0
LINE
  5
349
100
AcDbEntity
  8
0
100
AcDbLine
 62
7
  6
CONTINUOUS
 10
12.0670318028
 20
10.7557855081
 11
12.0670318028
 21
9.8559057718
  0
LINE
  5
34A
100
AcDbEntity
  8
0
100
AcDbLine
 62
7
  6
CONTINUOUS
 10
12.0807180552
 20
11.7963180809
 11
12.0807180552
 21
11.7213180809
  0
LINE
  5
34B
100
AcDbEntity
  8
0
100
AcDbLine
 62
7
  6
CONTINUOUS
 10
12.1088473823
 20
11.7963180809
 11
12.1088473823
 21
11.7213180809
  0
LINE
  5
34C
100
AcDbEntity
  8
0
100
AcDbLine
 62
7
  6
CONTINUOUS
 10
12.1106053078
 20
8.5753338289
 11
12.1106053078
 21
8.6253338289
  0
LINE
  5
34D
100
AcDbEntity
  8
0
100
AcDbLine
 62
7
  6
CONTINUOUS
 10
12.1106053078
 20
8.8253338289
 11
12.1106053078
 21
8.9253338289
  0
LINE
  5
34E
100
AcDbEntity
  8
0
100
AcDbLine
 62
7
  6
CONTINUOUS
 10
12.1118038937
 20
11.7213180809
 11
12.1118038937
 21
11.7963180809
  0
LINE
  5
34F
100
AcDbEntity
  8
0
100
AcDbLine
 62
7
  6
CONTINUOUS
 10
12.1288773523
 20
11.7963180809
 11
12.1288773523
 21
11.7213180809
  0
LINE
  5
350
100
AcDbEntity
  8
0
100
AcDbLine
 62
7
  6
CONTINUOUS
 10
12.1568133972
 20
11.7963180809
 11
12.1568133972
 21
11.7213180809
  0
LINE
  5
351
100
AcDbEntity
  8
0
100
AcDbLine
 62
7
  6
CONTINUOUS
 10
12.1612380321
 20
11.7213180809
 11
12.1612380321
 21
11.7963180809
  0
LINE
  5
352
100
AcDbEntity
  8
0
100
AcDbLine
 62
7
  6
CONTINUOUS
 10
12.1789737416
 20
11.7963180809
 11
12.1789737416
 21
11.7213180809
  0
LINE
  5
353
100
AcDbEntity
  8
0
100
AcDbLine
 62
7
  6
CONTINUOUS
 10
12.1856053078
 20
9.0003338289
 11
12.1856053078
 21
9.6003338289
  0
LINE
  5
354
100
AcDbEntity
  8
0
100
AcDbLine
 62
7
  6
CONTINUOUS
 10
12.2066399336
 20
11.7963180809
 11
12.2066399336
 21
11.7213180809
  0
LINE
  5
355
100
AcDbEntity
  8
0
100
AcDbLine
 62
7
  6
CONTINUOUS
 10
12.2125205643
 20
11.7213180809
 11
12.2125205643
 21
11.7963180809
  0
LINE
  5
356
100
AcDbEntity
  8
0
100
AcDbLine
 62
7
  6
CONTINUOUS
 10
12.2308699123
 20
11.7963180809
 11
12.2308699123
 21
11.7213180809
  0
LINE
  5
357
100
AcDbEntity
  8
0
100
AcDbLine
 62
7
  6
CONTINUOUS
 10
12.2416053078
 20
10.9828873003
 11
12.2416053078
 21
11.4797488615
  0
LINE
  5
358
100
AcDbEntity
  8
0
100
AcDbLine
 62
9
  6
CONTINUOUS
 10
11.8443431235
 20
9.7534020484
 11
11.8444665058
 21
9.7733236822
  0
LINE
  5
359
100
AcDbEntity
  8
0
100
AcDbLine
 62
9
  6
CONTINUOUS
 10
11.9351655175
 20
9.7658064568
 11
11.9350421352
 21
9.745884823
  0
LINE
  5
35A
100
AcDbEntity
  8
0
100
AcDbLine
 62
9
  6
CONTINUOUS
 10
12.0048716187
 20
9.745884823
 11
12.0049950011
 21
9.7658064568
  0
LINE
  5
35B
100
AcDbEntity
  8
0
100
AcDbLine
 62
7
  6
CONTINUOUS
 10
12.0839639211
 20
9.7528756206
 11
12.0840873035
 21
9.7727972544
  0
LINE
  5
35C
100
AcDbEntity
  8
0
100
AcDbLine
 62
7
  6
CONTINUOUS
 10
9.5206090724
 20
8.1223023328
 11
10.1506015433
 21
8.1223023328
  0
LINE
  5
35D
100
AcDbEntity
  8
0
100
AcDbLine
 62
9
  6
CONTINUOUS
 10
10.1506053078
 20
8.1526172935
 11
9.5206053078
 21
8.1526172935
  0
LINE
  5
35E
100
AcDbEntity
  8
0
100
AcDbLine
 62
7
  6
CONTINUOUS
 10
9.4706096773
 20
8.1723023328
 11
10.2006009384
 21
8.1723023328
  0
LINE
  5
35F
100
AcDbEntity
  8
0
100
AcDbLine
 62
7
  6
CONTINUOUS
 10
9.315685771
 20
8.2523023328
 11
10.3555248446
 21
8.2523023328
  0
LINE
  5
360
100
AcDbEntity
  8
0
100
AcDbLine
 62
9
  6
CONTINUOUS
 10
9.2856053078
 20
8.2823023328
 11
10.3856053078
 21
8.2823023328
  0
LINE
  5
361
100
AcDbEntity
  8
0
100
AcDbLine
 62
7
  6
CONTINUOUS
 10
13.1481053078
 20
8.3053338289
 11
12.5231053078
 21
8.3053338289
  0
LINE
  5
362
100
AcDbEntity
  8
0
100
AcDbLine
 62
7
  6
CONTINUOUS
 10
7.1481053078
 20
8.3053338289
 11
6.5231053078
 21
8.3053338289
  0
LINE
  5
363
100
AcDbEntity
  8
0
100
AcDbLine
 62
7
  6
CONTINUOUS
 10
6.4356587584
 20
8.3253338289
 11
7.2355518573
 21
8.3253338289
  0
LINE
  5
364
100
AcDbEntity
  8
0
100
AcDbLine
 62
7
  6
CONTINUOUS
 10
12.4356587584
 20
8.3253338289
 11
13.2355518573
 21
8.3253338289
  0
LINE
  5
365
100
AcDbEntity
  8
0
100
AcDbLine
 62
7
  6
CONTINUOUS
 10
6.2856788023
 20
8.4253338289
 11
7.3855318133
 21
8.4253338289
  0
LINE
  5
366
100
AcDbEntity
  8
0
100
AcDbLine
 62
7
  6
CONTINUOUS
 10
12.2856788023
 20
8.4253338289
 11
13.3855318133
 21
8.4253338289
  0
LINE
  5
367
100
AcDbEntity
  8
0
100
AcDbLine
 62
7
  6
CONTINUOUS
 10
6.2106088895
 20
8.4753338289
 11
7.4606017261
 21
8.4753338289
  0
LINE
  5
368
100
AcDbEntity
  8
0
100
AcDbLine
 62
7
  6
CONTINUOUS
 10
12.2106088895
 20
8.4753338289
 11
13.4606017261
 21
8.4753338289
  0
LINE
  5
369
100
AcDbEntity
  8
0
100
AcDbLine
 62
7
  6
CONTINUOUS
 10
6.1106053078
 20
8.5753338289
 11
7.5606053078
 21
8.5753338289
  0
LINE
  5
36A
100
AcDbEntity
  8
0
100
AcDbLine
 62
7
  6
CONTINUOUS
 10
12.1106053078
 20
8.5753338289
 11
13.5606053078
 21
8.5753338289
  0
LINE
  5
36B
100
AcDbEntity
  8
0
100
AcDbLine
 62
7
  6
CONTINUOUS
 10
6.0356673752
 20
8.6253338289
 11
7.6355432405
 21
8.6253338289
  0
LINE
  5
36C
100
AcDbEntity
  8
0
100
AcDbLine
 62
7
  6
CONTINUOUS
 10
12.0356673752
 20
8.6253338289
 11
13.6355432405
 21
8.6253338289
  0
LINE
  5
36D
100
AcDbEntity
  8
0
100
AcDbLine
 62
7
  6
CONTINUOUS
 10
12.2581904204
 20
11.7963180809
 11
12.2581904204
 21
11.7213180809
  0
LINE
  5
36E
100
AcDbEntity
  8
0
100
AcDbLine
 62
7
  6
CONTINUOUS
 10
12.2655109285
 20
11.7213180809
 11
12.2655109285
 21
11.7963180809
  0
LINE
  5
36F
100
AcDbEntity
  8
0
100
AcDbLine
 62
7
  6
CONTINUOUS
 10
12.2844236207
 20
11.7963180809
 11
12.2844236207
 21
11.7213180809
  0
LINE
  5
370
100
AcDbEntity
  8
0
100
AcDbLine
 62
7
  6
CONTINUOUS
 10
12.2856053078
 20
8.4253338289
 11
12.2856053078
 21
8.4753338289
  0
LINE
  5
371
100
AcDbEntity
  8
0
100
AcDbLine
 62
7
  6
CONTINUOUS
 10
12.3113235612
 20
11.7963180809
 11
12.3113235612
 21
11.7213180809
  0
LINE
  5
372
100
AcDbEntity
  8
0
100
AcDbLine
 62
7
  6
CONTINUOUS
 10
12.3200638817
 20
11.7213180809
 11
12.3200638817
 21
11.7963180809
  0
LINE
  5
373
100
AcDbEntity
  8
0
100
AcDbLine
 62
7
  6
CONTINUOUS
 10
12.3381615813
 20
11.4044046514
 11
12.3381615813
 21
11.0582315104
  0
LINE
  5
374
100
AcDbEntity
  8
0
100
AcDbLine
 62
7
  6
CONTINUOUS
 10
12.3394880798
 20
11.7963180809
 11
12.3394880798
 21
11.7213180809
  0
LINE
  5
375
100
AcDbEntity
  8
0
100
AcDbLine
 62
7
  6
CONTINUOUS
 10
12.3658937219
 20
11.7963180809
 11
12.3658937219
 21
11.7213180809
  0
LINE
  5
376
100
AcDbEntity
  8
0
100
AcDbLine
 62
7
  6
CONTINUOUS
 10
12.3760298981
 20
11.7213180809
 11
12.3760298981
 21
11.7963180809
  0
LINE
  5
377
100
AcDbEntity
  8
0
100
AcDbLine
 62
7
  6
CONTINUOUS
 10
12.3959123618
 20
11.7963180809
 11
12.3959123618
 21
11.7213180809
  0
LINE
  5
378
100
AcDbEntity
  8
0
100
AcDbLine
 62
7
  6
CONTINUOUS
 10
12.4217513293
 20
11.7963180809
 11
12.4217513293
 21
11.7213180809
  0
LINE
  5
379
100
AcDbEntity
  8
0
100
AcDbLine
 62
7
  6
CONTINUOUS
 10
12.4256053078
 20
10.936357451
 11
12.4256053078
 21
10.9413180809
  0
LINE
  5
37A
100
AcDbEntity
  8
0
100
AcDbLine
 62
7
  6
CONTINUOUS
 10
12.4332555789
 20
11.7213180809
 11
12.4332555789
 21
11.7963180809
  0
LINE
  5
37B
100
AcDbEntity
  8
0
100
AcDbLine
 62
7
  6
CONTINUOUS
 10
12.4356053078
 20
7.5168354687
 11
12.4356053078
 21
7.9923338289
  0
LINE
  5
37C
100
AcDbEntity
  8
0
100
AcDbLine
 62
7
  6
CONTINUOUS
 10
12.4356053078
 20
8.3253338289
 11
12.4356053078
 21
8.4253338289
  0
LINE
  5
37D
100
AcDbEntity
  8
0
100
AcDbLine
 62
7
  6
CONTINUOUS
 10
12.4535418116
 20
11.7963180809
 11
12.4535418116
 21
11.7213180809
  0
LINE
  5
37E
100
AcDbEntity
  8
0
100
AcDbLine
 62
7
  6
CONTINUOUS
 10
12.4787432818
 20
11.7963180809
 11
12.4787432818
 21
11.7213180809
  0
LINE
  5
37F
100
AcDbEntity
  8
0
100
AcDbLine
 62
7
  6
CONTINUOUS
 10
12.4915840722
 20
11.7213180809
 11
12.4915840722
 21
11.7963180809
  0
LINE
  5
380
100
AcDbEntity
  8
0
100
AcDbLine
 62
7
  6
CONTINUOUS
 10
12.5122184708
 20
11.7963180809
 11
12.5122184708
 21
11.7213180809
  0
LINE
  5
381
100
AcDbEntity
  8
0
100
AcDbLine
 62
7
  6
CONTINUOUS
 10
12.5231053078
 20
8.0123338289
 11
12.5231053078
 21
8.3053338289
  0
LINE
  5
382
100
AcDbEntity
  8
0
100
AcDbLine
 62
7
  6
CONTINUOUS
 10
12.5367133682
 20
11.7963180809
 11
12.5367133682
 21
11.7213180809
  0
LINE
  5
383
100
AcDbEntity
  8
0
100
AcDbLine
 62
7
  6
CONTINUOUS
 10
12.5508555039
 20
11.7213180809
 11
12.5508555039
 21
11.7963180809
  0
LINE
  5
384
100
AcDbEntity
  8
0
100
AcDbLine
 62
7
  6
CONTINUOUS
 10
12.5717815109
 20
11.7963180809
 11
12.5717815109
 21
11.7213180809
  0
LINE
  5
385
100
AcDbEntity
  8
0
100
AcDbLine
 62
7
  6
CONTINUOUS
 10
12.5731053078
 20
7.3923338289
 11
12.5731053078
 21
7.4223338289
  0
LINE
  5
386
100
AcDbEntity
  8
0
100
AcDbLine
 62
7
  6
CONTINUOUS
 10
12.5955026967
 20
11.7963180809
 11
12.5955026967
 21
11.7213180809
  0
LINE
  5
387
100
AcDbEntity
  8
0
100
AcDbLine
 62
7
  6
CONTINUOUS
 10
12.6109074149
 20
11.7213180809
 11
12.6109074149
 21
11.7963180809
  0
LINE
  5
388
100
AcDbEntity
  8
0
100
AcDbLine
 62
7
  6
CONTINUOUS
 10
12.6320676737
 20
11.7963180809
 11
12.6320676737
 21
11.7213180809
  0
LINE
  5
389
100
AcDbEntity
  8
0
100
AcDbLine
 62
7
  6
CONTINUOUS
 10
12.6356053078
 20
8.3253338289
 11
12.6356053078
 21
8.3053338289
  0
LINE
  5
38A
100
AcDbEntity
  8
0
100
AcDbLine
 62
7
  6
CONTINUOUS
 10
12.6549501298
 20
11.7963180809
 11
12.6549501298
 21
11.7213180809
  0
LINE
  5
38B
100
AcDbEntity
  8
0
100
AcDbLine
 62
7
  6
CONTINUOUS
 10
12.6715752073
 20
11.7213180809
 11
12.6715752073
 21
11.7963180809
  0
LINE
  5
38C
100
AcDbEntity
  8
0
100
AcDbLine
 62
7
  6
CONTINUOUS
 10
12.6870318028
 20
9.8768843556
 11
12.6870318028
 21
10.7348069242
  0
LINE
  5
38D
100
AcDbEntity
  8
0
100
AcDbLine
 62
7
  6
CONTINUOUS
 10
12.6929117189
 20
11.7963180809
 11
12.6929117189
 21
11.7213180809
  0
LINE
  5
38E
100
AcDbEntity
  8
0
100
AcDbLine
 62
7
  6
CONTINUOUS
 10
12.6990318028
 20
9.9283456399
 11
12.6990318028
 21
10.6833456399
  0
LINE
  5
38F
100
AcDbEntity
  8
0
100
AcDbLine
 62
7
  6
CONTINUOUS
 10
12.7148927261
 20
11.7963180809
 11
12.7148927261
 21
11.7213180809
  0
LINE
  5
390
100
AcDbEntity
  8
0
100
AcDbLine
 62
7
  6
CONTINUOUS
 10
12.7315318028
 20
10.7224505629
 11
12.7315318028
 21
9.889240717
  0
LINE
  5
391
100
AcDbEntity
  8
0
100
AcDbLine
 62
7
  6
CONTINUOUS
 10
12.7326925948
 20
11.7213180809
 11
12.7326925948
 21
11.7963180809
  0
LINE
  5
392
100
AcDbEntity
  8
0
100
AcDbLine
 62
7
  6
CONTINUOUS
 10
12.7365318028
 20
9.8892407164
 11
12.7365318028
 21
10.7224505635
  0
LINE
  5
393
100
AcDbEntity
  8
0
100
AcDbLine
 62
7
  6
CONTINUOUS
 10
12.7390490343
 20
11.0582315104
 11
12.7390490343
 21
11.4044046514
  0
LINE
  5
394
100
AcDbEntity
  8
0
100
AcDbLine
 62
7
  6
CONTINUOUS
 10
12.7541468774
 20
11.7963180809
 11
12.7541468774
 21
11.7213180809
  0
LINE
  5
395
100
AcDbEntity
  8
0
100
AcDbLine
 62
7
  6
CONTINUOUS
 10
12.7690318028
 20
10.7320323373
 11
12.7690318028
 21
9.8796589425
  0
LINE
  5
396
100
AcDbEntity
  8
0
100
AcDbLine
 62
7
  6
CONTINUOUS
 10
12.7751661873
 20
11.7963180809
 11
12.7751661873
 21
11.7213180809
  0
LINE
  5
397
100
AcDbEntity
  8
0
100
AcDbLine
 62
7
  6
CONTINUOUS
 10
12.7940920588
 20
11.7213180809
 11
12.7940920588
 21
11.7963180809
  0
LINE
  5
398
100
AcDbEntity
  8
0
100
AcDbLine
 62
7
  6
CONTINUOUS
 10
12.8156053078
 20
11.7963180809
 11
12.8156053078
 21
11.7213180809
  0
LINE
  5
399
100
AcDbEntity
  8
0
100
AcDbLine
 62
7
  6
CONTINUOUS
 10
13.6355432405
 20
8.8253338289
 11
12.0356673752
 21
8.8253338289
  0
LINE
  5
39A
100
AcDbEntity
  8
0
100
AcDbLine
 62
7
  6
CONTINUOUS
 10
7.6355432405
 20
8.8253338289
 11
6.0356673752
 21
8.8253338289
  0
LINE
  5
39B
100
AcDbEntity
  8
0
100
AcDbLine
 62
7
  6
CONTINUOUS
 10
13.5606053078
 20
8.9253338289
 11
12.1106053078
 21
8.9253338289
  0
LINE
  5
39C
100
AcDbEntity
  8
0
100
AcDbLine
 62
7
  6
CONTINUOUS
 10
7.5606053078
 20
8.9253338289
 11
6.1106053078
 21
8.9253338289
  0
LINE
  5
39D
100
AcDbEntity
  8
0
100
AcDbLine
 62
7
  6
CONTINUOUS
 10
6.1856053078
 20
9.0003338289
 11
7.4856053078
 21
9.0003338289
  0
LINE
  5
39E
100
AcDbEntity
  8
0
100
AcDbLine
 62
7
  6
CONTINUOUS
 10
12.1856053078
 20
9.0003338289
 11
13.4856053078
 21
9.0003338289
  0
LINE
  5
39F
100
AcDbEntity
  8
0
100
AcDbLine
 62
7
  6
CONTINUOUS
 10
10.3855318133
 20
9.0523023328
 11
9.2856788023
 21
9.0523023328
  0
LINE
  5
3A0
100
AcDbEntity
  8
0
100
AcDbLine
 62
7
  6
CONTINUOUS
 10
9.2856788023
 20
9.09088501
 11
10.3855318133
 21
9.09088501
  0
LINE
  5
3A1
100
AcDbEntity
  8
0
100
AcDbLine
 62
7
  6
CONTINUOUS
 10
12.8356053078
 20
11.7963180809
 11
12.8356053078
 21
11.7213180809
  0
LINE
  5
3A2
100
AcDbEntity
  8
0
100
AcDbLine
 62
7
  6
CONTINUOUS
 10
12.8556053078
 20
11.7213180809
 11
12.8556053078
 21
11.7963180809
  0
LINE
  5
3A3
100
AcDbEntity
  8
0
100
AcDbLine
 62
7
  6
CONTINUOUS
 10
12.8771185568
 20
11.7963180809
 11
12.8771185568
 21
11.7213180809
  0
LINE
  5
3A4
100
AcDbEntity
  8
0
100
AcDbLine
 62
7
  6
CONTINUOUS
 10
12.8960444284
 20
11.7963180809
 11
12.8960444284
 21
11.7213180809
  0
LINE
  5
3A5
100
AcDbEntity
  8
0
100
AcDbLine
 62
7
  6
CONTINUOUS
 10
12.9170637382
 20
11.7213180809
 11
12.9170637382
 21
11.7963180809
  0
LINE
  5
3A6
100
AcDbEntity
  8
0
100
AcDbLine
 62
7
  6
CONTINUOUS
 10
12.9321615813
 20
11.4044046514
 11
12.9321615813
 21
11.0582315104
  0
LINE
  5
3A7
100
AcDbEntity
  8
0
100
AcDbLine
 62
7
  6
CONTINUOUS
 10
12.9385180209
 20
11.7963180809
 11
12.9385180209
 21
11.7213180809
  0
LINE
  5
3A8
100
AcDbEntity
  8
0
100
AcDbLine
 62
7
  6
CONTINUOUS
 10
12.9563178895
 20
11.7963180809
 11
12.9563178895
 21
11.7213180809
  0
LINE
  5
3A9
100
AcDbEntity
  8
0
100
AcDbLine
 62
7
  6
CONTINUOUS
 10
12.9782988967
 20
11.7213180809
 11
12.9782988967
 21
11.7963180809
  0
LINE
  5
3AA
100
AcDbEntity
  8
0
100
AcDbLine
 62
7
  6
CONTINUOUS
 10
12.9990318028
 20
10.1201470404
 11
12.9990318028
 21
10.4915442394
  0
LINE
  5
3AB
100
AcDbEntity
  8
0
100
AcDbLine
 62
7
  6
CONTINUOUS
 10
12.9996354084
 20
11.7963180809
 11
12.9996354084
 21
11.7213180809
  0
LINE
  5
3AC
100
AcDbEntity
  8
0
100
AcDbLine
 62
7
  6
CONTINUOUS
 10
13.0162604859
 20
11.7963180809
 11
13.0162604859
 21
11.7213180809
  0
LINE
  5
3AD
100
AcDbEntity
  8
0
100
AcDbLine
 62
7
  6
CONTINUOUS
 10
13.0356053078
 20
8.3253338289
 11
13.0356053078
 21
8.3053338289
  0
LINE
  5
3AE
100
AcDbEntity
  8
0
100
AcDbLine
 62
7
  6
CONTINUOUS
 10
13.039142942
 20
11.7213180809
 11
13.039142942
 21
11.7963180809
  0
LINE
  5
3AF
100
AcDbEntity
  8
0
100
AcDbLine
 62
7
  6
CONTINUOUS
 10
13.0603032007
 20
11.7963180809
 11
13.0603032007
 21
11.7213180809
  0
LINE
  5
3B0
100
AcDbEntity
  8
0
100
AcDbLine
 62
7
  6
CONTINUOUS
 10
13.0757079189
 20
11.7963180809
 11
13.0757079189
 21
11.7213180809
  0
LINE
  5
3B1
100
AcDbEntity
  8
0
100
AcDbLine
 62
7
  6
CONTINUOUS
 10
13.0981053078
 20
7.3923338289
 11
13.0981053078
 21
7.4223338289
  0
LINE
  5
3B2
100
AcDbEntity
  8
0
100
AcDbLine
 62
7
  6
CONTINUOUS
 10
13.0994291048
 20
11.7213180809
 11
13.0994291048
 21
11.7963180809
  0
LINE
  5
3B3
100
AcDbEntity
  8
0
100
AcDbLine
 62
7
  6
CONTINUOUS
 10
13.1203551118
 20
11.7963180809
 11
13.1203551118
 21
11.7213180809
  0
LINE
  5
3B4
100
AcDbEntity
  8
0
100
AcDbLine
 62
7
  6
CONTINUOUS
 10
13.1344972474
 20
11.7963180809
 11
13.1344972474
 21
11.7213180809
  0
LINE
  5
3B5
100
AcDbEntity
  8
0
100
AcDbLine
 62
7
  6
CONTINUOUS
 10
13.1481053078
 20
8.0123338289
 11
13.1481053078
 21
8.3053338289
  0
LINE
  5
3B6
100
AcDbEntity
  8
0
100
AcDbLine
 62
9
  6
CONTINUOUS
 10
13.1588952275
 20
7.9765410932
 11
13.1588952275
 21
7.5385016868
  0
LINE
  5
3B7
100
AcDbEntity
  8
0
100
AcDbLine
 62
7
  6
CONTINUOUS
 10
13.1589921449
 20
11.7213180809
 11
13.1589921449
 21
11.7963180809
  0
LINE
  5
3B8
100
AcDbEntity
  8
0
100
AcDbLine
 62
7
  6
CONTINUOUS
 10
13.1796265434
 20
11.7963180809
 11
13.1796265434
 21
11.7213180809
  0
LINE
  5
3B9
100
AcDbEntity
  8
0
100
AcDbLine
 62
7
  6
CONTINUOUS
 10
13.1924673339
 20
11.7963180809
 11
13.1924673339
 21
11.7213180809
  0
LINE
  5
3BA
100
AcDbEntity
  8
0
100
AcDbLine
 62
9
  6
CONTINUOUS
 10
13.205276669
 20
7.9010019777
 11
13.205276669
 21
7.612962419
  0
LINE
  5
3BB
100
AcDbEntity
  8
0
100
AcDbLine
 62
7
  6
CONTINUOUS
 10
13.2176688041
 20
11.7213180809
 11
13.2176688041
 21
11.7963180809
  0
LINE
  5
3BC
100
AcDbEntity
  8
0
100
AcDbLine
 62
9
  6
CONTINUOUS
 10
13.2297082346
 20
9.8951917121
 11
13.2297082346
 21
10.1384768486
  0
LINE
  5
3BD
100
AcDbEntity
  8
0
100
AcDbLine
 62
9
  6
CONTINUOUS
 10
13.2297082346
 20
10.4732119458
 11
13.2297082346
 21
10.7164995678
  0
LINE
  5
3BE
100
AcDbEntity
  8
0
100
AcDbLine
 62
7
  6
CONTINUOUS
 10
13.2356053078
 20
8.3253338289
 11
13.2356053078
 21
8.4253338289
  0
LINE
  5
3BF
100
AcDbEntity
  8
0
100
AcDbLine
 62
7
  6
CONTINUOUS
 10
13.2379550368
 20
11.7963180809
 11
13.2379550368
 21
11.7213180809
  0
LINE
  5
3C0
100
AcDbEntity
  8
0
100
AcDbLine
 62
7
  6
CONTINUOUS
 10
13.2456053078
 20
10.936357451
 11
13.2456053078
 21
10.9413180809
  0
LINE
  5
3C1
100
AcDbEntity
  8
0
100
AcDbLine
 62
7
  6
CONTINUOUS
 10
13.2490318028
 20
10.6965110101
 11
13.2490318028
 21
9.9151802698
  0
LINE
  5
3C2
100
AcDbEntity
  8
0
100
AcDbLine
 62
7
  6
CONTINUOUS
 10
13.2494592863
 20
11.7963180809
 11
13.2494592863
 21
11.7213180809
  0
LINE
  5
3C3
100
AcDbEntity
  8
0
100
AcDbLine
 62
7
  6
CONTINUOUS
 10
13.2752982539
 20
11.7213180809
 11
13.2752982539
 21
11.7963180809
  0
LINE
  5
3C4
100
AcDbEntity
  8
0
100
AcDbLine
 62
7
  6
CONTINUOUS
 10
13.2951807175
 20
11.7963180809
 11
13.2951807175
 21
11.7213180809
  0
LINE
  5
3C5
100
AcDbEntity
  8
0
100
AcDbLine
 62
7
  6
CONTINUOUS
 10
13.3053168938
 20
11.7963180809
 11
13.3053168938
 21
11.7213180809
  0
LINE
  5
3C6
100
AcDbEntity
  8
0
100
AcDbLine
 62
7
  6
CONTINUOUS
 10
13.3317225358
 20
11.7213180809
 11
13.3317225358
 21
11.7963180809
  0
LINE
  5
3C7
100
AcDbEntity
  8
0
100
AcDbLine
 62
7
  6
CONTINUOUS
 10
13.3330490343
 20
11.0582315104
 11
13.3330490343
 21
11.4044046514
  0
LINE
  5
3C8
100
AcDbEntity
  8
0
100
AcDbLine
 62
7
  6
CONTINUOUS
 10
13.351146734
 20
11.7963180809
 11
13.351146734
 21
11.7213180809
  0
LINE
  5
3C9
100
AcDbEntity
  8
0
100
AcDbLine
 62
7
  6
CONTINUOUS
 10
13.3598870544
 20
11.7963180809
 11
13.3598870544
 21
11.7213180809
  0
LINE
  5
3CA
100
AcDbEntity
  8
0
100
AcDbLine
 62
7
  6
CONTINUOUS
 10
11.1198634206
 20
9.837962094
 11
11.2660532184
 21
9.8558456399
  0
LINE
  5
3CB
100
AcDbEntity
  8
0
100
AcDbLine
 62
7
  6
CONTINUOUS
 10
11.3224464268
 20
9.8627442782
 11
11.7738033752
 21
9.9179592305
  0
LINE
  5
3CC
100
AcDbEntity
  8
0
100
AcDbLine
 62
7
  6
CONTINUOUS
 10
12.0290461205
 20
9.9491833338
 11
12.0449690691
 21
9.9511312042
  0
LINE
  5
3CD
100
AcDbEntity
  8
0
100
AcDbLine
 62
7
  6
CONTINUOUS
 10
13.4856053078
 20
9.6003338289
 11
12.1856053078
 21
9.6003338289
  0
LINE
  5
3CE
100
AcDbEntity
  8
0
100
AcDbLine
 62
7
  6
CONTINUOUS
 10
7.4856053078
 20
9.6003338289
 11
6.7242436392
 21
9.6003338289
  0
LINE
  5
3CF
100
AcDbEntity
  8
0
100
AcDbLine
 62
7
  6
CONTINUOUS
 10
7.6722450644
 20
9.6684020484
 11
7.7420745479
 21
9.6684020484
  0
LINE
  5
3D0
100
AcDbEntity
  8
0
100
AcDbLine
 62
7
  6
CONTINUOUS
 10
11.9291360677
 20
9.6684020484
 11
11.9989655512
 21
9.6684020484
  0
LINE
  5
3D1
100
AcDbEntity
  8
0
100
AcDbLine
 62
7
  6
CONTINUOUS
 10
13.4106053078
 20
9.6753338289
 11
12.2606053078
 21
9.6753338289
  0
LINE
  5
3D2
100
AcDbEntity
  8
0
100
AcDbLine
 62
7
  6
CONTINUOUS
 10
7.4106053078
 20
9.6753338289
 11
6.7920887408
 21
9.6753338289
  0
LINE
  5
3D3
100
AcDbEntity
  8
0
100
AcDbLine
 62
9
  6
CONTINUOUS
 10
13.3542733427
 20
9.7188296395
 11
12.3447911961
 21
9.7188296372
  0
LINE
  5
3D4
100
AcDbEntity
  8
0
100
AcDbLine
 62
9
  6
CONTINUOUS
 10
7.666338997
 20
9.745884823
 11
7.7361684805
 21
9.745884823
  0
LINE
  5
3D5
100
AcDbEntity
  8
0
100
AcDbLine
 62
9
  6
CONTINUOUS
 10
11.9350421352
 20
9.745884823
 11
12.0048716187
 21
9.745884823
  0
LINE
  5
3D6
100
AcDbEntity
  8
0
100
AcDbLine
 62
9
  6
CONTINUOUS
 10
12.0049950011
 20
9.7658064568
 11
11.9351655175
 21
9.7658064568
  0
LINE
  5
3D7
100
AcDbEntity
  8
0
100
AcDbLine
 62
9
  6
CONTINUOUS
 10
7.7360450981
 20
9.7658064568
 11
7.6662156146
 21
9.7658064568
  0
LINE
  5
3D8
100
AcDbEntity
  8
0
100
AcDbLine
 62
7
  6
CONTINUOUS
 10
8.4784923281
 20
9.7658456399
 11
10.6635712776
 21
9.7658456399
  0
LINE
  5
3D9
100
AcDbEntity
  8
0
100
AcDbLine
 62
9
  6
CONTINUOUS
 10
7.3264024549
 20
9.7187430858
 11
6.8196130813
 21
9.7188284373
  0
LINE
  5
3DA
100
AcDbEntity
  8
0
100
AcDbLine
 62
7
  6
CONTINUOUS
 10
10.2641713573
 20
10.8947634145
 11
10.2638992559
 21
10.8949589192
  0
LINE
  5
3DB
100
AcDbEntity
  8
0
100
AcDbLine
 62
7
  6
CONTINUOUS
 10
10.2643927385
 20
10.8945984745
 11
10.2644901129
 21
10.8945274847
  0
LINE
  5
3DC
100
AcDbEntity
  8
0
100
AcDbLine
 62
7
  6
CONTINUOUS
 10
11.8622976097
 20
9.7008889974
 11
11.8273808652
 21
9.7453309279
  0
LINE
  5
3DD
100
AcDbEntity
  8
0
100
AcDbLine
 62
9
  6
CONTINUOUS
 10
11.8443431235
 20
9.7534020484
 11
11.809426379
 21
9.7978439789
  0
LINE
  5
3DE
100
AcDbEntity
  8
0
100
AcDbLine
 62
9
  6
CONTINUOUS
 10
11.8095497614
 20
9.8177656127
 11
11.8444665058
 21
9.7733236822
  0
LINE
  5
3DF
100
AcDbEntity
  8
0
100
AcDbLine
 62
9
  6
CONTINUOUS
 10
11.9103293449
 20
9.8827522315
 11
11.9297838252
 21
9.8579906257
  0
LINE
  5
3E0
100
AcDbEntity
  8
0
100
AcDbLine
 62
9
  6
CONTINUOUS
 10
11.9996133088
 20
9.8579906257
 11
11.9804327409
 21
9.8824035965
  0
LINE
  5
3E1
100
AcDbEntity
  8
0
100
AcDbLine
 62
7
  6
CONTINUOUS
 10
12.0659273917
 20
9.8258367332
 11
12.0310106472
 21
9.8702786637
  0
LINE
  5
3E2
100
AcDbEntity
  8
0
100
AcDbLine
 62
7
  6
CONTINUOUS
 10
12.0529719206
 20
9.9384467162
 11
12.0670318028
 21
9.9141751106
  0
LINE
  5
3E3
100
AcDbEntity
  8
0
100
AcDbLine
 62
7
  6
CONTINUOUS
 10
13.3856053078
 20
8.4253338289
 11
13.3856053078
 21
8.4753338289
  0
LINE
  5
3E4
100
AcDbEntity
  8
0
100
AcDbLine
 62
7
  6
CONTINUOUS
 10
13.3867869949
 20
11.7213180809
 11
13.3867869949
 21
11.7963180809
  0
LINE
  5
3E5
100
AcDbEntity
  8
0
100
AcDbLine
 62
7
  6
CONTINUOUS
 10
13.4056996872
 20
11.7963180809
 11
13.4056996872
 21
11.7213180809
  0
LINE
  5
3E6
100
AcDbEntity
  8
0
100
AcDbLine
 62
7
  6
CONTINUOUS
 10
13.4130201953
 20
11.7963180809
 11
13.4130201953
 21
11.7213180809
  0
LINE
  5
3E7
100
AcDbEntity
  8
0
100
AcDbLine
 62
7
  6
CONTINUOUS
 10
13.4296053078
 20
10.9828873003
 11
13.4296053078
 21
11.4797488615
  0
LINE
  5
3E8
100
AcDbEntity
  8
0
100
AcDbLine
 62
7
  6
CONTINUOUS
 10
13.4403407034
 20
11.7213180809
 11
13.4403407034
 21
11.7963180809
  0
LINE
  5
3E9
100
AcDbEntity
  8
0
100
AcDbLine
 62
7
  6
CONTINUOUS
 10
13.4586900514
 20
11.7963180809
 11
13.4586900514
 21
11.7213180809
  0
LINE
  5
3EA
100
AcDbEntity
  8
0
100
AcDbLine
 62
7
  6
CONTINUOUS
 10
13.464570682
 20
11.7963180809
 11
13.464570682
 21
11.7213180809
  0
LINE
  5
3EB
100
AcDbEntity
  8
0
100
AcDbLine
 62
7
  6
CONTINUOUS
 10
13.4856053078
 20
9.0003338289
 11
13.4856053078
 21
9.6003338289
  0
LINE
  5
3EC
100
AcDbEntity
  8
0
100
AcDbLine
 62
7
  6
CONTINUOUS
 10
13.4922368741
 20
11.7213180809
 11
13.4922368741
 21
11.7963180809
  0
LINE
  5
3ED
100
AcDbEntity
  8
0
100
AcDbLine
 62
7
  6
CONTINUOUS
 10
13.5099725836
 20
11.7963180809
 11
13.5099725836
 21
11.7213180809
  0
LINE
  5
3EE
100
AcDbEntity
  8
0
100
AcDbLine
 62
7
  6
CONTINUOUS
 10
13.5143972184
 20
11.7963180809
 11
13.5143972184
 21
11.7213180809
  0
LINE
  5
3EF
100
AcDbEntity
  8
0
100
AcDbLine
 62
7
  6
CONTINUOUS
 10
13.5423332634
 20
11.7213180809
 11
13.5423332634
 21
11.7963180809
  0
LINE
  5
3F0
100
AcDbEntity
  8
0
100
AcDbLine
 62
7
  6
CONTINUOUS
 10
13.559406722
 20
11.7963180809
 11
13.559406722
 21
11.7213180809
  0
LINE
  5
3F1
100
AcDbEntity
  8
0
100
AcDbLine
 62
7
  6
CONTINUOUS
 10
13.5606053078
 20
8.5753338289
 11
13.5606053078
 21
8.6253338289
  0
LINE
  5
3F2
100
AcDbEntity
  8
0
100
AcDbLine
 62
7
  6
CONTINUOUS
 10
13.5606053078
 20
8.8253338289
 11
13.5606053078
 21
8.9253338289
  0
LINE
  5
3F3
100
AcDbEntity
  8
0
100
AcDbLine
 62
7
  6
CONTINUOUS
 10
13.5623632334
 20
11.7963180809
 11
13.5623632334
 21
11.7213180809
  0
LINE
  5
3F4
100
AcDbEntity
  8
0
100
AcDbLine
 62
7
  6
CONTINUOUS
 10
13.5904925604
 20
11.7213180809
 11
13.5904925604
 21
11.7963180809
  0
LINE
  5
3F5
100
AcDbEntity
  8
0
100
AcDbLine
 62
7
  6
CONTINUOUS
 10
13.606856971
 20
11.7963180809
 11
13.606856971
 21
11.7213180809
  0
LINE
  5
3F6
100
AcDbEntity
  8
0
100
AcDbLine
 62
7
  6
CONTINUOUS
 10
13.6356053078
 20
8.6253338289
 11
13.6356053078
 21
8.8253338289
  0
LINE
  5
3F7
100
AcDbEntity
  8
0
100
AcDbLine
 62
7
  6
CONTINUOUS
 10
13.636582764
 20
11.7213180809
 11
13.636582764
 21
11.7963180809
  0
LINE
  5
3F8
100
AcDbEntity
  8
0
100
AcDbLine
 62
7
  6
CONTINUOUS
 10
13.6521932728
 20
11.7963180809
 11
13.6521932728
 21
11.7213180809
  0
LINE
  5
3F9
100
AcDbEntity
  8
0
100
AcDbLine
 62
7
  6
CONTINUOUS
 10
13.680477544
 20
11.7213180809
 11
13.680477544
 21
11.7963180809
  0
LINE
  5
3FA
100
AcDbEntity
  8
0
100
AcDbLine
 62
7
  6
CONTINUOUS
 10
13.6952913637
 20
11.7963180809
 11
13.6952913637
 21
11.7213180809
  0
LINE
  5
3FB
100
AcDbEntity
  8
0
100
AcDbLine
 62
7
  6
CONTINUOUS
 10
13.722056588
 20
11.7213180809
 11
13.722056588
 21
11.7963180809
  0
LINE
  5
3FC
100
AcDbEntity
  8
0
100
AcDbLine
 62
7
  6
CONTINUOUS
 10
13.736033115
 20
11.7963180809
 11
13.736033115
 21
11.7213180809
  0
LINE
  5
3FD
100
AcDbEntity
  8
0
100
AcDbLine
 62
7
  6
CONTINUOUS
 10
13.7612059306
 20
11.7213180809
 11
13.7612059306
 21
11.7963180809
  0
LINE
  5
3FE
100
AcDbEntity
  8
0
100
AcDbLine
 62
7
  6
CONTINUOUS
 10
13.7743068562
 20
11.7963180809
 11
13.7743068562
 21
11.7213180809
  0
LINE
  5
3FF
100
AcDbEntity
  8
0
100
AcDbLine
 62
7
  6
CONTINUOUS
 10
13.7978182663
 20
11.7213180809
 11
13.7978182663
 21
11.7963180809
  0
LINE
  5
400
100
AcDbEntity
  8
0
100
AcDbLine
 62
7
  6
CONTINUOUS
 10
13.8100076817
 20
11.7963180809
 11
13.8100076817
 21
11.7213180809
  0
LINE
  5
401
100
AcDbEntity
  8
0
100
AcDbLine
 62
7
  6
CONTINUOUS
 10
13.8317932431
 20
11.7213180809
 11
13.8317932431
 21
11.7963180809
  0
LINE
  5
402
100
AcDbEntity
  8
0
100
AcDbLine
 62
7
  6
CONTINUOUS
 10
13.843037738
 20
11.7963180809
 11
13.843037738
 21
11.7213180809
  0
LINE
  5
403
100
AcDbEntity
  8
0
100
AcDbLine
 62
7
  6
CONTINUOUS
 10
13.863037738
 20
11.7213180809
 11
13.863037738
 21
11.7963180809
  0
LINE
  5
404
100
AcDbEntity
  8
0
100
AcDbLine
 62
7
  6
CONTINUOUS
 10
13.8733064921
 20
11.7963180809
 11
13.8733064921
 21
11.7213180809
  0
LINE
  5
405
100
AcDbEntity
  8
0
100
AcDbLine
 62
7
  6
CONTINUOUS
 10
13.8914661121
 20
11.7213180809
 11
13.8914661121
 21
11.7963180809
  0
LINE
  5
406
100
AcDbEntity
  8
0
100
AcDbLine
 62
7
  6
CONTINUOUS
 10
13.9007309793
 20
11.7963180809
 11
13.9007309793
 21
11.7213180809
  0
LINE
  5
407
100
AcDbEntity
  8
0
100
AcDbLine
 62
7
  6
CONTINUOUS
 10
13.9170004451
 20
11.7213180809
 11
13.9170004451
 21
11.7963180809
  0
LINE
  5
408
100
AcDbEntity
  8
0
100
AcDbLine
 62
7
  6
CONTINUOUS
 10
13.9252360312
 20
11.7963180809
 11
13.9252360312
 21
11.7213180809
  0
LINE
  5
409
100
AcDbEntity
  8
0
100
AcDbLine
 62
7
  6
CONTINUOUS
 10
13.9395707491
 20
11.7213180809
 11
13.9395707491
 21
11.7963180809
  0
LINE
  5
40A
100
AcDbEntity
  8
0
100
AcDbLine
 62
7
  6
CONTINUOUS
 10
13.2297082346
 20
9.8951917121
 11
12.7690318028
 21
9.8796019851
  0
LINE
  5
40B
100
AcDbEntity
  8
0
100
AcDbLine
 62
7
  6
CONTINUOUS
 10
12.6870318028
 20
9.8768270274
 11
12.0670318028
 21
9.8558456399
  0
LINE
  5
40C
100
AcDbEntity
  8
0
100
AcDbLine
 62
9
  6
CONTINUOUS
 10
6.6239848342
 20
9.9658458441
 11
6.6234965977
 21
9.9658441311
  0
LINE
  5
40D
100
AcDbEntity
  8
0
100
AcDbLine
 62
7
  6
CONTINUOUS
 10
11.3113708057
 20
9.8558456399
 11
11.1652951858
 21
9.8558456399
  0
LINE
  5
40E
100
AcDbEntity
  8
0
100
AcDbLine
 62
7
  6
CONTINUOUS
 10
7.8444038406
 20
9.8558456399
 11
7.8480318028
 21
9.8558456399
  0
LINE
  5
40F
100
AcDbEntity
  8
0
100
AcDbLine
 62
9
  6
CONTINUOUS
 10
7.6715973069
 20
9.8579906257
 11
7.7414267904
 21
9.8579906257
  0
LINE
  5
410
100
AcDbEntity
  8
0
100
AcDbLine
 62
9
  6
CONTINUOUS
 10
11.9297838252
 20
9.8579906257
 11
11.9996133088
 21
9.8579906257
  0
LINE
  5
411
100
AcDbEntity
  8
0
100
AcDbLine
 62
7
  6
CONTINUOUS
 10
12.7365318028
 20
9.8891850398
 11
12.7315318028
 21
9.8891850398
  0
LINE
  5
412
100
AcDbEntity
  8
0
100
AcDbLine
 62
7
  6
CONTINUOUS
 10
11.3160318028
 20
9.8958456399
 11
11.4160318028
 21
9.8958456399
  0
LINE
  5
413
100
AcDbEntity
  8
0
100
AcDbLine
 62
9
  6
CONTINUOUS
 10
7.7215259334
 20
9.9024325562
 11
7.7065140514
 21
9.9024325562
  0
LINE
  5
414
100
AcDbEntity
  8
0
100
AcDbLine
 62
7
  6
CONTINUOUS
 10
12.6870318028
 20
9.9283456399
 11
12.6990541314
 21
9.9283456399
  0
LINE
  5
415
100
AcDbEntity
  8
0
100
AcDbLine
 62
7
  6
CONTINUOUS
 10
12.0534736147
 20
9.9380056407
 11
12.0450318028
 21
9.9380056407
  0
LINE
  5
416
100
AcDbEntity
  8
0
100
AcDbLine
 62
7
  6
CONTINUOUS
 10
6.6239848451
 20
9.9658456399
 11
7.5225322566
 21
9.9658456399
  0
LINE
  5
417
100
AcDbEntity
  8
0
100
AcDbLine
 62
7
  6
CONTINUOUS
 10
11.9850318028
 20
9.9758456399
 11
12.0450318028
 21
9.9758456399
  0
LINE
  5
418
100
AcDbEntity
  8
0
100
AcDbLine
 62
7
  6
CONTINUOUS
 10
13.2490318028
 20
10.0358456399
 11
17.8390318028
 21
10.0358456399
  0
LINE
  5
419
100
AcDbEntity
  8
0
100
AcDbLine
 62
7
  6
CONTINUOUS
 10
11.9804327409
 20
9.8824035965
 11
11.9103293449
 21
9.8827522315
  0
LINE
  5
41A
100
AcDbEntity
  8
0
100
AcDbLine
 62
7
  6
CONTINUOUS
 10
12.325271982
 20
9.6976537719
 11
12.3252680826
 21
9.6976574767
  0
LINE
  5
41B
100
AcDbEntity
  8
0
100
AcDbLine
 62
7
  6
CONTINUOUS
 10
13.4856053078
 20
9.0003338289
 11
13.5606053078
 21
8.9253338289
  0
LINE
  5
41C
100
AcDbEntity
  8
0
100
AcDbLine
 62
7
  6
CONTINUOUS
 10
12.2656053078
 20
10.9413180809
 11
12.2416053078
 21
10.9828873003
  0
LINE
  5
41D
100
AcDbEntity
  8
0
100
AcDbLine
 62
7
  6
CONTINUOUS
 10
13.9467544809
 20
11.7963180809
 11
13.9467544809
 21
11.7213180809
  0
LINE
  5
41E
100
AcDbEntity
  8
0
100
AcDbLine
 62
7
  6
CONTINUOUS
 10
13.9591151607
 20
11.7213180809
 11
13.9591151607
 21
11.7963180809
  0
LINE
  5
41F
100
AcDbEntity
  8
0
100
AcDbLine
 62
7
  6
CONTINUOUS
 10
13.9606053078
 20
11.9963180809
 11
13.9606053078
 21
11.7963180809
  0
LINE
  5
420
100
AcDbEntity
  8
0
100
AcDbLine
 62
7
  6
CONTINUOUS
 10
13.965227348
 20
11.7963180809
 11
13.965227348
 21
11.7213180809
  0
LINE
  5
421
100
AcDbEntity
  8
0
100
AcDbLine
 62
7
  6
CONTINUOUS
 10
13.9755801098
 20
11.7213180809
 11
13.9755801098
 21
11.7963180809
  0
LINE
  5
422
100
AcDbEntity
  8
0
100
AcDbLine
 62
7
  6
CONTINUOUS
 10
13.9806039996
 20
11.7963180809
 11
13.9806039996
 21
11.7213180809
  0
LINE
  5
423
100
AcDbEntity
  8
0
100
AcDbLine
 62
7
  6
CONTINUOUS
 10
13.9889204672
 20
11.7213180809
 11
13.9889204672
 21
11.7963180809
  0
LINE
  5
424
100
AcDbEntity
  8
0
100
AcDbLine
 62
7
  6
CONTINUOUS
 10
13.9928422894
 20
11.7963180809
 11
13.9928422894
 21
11.7213180809
  0
LINE
  5
425
100
AcDbEntity
  8
0
100
AcDbLine
 62
7
  6
CONTINUOUS
 10
13.999099668
 20
11.7213180809
 11
13.999099668
 21
11.7963180809
  0
LINE
  5
426
100
AcDbEntity
  8
0
100
AcDbLine
 62
7
  6
CONTINUOUS
 10
14.001908673
 20
11.7963180809
 11
14.001908673
 21
11.7213180809
  0
LINE
  5
427
100
AcDbEntity
  8
0
100
AcDbLine
 62
7
  6
CONTINUOUS
 10
14.0060898116
 20
11.7213180809
 11
14.0060898116
 21
11.7963180809
  0
LINE
  5
428
100
AcDbEntity
  8
0
100
AcDbLine
 62
7
  6
CONTINUOUS
 10
14.0098717385
 20
11.7213180809
 11
14.0098717385
 21
11.7963180809
  0
LINE
  5
429
100
AcDbEntity
  8
0
100
AcDbLine
 62
7
  6
CONTINUOUS
 10
14.0106053078
 20
12.1463180809
 11
14.0106053078
 21
12.0463180809
  0
LINE
  5
42A
100
AcDbEntity
  8
0
100
AcDbLine
 62
7
  6
CONTINUOUS
 10
11.9103293449
 20
10.7289390484
 11
11.9804327409
 21
10.7292876834
  0
LINE
  5
42B
100
AcDbEntity
  8
0
100
AcDbLine
 62
7
  6
CONTINUOUS
 10
13.2490318028
 20
10.5758456399
 11
17.8390318028
 21
10.5758456399
  0
LINE
  5
42C
100
AcDbEntity
  8
0
100
AcDbLine
 62
7
  6
CONTINUOUS
 10
11.9850318028
 20
10.6358456399
 11
12.0450318028
 21
10.6358456399
  0
LINE
  5
42D
100
AcDbEntity
  8
0
100
AcDbLine
 62
7
  6
CONTINUOUS
 10
6.6239848451
 20
10.6458456399
 11
7.5225322566
 21
10.6458456399
  0
LINE
  5
42E
100
AcDbEntity
  8
0
100
AcDbLine
 62
7
  6
CONTINUOUS
 10
12.6870318028
 20
10.6833456399
 11
12.6990541314
 21
10.6833456399
  0
LINE
  5
42F
100
AcDbEntity
  8
0
100
AcDbLine
 62
9
  6
CONTINUOUS
 10
7.7065140514
 20
10.7092587237
 11
7.7215259334
 21
10.7092587237
  0
LINE
  5
430
100
AcDbEntity
  8
0
100
AcDbLine
 62
7
  6
CONTINUOUS
 10
12.0450318028
 20
10.7123456399
 11
12.048026528
 21
10.7123456399
  0
LINE
  5
431
100
AcDbEntity
  8
0
100
AcDbLine
 62
7
  6
CONTINUOUS
 10
11.3160318028
 20
10.7158456399
 11
11.4160318028
 21
10.7158456399
  0
LINE
  5
432
100
AcDbEntity
  8
0
100
AcDbLine
 62
7
  6
CONTINUOUS
 10
12.7365318028
 20
10.72250624
 11
12.7315318028
 21
10.72250624
  0
LINE
  5
433
100
AcDbEntity
  8
0
100
AcDbLine
 62
9
  6
CONTINUOUS
 10
11.9996133088
 20
10.7537006542
 11
11.9297838252
 21
10.7537006542
  0
LINE
  5
434
100
AcDbEntity
  8
0
100
AcDbLine
 62
9
  6
CONTINUOUS
 10
7.7414267904
 20
10.7537006542
 11
7.6715973069
 21
10.7537006542
  0
LINE
  5
435
100
AcDbEntity
  8
0
100
AcDbLine
 62
7
  6
CONTINUOUS
 10
7.8444038406
 20
10.7558456399
 11
7.8480318028
 21
10.7558456399
  0
LINE
  5
436
100
AcDbEntity
  8
0
100
AcDbLine
 62
7
  6
CONTINUOUS
 10
11.1652951858
 20
10.7558456399
 11
11.3113708057
 21
10.7558456399
  0
LINE
  5
437
100
AcDbEntity
  8
0
100
AcDbLine
 62
7
  6
CONTINUOUS
 10
8.4784923281
 20
10.8458456399
 11
10.6635712776
 21
10.8458456399
  0
LINE
  5
438
100
AcDbEntity
  8
0
100
AcDbLine
 62
9
  6
CONTINUOUS
 10
7.6662156146
 20
10.845884823
 11
7.7360450981
 21
10.845884823
  0
LINE
  5
439
100
AcDbEntity
  8
0
100
AcDbLine
 62
9
  6
CONTINUOUS
 10
11.9351655175
 20
10.845884823
 11
12.0049950011
 21
10.845884823
  0
LINE
  5
43A
100
AcDbEntity
  8
0
100
AcDbLine
 62
9
  6
CONTINUOUS
 10
12.0048716187
 20
10.8658064568
 11
11.9350421351
 21
10.8658064568
  0
LINE
  5
43B
100
AcDbEntity
  8
0
100
AcDbLine
 62
9
  6
CONTINUOUS
 10
7.7361684805
 20
10.8658064568
 11
7.666338997
 21
10.8658064568
  0
LINE
  5
43C
100
AcDbEntity
  8
0
100
AcDbLine
 62
9
  6
CONTINUOUS
 10
6.8173545378
 20
10.8928622256
 11
7.3264142781
 21
10.8928616426
  0
LINE
  5
43D
100
AcDbEntity
  8
0
100
AcDbLine
 62
7
  6
CONTINUOUS
 10
13.303645693
 20
10.936357451
 11
12.3675647868
 21
10.936357451
  0
LINE
  5
43E
100
AcDbEntity
  8
0
100
AcDbLine
 62
7
  6
CONTINUOUS
 10
7.3036718697
 20
10.936357451
 11
6.7873934925
 21
10.936357451
  0
LINE
  5
43F
100
AcDbEntity
  8
0
100
AcDbLine
 62
7
  6
CONTINUOUS
 10
6.7839764357
 20
10.9413180809
 11
7.4056053078
 21
10.9413180809
  0
LINE
  5
440
100
AcDbEntity
  8
0
100
AcDbLine
 62
7
  6
CONTINUOUS
 10
12.2656053078
 20
10.9413180809
 11
13.4056053078
 21
10.9413180809
  0
LINE
  5
441
100
AcDbEntity
  8
0
100
AcDbLine
 62
9
  6
CONTINUOUS
 10
12.344808294
 20
10.8929481301
 11
13.3542730167
 21
10.8928616412
  0
LINE
  5
442
100
AcDbEntity
  8
0
100
AcDbLine
 62
9
  6
CONTINUOUS
 10
6.6239848359
 20
10.6458454865
 11
6.6235103072
 21
10.6458471048
  0
LINE
  5
443
100
AcDbEntity
  8
0
100
AcDbLine
 62
7
  6
CONTINUOUS
 10
13.2297082346
 20
10.7164995678
 11
12.7690318028
 21
10.7320892948
  0
LINE
  5
444
100
AcDbEntity
  8
0
100
AcDbLine
 62
7
  6
CONTINUOUS
 10
12.6870318028
 20
10.7348642525
 11
12.0670318028
 21
10.7558456399
  0
LINE
  5
445
100
AcDbEntity
  8
0
100
AcDbLine
 62
7
  6
CONTINUOUS
 10
10.3381720408
 20
10.8693649762
 11
10.5304281958
 21
10.8458456399
  0
LINE
  5
446
100
AcDbEntity
  8
0
100
AcDbLine
 62
7
  6
CONTINUOUS
 10
11.119830696
 20
10.7737420674
 11
11.2661230188
 21
10.7558456399
  0
LINE
  5
447
100
AcDbEntity
  8
0
100
AcDbLine
 62
7
  6
CONTINUOUS
 10
11.3224475601
 20
10.748955271
 11
11.7738213284
 21
10.6937372134
  0
LINE
  5
448
100
AcDbEntity
  8
0
100
AcDbLine
 62
7
  6
CONTINUOUS
 10
12.0290565514
 20
10.6625134378
 11
12.0449698803
 21
10.6605667072
  0
LWPOLYLINE
  5
449
100
AcDbEntity
  8
0
100
AcDbPolyline
 62
7
  6
CONTINUOUS
 90
4
 70
0
 10
10.337751766
 20
10.8694165253
 10
10.3106916307
 20
10.8746256731
 10
10.2733438822
 20
10.8891323336
 10
10.2641713573
 20
10.8947634145
  0
LINE
  5
44A
100
AcDbEntity
  8
0
100
AcDbLine
 62
7
  6
CONTINUOUS
 10
13.4856053078
 20
9.6003338289
 11
13.4106053078
 21
9.6753338289
  0
LINE
  5
44B
100
AcDbEntity
  8
0
100
AcDbLine
 62
7
  6
CONTINUOUS
 10
12.048933522
 20
10.711988469
 11
12.0485968029
 21
10.7123456399
  0
LINE
  5
44C
100
AcDbEntity
  8
0
100
AcDbLine
 62
9
  6
CONTINUOUS
 10
14.5490318028
 20
10.0358456399
 11
14.5490318028
 21
10.5758456399
  0
LINE
  5
44D
100
AcDbEntity
  8
0
100
AcDbLine
 62
7
  6
CONTINUOUS
 10
9.3334573534
 20
10.8694161061
 11
9.140782419
 21
10.8458456399
  0
LINE
  5
44E
100
AcDbEntity
  8
0
100
AcDbLine
 62
7
  6
CONTINUOUS
 10
11.9989655512
 20
10.9432892314
 11
11.9291360677
 21
10.9432892314
  0
LINE
  5
44F
100
AcDbEntity
  8
0
100
AcDbLine
 62
7
  6
CONTINUOUS
 10
7.7420745479
 20
10.9432892314
 11
7.6722450644
 21
10.9432892314
  0
LINE
  5
450
100
AcDbEntity
  8
0
100
AcDbLine
 62
7
  6
CONTINUOUS
 10
6.7390490343
 20
11.0582315104
 11
6.9321615813
 21
11.0582315104
  0
LINE
  5
451
100
AcDbEntity
  8
0
100
AcDbLine
 62
7
  6
CONTINUOUS
 10
7.3330490343
 20
11.0582315104
 11
7.4296053078
 21
11.0582315104
  0
LINE
  5
452
100
AcDbEntity
  8
0
100
AcDbLine
 62
7
  6
CONTINUOUS
 10
12.2416053078
 20
11.0582315104
 11
12.3381615813
 21
11.0582315104
  0
LINE
  5
453
100
AcDbEntity
  8
0
100
AcDbLine
 62
7
  6
CONTINUOUS
 10
12.7390490343
 20
11.0582315104
 11
12.9321615813
 21
11.0582315104
  0
LINE
  5
454
100
AcDbEntity
  8
0
100
AcDbLine
 62
7
  6
CONTINUOUS
 10
13.3330490343
 20
11.0582315104
 11
13.4296053078
 21
11.0582315104
  0
LINE
  5
455
100
AcDbEntity
  8
0
100
AcDbLine
 62
7
  6
CONTINUOUS
 10
13.4296053078
 20
11.4044046514
 11
13.3330490343
 21
11.4044046514
  0
LINE
  5
456
100
AcDbEntity
  8
0
100
AcDbLine
 62
7
  6
CONTINUOUS
 10
12.9321615813
 20
11.4044046514
 11
12.7390490343
 21
11.4044046514
  0
LINE
  5
457
100
AcDbEntity
  8
0
100
AcDbLine
 62
7
  6
CONTINUOUS
 10
12.3381615813
 20
11.4044046514
 11
12.2416053078
 21
11.4044046514
  0
LINE
  5
458
100
AcDbEntity
  8
0
100
AcDbLine
 62
7
  6
CONTINUOUS
 10
7.4296053078
 20
11.4044046514
 11
7.3330490343
 21
11.4044046514
  0
LINE
  5
459
100
AcDbEntity
  8
0
100
AcDbLine
 62
7
  6
CONTINUOUS
 10
6.9321615813
 20
11.4044046514
 11
6.7390490343
 21
11.4044046514
  0
LINE
  5
45A
100
AcDbEntity
  8
0
100
AcDbLine
 62
7
  6
CONTINUOUS
 10
6.3381615813
 20
11.4044046514
 11
6.2416053078
 21
11.4044046514
  0
LINE
  5
45B
100
AcDbEntity
  8
0
100
AcDbLine
 62
7
  6
CONTINUOUS
 10
11.6606053078
 20
12.0463180809
 11
11.7106053078
 21
11.9963180809
  0
LINE
  5
45C
100
AcDbEntity
  8
0
100
AcDbLine
 62
7
  6
CONTINUOUS
 10
5.9856053078
 20
11.5213180809
 11
7.6856053078
 21
11.5213180809
  0
LINE
  5
45D
100
AcDbEntity
  8
0
100
AcDbLine
 62
7
  6
CONTINUOUS
 10
11.9856053078
 20
11.5213180809
 11
13.6856053078
 21
11.5213180809
  0
LINE
  5
45E
100
AcDbEntity
  8
0
100
AcDbLine
 62
7
  6
CONTINUOUS
 10
5.8356053078
 20
11.6213180809
 11
7.8356053078
 21
11.6213180809
  0
LINE
  5
45F
100
AcDbEntity
  8
0
100
AcDbLine
 62
7
  6
CONTINUOUS
 10
11.8356053078
 20
11.6213180809
 11
13.8356053078
 21
11.6213180809
  0
LINE
  5
460
100
AcDbEntity
  8
0
100
AcDbLine
 62
7
  6
CONTINUOUS
 10
5.6613388772
 20
11.7213180809
 11
5.6693019426
 21
11.7213180809
  0
LINE
  5
461
100
AcDbEntity
  8
0
100
AcDbLine
 62
7
  6
CONTINUOUS
 10
5.6711311968
 20
11.7213180809
 11
6.0628733603
 21
11.7213180809
  0
LINE
  5
462
100
AcDbEntity
  8
0
100
AcDbLine
 62
7
  6
CONTINUOUS
 10
6.0643536447
 20
11.7213180809
 11
6.1088473823
 21
11.7213180809
  0
LINE
  5
463
100
AcDbEntity
  8
0
100
AcDbLine
 62
7
  6
CONTINUOUS
 10
6.1118038937
 20
11.7213180809
 11
7.559406722
 21
11.7213180809
  0
LINE
  5
464
100
AcDbEntity
  8
0
100
AcDbLine
 62
7
  6
CONTINUOUS
 10
7.5623632334
 20
11.7213180809
 11
7.606856971
 21
11.7213180809
  0
LINE
  5
465
100
AcDbEntity
  8
0
100
AcDbLine
 62
7
  6
CONTINUOUS
 10
7.6083372553
 20
11.7213180809
 11
8.0098717385
 21
11.7213180809
  0
LINE
  5
466
100
AcDbEntity
  8
0
100
AcDbLine
 62
7
  6
CONTINUOUS
 10
11.6613388772
 20
11.7213180809
 11
11.6693019426
 21
11.7213180809
  0
LINE
  5
467
100
AcDbEntity
  8
0
100
AcDbLine
 62
7
  6
CONTINUOUS
 10
11.6711311968
 20
11.7213180809
 11
12.0628733603
 21
11.7213180809
  0
LINE
  5
468
100
AcDbEntity
  8
0
100
AcDbLine
 62
7
  6
CONTINUOUS
 10
12.0643536447
 20
11.7213180809
 11
12.1088473823
 21
11.7213180809
  0
LINE
  5
469
100
AcDbEntity
  8
0
100
AcDbLine
 62
7
  6
CONTINUOUS
 10
12.1118038937
 20
11.7213180809
 11
13.559406722
 21
11.7213180809
  0
LINE
  5
46A
100
AcDbEntity
  8
0
100
AcDbLine
 62
7
  6
CONTINUOUS
 10
13.5623632334
 20
11.7213180809
 11
13.606856971
 21
11.7213180809
  0
LINE
  5
46B
100
AcDbEntity
  8
0
100
AcDbLine
 62
7
  6
CONTINUOUS
 10
13.6083372553
 20
11.7213180809
 11
14.0098717385
 21
11.7213180809
  0
LINE
  5
46C
100
AcDbEntity
  8
0
100
AcDbLine
 62
7
  6
CONTINUOUS
 10
14.0098717385
 20
11.7963180809
 11
14.001908673
 21
11.7963180809
  0
LINE
  5
46D
100
AcDbEntity
  8
0
100
AcDbLine
 62
7
  6
CONTINUOUS
 10
14.0000794189
 20
11.7963180809
 11
13.6083372553
 21
11.7963180809
  0
LINE
  5
46E
100
AcDbEntity
  8
0
100
AcDbLine
 62
7
  6
CONTINUOUS
 10
13.606856971
 20
11.7963180809
 11
13.5623632334
 21
11.7963180809
  0
LINE
  5
46F
100
AcDbEntity
  8
0
100
AcDbLine
 62
7
  6
CONTINUOUS
 10
13.559406722
 20
11.7963180809
 11
12.1118038937
 21
11.7963180809
  0
LINE
  5
470
100
AcDbEntity
  8
0
100
AcDbLine
 62
7
  6
CONTINUOUS
 10
12.1088473823
 20
11.7963180809
 11
12.0643536447
 21
11.7963180809
  0
LINE
  5
471
100
AcDbEntity
  8
0
100
AcDbLine
 62
7
  6
CONTINUOUS
 10
12.0628733603
 20
11.7963180809
 11
11.6613388772
 21
11.7963180809
  0
LINE
  5
472
100
AcDbEntity
  8
0
100
AcDbLine
 62
7
  6
CONTINUOUS
 10
8.0098717385
 20
11.7963180809
 11
8.001908673
 21
11.7963180809
  0
LINE
  5
473
100
AcDbEntity
  8
0
100
AcDbLine
 62
7
  6
CONTINUOUS
 10
8.0000794189
 20
11.7963180809
 11
7.6083372553
 21
11.7963180809
  0
LINE
  5
474
100
AcDbEntity
  8
0
100
AcDbLine
 62
7
  6
CONTINUOUS
 10
7.606856971
 20
11.7963180809
 11
7.5623632334
 21
11.7963180809
  0
LINE
  5
475
100
AcDbEntity
  8
0
100
AcDbLine
 62
7
  6
CONTINUOUS
 10
7.559406722
 20
11.7963180809
 11
6.1118038937
 21
11.7963180809
  0
LINE
  5
476
100
AcDbEntity
  8
0
100
AcDbLine
 62
7
  6
CONTINUOUS
 10
6.1088473823
 20
11.7963180809
 11
6.0643536447
 21
11.7963180809
  0
LINE
  5
477
100
AcDbEntity
  8
0
100
AcDbLine
 62
7
  6
CONTINUOUS
 10
6.0628733603
 20
11.7963180809
 11
5.6613388772
 21
11.7963180809
  0
LINE
  5
478
100
AcDbEntity
  8
0
100
AcDbLine
 62
7
  6
CONTINUOUS
 10
13.9606053078
 20
11.9963180809
 11
11.7106053078
 21
11.9963180809
  0
LINE
  5
479
100
AcDbEntity
  8
0
100
AcDbLine
 62
7
  6
CONTINUOUS
 10
7.9606053078
 20
11.9963180809
 11
5.7106053078
 21
11.9963180809
  0
LINE
  5
47A
100
AcDbEntity
  8
0
100
AcDbLine
 62
7
  6
CONTINUOUS
 10
5.6606053078
 20
12.0463180809
 11
8.0106053078
 21
12.0463180809
  0
LINE
  5
47B
100
AcDbEntity
  8
0
100
AcDbLine
 62
7
  6
CONTINUOUS
 10
11.6606053078
 20
12.0463180809
 11
14.0106053078
 21
12.0463180809
  0
LINE
  5
47C
100
AcDbEntity
  8
0
100
AcDbLine
 62
7
  6
CONTINUOUS
 10
13.4296053078
 20
11.4797488615
 11
13.4056053078
 21
11.5213180809
  0
LINE
  5
47D
100
AcDbEntity
  8
0
100
AcDbLine
 62
9
  6
CONTINUOUS
 10
15.6442027535
 20
7.5583363762
 11
15.6442026629
 21
7.8926551503
  0
LINE
  5
47E
100
AcDbEntity
  8
0
100
AcDbLine
 62
9
  6
CONTINUOUS
 10
15.6443971272
 20
7.5010907301
 11
15.644397164
 21
7.518704689
  0
LINE
  5
47F
100
AcDbEntity
  8
0
100
AcDbLine
 62
7
  6
CONTINUOUS
 10
15.6856053078
 20
7.5410753818
 11
15.6856053078
 21
7.909912043
  0
LINE
  5
480
100
AcDbEntity
  8
0
100
AcDbLine
 62
9
  6
CONTINUOUS
 10
15.6454372513
 20
7.9323047052
 11
15.6455906454
 21
7.9499150823
  0
LINE
  5
481
100
AcDbEntity
  8
0
100
AcDbLine
 62
7
  6
CONTINUOUS
 10
14.0106053078
 20
12.1463180809
 11
11.6606053078
 21
12.1463180809
  0
LINE
  5
482
100
AcDbEntity
  8
0
100
AcDbLine
 62
7
  6
CONTINUOUS
 10
8.0106053078
 20
12.1463180809
 11
5.6606053078
 21
12.1463180809
  0
ARC
  5
483
100
AcDbEntity
  8
0
100
AcDbCircle
 62
9
  6
CONTINUOUS
 10
6.9039519614
 20
9.9736641488
 40
2.0351602868
100
AcDbArc
 50
257.9200003722
 51
258.9050619517
  0
ARC
  5
484
100
AcDbEntity
  8
0
100
AcDbCircle
 62
7
  6
CONTINUOUS
 10
6.4227282064
 20
10.0253855346
 40
1.4633766556
100
AcDbArc
 50
353.5057100633
 51
354.8327684482
  0
ARC
  5
485
100
AcDbEntity
  8
0
100
AcDbCircle
 62
9
  6
CONTINUOUS
 10
6.3260980748
 20
8.1927225346
 40
0.2853257595
100
AcDbArc
 50
305.6811156786
 51
310.741475326
  0
ARC
  5
486
100
AcDbEntity
  8
0
100
AcDbCircle
 62
9
  6
CONTINUOUS
 10
6.3299574559
 20
7.3218204215
 40
0.2832048808
100
AcDbArc
 50
49.916136036
 51
54.9646883006
  0
ARC
  5
487
100
AcDbEntity
  8
0
100
AcDbCircle
 62
9
  6
CONTINUOUS
 10
6.3248787671
 20
8.0379554689
 40
0.1972409361
100
AcDbArc
 50
337.9801771947
 51
341.8587230288
  0
ARC
  5
488
100
AcDbEntity
  8
0
100
AcDbCircle
 62
9
  6
CONTINUOUS
 10
6.3396511275
 20
7.4811923526
 40
0.1819266288
100
AcDbArc
 50
18.361803929
 51
20.0740981973
  0
ARC
  5
489
100
AcDbEntity
  8
0
100
AcDbCircle
 62
7
  6
CONTINUOUS
 10
6.1106053078
 20
8.4753338289
 40
0.1
100
AcDbArc
 50
0.0
 51
90.0
  0
ARC
  5
48A
100
AcDbEntity
  8
0
100
AcDbCircle
 62
7
  6
CONTINUOUS
 10
6.4481053078
 20
7.4423338289
 40
0.075
100
AcDbArc
 50
0.0
 51
67.5
  0
ARC
  5
48B
100
AcDbEntity
  8
0
100
AcDbCircle
 62
7
  6
CONTINUOUS
 10
7.2231053078
 20
7.4423338289
 40
0.075
100
AcDbArc
 50
90.0
 51
180.0
  0
ARC
  5
48C
100
AcDbEntity
  8
0
100
AcDbCircle
 62
7
  6
CONTINUOUS
 10
6.3805820172
 20
7.5195193594
 40
0.0550243871
100
AcDbArc
 50
359.1047459368
 51
91.6821434803
  0
ARC
  5
48D
100
AcDbEntity
  8
0
100
AcDbCircle
 62
7
  6
CONTINUOUS
 10
7.3036725371
 20
9.7265149313
 40
0.0511811024
100
AcDbArc
 50
270.0
 51
325.6957080068
  0
ARC
  5
48E
100
AcDbEntity
  8
0
100
AcDbCircle
 62
7
  6
CONTINUOUS
 10
4.0256057654
 20
7.9099150614
 40
0.0400000234
100
AcDbArc
 50
96.3291496199
 51
180.0
  0
ARC
  5
48F
100
AcDbEntity
  8
0
100
AcDbCircle
 62
7
  6
CONTINUOUS
 10
4.0256057533
 20
7.5410725153
 40
0.0400000222
100
AcDbArc
 50
180.0
 51
265.7445851128
  0
ARC
  5
490
100
AcDbEntity
  8
0
100
AcDbCircle
 62
7
  6
CONTINUOUS
 10
6.5031053078
 20
8.0123338289
 40
0.02
100
AcDbArc
 50
283.9347317258
 51
360.0
  0
ARC
  5
491
100
AcDbEntity
  8
0
100
AcDbCircle
 62
7
  6
CONTINUOUS
 10
10.3911047454
 20
-23.7889233314
 40
34.3795226382
100
AcDbArc
 50
85.2638804269
 51
85.6495355827
  0
ARC
  5
492
100
AcDbEntity
  8
0
100
AcDbCircle
 62
7
  6
CONTINUOUS
 10
8.9981689817
 20
3.3058810969
 40
0.1275636892
100
AcDbArc
 50
176.7637315847
 51
180.0159256451
  0
ARC
  5
493
100
AcDbEntity
  8
0
100
AcDbCircle
 62
9
  6
CONTINUOUS
 10
8.9956420013
 20
3.305843332
 40
0.1250367024
100
AcDbArc
 50
179.9989424436
 51
191.002463319
  0
ARC
  5
494
100
AcDbEntity
  8
0
100
AcDbCircle
 62
7
  6
CONTINUOUS
 10
8.4784923281
 20
9.3458456399
 40
1.5
100
AcDbArc
 50
90.0
 51
114.8539722589
  0
ARC
  5
495
100
AcDbEntity
  8
0
100
AcDbCircle
 62
9
  6
CONTINUOUS
 10
7.6651881925
 20
10.0083251242
 40
0.837560329
100
AcDbArc
 50
89.9297161493
 51
92.1192044212
  0
ARC
  5
496
100
AcDbEntity
  8
0
100
AcDbCircle
 62
7
  6
CONTINUOUS
 10
7.5225322566
 20
9.6158456399
 40
0.35
100
AcDbArc
 50
53.2130265183
 51
90.0
  0
ARC
  5
497
100
AcDbEntity
  8
0
100
AcDbCircle
 62
7
  6
CONTINUOUS
 10
7.5960206652
 20
9.70150134
 40
0.2514531525
100
AcDbArc
 50
84.8923656229
 51
102.5300047106
  0
ARC
  5
498
100
AcDbEntity
  8
0
100
AcDbCircle
 62
7
  6
CONTINUOUS
 10
9.035512318
 20
9.5267635247
 40
0.2500996743
100
AcDbArc
 50
0.0194841611
 51
75.1521620876
  0
ARC
  5
499
100
AcDbEntity
  8
0
100
AcDbCircle
 62
7
  6
CONTINUOUS
 10
7.595878679
 20
9.7029841408
 40
0.2499753754
100
AcDbArc
 50
102.5719701536
 51
181.1698379667
  0
ARC
  5
49A
100
AcDbEntity
  8
0
100
AcDbCircle
 62
7
  6
CONTINUOUS
 10
7.5606053078
 20
8.4753338289
 40
0.1
100
AcDbArc
 50
90.0
 51
180.0
  0
ARC
  5
49B
100
AcDbEntity
  8
0
100
AcDbCircle
 62
9
  6
CONTINUOUS
 10
7.6717028765
 20
9.7727041855
 40
0.0852865055
100
AcDbArc
 50
90.0709220938
 51
109.3227816602
  0
ARC
  5
49C
100
AcDbEntity
  8
0
100
AcDbCircle
 62
9
  6
CONTINUOUS
 10
7.7066103671
 20
9.8172395307
 40
0.08519308
100
AcDbArc
 50
90.0647762352
 51
112.4296065328
  0
ARC
  5
49D
100
AcDbEntity
  8
0
100
AcDbCircle
 62
7
  6
CONTINUOUS
 10
7.7420701297
 20
9.7534111386
 40
0.0850085481
100
AcDbArc
 50
270.0029778993
 51
321.841322168
  0
ARC
  5
49E
100
AcDbEntity
  8
0
100
AcDbCircle
 62
7
  6
CONTINUOUS
 10
7.6722450646
 20
9.7534020487
 40
0.0850000002
100
AcDbArc
 50
180.3548505519
 51
269.9999998384
  0
ARC
  5
49F
100
AcDbEntity
  8
0
100
AcDbCircle
 62
7
  6
CONTINUOUS
 10
7.6721213283
 20
9.7733238604
 40
0.0849996118
100
AcDbArc
 50
141.844247214
 51
180.3521569487
  0
ARC
  5
4A0
100
AcDbEntity
  8
0
100
AcDbCircle
 62
9
  6
CONTINUOUS
 10
7.7767291286
 20
9.8172084069
 40
0.0849335535
100
AcDbArc
 50
0.3758911297
 51
29.5439210979
  0
ARC
  5
4A1
100
AcDbEntity
  8
0
100
AcDbCircle
 62
9
  6
CONTINUOUS
 10
7.7776454916
 20
9.7972863744
 40
0.0841401677
100
AcDbArc
 50
321.8676563538
 51
0.379705183
  0
ARC
  5
4A2
100
AcDbEntity
  8
0
100
AcDbCircle
 62
9
  6
CONTINUOUS
 10
7.7427287472
 20
9.7528444439
 40
0.0841401676
100
AcDbArc
 50
321.8676563411
 51
0.3797051942
  0
ARC
  5
4A3
100
AcDbEntity
  8
0
100
AcDbCircle
 62
9
  6
CONTINUOUS
 10
7.7063067872
 20
9.8183154986
 40
0.0840827801
100
AcDbArc
 50
112.5181366094
 51
141.8309352415
  0
ARC
  5
4A4
100
AcDbEntity
  8
0
100
AcDbCircle
 62
9
  6
CONTINUOUS
 10
7.6713692318
 20
9.773892645
 40
0.0840546296
100
AcDbArc
 50
109.3762219939
 51
141.8323920834
  0
ARC
  5
4A5
100
AcDbEntity
  8
0
100
AcDbCircle
 62
7
  6
CONTINUOUS
 10
10.6733879039
 20
3.3059005793
 40
0.1272167813
100
AcDbArc
 50
359.9881240928
 51
3.2054621689
  0
ARC
  5
4A6
100
AcDbEntity
  8
0
100
AcDbCircle
 62
7
  6
CONTINUOUS
 10
10.6635712776
 20
9.3458456399
 40
1.5
100
AcDbArc
 50
64.2163806705
 51
90.0
  0
ARC
  5
4A7
100
AcDbEntity
  8
0
100
AcDbCircle
 62
9
  6
CONTINUOUS
 10
9.9163201763
 20
9.7927958011
 40
0.6830398039
100
AcDbArc
 50
191.2906627516
 51
202.3266994965
  0
ARC
  5
4A8
100
AcDbEntity
  8
0
100
AcDbCircle
 62
9
  6
CONTINUOUS
 10
9.7548905555
 20
9.792795779
 40
0.683039688
100
AcDbArc
 50
337.6732985221
 51
348.7084086103
  0
ARC
  5
4A9
100
AcDbEntity
  8
0
100
AcDbCircle
 62
9
  6
CONTINUOUS
 10
9.7769699814
 20
9.7843596435
 40
0.6594109733
100
AcDbArc
 50
337.0862252381
 51
337.6225558862
  0
ARC
  5
4AA
100
AcDbEntity
  8
0
100
AcDbCircle
 62
9
  6
CONTINUOUS
 10
9.8942403614
 20
9.7843595302
 40
0.6594106777
100
AcDbArc
 50
202.3774440343
 51
202.9138906037
  0
ARC
  5
4AB
100
AcDbEntity
  8
0
100
AcDbCircle
 62
9
  6
CONTINUOUS
 10
9.9758511425
 20
10.2686641117
 40
0.5998476745
100
AcDbArc
 50
302.1962836969
 51
302.9704613199
  0
ARC
  5
4AC
100
AcDbEntity
  8
0
100
AcDbCircle
 62
9
  6
CONTINUOUS
 10
10.5773888809
 20
9.562947512
 40
0.2918517232
100
AcDbArc
 50
135.396309759
 51
143.5335317257
  0
ARC
  5
4AD
100
AcDbEntity
  8
0
100
AcDbCircle
 62
7
  6
CONTINUOUS
 10
10.6357062168
 20
9.5267612077
 40
0.2501046536
100
AcDbArc
 50
104.8499963709
 51
179.9799854093
  0
ARC
  5
4AE
100
AcDbEntity
  8
0
100
AcDbCircle
 62
7
  6
CONTINUOUS
 10
9.3906053078
 20
8.1723023328
 40
0.08
100
AcDbArc
 50
0.0
 51
90.0
  0
ARC
  5
4AF
100
AcDbEntity
  8
0
100
AcDbCircle
 62
7
  6
CONTINUOUS
 10
10.2806053078
 20
8.1723023328
 40
0.08
100
AcDbArc
 50
90.0
 51
180.0
  0
ARC
  5
4B0
100
AcDbEntity
  8
0
100
AcDbCircle
 62
7
  6
CONTINUOUS
 10
9.3156053078
 20
8.2823023328
 40
0.03
100
AcDbArc
 50
180.0
 51
270.0
  0
ARC
  5
4B1
100
AcDbEntity
  8
0
100
AcDbCircle
 62
7
  6
CONTINUOUS
 10
10.3556053078
 20
8.2823023328
 40
0.03
100
AcDbArc
 50
270.0
 51
360.0
  0
ARC
  5
4B2
100
AcDbEntity
  8
0
100
AcDbCircle
 62
7
  6
CONTINUOUS
 10
10.1702903472
 20
8.1526172935
 40
0.0196850394
100
AcDbArc
 50
90.0
 51
180.0
  0
ARC
  5
4B3
100
AcDbEntity
  8
0
100
AcDbCircle
 62
7
  6
CONTINUOUS
 10
9.5009202685
 20
8.1526172935
 40
0.0196850394
100
AcDbArc
 50
0.0
 51
90.0
  0
ARC
  5
4B4
100
AcDbEntity
  8
0
100
AcDbCircle
 62
7
  6
CONTINUOUS
 10
6.1934317119
 20
10.5546440146
 40
1.4527771251
100
AcDbArc
 50
4.5062627224
 51
5.874479014
  0
ARC
  5
4B5
100
AcDbEntity
  8
0
100
AcDbCircle
 62
7
  6
CONTINUOUS
 10
5.9680318028
 20
10.3058456399
 40
1.04
100
AcDbArc
 50
19.2273138642
 51
340.7922279637
  0
ARC
  5
4B6
100
AcDbEntity
  8
0
100
AcDbCircle
 62
9
  6
CONTINUOUS
 10
5.9680318028
 20
10.3058456399
 40
1.0277893215
100
AcDbArc
 50
19.4427643499
 51
340.5556411479
  0
ARC
  5
4B7
100
AcDbEntity
  8
0
100
AcDbCircle
 62
9
  6
CONTINUOUS
 10
5.9680318028
 20
10.3058456399
 40
0.840293406
100
AcDbArc
 50
23.9306738939
 51
336.0657848045
  0
ARC
  5
4B8
100
AcDbEntity
  8
0
100
AcDbCircle
 62
9
  6
CONTINUOUS
 10
5.9680318028
 20
10.3058456399
 40
0.7923149729
100
AcDbArc
 50
25.6561527258
 51
334.4730139868
  0
CIRCLE
  5
4B9
100
AcDbEntity
  8
0
100
AcDbCircle
 62
9
  6
CONTINUOUS
 10
5.9680318028
 20
10.3058456399
 40
0.0291338583
  0
ARC
  5
4BA
100
AcDbEntity
  8
0
100
AcDbCircle
 62
7
  6
CONTINUOUS
 10
5.8856053078
 20
11.5213180809
 40
0.1
100
AcDbArc
 50
0.0
 51
90.0
  0
ARC
  5
4BB
100
AcDbEntity
  8
0
100
AcDbCircle
 62
7
  6
CONTINUOUS
 10
5.7356053078
 20
11.6213180809
 40
0.1
100
AcDbArc
 50
0.0
 51
67.5
  0
ARC
  5
4BC
100
AcDbEntity
  8
0
100
AcDbCircle
 62
7
  6
CONTINUOUS
 10
7.6205506925
 20
10.4321919808
 40
4.4398133557
100
AcDbArc
 50
1.9743558853
 51
2.4102927235
  0
ARC
  5
4BD
100
AcDbEntity
  8
0
100
AcDbCircle
 62
9
  6
CONTINUOUS
 10
6.8850921859
 20
10.4055195358
 40
2.518396223
100
AcDbArc
 50
258.5371691903
 51
259.3255279807
  0
ARC
  5
4BE
100
AcDbEntity
  8
0
100
AcDbCircle
 62
9
  6
CONTINUOUS
 10
7.6653115749
 20
10.5834445219
 40
0.837560329
100
AcDbArc
 50
267.8807955788
 51
270.0702838507
  0
ARC
  5
4BF
100
AcDbEntity
  8
0
100
AcDbCircle
 62
9
  6
CONTINUOUS
 10
7.5140220959
 20
10.6984058014
 40
0.3627163468
100
AcDbArc
 50
9.7372993818
 51
10.3917088664
  0
ARC
  5
4C0
100
AcDbEntity
  8
0
100
AcDbCircle
 62
9
  6
CONTINUOUS
 10
7.5568956719
 20
10.7061981615
 40
0.3191404475
100
AcDbArc
 50
10.4040700506
 51
10.6664281301
  0
ARC
  5
4C1
100
AcDbEntity
  8
0
100
AcDbCircle
 62
7
  6
CONTINUOUS
 10
7.5960173579
 20
10.9101569262
 40
0.2514202011
100
AcDbArc
 50
257.5593559695
 51
275.1051625397
  0
ARC
  5
4C2
100
AcDbEntity
  8
0
100
AcDbCircle
 62
7
  6
CONTINUOUS
 10
7.5956032336
 20
10.9089368309
 40
0.2497041101
100
AcDbArc
 50
178.8392016433
 51
257.5187958453
  0
ARC
  5
4C3
100
AcDbEntity
  8
0
100
AcDbCircle
 62
9
  6
CONTINUOUS
 10
7.7066103671
 20
10.7944517492
 40
0.08519308
100
AcDbArc
 50
247.5703934671
 51
269.9352237648
  0
ARC
  5
4C4
100
AcDbEntity
  8
0
100
AcDbCircle
 62
7
  6
CONTINUOUS
 10
7.7420701266
 20
10.8582801349
 40
0.0850085555
100
AcDbArc
 50
38.1586799263
 51
89.9970200146
  0
ARC
  5
4C5
100
AcDbEntity
  8
0
100
AcDbCircle
 62
7
  6
CONTINUOUS
 10
7.6721216949
 20
10.8383676038
 40
0.0850000139
100
AcDbArc
 50
179.662054736
 51
218.1556977803
  0
ARC
  5
4C6
100
AcDbEntity
  8
0
100
AcDbCircle
 62
7
  6
CONTINUOUS
 10
7.6722450647
 20
10.8582892311
 40
0.0850000003
100
AcDbArc
 50
90.0000002052
 51
179.6451494044
  0
ARC
  5
4C7
100
AcDbEntity
  8
0
100
AcDbCircle
 62
9
  6
CONTINUOUS
 10
7.7767255798
 20
10.7944793025
 40
0.0849370789
100
AcDbArc
 50
327.1152012403
 51
359.6265330703
  0
ARC
  5
4C8
100
AcDbEntity
  8
0
100
AcDbCircle
 62
9
  6
CONTINUOUS
 10
7.7776454916
 20
10.8144049055
 40
0.0841401677
100
AcDbArc
 50
359.6202948144
 51
38.132343648
  0
ARC
  5
4C9
100
AcDbEntity
  8
0
100
AcDbCircle
 62
9
  6
CONTINUOUS
 10
7.7063067872
 20
10.7933757812
 40
0.0840827801
100
AcDbArc
 50
218.1690647585
 51
247.4818633905
  0
ARC
  5
4CA
100
AcDbEntity
  8
0
100
AcDbCircle
 62
9
  6
CONTINUOUS
 10
7.6712360012
 20
10.837642508
 40
0.0838534118
100
AcDbArc
 50
218.1399920939
 51
270.0512370531
  0
ARC
  5
4CB
100
AcDbEntity
  8
0
100
AcDbCircle
 62
9
  6
CONTINUOUS
 10
7.743696667
 20
10.8587975244
 40
0.0831723784
100
AcDbArc
 50
359.6498450236
 51
38.1419812103
  0
ARC
  5
4CC
100
AcDbEntity
  8
0
100
AcDbCircle
 62
7
  6
CONTINUOUS
 10
7.3036725371
 20
10.8851763486
 40
0.0511811024
100
AcDbArc
 50
34.304291993
 51
90.0
  0
ARC
  5
4CD
100
AcDbEntity
  8
0
100
AcDbCircle
 62
7
  6
CONTINUOUS
 10
7.5225322566
 20
10.9958456399
 40
0.35
100
AcDbArc
 50
270.0
 51
306.7869734806
  0
ARC
  5
4CE
100
AcDbEntity
  8
0
100
AcDbCircle
 62
7
  6
CONTINUOUS
 10
7.7856053078
 20
11.5213180809
 40
0.1
100
AcDbArc
 50
90.0
 51
180.0
  0
ARC
  5
4CF
100
AcDbEntity
  8
0
100
AcDbCircle
 62
7
  6
CONTINUOUS
 10
7.9356053078
 20
11.6213180809
 40
0.1
100
AcDbArc
 50
112.5
 51
180.0
  0
ARC
  5
4D0
100
AcDbEntity
  8
0
100
AcDbCircle
 62
7
  6
CONTINUOUS
 10
9.4892966313
 20
10.3058456399
 40
3.9093008025
100
AcDbArc
 50
351.3638693749
 51
356.0277811809
  0
ARC
  5
4D1
100
AcDbEntity
  8
0
100
AcDbCircle
 62
7
  6
CONTINUOUS
 10
9.4892966313
 20
10.3058456399
 40
3.9093008025
100
AcDbArc
 50
3.9722162833
 51
8.636130625
  0
ARC
  5
4D2
100
AcDbEntity
  8
0
100
AcDbCircle
 62
7
  6
CONTINUOUS
 10
10.6635712776
 20
11.2658456399
 40
1.5
100
AcDbArc
 50
270.0
 51
295.7836193295
  0
ARC
  5
4D3
100
AcDbEntity
  8
0
100
AcDbCircle
 62
7
  6
CONTINUOUS
 10
8.4784923281
 20
11.2658456399
 40
1.5
100
AcDbArc
 50
245.1460277411
 51
270.0
  0
ARC
  5
4D4
100
AcDbEntity
  8
0
100
AcDbCircle
 62
7
  6
CONTINUOUS
 10
9.8356053078
 20
10.3058456399
 40
0.7283464567
100
AcDbArc
 50
53.9342288958
 51
126.0665054973
  0
ARC
  5
4D5
100
AcDbEntity
  8
0
100
AcDbCircle
 62
7
  6
CONTINUOUS
 10
9.8356083042
 20
10.3058577485
 40
0.6799839324
100
AcDbArc
 50
52.7526878395
 51
126.7175947732
  0
ARC
  5
4D6
100
AcDbEntity
  8
0
100
AcDbCircle
 62
7
  6
CONTINUOUS
 10
9.8356100005
 20
10.3058309972
 40
0.6799823071
100
AcDbArc
 50
233.2760297491
 51
307.2709830057
  0
ARC
  5
4D7
100
AcDbEntity
  8
0
100
AcDbCircle
 62
9
  6
CONTINUOUS
 10
10.016087639
 20
10.6177427843
 40
0.3735165248
100
AcDbArc
 50
38.0241953217
 51
38.958586538
  0
ARC
  5
4D8
100
AcDbEntity
  8
0
100
AcDbCircle
 62
7
  6
CONTINUOUS
 10
10.3911731583
 20
44.3997375888
 40
34.3786459191
100
AcDbArc
 50
274.3504612288
 51
274.736102036
  0
ARC
  5
4D9
100
AcDbEntity
  8
0
100
AcDbCircle
 62
9
  6
CONTINUOUS
 10
13.3460947997
 20
8.1939806273
 40
0.2869206189
100
AcDbArc
 50
229.2738837764
 51
234.3167630823
  0
ARC
  5
4DA
100
AcDbEntity
  8
0
100
AcDbCircle
 62
9
  6
CONTINUOUS
 10
13.3397753802
 20
7.3237399373
 40
0.2807847586
100
AcDbArc
 50
125.0241325653
 51
130.1053611669
  0
ARC
  5
4DB
100
AcDbEntity
  8
0
100
AcDbCircle
 62
9
  6
CONTINUOUS
 10
13.3462287557
 20
8.0378935536
 40
0.1971242679
100
AcDbArc
 50
198.1338270839
 51
202.0114311464
  0
ARC
  5
4DC
100
AcDbEntity
  8
0
100
AcDbCircle
 62
9
  6
CONTINUOUS
 10
13.3316211419
 20
7.4811424449
 40
0.1820008859
100
AcDbArc
 50
159.9142942951
 51
161.6295838476
  0
ARC
  5
4DD
100
AcDbEntity
  8
0
100
AcDbCircle
 62
7
  6
CONTINUOUS
 10
12.1106053078
 20
8.4753338289
 40
0.1
100
AcDbArc
 50
0.0
 51
90.0
  0
ARC
  5
4DE
100
AcDbEntity
  8
0
100
AcDbCircle
 62
7
  6
CONTINUOUS
 10
13.2231053078
 20
7.4423338289
 40
0.075
100
AcDbArc
 50
112.5
 51
180.0
  0
ARC
  5
4DF
100
AcDbEntity
  8
0
100
AcDbCircle
 62
7
  6
CONTINUOUS
 10
12.4481053078
 20
7.4423338289
 40
0.075
100
AcDbArc
 50
0.0
 51
90.0
  0
ARC
  5
4E0
100
AcDbEntity
  8
0
100
AcDbCircle
 62
7
  6
CONTINUOUS
 10
13.2906285984
 20
7.5195193594
 40
0.0550243871
100
AcDbArc
 50
88.3178565355
 51
180.8952541166
  0
ARC
  5
4E1
100
AcDbEntity
  8
0
100
AcDbCircle
 62
7
  6
CONTINUOUS
 10
13.2906427963
 20
7.9931955207
 40
0.0549149322
100
AcDbArc
 50
203.2634577684
 51
270.157070089
  0
ARC
  5
4E2
100
AcDbEntity
  8
0
100
AcDbCircle
 62
7
  6
CONTINUOUS
 10
13.1681053078
 20
8.0123338289
 40
0.02
100
AcDbArc
 50
180.0
 51
256.0651860186
  0
ARC
  5
4E3
100
AcDbEntity
  8
0
100
AcDbCircle
 62
9
  6
CONTINUOUS
 10
12.7027386912
 20
10.2228567303
 40
2.2924361756
100
AcDbArc
 50
282.9812828474
 51
283.3463443843
  0
ARC
  5
4E4
100
AcDbEntity
  8
0
100
AcDbCircle
 62
9
  6
CONTINUOUS
 10
12.7567049593
 20
10.0268177331
 40
2.0893513317
100
AcDbArc
 50
281.0984359929
 51
281.4612488212
  0
ARC
  5
4E5
100
AcDbEntity
  8
0
100
AcDbCircle
 62
9
  6
CONTINUOUS
 10
12.8169875028
 20
9.7367504241
 40
1.7930902917
100
AcDbArc
 50
281.4151522881
 51
282.9131058615
  0
ARC
  5
4E6
100
AcDbEntity
  8
0
100
AcDbCircle
 62
9
  6
CONTINUOUS
 10
12.0058990408
 20
10.028246758
 40
0.837560329
100
AcDbArc
 50
87.8807955788
 51
90.0702838507
  0
ARC
  5
4E7
100
AcDbEntity
  8
0
100
AcDbCircle
 62
7
  6
CONTINUOUS
 10
11.6196457303
 20
9.5137064395
 40
0.433
100
AcDbArc
 50
57.9057842818
 51
118.0498776996
  0
ARC
  5
4E8
100
AcDbEntity
  8
0
100
AcDbCircle
 62
7
  6
CONTINUOUS
 10
11.1520318028
 20
10.2498456399
 40
0.425
100
AcDbArc
 50
292.0191155054
 51
301.9657187508
  0
ARC
  5
4E9
100
AcDbEntity
  8
0
100
AcDbCircle
 62
7
  6
CONTINUOUS
 10
12.0744158382
 20
9.7027920697
 40
0.2508960713
100
AcDbArc
 50
358.8300330019
 51
2.9284925764
  0
ARC
  5
4EA
100
AcDbEntity
  8
0
100
AcDbCircle
 62
7
  6
CONTINUOUS
 10
12.0754323066
 20
9.7030236723
 40
0.2498703276
100
AcDbArc
 50
2.8873626521
 51
39.9443168575
  0
ARC
  5
4EB
100
AcDbEntity
  8
0
100
AcDbCircle
 62
7
  6
CONTINUOUS
 10
11.9799225463
 20
9.7778673401
 40
0.1045375013
100
AcDbArc
 50
87.1985603071
 51
89.7203672169
  0
ARC
  5
4EC
100
AcDbEntity
  8
0
100
AcDbCircle
 62
9
  6
CONTINUOUS
 10
11.8945937336
 20
9.8171856096
 40
0.0850459501
100
AcDbArc
 50
127.8752920406
 51
179.609246715
  0
ARC
  5
4ED
100
AcDbEntity
  8
0
100
AcDbCircle
 62
9
  6
CONTINUOUS
 10
11.9644655083
 20
9.8174708137
 40
0.0850169962
100
AcDbArc
 50
50.767487748
 51
70.6936171293
  0
ARC
  5
4EE
100
AcDbEntity
  8
0
100
AcDbCircle
 62
7
  6
CONTINUOUS
 10
11.9291404891
 20
9.7534111449
 40
0.0850085555
100
AcDbArc
 50
218.1586799157
 51
269.997020017
  0
ARC
  5
4EF
100
AcDbEntity
  8
0
100
AcDbCircle
 62
7
  6
CONTINUOUS
 10
11.999088709
 20
9.7733236053
 40
0.0850002242
100
AcDbArc
 50
359.6452023993
 51
38.1556471383
  0
ARC
  5
4F0
100
AcDbEntity
  8
0
100
AcDbCircle
 62
7
  6
CONTINUOUS
 10
11.9990814572
 20
9.7532821594
 40
0.0848331834
100
AcDbArc
 50
270.0156464176
 51
359.6329573144
  0
ARC
  5
4F1
100
AcDbEntity
  8
0
100
AcDbCircle
 62
9
  6
CONTINUOUS
 10
11.8935651241
 20
9.7972863744
 40
0.08414017
100
AcDbArc
 50
179.6202948156
 51
218.1323436271
  0
ARC
  5
4F2
100
AcDbEntity
  8
0
100
AcDbCircle
 62
9
  6
CONTINUOUS
 10
11.9284818685
 20
9.7528444439
 40
0.0841401676
100
AcDbArc
 50
179.6202948159
 51
218.1323436528
  0
ARC
  5
4F3
100
AcDbEntity
  8
0
100
AcDbCircle
 62
9
  6
CONTINUOUS
 10
11.9999746144
 20
9.7740487719
 40
0.0838534118
100
AcDbArc
 50
38.1399921064
 51
90.0512370531
  0
ARC
  5
4F4
100
AcDbEntity
  8
0
100
AcDbCircle
 62
9
  6
CONTINUOUS
 10
11.9654351561
 20
9.8187997203
 40
0.0833744199
100
AcDbArc
 50
38.1330954448
 51
50.7060395435
  0
ARC
  5
4F5
100
AcDbEntity
  8
0
100
AcDbCircle
 62
9
  6
CONTINUOUS
 10
11.9650794074
 20
9.8193511959
 40
0.0830394027
100
AcDbArc
 50
70.6644203664
 51
76.0971551446
  0
ARC
  5
4F6
100
AcDbEntity
  8
0
100
AcDbCircle
 62
7
  6
CONTINUOUS
 10
13.3036725371
 20
9.7265149313
 40
0.0511811024
100
AcDbArc
 50
270.0
 51
351.3638693749
  0
ARC
  5
4F7
100
AcDbEntity
  8
0
100
AcDbCircle
 62
7
  6
CONTINUOUS
 10
12.3675380786
 20
9.7265149313
 40
0.0511811024
100
AcDbArc
 50
214.3042919927
 51
270.0
  0
ARC
  5
4F8
100
AcDbEntity
  8
0
100
AcDbCircle
 62
7
  6
CONTINUOUS
 10
12.7340318028
 20
9.9270956399
 40
0.035
100
AcDbArc
 50
177.9532869023
 51
265.9039562418
  0
ARC
  5
4F9
100
AcDbEntity
  8
0
100
AcDbCircle
 62
7
  6
CONTINUOUS
 10
12.7340318028
 20
9.9270956399
 40
0.035
100
AcDbArc
 50
274.0960437582
 51
332.7298233178
  0
ARC
  5
4FA
100
AcDbEntity
  8
0
100
AcDbCircle
 62
7
  6
CONTINUOUS
 10
13.2290318028
 20
9.9151802698
 40
0.02
100
AcDbArc
 50
271.9382038126
 51
360.0
  0
ARC
  5
4FB
100
AcDbEntity
  8
0
100
AcDbCircle
 62
7
  6
CONTINUOUS
 10
13.5606053078
 20
8.4753338289
 40
0.1
100
AcDbArc
 50
90.0
 51
180.0
  0
ARC
  5
4FC
100
AcDbEntity
  8
0
100
AcDbCircle
 62
7
  6
CONTINUOUS
 10
15.6456048502
 20
7.9099150614
 40
0.0400000234
100
AcDbArc
 50
0.0
 51
90.0203469529
  0
ARC
  5
4FD
100
AcDbEntity
  8
0
100
AcDbCircle
 62
7
  6
CONTINUOUS
 10
15.6456048624
 20
7.5410725153
 40
0.0400000222
100
AcDbArc
 50
268.2697848598
 51
360.0
  0
ARC
  5
4FE
100
AcDbEntity
  8
0
100
AcDbCircle
 62
7
  6
CONTINUOUS
 10
15.645927369
 20
7.5571826155
 40
0.0385083414
100
AcDbArc
 50
267.7226393929
 51
276.7211645301
  0
ARC
  5
4FF
100
AcDbEntity
  8
0
100
AcDbCircle
 62
7
  6
CONTINUOUS
 10
14.3596204007
 20
10.1283060372
 40
2.3374925083
100
AcDbArc
 50
183.7560495156
 51
184.5264660205
  0
ARC
  5
500
100
AcDbEntity
  8
0
100
AcDbCircle
 62
9
  6
CONTINUOUS
 10
12.7853692466
 20
10.4093586251
 40
2.5223080439
100
AcDbArc
 50
280.6750900488
 51
281.4622219184
  0
ARC
  5
501
100
AcDbEntity
  8
0
100
AcDbCircle
 62
7
  6
CONTINUOUS
 10
14.2229853988
 20
10.4932571607
 40
2.2005045408
100
AcDbArc
 50
175.4117992215
 51
176.2692497488
  0
ARC
  5
502
100
AcDbEntity
  8
0
100
AcDbCircle
 62
7
  6
CONTINUOUS
 10
13.4737780593
 20
10.5550367208
 40
1.448757098
100
AcDbArc
 50
174.1247758832
 51
175.4770439059
  0
ARC
  5
503
100
AcDbEntity
  8
0
100
AcDbCircle
 62
7
  6
CONTINUOUS
 10
13.4024203325
 20
10.6783567144
 40
1.357441627
100
AcDbArc
 50
182.511079459
 51
182.6294675356
  0
ARC
  5
504
100
AcDbEntity
  8
0
100
AcDbCircle
 62
9
  6
CONTINUOUS
 10
12.0060224232
 20
10.6033661556
 40
0.837560329
100
AcDbArc
 50
269.9297161493
 51
272.1192044212
  0
ARC
  5
505
100
AcDbEntity
  8
0
100
AcDbCircle
 62
7
  6
CONTINUOUS
 10
11.1520318028
 20
10.3618456399
 40
0.425
100
AcDbArc
 50
58.0342812492
 51
67.9808844946
  0
ARC
  5
506
100
AcDbEntity
  8
0
100
AcDbCircle
 62
7
  6
CONTINUOUS
 10
12.0744206597
 20
10.9088991779
 40
0.2508912515
100
AcDbArc
 50
357.0916776837
 51
1.1698379518
  0
ARC
  5
507
100
AcDbEntity
  8
0
100
AcDbCircle
 62
7
  6
CONTINUOUS
 10
12.0754317618
 20
10.9086678741
 40
0.2498709263
100
AcDbArc
 50
320.0557283069
 51
357.1328844057
  0
ARC
  5
508
100
AcDbEntity
  8
0
100
AcDbCircle
 62
7
  6
CONTINUOUS
 10
11.9799225463
 20
10.8338239397
 40
0.1045375013
100
AcDbArc
 50
270.2796327832
 51
272.8014396928
  0
ARC
  5
509
100
AcDbEntity
  8
0
100
AcDbCircle
 62
7
  6
CONTINUOUS
 10
11.929140486
 20
10.8582801413
 40
0.0850085481
100
AcDbArc
 50
90.0029778949
 51
141.8413221782
  0
ARC
  5
50A
100
AcDbEntity
  8
0
100
AcDbCircle
 62
7
  6
CONTINUOUS
 10
11.9990977656
 20
10.8383645737
 40
0.084991187
100
AcDbArc
 50
321.8422246915
 51
0.3569257697
  0
ARC
  5
50B
100
AcDbEntity
  8
0
100
AcDbCircle
 62
7
  6
CONTINUOUS
 10
11.999081836
 20
10.8584097925
 40
0.0848324408
100
AcDbArc
 50
0.3671058363
 51
89.9844996906
  0
ARC
  5
50C
100
AcDbEntity
  8
0
100
AcDbCircle
 62
9
  6
CONTINUOUS
 10
11.9284818686
 20
10.8588468359
 40
0.0841401677
100
AcDbArc
 50
141.8676563618
 51
180.3797051652
  0
ARC
  5
50D
100
AcDbEntity
  8
0
100
AcDbCircle
 62
9
  6
CONTINUOUS
 10
11.8935651138
 20
10.8144049065
 40
0.0841401635
100
AcDbArc
 50
141.8676526045
 51
180.379705921
  0
ARC
  5
50E
100
AcDbEntity
  8
0
100
AcDbCircle
 62
9
  6
CONTINUOUS
 10
11.9999339709
 20
10.8376957814
 40
0.0839182806
100
AcDbArc
 50
269.9571972473
 51
321.8485382758
  0
ARC
  5
50F
100
AcDbEntity
  8
0
100
AcDbCircle
 62
9
  6
CONTINUOUS
 10
11.9650737793
 20
10.7932174152
 40
0.0838598905
100
AcDbArc
 50
316.0385962253
 51
321.8442455739
  0
ARC
  5
510
100
AcDbEntity
  8
0
100
AcDbCircle
 62
9
  6
CONTINUOUS
 10
11.9650794074
 20
10.7923400839
 40
0.0830394027
100
AcDbArc
 50
283.9028448552
 51
289.3355796333
  0
ARC
  5
511
100
AcDbEntity
  8
0
100
AcDbCircle
 62
7
  6
CONTINUOUS
 10
13.3036725371
 20
10.8851763486
 40
0.0511811024
100
AcDbArc
 50
8.636130625
 51
90.0
  0
ARC
  5
512
100
AcDbEntity
  8
0
100
AcDbCircle
 62
7
  6
CONTINUOUS
 10
12.3675380786
 20
10.8851763486
 40
0.0511811024
100
AcDbArc
 50
90.0
 51
145.6957080079
  0
ARC
  5
513
100
AcDbEntity
  8
0
100
AcDbCircle
 62
7
  6
CONTINUOUS
 10
12.7340318028
 20
10.6845956399
 40
0.035
100
AcDbArc
 50
94.0960437582
 51
182.0467130977
  0
ARC
  5
514
100
AcDbEntity
  8
0
100
AcDbCircle
 62
7
  6
CONTINUOUS
 10
12.7340318028
 20
10.6845956399
 40
0.035
100
AcDbArc
 50
27.2701766822
 51
85.9039562418
  0
ARC
  5
515
100
AcDbEntity
  8
0
100
AcDbCircle
 62
7
  6
CONTINUOUS
 10
13.2290318028
 20
10.6965110101
 40
0.02
100
AcDbArc
 50
0.0
 51
88.0617961874
  0
ARC
  5
516
100
AcDbEntity
  8
0
100
AcDbCircle
 62
7
  6
CONTINUOUS
 10
11.6196457303
 20
11.0979848404
 40
0.433
100
AcDbArc
 50
241.9501223004
 51
302.0942157182
  0
ARC
  5
517
100
AcDbEntity
  8
0
100
AcDbCircle
 62
7
  6
CONTINUOUS
 10
13.7856053078
 20
11.5213180809
 40
0.1
100
AcDbArc
 50
90.0
 51
180.0
  0
ARC
  5
518
100
AcDbEntity
  8
0
100
AcDbCircle
 62
7
  6
CONTINUOUS
 10
11.8856053078
 20
11.5213180809
 40
0.1
100
AcDbArc
 50
0.0
 51
90.0
  0
ARC
  5
519
100
AcDbEntity
  8
0
100
AcDbCircle
 62
7
  6
CONTINUOUS
 10
13.9356053078
 20
11.6213180809
 40
0.1
100
AcDbArc
 50
112.5
 51
180.0
  0
ARC
  5
51A
100
AcDbEntity
  8
0
100
AcDbCircle
 62
7
  6
CONTINUOUS
 10
11.7356053078
 20
11.6213180809
 40
0.1
100
AcDbArc
 50
0.0
 51
67.5
  0
ARC
  5
51B
100
AcDbEntity
  8
0
100
AcDbCircle
 62
7
  6
CONTINUOUS
 10
17.8390318028
 20
10.3058456399
 40
0.27
100
AcDbArc
 50
270.0
 51
90.0
  0
SPLINE
  5
51C
100
AcDbEntity
  8
0
100
AcDbSpline
 62
7
  6
CONTINUOUS
 70
0
 71
3
 72
23
 73
19
 74
0
 42
0.0000001
 43
0.0000001
 44
0.0000000001
 40
0.0
 40
0.0
 40
0.0
 40
0.0
 40
0.125
 40
0.25
 40
0.375
 40
0.5
 40
0.625
 40
0.6875
 40
0.75
 40
0.8125
 40
0.84375
 40
0.875
 40
0.90625
 40
0.9375
 40
0.953125
 40
0.96875
 40
0.984375
 40
1.0
 40
1.0
 40
1.0
 40
1.0
 10
9.8356053078
 20
2.8183456399
 30
0.0
 10
9.7783200372
 20
2.8183456399
 30
0.0
 10
9.666772226
 20
2.8216748743
 30
0.0
 10
9.5081932267
 20
2.8359571046
 30
0.0
 10
9.3571169503
 20
2.8588862353
 30
0.0
 10
9.2127597083
 20
2.8913148548
 30
0.0
 10
9.098195679
 20
2.9276246722
 30
0.0
 10
9.0094194867
 20
2.9645708253
 30
0.0
 10
8.9443425303
 20
2.9976830379
 30
0.0
 10
8.8914383495
 20
3.0310910679
 30
0.0
 10
8.8492768892
 20
3.0643335847
 30
0.0
 10
8.818877637
 20
3.0925560752
 30
0.0
 10
8.788154269
 20
3.1274021128
 30
0.0
 10
8.7642198188
 20
3.1633396609
 30
0.0
 10
8.7472685472
 20
3.1984652429
 30
0.0
 10
8.7364886857
 20
3.2277410604
 30
0.0
 10
8.727944635
 20
3.2634833911
 30
0.0
 10
8.7256053078
 20
3.2915370878
 30
0.0
 10
8.7256053078
 20
3.3058456399
 30
0.0
  0
SPLINE
  5
51D
100
AcDbEntity
  8
0
100
AcDbSpline
 62
7
  6
CONTINUOUS
 70
0
 71
3
 72
15
 73
11
 74
0
 42
0.0000001
 43
0.0000001
 44
0.0000000001
 40
0.0
 40
0.0
 40
0.0
 40
0.0
 40
0.0814561427
 40
0.1629122854
 40
0.2443684281
 40
0.3258245708
 40
0.4887368561
 40
0.6516491415
 40
0.9774737123
 40
1.0
 40
1.0
 40
1.0
 40
1.0
 10
8.7256053078
 20
3.3058456399
 30
0.0
 10
8.7256053078
 20
3.3201541921
 30
0.0
 10
8.7279608269
 20
3.3482708214
 30
0.0
 10
8.7364472998
 20
3.3837718497
 30
0.0
 10
8.7473263516
 20
3.4133823981
 30
0.0
 10
8.7641277352
 20
3.4481710309
 30
0.0
 10
8.7883041632
 20
3.4844499985
 30
0.0
 10
8.8287662444
 20
3.5303682579
 30
0.0
 10
8.8613218566
 20
3.5575246357
 30
0.0
 10
8.8837934721
 20
3.5738422329
 30
0.0
 10
8.8852478078
 20
3.5748885028
 30
0.0
  0
SPLINE
  5
51E
100
AcDbEntity
  8
0
100
AcDbSpline
 62
7
  6
CONTINUOUS
 70
0
 71
3
 72
15
 73
11
 74
0
 42
0.0000001
 43
0.0000001
 44
0.0000000001
 40
0.0
 40
0.0
 40
0.0
 40
0.0
 40
0.0229066839
 40
0.3486044559
 40
0.511453342
 40
0.674302228
 40
0.755726671
 40
0.837151114
 40
0.918575557
 40
1.0
 40
1.0
 40
1.0
 40
1.0
 10
10.7858847328
 20
3.5749436107
 30
0.0
 10
10.7873626168
 20
3.5738810186
 30
0.0
 10
10.8098319074
 20
3.5575720137
 30
0.0
 10
10.8422990811
 20
3.5304872727
 30
0.0
 10
10.8830130019
 20
3.484359467
 30
0.0
 10
10.9070076711
 20
3.4482382678
 30
0.0
 10
10.9239305373
 20
3.4133378611
 30
0.0
 10
10.9347372596
 20
3.3837918741
 30
0.0
 10
10.9432686691
 20
3.3482558793
 30
0.0
 10
10.9456053078
 20
3.3201541921
 30
0.0
 10
10.9456053078
 20
3.3058456399
 30
0.0
  0
SPLINE
  5
51F
100
AcDbEntity
  8
0
100
AcDbSpline
 62
7
  6
CONTINUOUS
 70
0
 71
3
 72
21
 73
17
 74
0
 42
0.0000001
 43
0.0000001
 44
0.0000000001
 40
0.0
 40
0.0
 40
0.0
 40
0.0
 40
0.015625
 40
0.03125
 40
0.0625
 40
0.09375
 40
0.125
 40
0.1875
 40
0.25
 40
0.3125
 40
0.375
 40
0.5
 40
0.625
 40
0.75
 40
0.875
 40
1.0
 40
1.0
 40
1.0
 40
1.0
 10
10.9456053078
 20
3.3058456399
 30
0.0
 10
10.9456053078
 20
3.2915370878
 30
0.0
 10
10.9432545548
 20
3.2633786799
 30
0.0
 10
10.9319166624
 20
3.2161859635
 30
0.0
 10
10.9118478761
 20
3.1708990352
 30
0.0
 10
10.8829719671
 20
3.1272309159
 30
0.0
 10
10.8423227957
 20
3.0812622799
 30
0.0
 10
10.7906024037
 20
3.0380645628
 30
0.0
 10
10.7268078048
 20
2.9976171518
 30
0.0
 10
10.6617829495
 20
2.9645424805
 30
0.0
 10
10.573019462
 20
2.9276410233
 30
0.0
 10
10.4584510762
 20
2.8913094184
 30
0.0
 10
10.3140875931
 20
2.8588872722
 30
0.0
 10
10.1630415089
 20
2.8359583933
 30
0.0
 10
10.0043479822
 20
2.8216686827
 30
0.0
 10
9.8928905785
 20
2.8183456399
 30
0.0
 10
9.8356053078
 20
2.8183456399
 30
0.0
  0
SPLINE
  5
520
100
AcDbEntity
  8
0
100
AcDbSpline
 62
7
  6
CONTINUOUS
 70
0
 71
3
 72
9
 73
5
 74
0
 42
0.0000001
 43
0.0000001
 44
0.0000000001
 40
0.0
 40
0.0
 40
0.0
 40
0.0
 40
0.4240419304
 40
1.0
 40
1.0
 40
1.0
 40
1.0
 10
7.6317290293
 20
10.7527798734
 30
0.0
 10
7.6324322414
 20
10.7493537665
 30
0.0
 10
7.6338707366
 20
10.7412293053
 30
0.0
 10
7.6350387047
 20
10.7330633822
 30
0.0
 10
7.6356631348
 20
10.7283540539
 30
0.0
  0
LINE
  5
521
100
AcDbEntity
  8
0
100
AcDbLine
 62
7
  6
CONTINUOUS
 10
7.6356631348
 20
10.7283540539
 11
7.638579585
 21
10.7033349701
  0
LINE
  5
522
100
AcDbEntity
  8
0
100
AcDbLine
 62
7
  6
CONTINUOUS
 10
7.6417155021
 20
9.9428749395
 11
7.6386758184
 21
9.9092904628
  0
SPLINE
  5
523
100
AcDbEntity
  8
0
100
AcDbSpline
 62
7
  6
CONTINUOUS
 70
0
 71
3
 72
10
 73
6
 74
0
 42
0.0000001
 43
0.0000001
 44
0.0000000001
 40
0.0
 40
0.0
 40
0.0
 40
0.0
 40
0.5983037588
 40
0.8271790131
 40
1.0
 40
1.0
 40
1.0
 40
1.0
 10
7.6386758184
 20
9.9092904628
 30
0.0
 10
7.6376400714
 20
9.899199513
 30
0.0
 10
7.6360473294
 20
9.8852612588
 30
0.0
 10
7.6335355106
 20
9.868492304
 30
0.0
 10
7.6323194756
 20
9.8617893541
 30
0.0
 10
7.6317306764
 20
9.8589190223
 30
0.0
  0
SPLINE
  5
524
100
AcDbEntity
  8
0
100
AcDbSpline
 62
7
  6
CONTINUOUS
 70
0
 71
3
 72
9
 73
5
 74
0
 42
0.0000001
 43
0.0000001
 44
0.0000000001
 40
0.0
 40
0.0
 40
0.0
 40
0.0
 40
0.5363152099
 40
1.0
 40
1.0
 40
1.0
 40
1.0
 10
7.8438297505
 20
10.866360352
 30
0.0
 10
7.8465588597
 20
10.8628867498
 30
0.0
 10
7.8512026369
 20
10.8560467238
 30
0.0
 10
7.8549733672
 20
10.8487078416
 30
0.0
 10
7.8565679674
 20
10.8452374331
 30
0.0
  0
SPLINE
  5
525
100
AcDbEntity
  8
0
100
AcDbSpline
 62
7
  6
CONTINUOUS
 70
0
 71
3
 72
10
 73
6
 74
0
 42
0.0000001
 43
0.0000001
 44
0.0000000001
 40
0.0
 40
0.0
 40
0.0
 40
0.0
 40
0.2774843933
 40
0.5227141761
 40
1.0
 40
1.0
 40
1.0
 40
1.0
 10
7.8565679674
 20
10.8452374331
 30
0.0
 10
7.8581344584
 20
10.8418281999
 30
0.0
 10
7.8608086398
 20
10.835272169
 30
0.0
 10
7.8648112571
 20
10.8223492441
 30
0.0
 10
7.8670947093
 20
10.8128397275
 30
0.0
 10
7.8684101798
 20
10.8065217808
 30
0.0
  0
SPLINE
  5
526
100
AcDbEntity
  8
0
100
AcDbSpline
 62
7
  6
CONTINUOUS
 70
0
 71
3
 72
9
 73
5
 74
0
 42
0.0000001
 43
0.0000001
 44
0.0000000001
 40
0.0
 40
0.0
 40
0.0
 40
0.0
 40
0.2393887026
 40
1.0
 40
1.0
 40
1.0
 40
1.0
 10
7.8684101798
 20
10.8065217808
 30
0.0
 10
7.8687993292
 20
10.8046527726
 30
0.0
 10
7.8703582658
 20
10.7968314404
 30
0.0
 10
7.8716742215
 20
10.7889631959
 30
0.0
 10
7.8725918476
 20
10.7829672389
 30
0.0
  0
SPLINE
  5
527
100
AcDbEntity
  8
0
100
AcDbSpline
 62
7
  6
CONTINUOUS
 70
0
 71
3
 72
9
 73
5
 74
0
 42
0.0000001
 43
0.0000001
 44
0.0000000001
 40
0.0
 40
0.0
 40
0.0
 40
0.0
 40
0.2358125187
 40
1.0
 40
1.0
 40
1.0
 40
1.0
 10
7.8725918476
 20
10.7829672389
 30
0.0
 10
7.8729515863
 20
10.7806166326
 30
0.0
 10
7.8744219778
 20
10.7706400814
 30
0.0
 10
7.8756900564
 20
10.7606343628
 30
0.0
 10
7.8765803309
 20
10.752979762
 30
0.0
  0
SPLINE
  5
528
100
AcDbEntity
  8
0
100
AcDbSpline
 62
7
  6
CONTINUOUS
 70
0
 71
3
 72
9
 73
5
 74
0
 42
0.0000001
 43
0.0000001
 44
0.0000000001
 40
0.0
 40
0.0
 40
0.0
 40
0.0
 40
0.2369642757
 40
1.0
 40
1.0
 40
1.0
 40
1.0
 10
7.8765803309
 20
10.752979762
 30
0.0
 10
7.8769012676
 20
10.750220341
 30
0.0
 10
7.8782114575
 20
10.7385703255
 30
0.0
 10
7.8793587693
 20
10.7269023136
 30
0.0
 10
7.8801675763
 20
10.7179935973
 30
0.0
  0
SPLINE
  5
529
100
AcDbEntity
  8
0
100
AcDbSpline
 62
7
  6
CONTINUOUS
 70
0
 71
3
 72
9
 73
5
 74
0
 42
0.0000001
 43
0.0000001
 44
0.0000000001
 40
0.0
 40
0.0
 40
0.0
 40
0.0
 40
0.2646171601
 40
1.0
 40
1.0
 40
1.0
 40
1.0
 10
7.8767145678
 20
9.8598714969
 30
0.0
 10
7.876403785
 20
9.8571746841
 30
0.0
 10
7.8751921209
 20
9.8469877246
 30
0.0
 10
7.8738227109
 20
9.836818817
 30
0.0
 10
7.8726890947
 20
9.8293603102
 30
0.0
  0
SPLINE
  5
52A
100
AcDbEntity
  8
0
100
AcDbSpline
 62
7
  6
CONTINUOUS
 70
0
 71
3
 72
9
 73
5
 74
0
 42
0.0000001
 43
0.0000001
 44
0.0000000001
 40
0.0
 40
0.0
 40
0.0
 40
0.0
 40
0.2618757717
 40
1.0
 40
1.0
 40
1.0
 40
1.0
 10
7.8726890947
 20
9.8293603102
 30
0.0
 10
7.8723710142
 20
9.8272675338
 30
0.0
 10
7.871117707
 20
9.8192821761
 30
0.0
 10
7.8696853823
 20
9.8113233894
 30
0.0
 10
7.8684746692
 20
9.8054810669
 30
0.0
  0
SPLINE
  5
52B
100
AcDbEntity
  8
0
100
AcDbSpline
 62
7
  6
CONTINUOUS
 70
0
 71
3
 72
10
 73
6
 74
0
 42
0.0000001
 43
0.0000001
 44
0.0000000001
 40
0.0
 40
0.0
 40
0.0
 40
0.0
 40
0.4776227432
 40
0.7227141023
 40
1.0
 40
1.0
 40
1.0
 40
1.0
 10
7.8684746692
 20
9.8054810669
 30
0.0
 10
7.8671557955
 20
9.7991168136
 30
0.0
 10
7.8648666352
 20
9.7895413069
 30
0.0
 10
7.860850674
 20
9.7765315239
 30
0.0
 10
7.8581654429
 20
9.7699357613
 30
0.0
 10
7.8565918421
 20
9.7665062503
 30
0.0
  0
SPLINE
  5
52C
100
AcDbEntity
  8
0
100
AcDbSpline
 62
7
  6
CONTINUOUS
 70
0
 71
3
 72
9
 73
5
 74
0
 42
0.0000001
 43
0.0000001
 44
0.0000000001
 40
0.0
 40
0.0
 40
0.0
 40
0.0
 40
0.4634725555
 40
1.0
 40
1.0
 40
1.0
 40
1.0
 10
7.8565918421
 20
9.7665062503
 30
0.0
 10
7.8549961087
 20
9.7630285034
 30
0.0
 10
7.8512204458
 20
9.7556704736
 30
0.0
 10
7.8465662975
 20
9.748813997
 30
0.0
 10
7.8438297505
 20
9.7453309279
 30
0.0
  0
SPLINE
  5
52D
100
AcDbEntity
  8
0
100
AcDbSpline
 62
7
  6
CONTINUOUS
 70
0
 71
3
 72
9
 73
5
 74
0
 42
0.0000001
 43
0.0000001
 44
0.0000000001
 40
0.0
 40
0.0
 40
0.0
 40
0.0
 40
0.5363152099
 40
1.0
 40
1.0
 40
1.0
 40
1.0
 10
11.8273808652
 20
10.866360352
 30
0.0
 10
11.824651756
 20
10.8628867498
 30
0.0
 10
11.8200079787
 20
10.8560467238
 30
0.0
 10
11.8162372485
 20
10.8487078416
 30
0.0
 10
11.8146426483
 20
10.8452374331
 30
0.0
  0
SPLINE
  5
52E
100
AcDbEntity
  8
0
100
AcDbSpline
 62
7
  6
CONTINUOUS
 70
0
 71
3
 72
10
 73
6
 74
0
 42
0.0000001
 43
0.0000001
 44
0.0000000001
 40
0.0
 40
0.0
 40
0.0
 40
0.0
 40
0.2774843933
 40
0.5227141761
 40
1.0
 40
1.0
 40
1.0
 40
1.0
 10
11.8146426483
 20
10.8452374331
 30
0.0
 10
11.8130761572
 20
10.8418281999
 30
0.0
 10
11.8104019759
 20
10.835272169
 30
0.0
 10
11.8063993585
 20
10.8223492441
 30
0.0
 10
11.8041159063
 20
10.8128397275
 30
0.0
 10
11.8028004359
 20
10.8065217808
 30
0.0
  0
SPLINE
  5
52F
100
AcDbEntity
  8
0
100
AcDbSpline
 62
7
  6
CONTINUOUS
 70
0
 71
3
 72
9
 73
5
 74
0
 42
0.0000001
 43
0.0000001
 44
0.0000000001
 40
0.0
 40
0.0
 40
0.0
 40
0.0
 40
0.2393887026
 40
1.0
 40
1.0
 40
1.0
 40
1.0
 10
11.8028004359
 20
10.8065217808
 30
0.0
 10
11.8024112865
 20
10.8046527726
 30
0.0
 10
11.8008523499
 20
10.7968314404
 30
0.0
 10
11.7995363942
 20
10.7889631959
 30
0.0
 10
11.7986187681
 20
10.7829672389
 30
0.0
  0
SPLINE
  5
530
100
AcDbEntity
  8
0
100
AcDbSpline
 62
7
  6
CONTINUOUS
 70
0
 71
3
 72
9
 73
5
 74
0
 42
0.0000001
 43
0.0000001
 44
0.0000000001
 40
0.0
 40
0.0
 40
0.0
 40
0.0
 40
0.2358125187
 40
1.0
 40
1.0
 40
1.0
 40
1.0
 10
11.7986187681
 20
10.7829672389
 30
0.0
 10
11.7982590294
 20
10.7806166326
 30
0.0
 10
11.7967886379
 20
10.7706400814
 30
0.0
 10
11.7955205592
 20
10.7606343628
 30
0.0
 10
11.7946302847
 20
10.752979762
 30
0.0
  0
SPLINE
  5
531
100
AcDbEntity
  8
0
100
AcDbSpline
 62
7
  6
CONTINUOUS
 70
0
 71
3
 72
9
 73
5
 74
0
 42
0.0000001
 43
0.0000001
 44
0.0000000001
 40
0.0
 40
0.0
 40
0.0
 40
0.0
 40
0.2319775042
 40
1.0
 40
1.0
 40
1.0
 40
1.0
 10
11.7946302847
 20
10.752979762
 30
0.0
 10
11.7941692233
 20
10.7490155454
 30
0.0
 10
11.7922749903
 20
10.7319158963
 30
0.0
 10
11.7907105047
 20
10.7147808511
 30
0.0
 10
11.789628387
 20
10.7016121859
 30
0.0
  0
SPLINE
  5
532
100
AcDbEntity
  8
0
100
AcDbSpline
 62
7
  6
CONTINUOUS
 70
0
 71
3
 72
9
 73
5
 74
0
 42
0.0000001
 43
0.0000001
 44
0.0000000001
 40
0.0
 40
0.0
 40
0.0
 40
0.0
 40
0.2675090028
 40
1.0
 40
1.0
 40
1.0
 40
1.0
 10
11.7896230127
 20
9.9101444838
 30
0.0
 10
11.7899917228
 20
9.9056556602
 30
0.0
 10
11.791424686
 20
9.8888802643
 30
0.0
 10
11.7930841674
 20
9.8721230669
 30
0.0
 10
11.7944960478
 20
9.8598714969
 30
0.0
  0
SPLINE
  5
533
100
AcDbEntity
  8
0
100
AcDbSpline
 62
7
  6
CONTINUOUS
 70
0
 71
3
 72
9
 73
5
 74
0
 42
0.0000001
 43
0.0000001
 44
0.0000000001
 40
0.0
 40
0.0
 40
0.0
 40
0.0
 40
0.2646171601
 40
1.0
 40
1.0
 40
1.0
 40
1.0
 10
11.7944960478
 20
9.8598714969
 30
0.0
 10
11.7948068306
 20
9.8571746841
 30
0.0
 10
11.7960184948
 20
9.8469877246
 30
0.0
 10
11.7973879047
 20
9.836818817
 30
0.0
 10
11.798521521
 20
9.8293603102
 30
0.0
  0
SPLINE
  5
534
100
AcDbEntity
  8
0
100
AcDbSpline
 62
7
  6
CONTINUOUS
 70
0
 71
3
 72
9
 73
5
 74
0
 42
0.0000001
 43
0.0000001
 44
0.0000000001
 40
0.0
 40
0.0
 40
0.0
 40
0.0
 40
0.2618757717
 40
1.0
 40
1.0
 40
1.0
 40
1.0
 10
11.798521521
 20
9.8293603102
 30
0.0
 10
11.7988396014
 20
9.8272675338
 30
0.0
 10
11.8000929086
 20
9.8192821761
 30
0.0
 10
11.8015252333
 20
9.8113233894
 30
0.0
 10
11.8027359465
 20
9.8054810669
 30
0.0
  0
SPLINE
  5
535
100
AcDbEntity
  8
0
100
AcDbSpline
 62
7
  6
CONTINUOUS
 70
0
 71
3
 72
10
 73
6
 74
0
 42
0.0000001
 43
0.0000001
 44
0.0000000001
 40
0.0
 40
0.0
 40
0.0
 40
0.0
 40
0.4776227432
 40
0.7227141023
 40
1.0
 40
1.0
 40
1.0
 40
1.0
 10
11.8027359465
 20
9.8054810669
 30
0.0
 10
11.8040548201
 20
9.7991168136
 30
0.0
 10
11.8063439804
 20
9.7895413069
 30
0.0
 10
11.8103599416
 20
9.7765315239
 30
0.0
 10
11.8130451728
 20
9.7699357613
 30
0.0
 10
11.8146187736
 20
9.7665062503
 30
0.0
  0
SPLINE
  5
536
100
AcDbEntity
  8
0
100
AcDbSpline
 62
7
  6
CONTINUOUS
 70
0
 71
3
 72
9
 73
5
 74
0
 42
0.0000001
 43
0.0000001
 44
0.0000000001
 40
0.0
 40
0.0
 40
0.0
 40
0.0
 40
0.4634725555
 40
1.0
 40
1.0
 40
1.0
 40
1.0
 10
11.8146187736
 20
9.7665062503
 30
0.0
 10
11.8162145069
 20
9.7630285034
 30
0.0
 10
11.8199901698
 20
9.7556704736
 30
0.0
 10
11.8246443181
 20
9.748813997
 30
0.0
 10
11.8273808652
 20
9.7453309279
 30
0.0
  0
LINE
  5
537
100
AcDbEntity
  8
0
100
AcDbLine
 62
7
  6
CONTINUOUS
 10
12.0394815864
 20
10.7527798734
 11
12.0381224916
 21
10.745535854
  0
LINE
  5
538
100
AcDbEntity
  8
0
100
AcDbLine
 62
7
  6
CONTINUOUS
 10
12.0381224916
 20
10.745535854
 11
12.0355474809
 21
10.7283540539
  0
LINE
  5
539
100
AcDbEntity
  8
0
100
AcDbLine
 62
7
  6
CONTINUOUS
 10
12.0355474809
 20
10.7283540539
 11
12.0326310307
 21
10.7033349701
  0
LINE
  5
53A
100
AcDbEntity
  8
0
100
AcDbLine
 62
7
  6
CONTINUOUS
 10
12.0294185652
 20
9.9438321041
 11
12.0325347973
 21
9.9092904628
  0
SPLINE
  5
53B
100
AcDbEntity
  8
0
100
AcDbSpline
 62
7
  6
CONTINUOUS
 70
0
 71
3
 72
10
 73
6
 74
0
 42
0.0000001
 43
0.0000001
 44
0.0000000001
 40
0.0
 40
0.0
 40
0.0
 40
0.0
 40
0.5983037588
 40
0.8271790131
 40
1.0
 40
1.0
 40
1.0
 40
1.0
 10
12.0325347973
 20
9.9092904628
 30
0.0
 10
12.0335705443
 20
9.899199513
 30
0.0
 10
12.0351632862
 20
9.8852612588
 30
0.0
 10
12.0376751051
 20
9.868492304
 30
0.0
 10
12.03889114
 20
9.8617893541
 30
0.0
 10
12.0394799393
 20
9.8589190223
 30
0.0
  0
SPLINE
  5
53C
100
AcDbEntity
  8
0
100
AcDbSpline
 62
7
  6
CONTINUOUS
 70
0
 71
3
 72
9
 73
5
 74
0
 42
0.0000001
 43
0.0000001
 44
0.0000000001
 40
0.0
 40
0.0
 40
0.0
 40
0.0
 40
0.5151005769
 40
1.0
 40
1.0
 40
1.0
 40
1.0
 10
13.2402471835
 20
7.9715298334
 30
0.0
 10
13.2387986886
 20
7.9749091857
 30
0.0
 10
13.236579791
 20
7.9817394068
 30
0.0
 10
13.2356604366
 20
7.9888731335
 30
0.0
 10
13.2356053214
 20
7.9923338286
 30
0.0
  0
SPLINE
  5
53D
100
AcDbEntity
  8
0
100
AcDbSpline
 62
7
  6
CONTINUOUS
 70
0
 71
3
 72
9
 73
5
 74
0
 42
0.0000001
 43
0.0000001
 44
0.0000000001
 40
0.0
 40
0.0
 40
0.0
 40
0.0
 40
0.4851965216
 40
1.0
 40
1.0
 40
1.0
 40
1.0
 10
6.3804170823
 20
7.938210008
 30
0.0
 10
6.3838800543
 20
7.9381977177
 30
0.0
 10
6.3910298655
 20
7.9389799067
 30
0.0
 10
6.397900391
 20
7.9410683648
 30
0.0
 10
6.4013047508
 20
7.9424507071
 30
0.0
  0
SPLINE
  5
53E
100
AcDbEntity
  8
0
100
AcDbSpline
 62
7
  6
CONTINUOUS
 70
0
 71
3
 72
9
 73
5
 74
0
 42
0.0000001
 43
0.0000001
 44
0.0000000001
 40
0.0
 40
0.0
 40
0.0
 40
0.0
 40
0.5003554453
 40
1.0
 40
1.0
 40
1.0
 40
1.0
 10
6.4013047508
 20
7.9424507071
 30
0.0
 10
6.4078575592
 20
7.9451114789
 30
0.0
 10
6.4202336438
 20
7.9528164676
 30
0.0
 10
6.4281811046
 20
7.9650386372
 30
0.0
 10
6.4309634321
 20
7.9715298334
 30
0.0
  0
SPLINE
  5
53F
100
AcDbEntity
  8
0
100
AcDbSpline
 62
7
  6
CONTINUOUS
 70
0
 71
3
 72
9
 73
5
 74
0
 42
0.0000001
 43
0.0000001
 44
0.0000000001
 40
0.0
 40
0.0
 40
0.0
 40
0.0
 40
0.5151005769
 40
1.0
 40
1.0
 40
1.0
 40
1.0
 10
6.4309634321
 20
7.9715298334
 30
0.0
 10
6.4324119271
 20
7.9749091857
 30
0.0
 10
6.4346308247
 20
7.9817394068
 30
0.0
 10
6.4355501791
 20
7.9888731335
 30
0.0
 10
6.4356052943
 20
7.9923338286
 30
0.0
  0
SPLINE
  5
540
100
AcDbEntity
  8
0
100
AcDbSpline
 62
9
  6
CONTINUOUS
 70
0
 71
3
 72
11
 73
7
 74
0
 42
0.0000001
 43
0.0000001
 44
0.0000000001
 40
0.0
 40
0.0
 40
0.0
 40
0.0
 40
0.2533138146
 40
0.5072229047
 40
0.7569929763
 40
1.0
 40
1.0
 40
1.0
 40
1.0
 10
10.2850759693
 20
9.5948348007
 30
0.0
 10
10.2823826365
 20
9.6058653879
 30
0.0
 10
10.2783702415
 20
9.6283165326
 30
0.0
 10
10.2767733696
 20
9.6623128336
 30
0.0
 10
10.2801275482
 20
9.6957548926
 30
0.0
 10
10.2861596907
 20
9.7171505158
 30
0.0
 10
10.2900578924
 20
9.7273217382
 30
0.0
  0
SPLINE
  5
541
100
AcDbEntity
  8
0
100
AcDbSpline
 62
9
  6
CONTINUOUS
 70
0
 71
3
 72
9
 73
5
 74
0
 42
0.0000001
 43
0.0000001
 44
0.0000000001
 40
0.0
 40
0.0
 40
0.0
 40
0.0
 40
0.2555218671
 40
1.0
 40
1.0
 40
1.0
 40
1.0
 10
10.2900578924
 20
9.7273217382
 30
0.0
 10
10.2914502348
 20
9.7309546502
 30
0.0
 10
10.2973610347
 20
9.7449880191
 30
0.0
 10
10.3051559991
 20
9.7582509
 30
0.0
 10
10.3119811896
 20
9.7673012776
 30
0.0
  0
SPLINE
  5
542
100
AcDbEntity
  8
0
100
AcDbSpline
 62
9
  6
CONTINUOUS
 70
0
 71
3
 72
9
 73
5
 74
0
 42
0.0000001
 43
0.0000001
 44
0.0000000001
 40
0.0
 40
0.0
 40
0.0
 40
0.0
 40
0.257757369
 40
1.0
 40
1.0
 40
1.0
 40
1.0
 10
12.0049950011
 20
10.845884823
 30
0.0
 10
12.0077448774
 20
10.845884823
 30
0.0
 10
12.0184132198
 20
10.8458370576
 30
0.0
 10
12.0290813285
 20
10.8456113479
 30
0.0
 10
12.0369942834
 20
10.8453126083
 30
0.0
  0
SPLINE
  5
543
100
AcDbEntity
  8
0
100
AcDbSpline
 62
9
  6
CONTINUOUS
 70
0
 71
3
 72
12
 73
8
 74
0
 42
0.0000001
 43
0.0000001
 44
0.0000000001
 40
0.0
 40
0.0
 40
0.0
 40
0.0
 40
0.3292223441
 40
0.6120781584
 40
0.8382308927
 40
0.9275832418
 40
1.0
 40
1.0
 40
1.0
 40
1.0
 10
12.0369942834
 20
10.8453126083
 30
0.0
 10
12.0417030178
 20
10.8451348385
 30
0.0
 10
12.0504547305
 20
10.8447162387
 30
0.0
 10
12.0624199188
 20
10.8438248958
 30
0.0
 10
12.0709363871
 20
10.842878288
 30
0.0
 10
12.0764169844
 20
10.8419836351
 30
0.0
 10
12.078683876
 20
10.8415030311
 30
0.0
 10
12.0796875535
 20
10.8412443153
 30
0.0
  0
SPLINE
  5
544
100
AcDbEntity
  8
0
100
AcDbSpline
 62
9
  6
CONTINUOUS
 70
0
 71
3
 72
12
 73
8
 74
0
 42
0.0000001
 43
0.0000001
 44
0.0000000001
 40
0.0
 40
0.0
 40
0.0
 40
0.0
 40
0.3849315481
 40
0.6732215353
 40
0.7828494013
 40
0.8714204012
 40
1.0
 40
1.0
 40
1.0
 40
1.0
 10
12.0796875535
 20
10.8412443153
 30
0.0
 10
12.0803303091
 20
10.8410786335
 30
0.0
 10
12.0814462876
 20
10.8407557099
 30
0.0
 10
12.0827054604
 20
10.8402570751
 30
0.0
 10
12.08342929
 20
10.8398233554
 30
0.0
 10
12.0838639804
 20
10.8394726883
 30
0.0
 10
12.0840798014
 20
10.8391156886
 30
0.0
 10
12.0840836366
 20
10.8388940024
 30
0.0
  0
SPLINE
  5
545
100
AcDbEntity
  8
0
100
AcDbSpline
 62
9
  6
CONTINUOUS
 70
0
 71
3
 72
14
 73
10
 74
0
 42
0.0000001
 43
0.0000001
 44
0.0000000001
 40
0.0
 40
0.0
 40
0.0
 40
0.0
 40
0.0419677479
 40
0.108549845
 40
0.199958527
 40
0.3157581214
 40
0.455180343
 40
0.6167852223
 40
1.0
 40
1.0
 40
1.0
 40
1.0
 10
11.9996133088
 20
10.7537006542
 30
0.0
 10
11.9998769654
 20
10.7540362355
 30
0.0
 10
12.0003048957
 20
10.7550788709
 30
0.0
 10
12.0008406135
 20
10.7570314938
 30
0.0
 10
12.0013686268
 20
10.7597717459
 30
0.0
 10
12.0018851093
 20
10.763257287
 30
0.0
 10
12.0023763613
 20
10.7674685927
 30
0.0
 10
12.0030313386
 20
10.7743957411
 30
0.0
 10
12.0034088309
 20
10.7799242536
 30
0.0
 10
12.0036359432
 20
10.7838145088
 30
0.0
  0
SPLINE
  5
546
100
AcDbEntity
  8
0
100
AcDbSpline
 62
9
  6
CONTINUOUS
 70
0
 71
3
 72
9
 73
5
 74
0
 42
0.0000001
 43
0.0000001
 44
0.0000000001
 40
0.0
 40
0.0
 40
0.0
 40
0.0
 40
0.4689562967
 40
1.0
 40
1.0
 40
1.0
 40
1.0
 10
12.0036359432
 20
10.7838145088
 30
0.0
 10
12.0042016266
 20
10.7935042217
 30
0.0
 10
12.0049144188
 20
10.8141947008
 30
0.0
 10
12.0050630729
 20
10.8348937703
 30
0.0
 10
12.0049950011
 20
10.845884823
 30
0.0
  0
SPLINE
  5
547
100
AcDbEntity
  8
0
100
AcDbSpline
 62
9
  6
CONTINUOUS
 70
0
 71
3
 72
9
 73
5
 74
0
 42
0.0000001
 43
0.0000001
 44
0.0000000001
 40
0.0
 40
0.0
 40
0.0
 40
0.0
 40
0.5310437033
 40
1.0
 40
1.0
 40
1.0
 40
1.0
 10
12.0049950011
 20
9.7658064568
 30
0.0
 10
12.0050630729
 20
9.7767975096
 30
0.0
 10
12.0049144188
 20
9.7974965791
 30
0.0
 10
12.0042016266
 20
9.8181870582
 30
0.0
 10
12.0036359432
 20
9.827876771
 30
0.0
  0
SPLINE
  5
548
100
AcDbEntity
  8
0
100
AcDbSpline
 62
9
  6
CONTINUOUS
 70
0
 71
3
 72
14
 73
10
 74
0
 42
0.0000001
 43
0.0000001
 44
0.0000000001
 40
0.0
 40
0.0
 40
0.0
 40
0.0
 40
0.3832147777
 40
0.544819657
 40
0.6842418786
 40
0.800041473
 40
0.891450155
 40
0.9580322521
 40
1.0
 40
1.0
 40
1.0
 40
1.0
 10
12.0036359432
 20
9.827876771
 30
0.0
 10
12.0034088309
 20
9.8317670262
 30
0.0
 10
12.0030313386
 20
9.8372955387
 30
0.0
 10
12.0023763613
 20
9.8442226872
 30
0.0
 10
12.0018851093
 20
9.8484339928
 30
0.0
 10
12.0013686268
 20
9.851919534
 30
0.0
 10
12.0008406135
 20
9.8546597861
 30
0.0
 10
12.0003048957
 20
9.856612409
 30
0.0
 10
11.9998769654
 20
9.8576550443
 30
0.0
 10
11.9996133088
 20
9.8579906257
 30
0.0
  0
SPLINE
  5
549
100
AcDbEntity
  8
0
100
AcDbSpline
 62
9
  6
CONTINUOUS
 70
0
 71
3
 72
9
 73
5
 74
0
 42
0.0000001
 43
0.0000001
 44
0.0000000001
 40
0.0
 40
0.0
 40
0.0
 40
0.0
 40
0.257757369
 40
1.0
 40
1.0
 40
1.0
 40
1.0
 10
12.0048716187
 20
9.745884823
 30
0.0
 10
12.007621495
 20
9.745884823
 30
0.0
 10
12.0182898374
 20
9.7459325885
 30
0.0
 10
12.0289579461
 20
9.7461582982
 30
0.0
 10
12.036870901
 20
9.7464570378
 30
0.0
  0
SPLINE
  5
54A
100
AcDbEntity
  8
0
100
AcDbSpline
 62
9
  6
CONTINUOUS
 70
0
 71
3
 72
16
 73
12
 74
0
 42
0.0000001
 43
0.0000001
 44
0.0000000001
 40
0.0
 40
0.0
 40
0.0
 40
0.0
 40
0.4032700438
 40
0.5727450702
 40
0.7165066104
 40
0.8321933403
 40
0.8788568405
 40
0.9177723151
 40
0.9489264114
 40
0.9725318532
 40
1.0
 40
1.0
 40
1.0
 40
1.0
 10
12.036870901
 20
9.7464570378
 30
0.0
 10
12.0433287366
 20
9.7467008418
 30
0.0
 10
12.0524980102
 20
9.7471676402
 30
0.0
 10
12.0639404319
 20
9.7481312288
 30
0.0
 10
12.0707717258
 20
9.7489073774
 30
0.0
 10
12.0756210474
 20
9.7496521862
 30
0.0
 10
12.0787816212
 20
9.7503164325
 30
0.0
 10
12.0805857558
 20
9.7507851878
 30
0.0
 10
12.0820271151
 20
9.7512808378
 30
0.0
 10
12.0831721131
 20
9.7518061622
 30
0.0
 10
12.0839526402
 20
9.7524355302
 30
0.0
 10
12.0839602542
 20
9.7528756437
 30
0.0
  0
SPLINE
  5
54B
100
AcDbEntity
  8
0
100
AcDbSpline
 62
9
  6
CONTINUOUS
 70
0
 71
3
 72
18
 73
14
 74
0
 42
0.0000001
 43
0.0000001
 44
0.0000000001
 40
0.0
 40
0.0
 40
0.0
 40
0.0
 40
0.1973707156
 40
0.3856028356
 40
0.5571497882
 40
0.7063212764
 40
0.8282305686
 40
0.9190593206
 40
0.9518527598
 40
0.9759222218
 40
0.9847508423
 40
0.9915420409
 40
1.0
 40
1.0
 40
1.0
 40
1.0
 10
11.9350421351
 20
9.745884823
 30
0.0
 10
11.9350102795
 20
9.7407413273
 30
0.0
 10
11.9348826861
 20
9.73069278
 30
0.0
 10
11.9345038647
 20
9.7161775445
 30
0.0
 10
11.9339464103
 20
9.7029251915
 30
0.0
 10
11.9332418241
 20
9.6914102982
 30
0.0
 10
11.9324066305
 20
9.6820150007
 30
0.0
 10
11.9315985846
 20
9.6756635474
 30
0.0
 10
11.9308417042
 20
9.671885606
 30
0.0
 10
11.9303912624
 20
9.6702354808
 30
0.0
 10
11.9299883451
 20
9.6692712558
 30
0.0
 10
11.9296936003
 20
9.6687384761
 30
0.0
 10
11.9293564634
 20
9.6684104892
 30
0.0
 10
11.9291360674
 20
9.6684072893
 30
0.0
  0
SPLINE
  5
54C
100
AcDbEntity
  8
0
100
AcDbSpline
 62
7
  6
CONTINUOUS
 70
0
 71
3
 72
18
 73
14
 74
0
 42
0.0000001
 43
0.0000001
 44
0.0000000001
 40
0.0
 40
0.0
 40
0.0
 40
0.0
 40
0.0623807835
 40
0.1248792017
 40
0.1873982029
 40
0.2499197011
 40
0.3124384383
 40
0.3749564059
 40
0.4999491973
 40
0.6249563542
 40
0.7499688019
 40
0.8749840934
 40
1.0
 40
1.0
 40
1.0
 40
1.0
 10
13.2296966962
 20
10.1384755082
 30
0.0
 10
13.2310352689
 20
10.1385866535
 30
0.0
 10
13.2336732296
 20
10.1395051458
 30
0.0
 10
13.2367973534
 20
10.1421298318
 30
0.0
 10
13.2392835714
 20
10.1453362433
 30
0.0
 10
13.2412804849
 20
10.1488572698
 30
0.0
 10
13.2429104022
 20
10.1525577391
 30
0.0
 10
13.244696086
 20
10.1576407296
 30
0.0
 10
13.2463475206
 20
10.1641773938
 30
0.0
 10
13.2476744988
 20
10.1721481903
 30
0.0
 10
13.2485054482
 20
10.1801847527
 30
0.0
 10
13.2489467196
 20
10.1882504569
 30
0.0
 10
13.2490318028
 20
10.1936347137
 30
0.0
 10
13.2490318028
 20
10.1963265484
 30
0.0
  0
SPLINE
  5
54D
100
AcDbEntity
  8
0
100
AcDbSpline
 62
9
  6
CONTINUOUS
 70
0
 71
3
 72
14
 73
10
 74
0
 42
0.0000001
 43
0.0000001
 44
0.0000000001
 40
0.0
 40
0.0
 40
0.0
 40
0.0
 40
0.0414055373
 40
0.106644558
 40
0.1968450734
 40
0.3119015597
 40
0.4512065084
 40
0.6133944202
 40
1.0
 40
1.0
 40
1.0
 40
1.0
 10
11.8443431235
 20
9.7534020484
 30
0.0
 10
11.8445965273
 20
9.7530795168
 30
0.0
 10
11.8455334026
 20
9.7525115716
 30
0.0
 10
11.8473460049
 20
9.7518263851
 30
0.0
 10
11.8499451057
 20
9.7511344715
 30
0.0
 10
11.8532888337
 20
9.7504569531
 30
0.0
 10
11.857365056
 20
9.7498035432
 30
0.0
 10
11.8641243102
 20
9.7489212412
 30
0.0
 10
11.8695379227
 20
9.7484028993
 30
0.0
 10
11.8733546222
 20
9.7480865674
 30
0.0
  0
SPLINE
  5
54E
100
AcDbEntity
  8
0
100
AcDbSpline
 62
9
  6
CONTINUOUS
 70
0
 71
3
 72
9
 73
5
 74
0
 42
0.0000001
 43
0.0000001
 44
0.0000000001
 40
0.0
 40
0.0
 40
0.0
 40
0.0
 40
0.4670527075
 40
1.0
 40
1.0
 40
1.0
 40
1.0
 10
11.8733546222
 20
9.7480865674
 30
0.0
 10
11.8829335006
 20
9.7472926603
 30
0.0
 10
11.9034944148
 20
9.7462310117
 30
0.0
 10
11.924074334
 20
9.745884823
 30
0.0
 10
11.9350421351
 20
9.745884823
 30
0.0
  0
SPLINE
  5
54F
100
AcDbEntity
  8
0
100
AcDbSpline
 62
9
  6
CONTINUOUS
 70
0
 71
3
 72
11
 73
7
 74
0
 42
0.0000001
 43
0.0000001
 44
0.0000000001
 40
0.0
 40
0.0
 40
0.0
 40
0.0
 40
0.3036322661
 40
0.5714387281
 40
0.8032530822
 40
1.0
 40
1.0
 40
1.0
 40
1.0
 10
10.3850240631
 20
10.8486171745
 30
0.0
 10
10.3806717741
 20
10.851507595
 30
0.0
 10
10.3723003721
 20
10.8566850932
 30
0.0
 10
10.3599663614
 20
10.8629681913
 30
0.0
 10
10.3487601994
 20
10.867275528
 30
0.0
 10
10.3415355151
 20
10.8689530894
 30
0.0
 10
10.3381751338
 20
10.8693643618
 30
0.0
  0
SPLINE
  5
550
100
AcDbEntity
  8
0
100
AcDbSpline
 62
7
  6
CONTINUOUS
 70
0
 71
3
 72
9
 73
5
 74
0
 42
0.0000001
 43
0.0000001
 44
0.0000000001
 40
0.0
 40
0.0
 40
0.0
 40
0.0
 40
0.3990166992
 40
1.0
 40
1.0
 40
1.0
 40
1.0
 10
12.0426522437
 20
10.6566652073
 30
0.0
 10
12.0411735769
 20
10.6540885143
 30
0.0
 10
12.037603168
 20
10.6475532852
 30
0.0
 10
12.0342526311
 20
10.6409025116
 30
0.0
 10
12.0323010485
 20
10.6368759948
 30
0.0
  0
SPLINE
  5
551
100
AcDbEntity
  8
0
100
AcDbSpline
 62
7
  6
CONTINUOUS
 70
0
 71
3
 72
18
 73
14
 74
0
 42
0.0000001
 43
0.0000001
 44
0.0000000001
 40
0.0
 40
0.0
 40
0.0
 40
0.0
 40
0.125016209
 40
0.2500318071
 40
0.3750445628
 40
0.5000520326
 40
0.6250451964
 40
0.6875632511
 40
0.7500821511
 40
0.8126039267
 40
0.8751227798
 40
0.9376223808
 40
1.0
 40
1.0
 40
1.0
 40
1.0
 10
13.2490318028
 20
10.4153647315
 30
0.0
 10
13.2490318028
 20
10.4180559388
 30
0.0
 10
13.2489467591
 20
10.4234389403
 30
0.0
 10
13.2485057079
 20
10.4315027699
 30
0.0
 10
13.2476752005
 20
10.439537482
 30
0.0
 10
13.2463489805
 20
10.4475064928
 30
0.0
 10
13.2446985893
 20
10.4540417823
 30
0.0
 10
13.2429141578
 20
10.4591238775
 30
0.0
 10
13.2412854679
 20
10.4628238436
 30
0.0
 10
13.2392903111
 20
10.4663447616
 30
0.0
 10
13.2368061937
 20
10.4695515673
 30
0.0
 10
13.2336860014
 20
10.4721787782
 30
0.0
 10
13.2310493475
 20
10.4731004925
 30
0.0
 10
13.2297111579
 20
10.473211606
 30
0.0
  0
LINE
  5
552
100
AcDbEntity
  8
0
100
AcDbLine
 62
7
  6
CONTINUOUS
 10
12.0322529676
 20
9.9748004362
 11
12.0359738742
 21
9.9673057329
  0
SPLINE
  5
553
100
AcDbEntity
  8
0
100
AcDbSpline
 62
7
  6
CONTINUOUS
 70
0
 71
3
 72
10
 73
6
 74
0
 42
0.0000001
 43
0.0000001
 44
0.0000000001
 40
0.0
 40
0.0
 40
0.0
 40
0.0
 40
0.5786437135
 40
0.8116569264
 40
1.0
 40
1.0
 40
1.0
 40
1.0
 10
12.0359738742
 20
9.9673057329
 30
0.0
 10
12.0373401175
 20
9.9648670867
 30
0.0
 10
12.0395046057
 20
9.9615850912
 30
0.0
 10
12.0423512905
 20
9.9576846821
 30
0.0
 10
12.0435337981
 20
9.9560260568
 30
0.0
 10
12.0440233666
 20
9.955259161
 30
0.0
  0
SPLINE
  5
554
100
AcDbEntity
  8
0
100
AcDbSpline
 62
9
  6
CONTINUOUS
 70
0
 71
3
 72
9
 73
5
 74
0
 42
0.0000001
 43
0.0000001
 44
0.0000000001
 40
0.0
 40
0.0
 40
0.0
 40
0.0
 40
0.2500143758
 40
1.0
 40
1.0
 40
1.0
 40
1.0
 10
15.6454372041
 20
7.932305701
 30
0.0
 10
15.4460226045
 20
7.9323868715
 30
0.0
 10
14.6484098725
 20
7.9322460849
 30
0.0
 10
13.8507979854
 20
7.9309955544
 30
0.0
 10
13.2526000739
 20
7.9307030902
 30
0.0
  0
LINE
  5
555
100
AcDbEntity
  8
0
100
AcDbLine
 62
9
  6
CONTINUOUS
 10
13.2866067805
 20
7.937355631
 11
13.2907935383
 21
7.9382099857
  0
SPLINE
  5
556
100
AcDbEntity
  8
0
100
AcDbSpline
 62
9
  6
CONTINUOUS
 70
0
 71
3
 72
9
 73
5
 74
0
 42
0.0000001
 43
0.0000001
 44
0.0000000001
 40
0.0
 40
0.0
 40
0.0
 40
0.0
 40
0.4844691001
 40
1.0
 40
1.0
 40
1.0
 40
1.0
 10
13.2866046874
 20
7.9373550379
 30
0.0
 10
13.2831479925
 20
7.9373560499
 30
0.0
 10
13.2760035157
 20
7.9381805989
 30
0.0
 10
13.2691519046
 20
7.9403259324
 30
0.0
 10
13.2657568283
 20
7.941741385
 30
0.0
  0
SPLINE
  5
557
100
AcDbEntity
  8
0
100
AcDbSpline
 62
9
  6
CONTINUOUS
 70
0
 71
3
 72
9
 73
5
 74
0
 42
0.0000001
 43
0.0000001
 44
0.0000000001
 40
0.0
 40
0.0
 40
0.0
 40
0.0
 40
0.4991211518
 40
1.0
 40
1.0
 40
1.0
 40
1.0
 10
13.2657568283
 20
7.941741385
 30
0.0
 10
13.2592159355
 20
7.9444683704
 30
0.0
 10
13.246869303
 20
7.9523564176
 30
0.0
 10
13.2390577982
 20
7.9647445746
 30
0.0
 10
13.2363391512
 20
7.9713159529
 30
0.0
  0
SPLINE
  5
558
100
AcDbEntity
  8
0
100
AcDbSpline
 62
9
  6
CONTINUOUS
 70
0
 71
3
 72
9
 73
5
 74
0
 42
0.0000001
 43
0.0000001
 44
0.0000000001
 40
0.0
 40
0.0
 40
0.0
 40
0.0
 40
0.5151935231
 40
1.0
 40
1.0
 40
1.0
 40
1.0
 10
13.2363391512
 20
7.9713159529
 30
0.0
 10
13.2349226576
 20
7.9747398307
 30
0.0
 10
13.2327721428
 20
7.9816486683
 30
0.0
 10
13.2319307772
 20
7.9888470865
 30
0.0
 10
13.2319174887
 20
7.9923338343
 30
0.0
  0
LINE
  5
559
100
AcDbEntity
  8
0
100
AcDbLine
 62
7
  6
CONTINUOUS
 10
15.6454372459
 20
7.9323058951
 11
15.6504593089
 21
7.9320464231
  0
SPLINE
  5
55A
100
AcDbEntity
  8
0
100
AcDbSpline
 62
9
  6
CONTINUOUS
 70
0
 71
3
 72
14
 73
10
 74
0
 42
0.0000001
 43
0.0000001
 44
0.0000000001
 40
0.0
 40
0.0
 40
0.0
 40
0.0
 40
0.1250895448
 40
0.2507791053
 40
0.375914502
 40
0.5010026134
 40
0.6258763732
 40
0.7506758542
 40
1.0
 40
1.0
 40
1.0
 40
1.0
 10
15.6504593089
 20
7.9320464231
 30
0.0
 10
15.6523411227
 20
7.9317656483
 30
0.0
 10
15.6560992736
 20
7.9310616236
 30
0.0
 10
15.6615333005
 20
7.9292088631
 30
0.0
 10
15.666615172
 20
7.9265456751
 30
0.0
 10
15.6712823941
 20
7.9232344324
 30
0.0
 10
15.675429275
 20
7.9192919277
 30
0.0
 10
15.6801323894
 20
7.9133112385
 30
0.0
 10
15.6826408624
 20
7.9080874927
 30
0.0
 10
15.6837797344
 20
7.9044702558
 30
0.0
  0
SPLINE
  5
55B
100
AcDbEntity
  8
0
100
AcDbSpline
 62
9
  6
CONTINUOUS
 70
0
 71
3
 72
9
 73
5
 74
0
 42
0.0000001
 43
0.0000001
 44
0.0000000001
 40
0.0
 40
0.0
 40
0.0
 40
0.0
 40
0.2513315419
 40
1.0
 40
1.0
 40
1.0
 40
1.0
 10
15.6837797344
 20
7.9044702558
 30
0.0
 10
15.6840810146
 20
7.9035133423
 30
0.0
 10
15.6851351098
 20
7.8996620488
 30
0.0
 10
15.6856053056
 20
7.8956499929
 30
0.0
 10
15.6856053078
 20
7.8926615886
 30
0.0
  0
SPLINE
  5
55C
100
AcDbEntity
  8
0
100
AcDbSpline
 62
9
  6
CONTINUOUS
 70
0
 71
3
 72
15
 73
11
 74
0
 42
0.0000001
 43
0.0000001
 44
0.0000000001
 40
0.0
 40
0.0
 40
0.0
 40
0.0
 40
0.3540180729
 40
0.5173870113
 40
0.6636735869
 40
0.788617683
 40
0.888186791
 40
0.9593953131
 40
0.9836534637
 40
1.0
 40
1.0
 40
1.0
 40
1.0
 10
15.6442026629
 20
7.8926615886
 30
0.0
 10
15.644204841
 20
7.897344875
 30
0.0
 10
15.6442724231
 20
7.9041893277
 30
0.0
 10
15.6444229255
 20
7.9129677587
 30
0.0
 10
15.6445490964
 20
7.9187156299
 30
0.0
 10
15.6447021378
 20
7.9236188991
 30
0.0
 10
15.6449008919
 20
7.9275257577
 30
0.0
 10
15.6451025482
 20
7.9300995414
 30
0.0
 10
15.6452894821
 20
7.9315665438
 30
0.0
 10
15.6453825099
 20
7.9320966895
 30
0.0
 10
15.6454372459
 20
7.9323058951
 30
0.0
  0
SPLINE
  5
55D
100
AcDbEntity
  8
0
100
AcDbSpline
 62
9
  6
CONTINUOUS
 70
0
 71
3
 72
10
 73
6
 74
0
 42
0.0000001
 43
0.0000001
 44
0.0000000001
 40
0.0
 40
0.0
 40
0.0
 40
0.0
 40
0.2375720651
 40
0.4849493871
 40
1.0
 40
1.0
 40
1.0
 40
1.0
 10
13.1786269967
 20
7.5536774922
 30
0.0
 10
13.1818854351
 20
7.5559640153
 30
0.0
 10
13.1886330925
 20
7.5604975408
 30
0.0
 10
13.2029191048
 20
7.5692509567
 30
0.0
 10
13.2144298005
 20
7.5749432673
 30
0.0
 10
13.2224844435
 20
7.5780414944
 30
0.0
  0
SPLINE
  5
55E
100
AcDbEntity
  8
0
100
AcDbSpline
 62
9
  6
CONTINUOUS
 70
0
 71
3
 72
9
 73
5
 74
0
 42
0.0000001
 43
0.0000001
 44
0.0000000001
 40
0.0
 40
0.0
 40
0.0
 40
0.0
 40
0.2494237013
 40
1.0
 40
1.0
 40
1.0
 40
1.0
 10
13.222484234
 20
7.5780412168
 30
0.0
 10
13.2249703026
 20
7.578997061
 30
0.0
 10
13.235142761
 20
7.5822794159
 30
0.0
 10
13.245991493
 20
7.5834062342
 30
0.0
 10
13.253998034
 20
7.5830362679
 30
0.0
  0
SPLINE
  5
55F
100
AcDbEntity
  8
0
100
AcDbSpline
 62
9
  6
CONTINUOUS
 70
0
 71
3
 72
18
 73
14
 74
0
 42
0.0000001
 43
0.0000001
 44
0.0000000001
 40
0.0
 40
0.0
 40
0.0
 40
0.0
 40
0.0069449052
 40
0.0205519034
 40
0.0415822923
 40
0.0701879437
 40
0.1064073362
 40
0.1502438658
 40
0.2607158169
 40
0.4014013061
 40
0.5718523874
 40
0.7715581327
 40
1.0
 40
1.0
 40
1.0
 40
1.0
 10
13.2356053078
 20
7.5186595368
 30
0.0
 10
13.2356053082
 20
7.5187424947
 30
0.0
 10
13.2354025555
 20
7.5189410237
 30
0.0
 10
13.2349894305
 20
7.5191746163
 30
0.0
 10
13.2342904287
 20
7.5194919972
 30
0.0
 10
13.2333360758
 20
7.5198549713
 30
0.0
 10
13.2321072207
 20
7.5202789083
 30
0.0
 10
13.2299395645
 20
7.5209700903
 30
0.0
 10
13.226556048
 20
7.5219576781
 30
0.0
 10
13.2216980269
 20
7.5232848133
 30
0.0
 10
13.2157932996
 20
7.5248249638
 30
0.0
 10
13.2088602852
 20
7.5265745432
 30
0.0
 10
13.2038941936
 20
7.5277969263
 30
0.0
 10
13.2012431628
 20
7.5284436353
 30
0.0
  0
LINE
  5
560
100
AcDbEntity
  8
0
100
AcDbLine
 62
9
  6
CONTINUOUS
 10
13.2012431628
 20
7.5284436353
 11
13.1588952275
 21
7.5385016868
  0
SPLINE
  5
561
100
AcDbEntity
  8
0
100
AcDbSpline
 62
9
  6
CONTINUOUS
 70
0
 71
3
 72
14
 73
10
 74
0
 42
0.0000001
 43
0.0000001
 44
0.0000000001
 40
0.0
 40
0.0
 40
0.0
 40
0.0
 40
0.1293432977
 40
0.2582795506
 40
0.385794697
 40
0.5116556163
 40
0.6360853917
 40
0.7589609294
 40
1.0
 40
1.0
 40
1.0
 40
1.0
 10
13.205276669
 20
7.612962419
 30
0.0
 10
13.2025722873
 20
7.6106006974
 30
0.0
 10
13.1973564748
 20
7.605668876
 30
0.0
 10
13.1901720966
 20
7.5977114439
 30
0.0
 10
13.1837434973
 20
7.5892511604
 30
0.0
 10
13.1780831587
 20
7.5804115769
 30
0.0
 10
13.1730457496
 20
7.571354605
 30
0.0
 10
13.1669686942
 20
7.5592357048
 30
0.0
 10
13.1629864782
 20
7.5499306114
 30
0.0
 10
13.1606895571
 20
7.5436461713
 30
0.0
  0
SPLINE
  5
562
100
AcDbEntity
  8
0
100
AcDbSpline
 62
9
  6
CONTINUOUS
 70
0
 71
3
 72
12
 73
8
 74
0
 42
0.0000001
 43
0.0000001
 44
0.0000000001
 40
0.0
 40
0.0
 40
0.0
 40
0.0
 40
0.0561695851
 40
0.1373211969
 40
0.3682162103
 40
0.6724641767
 40
1.0
 40
1.0
 40
1.0
 40
1.0
 10
13.2224846377
 20
7.5780415176
 30
0.0
 10
13.2221093848
 20
7.5786665858
 30
0.0
 10
13.2212416141
 20
7.5802241212
 30
0.0
 10
13.2190028829
 20
7.5844465477
 30
0.0
 10
13.2154191617
 20
7.5915992871
 30
0.0
 10
13.2105543082
 20
7.601684441
 30
0.0
 10
13.2070650469
 20
7.609105595
 30
0.0
 10
13.2052772887
 20
7.6129627024
 30
0.0
  0
SPLINE
  5
563
100
AcDbEntity
  8
0
100
AcDbSpline
 62
7
  6
CONTINUOUS
 70
0
 71
3
 72
17
 73
13
 74
0
 42
0.0000001
 43
0.0000001
 44
0.0000000001
 40
0.0
 40
0.0
 40
0.0
 40
0.0
 40
0.12748513
 40
0.2531725391
 40
0.3770929963
 40
0.4386264579
 40
0.5000002041
 40
0.5613739914
 40
0.6229074439
 40
0.7468276292
 40
0.8725148585
 40
1.0
 40
1.0
 40
1.0
 40
1.0
 10
13.3330490343
 20
11.4044046514
 30
0.0
 10
13.318082867
 20
11.415271966
 30
0.0
 10
13.2873364548
 20
11.4355117454
 30
0.0
 10
13.2381676098
 20
11.4598739729
 30
0.0
 10
13.1947908314
 20
11.4733035687
 30
0.0
 10
13.1593533011
 20
11.4788180169
 30
0.0
 10
13.1326052139
 20
11.4802106433
 30
0.0
 10
13.1058571251
 20
11.4788180222
 30
0.0
 10
13.0704196443
 20
11.4733034856
 30
0.0
 10
13.0270429254
 20
11.459873947
 30
0.0
 10
12.977874142
 20
11.43551173
 30
0.0
 10
12.9471277501
 20
11.415271967
 30
0.0
 10
12.9321615813
 20
11.4044046514
 30
0.0
  0
SPLINE
  5
564
100
AcDbEntity
  8
0
100
AcDbSpline
 62
7
  6
CONTINUOUS
 70
0
 71
3
 72
17
 73
13
 74
0
 42
0.0000001
 43
0.0000001
 44
0.0000000001
 40
0.0
 40
0.0
 40
0.0
 40
0.0
 40
0.12748513
 40
0.2531725391
 40
0.3770929963
 40
0.4386264579
 40
0.5000002041
 40
0.5613739914
 40
0.6229074439
 40
0.7468276292
 40
0.8725148585
 40
1.0
 40
1.0
 40
1.0
 40
1.0
 10
12.7390490343
 20
11.4044046514
 30
0.0
 10
12.724082867
 20
11.415271966
 30
0.0
 10
12.6933364548
 20
11.4355117454
 30
0.0
 10
12.6441676098
 20
11.4598739729
 30
0.0
 10
12.6007908314
 20
11.4733035687
 30
0.0
 10
12.5653533011
 20
11.4788180169
 30
0.0
 10
12.5386052139
 20
11.4802106433
 30
0.0
 10
12.5118571251
 20
11.4788180222
 30
0.0
 10
12.4764196443
 20
11.4733034856
 30
0.0
 10
12.4330429254
 20
11.459873947
 30
0.0
 10
12.383874142
 20
11.43551173
 30
0.0
 10
12.3531277501
 20
11.415271967
 30
0.0
 10
12.3381615813
 20
11.4044046514
 30
0.0
  0
SPLINE
  5
565
100
AcDbEntity
  8
0
100
AcDbSpline
 62
9
  6
CONTINUOUS
 70
0
 71
3
 72
18
 73
14
 74
0
 42
0.0000001
 43
0.0000001
 44
0.0000000001
 40
0.0
 40
0.0
 40
0.0
 40
0.0
 40
0.0117979606
 40
0.0320443039
 40
0.0606110711
 40
0.0973081971
 40
0.1419301376
 40
0.194265775
 40
0.3212218155
 40
0.4749821283
 40
0.6464328167
 40
0.8249734868
 40
1.0
 40
1.0
 40
1.0
 40
1.0
 10
13.2539981244
 20
7.5830369929
 30
0.0
 10
13.2539411042
 20
7.5831830761
 30
0.0
 10
13.253868375
 20
7.5836070702
 30
0.0
 10
13.2537715339
 20
7.5844045158
 30
0.0
 10
13.2536865638
 20
7.5855393569
 30
0.0
 10
13.2536070802
 20
7.5869973459
 30
0.0
 10
13.253539676
 20
7.5887728328
 30
0.0
 10
13.2534614809
 20
7.5917480061
 30
0.0
 10
13.2534110439
 20
7.5961748864
 30
0.0
 10
13.25342119
 20
7.602185098
 30
0.0
 10
13.2534894568
 20
7.6088806295
 30
0.0
 10
13.2536078501
 20
7.6158581421
 30
0.0
 10
13.2537168141
 20
7.6205564927
 30
0.0
 10
13.2537790325
 20
7.6228820925
 30
0.0
  0
SPLINE
  5
566
100
AcDbEntity
  8
0
100
AcDbSpline
 62
9
  6
CONTINUOUS
 70
0
 71
3
 72
9
 73
5
 74
0
 42
0.0000001
 43
0.0000001
 44
0.0000000001
 40
0.0
 40
0.0
 40
0.0
 40
0.0
 40
0.249988618
 40
1.0
 40
1.0
 40
1.0
 40
1.0
 10
13.2539981334
 20
7.5830369926
 30
0.0
 10
13.4531899344
 20
7.5777117484
 30
0.0
 10
14.2499856953
 20
7.5561245959
 30
0.0
 10
15.0467713651
 20
7.5341454802
 30
0.0
 10
15.6443971054
 20
7.5187036724
 30
0.0
  0
SPLINE
  5
567
100
AcDbEntity
  8
0
100
AcDbSpline
 62
7
  6
CONTINUOUS
 70
0
 71
3
 72
17
 73
13
 74
0
 42
0.0000001
 43
0.0000001
 44
0.0000000001
 40
0.0
 40
0.0
 40
0.0
 40
0.0
 40
0.12748513
 40
0.2531725391
 40
0.3770929963
 40
0.4386264579
 40
0.5000002041
 40
0.5613739914
 40
0.6229074439
 40
0.7468276292
 40
0.8725148585
 40
1.0
 40
1.0
 40
1.0
 40
1.0
 10
12.3381615813
 20
11.0582315104
 30
0.0
 10
12.3531277487
 20
11.0473641957
 30
0.0
 10
12.3838741608
 20
11.0271244163
 30
0.0
 10
12.4330430058
 20
11.0027621889
 30
0.0
 10
12.4764197843
 20
10.989332593
 30
0.0
 10
12.5118573145
 20
10.9838181449
 30
0.0
 10
12.5386054017
 20
10.9824255185
 30
0.0
 10
12.5653534906
 20
10.9838181396
 30
0.0
 10
12.6007909714
 20
10.9893326762
 30
0.0
 10
12.6441676903
 20
11.0027622148
 30
0.0
 10
12.6933364736
 20
11.0271244317
 30
0.0
 10
12.7240828656
 20
11.0473641948
 30
0.0
 10
12.7390490343
 20
11.0582315104
 30
0.0
  0
SPLINE
  5
568
100
AcDbEntity
  8
0
100
AcDbSpline
 62
7
  6
CONTINUOUS
 70
0
 71
3
 72
17
 73
13
 74
0
 42
0.0000001
 43
0.0000001
 44
0.0000000001
 40
0.0
 40
0.0
 40
0.0
 40
0.0
 40
0.12748513
 40
0.2531725391
 40
0.3770929963
 40
0.4386264579
 40
0.5000002041
 40
0.5613739914
 40
0.6229074439
 40
0.7468276292
 40
0.8725148585
 40
1.0
 40
1.0
 40
1.0
 40
1.0
 10
12.9321615813
 20
11.0582315104
 30
0.0
 10
12.9471277487
 20
11.0473641957
 30
0.0
 10
12.9778741608
 20
11.0271244163
 30
0.0
 10
13.0270430058
 20
11.0027621889
 30
0.0
 10
13.0704197843
 20
10.989332593
 30
0.0
 10
13.1058573145
 20
10.9838181449
 30
0.0
 10
13.1326054017
 20
10.9824255185
 30
0.0
 10
13.1593534906
 20
10.9838181396
 30
0.0
 10
13.1947909714
 20
10.9893326762
 30
0.0
 10
13.2381676903
 20
11.0027622148
 30
0.0
 10
13.2873364736
 20
11.0271244317
 30
0.0
 10
13.3180828656
 20
11.0473641948
 30
0.0
 10
13.3330490343
 20
11.0582315104
 30
0.0
  0
LINE
  5
569
100
AcDbEntity
  8
0
100
AcDbLine
 62
9
  6
CONTINUOUS
 10
13.2922437918
 20
7.5745189327
 11
13.2539981257
 21
7.5830369812
  0
SPLINE
  5
56A
100
AcDbEntity
  8
0
100
AcDbSpline
 62
7
  6
CONTINUOUS
 70
0
 71
3
 72
20
 73
16
 74
0
 42
0.0000001
 43
0.0000001
 44
0.0000000001
 40
0.0
 40
0.0
 40
0.0
 40
0.0
 40
0.0037990372
 40
0.0141441041
 40
0.0313092769
 40
0.0553878343
 40
0.0865074931
 40
0.1248011888
 40
0.1704705271
 40
0.2237661171
 40
0.3546452454
 40
0.5212428843
 40
0.6200404322
 40
0.7310879139
 40
1.0
 40
1.0
 40
1.0
 40
1.0
 10
7.3459393723
 20
10.9140383349
 30
0.0
 10
7.3459539979
 20
10.9140123942
 30
0.0
 10
7.3458234652
 20
10.9139194858
 30
0.0
 10
7.3456672712
 20
10.9137941054
 30
0.0
 10
7.3453163026
 20
10.9135457457
 30
0.0
 10
7.3448777935
 20
10.9132038061
 30
0.0
 10
7.3442971258
 20
10.9127495428
 30
0.0
 10
7.3435913486
 20
10.9121902668
 30
0.0
 10
7.3427516435
 20
10.9115166614
 30
0.0
 10
7.3413579566
 20
10.9103751933
 30
0.0
 10
7.3392673702
 20
10.9085883049
 30
0.0
 10
7.336974359
 20
10.906491797
 30
0.0
 10
7.3348726471
 20
10.9044188898
 30
0.0
 10
7.3323147392
 20
10.9016754442
 30
0.0
 10
7.3303446214
 20
10.89942134
 30
0.0
 10
7.3291631954
 20
10.8976756043
 30
0.0
  0
LINE
  5
56B
100
AcDbEntity
  8
0
100
AcDbLine
 62
7
  6
CONTINUOUS
 10
7.3291631954
 20
10.8976756043
 11
7.3264060578
 21
10.8929196228
  0
SPLINE
  5
56C
100
AcDbEntity
  8
0
100
AcDbSpline
 62
7
  6
CONTINUOUS
 70
0
 71
3
 72
11
 73
7
 74
0
 42
0.0000001
 43
0.0000001
 44
0.0000000001
 40
0.0
 40
0.0
 40
0.0
 40
0.0
 40
0.2012400554
 40
0.4406422697
 40
0.7091836547
 40
1.0
 40
1.0
 40
1.0
 40
1.0
 10
7.3264142781
 20
10.8928616426
 30
0.0
 10
7.3202782102
 20
10.8807318707
 30
0.0
 10
7.3064902991
 20
10.8543503313
 30
0.0
 10
7.2836405478
 20
10.8122460221
 30
0.0
 10
7.2575856416
 20
10.764998705
 30
0.0
 10
7.2392886354
 20
10.731940647
 30
0.0
 10
7.2297741589
 20
10.7147542992
 30
0.0
  0
SPLINE
  5
56D
100
AcDbEntity
  8
0
100
AcDbSpline
 62
7
  6
CONTINUOUS
 70
0
 71
3
 72
9
 73
5
 74
0
 42
0.0000001
 43
0.0000001
 44
0.0000000001
 40
0.0
 40
0.0
 40
0.0
 40
0.0
 40
0.2450198807
 40
1.0
 40
1.0
 40
1.0
 40
1.0
 10
7.2298167743
 20
10.7147003905
 30
0.0
 10
7.2267572585
 20
10.7091043072
 30
0.0
 10
7.2143002935
 20
10.686248813
 30
0.0
 10
7.2019994803
 20
10.663307309
 30
0.0
 10
7.1928796479
 20
10.645899521
 30
0.0
  0
SPLINE
  5
56E
100
AcDbEntity
  8
0
100
AcDbSpline
 62
7
  6
CONTINUOUS
 70
0
 71
3
 72
9
 73
5
 74
0
 42
0.0000001
 43
0.0000001
 44
0.0000000001
 40
0.0
 40
0.0
 40
0.0
 40
0.0
 40
0.2542915442
 40
1.0
 40
1.0
 40
1.0
 40
1.0
 10
7.1928788243
 20
9.9657919
 30
0.0
 10
7.1959506041
 20
9.9599285492
 30
0.0
 10
7.2081048891
 20
9.9369099683
 30
0.0
 10
7.2205047875
 20
9.914021952
 30
0.0
 10
7.2298164543
 20
9.8969902626
 30
0.0
  0
SPLINE
  5
56F
100
AcDbEntity
  8
0
100
AcDbSpline
 62
7
  6
CONTINUOUS
 70
0
 71
3
 72
12
 73
8
 74
0
 42
0.0000001
 43
0.0000001
 44
0.0000000001
 40
0.0
 40
0.0
 40
0.0
 40
0.0
 40
0.2907567682
 40
0.4281903718
 40
0.5592143762
 40
0.7986380028
 40
1.0
 40
1.0
 40
1.0
 40
1.0
 10
7.229774208
 20
9.8969367921
 30
0.0
 10
7.2393073235
 20
9.8797574982
 30
0.0
 10
7.253314546
 20
9.8544402376
 30
0.0
 10
7.2715541631
 20
9.821346339
 30
0.0
 10
7.2880900104
 20
9.7912742593
 30
0.0
 10
7.3065229873
 20
9.7573145542
 30
0.0
 10
7.3202420877
 20
9.7308751266
 30
0.0
 10
7.3264024549
 20
9.7187430858
 30
0.0
  0
SPLINE
  5
570
100
AcDbEntity
  8
0
100
AcDbSpline
 62
9
  6
CONTINUOUS
 70
0
 71
3
 72
12
 73
8
 74
0
 42
0.0000001
 43
0.0000001
 44
0.0000000001
 40
0.0
 40
0.0
 40
0.0
 40
0.0
 40
0.2486260637
 40
0.4987217706
 40
0.623975914
 40
0.7493983219
 40
1.0
 40
1.0
 40
1.0
 40
1.0
 10
15.6856053078
 20
7.5583298878
 30
0.0
 10
15.6856053081
 20
7.5541876682
 30
0.0
 10
15.68425096
 20
7.5458267512
 30
0.0
 10
15.6794153474
 20
7.5364215551
 30
0.0
 10
15.673925316
 20
7.5300933
 30
0.0
 10
15.6675054407
 20
7.5247188259
 30
0.0
 10
15.6618032183
 20
7.5218055052
 30
0.0
 10
15.657817074
 20
7.5205635715
 30
0.0
  0
SPLINE
  5
571
100
AcDbEntity
  8
0
100
AcDbSpline
 62
9
  6
CONTINUOUS
 70
0
 71
3
 72
9
 73
5
 74
0
 42
0.0000001
 43
0.0000001
 44
0.0000000001
 40
0.0
 40
0.0
 40
0.0
 40
0.0
 40
0.2517912054
 40
1.0
 40
1.0
 40
1.0
 40
1.0
 10
15.657817074
 20
7.5205635715
 30
0.0
 10
15.6572109635
 20
7.5203747301
 30
0.0
 10
15.6547838827
 20
7.5196882554
 30
0.0
 10
15.6523001895
 20
7.5192175437
 30
0.0
 10
15.6504344325
 20
7.5189387137
 30
0.0
  0
SPLINE
  5
572
100
AcDbEntity
  8
0
100
AcDbSpline
 62
9
  6
CONTINUOUS
 70
0
 71
3
 72
16
 73
12
 74
0
 42
0.0000001
 43
0.0000001
 44
0.0000000001
 40
0.0
 40
0.0
 40
0.0
 40
0.0
 40
0.0176589832
 40
0.0426962819
 40
0.1143649218
 40
0.2135878857
 40
0.3379048677
 40
0.4837058356
 40
0.6468150645
 40
0.82117438
 40
1.0
 40
1.0
 40
1.0
 40
1.0
 10
15.6451809559
 20
7.5186874278
 30
0.0
 10
15.645057433
 20
7.5188865762
 30
0.0
 10
15.6448318745
 20
7.5194110739
 30
0.0
 10
15.6443985317
 20
7.5208658947
 30
0.0
 10
15.6439816394
 20
7.5234432145
 30
0.0
 10
15.6437592294
 20
7.5273567656
 30
0.0
 10
15.6437653228
 20
7.5322596847
 30
0.0
 10
15.6438780116
 20
7.5380074781
 30
0.0
 10
15.6439964046
 20
7.5444197751
 30
0.0
 10
15.6441056285
 20
7.55127043
 30
0.0
 10
15.6441716558
 20
7.5559569608
 30
0.0
 10
15.6442025748
 20
7.5583298878
 30
0.0
  0
SPLINE
  5
573
100
AcDbEntity
  8
0
100
AcDbSpline
 62
7
  6
CONTINUOUS
 70
0
 71
3
 72
12
 73
8
 74
0
 42
0.0000001
 43
0.0000001
 44
0.0000000001
 40
0.0
 40
0.0
 40
0.0
 40
0.0
 40
0.0546654407
 40
0.2229411712
 40
0.520688822
 40
0.7307195674
 40
1.0
 40
1.0
 40
1.0
 40
1.0
 10
7.3459509978
 20
9.6976698797
 30
0.0
 10
7.3456100196
 20
9.6979275134
 30
0.0
 10
7.3442254277
 20
9.6989859508
 30
0.0
 10
7.3410483633
 20
9.701530649
 30
0.0
 10
7.3370724539
 20
9.7050235565
 30
0.0
 10
7.3328398655
 20
9.7093800434
 30
0.0
 10
7.3303926919
 20
9.7122372161
 30
0.0
 10
7.3291964128
 20
9.7139693146
 30
0.0
  0
LINE
  5
574
100
AcDbEntity
  8
0
100
AcDbLine
 62
7
  6
CONTINUOUS
 10
7.3291964128
 20
9.7139693146
 11
7.3264024902
 21
9.7187429195
  0
SPLINE
  5
575
100
AcDbEntity
  8
0
100
AcDbSpline
 62
9
  6
CONTINUOUS
 70
0
 71
3
 72
11
 73
7
 74
0
 42
0.0000001
 43
0.0000001
 44
0.0000000001
 40
0.0
 40
0.0
 40
0.0
 40
0.0
 40
0.1948565129
 40
0.426072841
 40
0.6945454067
 40
1.0
 40
1.0
 40
1.0
 40
1.0
 10
9.3330348257
 20
10.8693642625
 30
0.0
 10
9.3294947238
 20
10.8689309895
 30
0.0
 10
9.3218603687
 20
10.8671152074
 30
0.0
 10
9.3100148263
 20
10.8624322737
 30
0.0
 10
9.2969424078
 20
10.8555798823
 30
0.0
 10
9.2880713489
 20
10.8499326442
 30
0.0
 10
9.2834559867
 20
10.8467773655
 30
0.0
  0
SPLINE
  5
576
100
AcDbEntity
  8
0
100
AcDbSpline
 62
9
  6
CONTINUOUS
 70
0
 71
3
 72
13
 73
9
 74
0
 42
0.0000001
 43
0.0000001
 44
0.0000000001
 40
0.0
 40
0.0
 40
0.0
 40
0.0
 40
0.141670921
 40
0.2754754706
 40
0.4041902554
 40
0.5289914869
 40
0.7693743163
 40
1.0
 40
1.0
 40
1.0
 40
1.0
 10
10.4780209613
 20
9.0225302621
 30
0.0
 10
10.477381488
 20
9.0083274489
 30
0.0
 10
10.4745759377
 20
8.980774599
 30
0.0
 10
10.4674406326
 20
8.9408216304
 30
0.0
 10
10.458244417
 20
8.9030306547
 30
0.0
 10
10.4438058321
 20
8.8555948092
 30
0.0
 10
10.4219613102
 20
8.7998159603
 30
0.0
 10
10.4001857111
 20
8.7577507539
 30
0.0
 10
10.3884597922
 20
8.737796954
 30
0.0
  0
SPLINE
  5
577
100
AcDbEntity
  8
0
100
AcDbSpline
 62
7
  6
CONTINUOUS
 70
0
 71
3
 72
17
 73
13
 74
0
 42
0.0000001
 43
0.0000001
 44
0.0000000001
 40
0.0
 40
0.0
 40
0.0
 40
0.0
 40
0.12748513
 40
0.2531725391
 40
0.3770929963
 40
0.4386264579
 40
0.5000002041
 40
0.5613739914
 40
0.6229074439
 40
0.7468276292
 40
0.8725148585
 40
1.0
 40
1.0
 40
1.0
 40
1.0
 10
6.9321615813
 20
11.0582315104
 30
0.0
 10
6.9471277487
 20
11.0473641957
 30
0.0
 10
6.9778741608
 20
11.0271244163
 30
0.0
 10
7.0270430058
 20
11.0027621889
 30
0.0
 10
7.0704197843
 20
10.989332593
 30
0.0
 10
7.1058573145
 20
10.9838181449
 30
0.0
 10
7.1326054017
 20
10.9824255185
 30
0.0
 10
7.1593534906
 20
10.9838181396
 30
0.0
 10
7.1947909714
 20
10.9893326762
 30
0.0
 10
7.2381676903
 20
11.0027622148
 30
0.0
 10
7.2873364736
 20
11.0271244317
 30
0.0
 10
7.3180828656
 20
11.0473641948
 30
0.0
 10
7.3330490343
 20
11.0582315104
 30
0.0
  0
SPLINE
  5
578
100
AcDbEntity
  8
0
100
AcDbSpline
 62
7
  6
CONTINUOUS
 70
0
 71
3
 72
9
 73
5
 74
0
 42
0.0000001
 43
0.0000001
 44
0.0000000001
 40
0.0
 40
0.0
 40
0.0
 40
0.0
 40
0.2490879826
 40
1.0
 40
1.0
 40
1.0
 40
1.0
 10
6.7026308194
 20
11.0339212681
 30
0.0
 10
6.7057384658
 20
11.0358092041
 30
0.0
 10
6.7181275605
 20
11.0435314854
 30
0.0
 10
6.7301790095
 20
11.0517907599
 30
0.0
 10
6.7390490343
 20
11.0582315104
 30
0.0
  0
SPLINE
  5
579
100
AcDbEntity
  8
0
100
AcDbSpline
 62
9
  6
CONTINUOUS
 70
0
 71
3
 72
18
 73
14
 74
0
 42
0.0000001
 43
0.0000001
 44
0.0000000001
 40
0.0
 40
0.0
 40
0.0
 40
0.0
 40
0.0084579591
 40
0.0152491577
 40
0.0240777782
 40
0.0481472402
 40
0.0809406794
 40
0.1717694314
 40
0.2936787236
 40
0.4428502118
 40
0.6143971644
 40
0.8026292844
 40
1.0
 40
1.0
 40
1.0
 40
1.0
 10
7.6722450648
 20
10.9432839905
 30
0.0
 10
7.6720246687
 20
10.9432807907
 30
0.0
 10
7.6716875318
 20
10.9429528037
 30
0.0
 10
7.6713927871
 20
10.9424200241
 30
0.0
 10
7.6709898698
 20
10.9414557991
 30
0.0
 10
7.670539428
 20
10.9398056739
 30
0.0
 10
7.6697825476
 20
10.9360277324
 30
0.0
 10
7.6689745017
 20
10.9296762791
 30
0.0
 10
7.668139308
 20
10.9202809817
 30
0.0
 10
7.6674347218
 20
10.9087660884
 30
0.0
 10
7.6668772674
 20
10.8955137353
 30
0.0
 10
7.666498446
 20
10.8809984998
 30
0.0
 10
7.6663708526
 20
10.8709499525
 30
0.0
 10
7.666338997
 20
10.8658064568
 30
0.0
  0
SPLINE
  5
57A
100
AcDbEntity
  8
0
100
AcDbSpline
 62
7
  6
CONTINUOUS
 70
0
 71
3
 72
17
 73
13
 74
0
 42
0.0000001
 43
0.0000001
 44
0.0000000001
 40
0.0
 40
0.0
 40
0.0
 40
0.0
 40
0.12748513
 40
0.2531725391
 40
0.3770929963
 40
0.4386264579
 40
0.5000002041
 40
0.5613739914
 40
0.6229074439
 40
0.7468276292
 40
0.8725148585
 40
1.0
 40
1.0
 40
1.0
 40
1.0
 10
6.7390490343
 20
11.4044046514
 30
0.0
 10
6.724082867
 20
11.415271966
 30
0.0
 10
6.6933364548
 20
11.4355117454
 30
0.0
 10
6.6441676098
 20
11.4598739729
 30
0.0
 10
6.6007908314
 20
11.4733035687
 30
0.0
 10
6.5653533011
 20
11.4788180169
 30
0.0
 10
6.5386052139
 20
11.4802106433
 30
0.0
 10
6.5118571251
 20
11.4788180222
 30
0.0
 10
6.4764196443
 20
11.4733034856
 30
0.0
 10
6.4330429254
 20
11.459873947
 30
0.0
 10
6.383874142
 20
11.43551173
 30
0.0
 10
6.3531277501
 20
11.415271967
 30
0.0
 10
6.3381615813
 20
11.4044046514
 30
0.0
  0
SPLINE
  5
57B
100
AcDbEntity
  8
0
100
AcDbSpline
 62
7
  6
CONTINUOUS
 70
0
 71
3
 72
17
 73
13
 74
0
 42
0.0000001
 43
0.0000001
 44
0.0000000001
 40
0.0
 40
0.0
 40
0.0
 40
0.0
 40
0.12748513
 40
0.2531725391
 40
0.3770929963
 40
0.4386264579
 40
0.5000002041
 40
0.5613739914
 40
0.6229074439
 40
0.7468276292
 40
0.8725148585
 40
1.0
 40
1.0
 40
1.0
 40
1.0
 10
7.3330490343
 20
11.4044046514
 30
0.0
 10
7.318082867
 20
11.415271966
 30
0.0
 10
7.2873364548
 20
11.4355117454
 30
0.0
 10
7.2381676098
 20
11.4598739729
 30
0.0
 10
7.1947908314
 20
11.4733035687
 30
0.0
 10
7.1593533011
 20
11.4788180169
 30
0.0
 10
7.1326052139
 20
11.4802106433
 30
0.0
 10
7.1058571251
 20
11.4788180222
 30
0.0
 10
7.0704196443
 20
11.4733034856
 30
0.0
 10
7.0270429254
 20
11.459873947
 30
0.0
 10
6.977874142
 20
11.43551173
 30
0.0
 10
6.9471277501
 20
11.415271967
 30
0.0
 10
6.9321615813
 20
11.4044046514
 30
0.0
  0
SPLINE
  5
57C
100
AcDbEntity
  8
0
100
AcDbSpline
 62
9
  6
CONTINUOUS
 70
0
 71
3
 72
16
 73
12
 74
0
 42
0.0000001
 43
0.0000001
 44
0.0000000001
 40
0.0
 40
0.0
 40
0.0
 40
0.0
 40
0.0274681468
 40
0.0510735886
 40
0.0822276849
 40
0.1211431595
 40
0.1678066597
 40
0.2834933896
 40
0.4272549298
 40
0.5967299562
 40
1.0
 40
1.0
 40
1.0
 40
1.0
 10
7.5871269791
 20
10.8388940024
 30
0.0
 10
7.587134593
 20
10.8393341159
 30
0.0
 10
7.5879151201
 20
10.8399634839
 30
0.0
 10
7.5890601181
 20
10.8404888083
 30
0.0
 10
7.5905014775
 20
10.8409844583
 30
0.0
 10
7.592305612
 20
10.8414532136
 30
0.0
 10
7.5954661859
 20
10.8421174599
 30
0.0
 10
7.6003155075
 20
10.8428622687
 30
0.0
 10
7.6071468013
 20
10.8436384173
 30
0.0
 10
7.618589223
 20
10.8446020059
 30
0.0
 10
7.6277584967
 20
10.8450688043
 30
0.0
 10
7.6342163323
 20
10.8453126083
 30
0.0
  0
SPLINE
  5
57D
100
AcDbEntity
  8
0
100
AcDbSpline
 62
9
  6
CONTINUOUS
 70
0
 71
3
 72
10
 73
6
 74
0
 42
0.0000001
 43
0.0000001
 44
0.0000000001
 40
0.0
 40
0.0
 40
0.0
 40
0.0
 40
0.2378723512
 40
0.485307982
 40
1.0
 40
1.0
 40
1.0
 40
1.0
 10
6.4925210355
 20
7.960959321
 30
0.0
 10
6.4892564417
 20
7.9586133051
 30
0.0
 10
6.4824967164
 20
7.9539616724
 30
0.0
 10
6.468182362
 20
7.9449796663
 30
0.0
 10
6.4566246578
 20
7.9391372656
 30
0.0
 10
6.4485258193
 20
7.9359636155
 30
0.0
  0
SPLINE
  5
57E
100
AcDbEntity
  8
0
100
AcDbSpline
 62
9
  6
CONTINUOUS
 70
0
 71
3
 72
9
 73
5
 74
0
 42
0.0000001
 43
0.0000001
 44
0.0000000001
 40
0.0
 40
0.0
 40
0.0
 40
0.0
 40
0.2494816494
 40
1.0
 40
1.0
 40
1.0
 40
1.0
 10
6.4485261941
 20
7.9359634712
 30
0.0
 10
6.4461658177
 20
7.9350389479
 30
0.0
 10
6.4365170878
 20
7.9318263213
 30
0.0
 10
6.4262372686
 20
7.9305519004
 30
0.0
 10
6.4186127685
 20
7.930703431
 30
0.0
  0
SPLINE
  5
57F
100
AcDbEntity
  8
0
100
AcDbSpline
 62
9
  6
CONTINUOUS
 70
0
 71
3
 72
9
 73
5
 74
0
 42
0.0000001
 43
0.0000001
 44
0.0000000001
 40
0.0
 40
0.0
 40
0.0
 40
0.0
 40
0.4844691009
 40
1.0
 40
1.0
 40
1.0
 40
1.0
 10
6.3846059922
 20
7.9373555987
 30
0.0
 10
6.3880626737
 20
7.9373565901
 30
0.0
 10
6.3952071276
 20
7.9381810936
 30
0.0
 10
6.4020587249
 20
7.9403263779
 30
0.0
 10
6.4054537964
 20
7.9417418048
 30
0.0
  0
SPLINE
  5
580
100
AcDbEntity
  8
0
100
AcDbSpline
 62
9
  6
CONTINUOUS
 70
0
 71
3
 72
9
 73
5
 74
0
 42
0.0000001
 43
0.0000001
 44
0.0000000001
 40
0.0
 40
0.0
 40
0.0
 40
0.0
 40
0.4991214375
 40
1.0
 40
1.0
 40
1.0
 40
1.0
 10
6.4054537964
 20
7.9417418048
 30
0.0
 10
6.4119946774
 20
7.9444687395
 30
0.0
 10
6.4243412999
 20
7.9523566738
 30
0.0
 10
6.4321528269
 20
7.9647447371
 30
0.0
 10
6.4348714848
 20
7.9713160693
 30
0.0
  0
SPLINE
  5
581
100
AcDbEntity
  8
0
100
AcDbSpline
 62
9
  6
CONTINUOUS
 70
0
 71
3
 72
9
 73
5
 74
0
 42
0.0000001
 43
0.0000001
 44
0.0000000001
 40
0.0
 40
0.0
 40
0.0
 40
0.0
 40
0.5151936645
 40
1.0
 40
1.0
 40
1.0
 40
1.0
 10
6.4348714848
 20
7.9713160693
 30
0.0
 10
6.4362879849
 20
7.9747399251
 30
0.0
 10
6.4384385128
 20
7.9816487204
 30
0.0
 10
6.4392798923
 20
7.9888471005
 30
0.0
 10
6.4392931871
 20
7.9923338295
 30
0.0
  0
SPLINE
  5
582
100
AcDbEntity
  8
0
100
AcDbSpline
 62
9
  6
CONTINUOUS
 70
0
 71
3
 72
12
 73
8
 74
0
 42
0.0000001
 43
0.0000001
 44
0.0000000001
 40
0.0
 40
0.0
 40
0.0
 40
0.0
 40
0.2569796125
 40
0.3843064816
 40
0.5101058858
 40
0.7577773926
 40
1.0
 40
1.0
 40
1.0
 40
1.0
 10
6.4659339467
 20
7.9010019979
 30
0.0
 10
6.470831441
 20
7.9053285958
 30
0.0
 10
6.4777119504
 20
7.9123327402
 30
0.0
 10
6.4857177748
 20
7.9225511157
 30
0.0
 10
6.492788659
 20
7.9331570312
 30
0.0
 10
6.5002526612
 20
7.946947514
 30
0.0
 10
6.5054249001
 20
7.9582931184
 30
0.0
 10
6.5077318044
 20
7.9640044471
 30
0.0
  0
SPLINE
  5
583
100
AcDbEntity
  8
0
100
AcDbSpline
 62
9
  6
CONTINUOUS
 70
0
 71
3
 72
9
 73
5
 74
0
 42
0.0000001
 43
0.0000001
 44
0.0000000001
 40
0.0
 40
0.0
 40
0.0
 40
0.0
 40
0.6310454709
 40
1.0
 40
1.0
 40
1.0
 40
1.0
 10
6.4780392478
 20
7.9835697407
 30
0.0
 10
6.4698686181
 20
7.9853209417
 30
0.0
 10
6.4569377253
 20
7.988176886
 30
0.0
 10
6.4440478143
 20
7.99120982
 30
0.0
 10
6.4392931879
 20
7.9923336055
 30
0.0
  0
SPLINE
  5
584
100
AcDbEntity
  8
0
100
AcDbSpline
 62
9
  6
CONTINUOUS
 70
0
 71
3
 72
13
 73
9
 74
0
 42
0.0000001
 43
0.0000001
 44
0.0000000001
 40
0.0
 40
0.0
 40
0.0
 40
0.0
 40
0.141670921
 40
0.2754754706
 40
0.4041902554
 40
0.5289914869
 40
0.7693743163
 40
1.0
 40
1.0
 40
1.0
 40
1.0
 10
9.1931896544
 20
9.0225302621
 30
0.0
 10
9.1938291277
 20
9.0083274489
 30
0.0
 10
9.1966346779
 20
8.980774599
 30
0.0
 10
9.2037699831
 20
8.9408216304
 30
0.0
 10
9.2129661987
 20
8.9030306547
 30
0.0
 10
9.2274047836
 20
8.8555948092
 30
0.0
 10
9.2492493055
 20
8.7998159603
 30
0.0
 10
9.2710249045
 20
8.7577507539
 30
0.0
 10
9.2827508235
 20
8.737796954
 30
0.0
  0
SPLINE
  5
585
100
AcDbEntity
  8
0
100
AcDbSpline
 62
9
  6
CONTINUOUS
 70
0
 71
3
 72
11
 73
7
 74
0
 42
0.0000001
 43
0.0000001
 44
0.0000000001
 40
0.0
 40
0.0
 40
0.0
 40
0.0
 40
0.2718742614
 40
0.5256474207
 40
0.7670643894
 40
1.0
 40
1.0
 40
1.0
 40
1.0
 10
10.7300810593
 20
4.5556424486
 30
0.0
 10
10.7300425108
 20
4.5503618954
 30
0.0
 10
10.7295232193
 20
4.5401490937
 30
0.0
 10
10.7274819082
 20
4.5253752627
 30
0.0
 10
10.7245272048
 20
4.5115348534
 30
0.0
 10
10.7220738466
 20
4.5026481689
 30
0.0
 10
10.7207466737
 20
4.4983228251
 30
0.0
  0
SPLINE
  5
586
100
AcDbEntity
  8
0
100
AcDbSpline
 62
9
  6
CONTINUOUS
 70
0
 71
3
 72
21
 73
17
 74
0
 42
0.0000001
 43
0.0000001
 44
0.0000000001
 40
0.0
 40
0.0
 40
0.0
 40
0.0
 40
0.0315542584
 40
0.0618634571
 40
0.091489993
 40
0.1207551535
 40
0.1788081354
 40
0.2078132941
 40
0.2368767065
 40
0.2953173674
 40
0.3543582017
 40
0.474677003
 40
0.5986887697
 40
0.7270170995
 40
0.8604107715
 40
1.0
 40
1.0
 40
1.0
 40
1.0
 10
10.7207466737
 20
4.4983228251
 30
0.0
 10
10.7175420359
 20
4.4878787004
 30
0.0
 10
10.7099043826
 20
4.4678000372
 30
0.0
 10
10.6954620542
 20
4.4395564519
 30
0.0
 10
10.6789829184
 20
4.4133975015
 30
0.0
 10
10.6550230371
 20
4.3807280074
 30
0.0
 10
10.6281518912
 20
4.3505895021
 30
0.0
 10
10.5992112016
 20
4.322671643
 30
0.0
 10
10.5689292736
 20
4.2960030653
 30
0.0
 10
10.5287173771
 20
4.2649638495
 30
0.0
 10
10.4599246839
 20
4.2196266326
 30
0.0
 10
10.3665494241
 20
4.1708568913
 30
0.0
 10
10.2456691766
 20
4.1250053573
 30
0.0
 10
10.1161413319
 20
4.0914521549
 30
0.0
 10
9.9785245705
 20
4.0706892773
 30
0.0
 10
9.8839338982
 20
4.0661602626
 30
0.0
 10
9.8356053078
 20
4.0661602626
 30
0.0
  0
SPLINE
  5
587
100
AcDbEntity
  8
0
100
AcDbSpline
 62
9
  6
CONTINUOUS
 70
0
 71
3
 72
26
 73
22
 74
0
 42
0.0000001
 43
0.0000001
 44
0.0000000001
 40
0.0
 40
0.0
 40
0.0
 40
0.0
 40
0.0002826153
 40
0.0011270132
 40
0.0025298828
 40
0.0044879143
 40
0.0100562332
 40
0.0178055284
 40
0.0277093861
 40
0.039741421
 40
0.0538752775
 40
0.0700846301
 40
0.1086246539
 40
0.1551515368
 40
0.2094558388
 40
0.2713286791
 40
0.3405338363
 40
0.4167247401
 40
0.5885783553
 40
0.7839582678
 40
1.0
 40
1.0
 40
1.0
 40
1.0
 10
9.2856081143
 20
9.5268508463
 30
0.0
 10
9.2856147408
 20
9.5268601683
 30
0.0
 10
9.2856569636
 20
9.5268820797
 30
0.0
 10
9.2857326812
 20
9.5269496433
 30
0.0
 10
9.285871424
 20
9.5270494819
 30
0.0
 10
9.2861574083
 20
9.527269706
 30
0.0
 10
9.2866520766
 20
9.527641001
 30
0.0
 10
9.2874022804
 20
9.5282067345
 30
0.0
 10
9.2883639342
 20
9.5289268618
 30
0.0
 10
9.2895338033
 20
9.5297998587
 30
0.0
 10
9.2909104779
 20
9.5308224385
 30
0.0
 10
9.2931518072
 20
9.532479988
 30
0.0
 10
9.2964554616
 20
9.5349057601
 30
0.0
 10
9.3010163727
 20
9.5382240117
 30
0.0
 10
9.3063583129
 20
9.5420736755
 30
0.0
 10
9.3124650583
 20
9.5464317101
 30
0.0
 10
9.3193161278
 20
9.5512714118
 30
0.0
 10
9.3298498575
 20
9.5586116639
 30
0.0
 10
9.3446961026
 20
9.5686938741
 30
0.0
 10
9.3644799391
 20
9.5815725971
 30
0.0
 10
9.3786410428
 20
9.5903334877
 30
0.0
 10
9.3861342147
 20
9.5948383189
 30
0.0
  0
SPLINE
  5
588
100
AcDbEntity
  8
0
100
AcDbSpline
 62
9
  6
CONTINUOUS
 70
0
 71
3
 72
17
 73
13
 74
0
 42
0.0000001
 43
0.0000001
 44
0.0000000001
 40
0.0
 40
0.0
 40
0.0
 40
0.0
 40
0.3572393457
 40
0.5217158391
 40
0.6682039623
 40
0.7923282472
 40
0.844719713
 40
0.8900458959
 40
0.9279735206
 40
0.958281401
 40
0.9813905894
 40
1.0
 40
1.0
 40
1.0
 40
1.0
 10
4.0270080417
 20
7.5583298878
 30
0.0
 10
4.0270700926
 20
7.5535725251
 30
0.0
 10
4.027249683
 20
7.5466263876
 30
0.0
 10
4.0273423079
 20
7.5377271008
 30
0.0
 10
4.0272784316
 20
7.5319326919
 30
0.0
 10
4.027226719
 20
7.5276311645
 30
0.0
 10
4.0272613108
 20
7.5246763193
 30
0.0
 10
4.0273395682
 20
7.5228716403
 30
0.0
 10
4.0274041914
 20
7.5213597584
 30
0.0
 10
4.0273776499
 20
7.5201437315
 30
0.0
 10
4.0272019916
 20
7.5191874152
 30
0.0
 10
4.0268439214
 20
7.5187171605
 30
0.0
 10
4.0266357445
 20
7.5185826671
 30
0.0
  0
SPLINE
  5
589
100
AcDbEntity
  8
0
100
AcDbSpline
 62
9
  6
CONTINUOUS
 70
0
 71
3
 72
16
 73
12
 74
0
 42
0.0000001
 43
0.0000001
 44
0.0000000001
 40
0.0
 40
0.0
 40
0.0
 40
0.0
 40
0.1251287886
 40
0.1877561467
 40
0.2502731498
 40
0.3131319466
 40
0.375892048
 40
0.501095433
 40
0.626019265
 40
0.7508778107
 40
1.0
 40
1.0
 40
1.0
 40
1.0
 10
4.0266357445
 20
7.5185826671
 30
0.0
 10
4.0244011028
 20
7.5186573586
 30
0.0
 10
4.0210353781
 20
7.5187759591
 30
0.0
 10
4.0166362125
 20
7.5196236922
 30
0.0
 10
4.013395497
 20
7.5205184181
 30
0.0
 10
4.0102304623
 20
7.5216642031
 30
0.0
 10
4.0061627629
 20
7.5235571184
 30
0.0
 10
4.0014011346
 20
7.5265379145
 30
0.0
 10
3.9963593668
 20
7.5310014645
 30
0.0
 10
3.9907578813
 20
7.5379763613
 30
0.0
 10
3.9879644277
 20
7.5442320411
 30
0.0
 10
3.9868538954
 20
7.5485427827
 30
0.0
  0
SPLINE
  5
58A
100
AcDbEntity
  8
0
100
AcDbSpline
 62
9
  6
CONTINUOUS
 70
0
 71
3
 72
9
 73
5
 74
0
 42
0.0000001
 43
0.0000001
 44
0.0000000001
 40
0.0
 40
0.0
 40
0.0
 40
0.0
 40
0.2513010848
 40
1.0
 40
1.0
 40
1.0
 40
1.0
 10
3.9868538954
 20
7.5485427827
 30
0.0
 10
3.9866474039
 20
7.5493443186
 30
0.0
 10
3.9859253649
 20
7.5525586213
 30
0.0
 10
3.9856053107
 20
7.5558639089
 30
0.0
 10
3.9856053078
 20
7.5583298878
 30
0.0
  0
SPLINE
  5
58B
100
AcDbEntity
  8
0
100
AcDbSpline
 62
9
  6
CONTINUOUS
 70
0
 71
3
 72
18
 73
14
 74
0
 42
0.0000001
 43
0.0000001
 44
0.0000000001
 40
0.0
 40
0.0
 40
0.0
 40
0.0
 40
0.1750265093
 40
0.35356718
 40
0.5250178716
 40
0.6787781883
 40
0.8057342314
 40
0.8580698695
 40
0.90269181
 40
0.9393889354
 40
0.9679557012
 40
0.9882020424
 40
1.0
 40
1.0
 40
1.0
 40
1.0
 10
6.4174315731
 20
7.6228820916
 30
0.0
 10
6.4174937914
 20
7.6205564917
 30
0.0
 10
6.4176027555
 20
7.6158581405
 30
0.0
 10
6.4177211488
 20
7.6088806271
 30
0.0
 10
6.4177894156
 20
7.6021850946
 30
0.0
 10
6.4177995617
 20
7.5961748822
 30
0.0
 10
6.4177491247
 20
7.5917480013
 30
0.0
 10
6.4176709295
 20
7.5887728276
 30
0.0
 10
6.4176035254
 20
7.5869973405
 30
0.0
 10
6.4175240417
 20
7.5855393513
 30
0.0
 10
6.4174390717
 20
7.5844045101
 30
0.0
 10
6.4173422305
 20
7.5836070645
 30
0.0
 10
6.4172695013
 20
7.5831830704
 30
0.0
 10
6.4172124811
 20
7.5830369872
 30
0.0
  0
SPLINE
  5
58C
100
AcDbEntity
  8
0
100
AcDbSpline
 62
9
  6
CONTINUOUS
 70
0
 71
3
 72
9
 73
5
 74
0
 42
0.0000001
 43
0.0000001
 44
0.0000000001
 40
0.0
 40
0.0
 40
0.0
 40
0.0
 40
0.5000069506
 40
1.0
 40
1.0
 40
1.0
 40
1.0
 10
6.4198775423
 20
7.8908406363
 30
0.0
 10
6.4277856937
 20
7.8908357068
 30
0.0
 10
6.4436492899
 20
7.892538097
 30
0.0
 10
6.4587736321
 20
7.8976456157
 30
0.0
 10
6.4659339467
 20
7.9010019979
 30
0.0
  0
SPLINE
  5
58D
100
AcDbEntity
  8
0
100
AcDbSpline
 62
9
  6
CONTINUOUS
 70
0
 71
3
 72
12
 73
8
 74
0
 42
0.0000001
 43
0.0000001
 44
0.0000000001
 40
0.0
 40
0.0
 40
0.0
 40
0.0
 40
0.055058519
 40
0.1354948756
 40
0.3661051602
 40
0.6713221874
 40
1.0
 40
1.0
 40
1.0
 40
1.0
 10
6.4485260657
 20
7.9359632874
 30
0.0
 10
6.4488999754
 20
7.9353515777
 30
0.0
 10
6.4497673315
 20
7.9338144118
 30
0.0
 10
6.4520207094
 20
7.9296135703
 30
0.0
 10
6.4556454592
 20
7.9224530254
 30
0.0
 10
6.4605770105
 20
7.9123337746
 30
0.0
 10
6.4641187359
 20
7.9048778122
 30
0.0
 10
6.4659337431
 20
7.9010019033
 30
0.0
  0
SPLINE
  5
58E
100
AcDbEntity
  8
0
100
AcDbSpline
 62
9
  6
CONTINUOUS
 70
0
 71
3
 72
18
 73
14
 74
0
 42
0.0000001
 43
0.0000001
 44
0.0000000001
 40
0.0
 40
0.0
 40
0.0
 40
0.0
 40
0.0117963746
 40
0.0320438767
 40
0.0606141939
 40
0.0973168718
 40
0.141945974
 40
0.194289991
 40
0.3212648793
 40
0.4750428343
 40
0.6464998793
 40
0.8250241411
 40
1.0
 40
1.0
 40
1.0
 40
1.0
 10
6.4186126858
 20
7.9307030839
 30
0.0
 10
6.4186735868
 20
7.9305584412
 30
0.0
 10
6.4187574768
 20
7.9301361076
 30
0.0
 10
6.4188753193
 20
7.9293407065
 30
0.0
 10
6.4189901339
 20
7.9282072988
 30
0.0
 10
6.4191079503
 20
7.9267503362
 30
0.0
 10
6.4192220119
 20
7.9249753085
 30
0.0
 10
6.4193783639
 20
7.9220000058
 30
0.0
 10
6.4195450331
 20
7.9175712855
 30
0.0
 10
6.4196926052
 20
7.9115567521
 30
0.0
 10
6.4197999798
 20
7.9048554448
 30
0.0
 10
6.4198645722
 20
7.8978715862
 30
0.0
 10
6.4198787917
 20
7.8931685435
 30
0.0
 10
6.4198775341
 20
7.8908406363
 30
0.0
  0
SPLINE
  5
58F
100
AcDbEntity
  8
0
100
AcDbSpline
 62
7
  6
CONTINUOUS
 70
0
 71
3
 72
11
 73
7
 74
0
 42
0.0000001
 43
0.0000001
 44
0.0000000001
 40
0.0
 40
0.0
 40
0.0
 40
0.0
 40
0.204283686
 40
0.4437045064
 40
0.7107811273
 40
1.0
 40
1.0
 40
1.0
 40
1.0
 10
12.3447911961
 20
9.7188296372
 30
0.0
 10
12.3499733856
 20
9.7290686973
 30
0.0
 10
12.361481202
 20
9.7511803684
 30
0.0
 10
12.3804133878
 20
9.786335967
 30
0.0
 10
12.4019341403
 20
9.8255145266
 30
0.0
 10
12.4170472721
 20
9.8528672588
 30
0.0
 10
12.4249121627
 20
9.8670838242
 30
0.0
  0
SPLINE
  5
590
100
AcDbEntity
  8
0
100
AcDbSpline
 62
9
  6
CONTINUOUS
 70
0
 71
3
 72
9
 73
5
 74
0
 42
0.0000001
 43
0.0000001
 44
0.0000000001
 40
0.0
 40
0.0
 40
0.0
 40
0.0
 40
0.2499885858
 40
1.0
 40
1.0
 40
1.0
 40
1.0
 10
6.4186126772
 20
7.930703084
 30
0.0
 10
6.2192184876
 20
7.9308005345
 30
0.0
 10
5.4216055487
 20
7.9314773068
 30
0.0
 10
4.6239924145
 20
7.9325491945
 30
0.0
 10
4.0257734074
 20
7.9323057005
 30
0.0
  0
SPLINE
  5
591
100
AcDbEntity
  8
0
100
AcDbSpline
 62
9
  6
CONTINUOUS
 70
0
 71
3
 72
11
 73
7
 74
0
 42
0.0000001
 43
0.0000001
 44
0.0000000001
 40
0.0
 40
0.0
 40
0.0
 40
0.0
 40
0.2487062426
 40
0.4990911403
 40
0.7491345304
 40
1.0
 40
1.0
 40
1.0
 40
1.0
 10
3.9856053078
 20
7.8926615886
 30
0.0
 10
3.985605288
 20
7.8965870669
 30
0.0
 10
3.9868243971
 20
7.9045096866
 30
0.0
 10
3.9920366801
 20
7.9153165983
 30
0.0
 10
4.0002669637
 20
7.9240928961
 30
0.0
 10
4.0072354135
 20
7.9281054041
 30
0.0
 10
4.0109209443
 20
7.9295528044
 30
0.0
  0
SPLINE
  5
592
100
AcDbEntity
  8
0
100
AcDbSpline
 62
9
  6
CONTINUOUS
 70
0
 71
3
 72
11
 73
7
 74
0
 42
0.0000001
 43
0.0000001
 44
0.0000000001
 40
0.0
 40
0.0
 40
0.0
 40
0.0
 40
0.2500455478
 40
0.5003680685
 40
0.7503287215
 40
1.0
 40
1.0
 40
1.0
 40
1.0
 10
4.0109209443
 20
7.9295528044
 30
0.0
 10
4.0120997718
 20
7.9300157594
 30
0.0
 10
4.014505264
 20
7.9308272452
 30
0.0
 10
4.0182052525
 20
7.9317160593
 30
0.0
 10
4.0219749739
 20
7.9322403693
 30
0.0
 10
4.0245087963
 20
7.9323111724
 30
0.0
 10
4.0257733657
 20
7.9323058925
 30
0.0
  0
SPLINE
  5
593
100
AcDbEntity
  8
0
100
AcDbSpline
 62
9
  6
CONTINUOUS
 70
0
 71
3
 72
15
 73
11
 74
0
 42
0.0000001
 43
0.0000001
 44
0.0000000001
 40
0.0
 40
0.0
 40
0.0
 40
0.0
 40
0.0163451649
 40
0.040599816
 40
0.1118005022
 40
0.2113700549
 40
0.336320549
 40
0.4826133073
 40
0.645984254
 40
1.0
 40
1.0
 40
1.0
 40
1.0
 10
4.0257733657
 20
7.9323058925
 30
0.0
 10
4.0258280977
 20
7.9320967048
 30
0.0
 10
4.0259211792
 20
7.9315666368
 30
0.0
 10
4.0261082542
 20
7.9300998198
 30
0.0
 10
4.0263100135
 20
7.9275261859
 30
0.0
 10
4.0265082833
 20
7.9236193131
 30
0.0
 10
4.0266605356
 20
7.91871585
 30
0.0
 10
4.0267861684
 20
7.9129677771
 30
0.0
 10
4.0269371189
 20
7.9041892823
 30
0.0
 10
4.0270057618
 20
7.8973448425
 30
0.0
 10
4.02700794
 20
7.8926615886
 30
0.0
  0
SPLINE
  5
594
100
AcDbEntity
  8
0
100
AcDbSpline
 62
9
  6
CONTINUOUS
 70
0
 71
3
 72
9
 73
5
 74
0
 42
0.0000001
 43
0.0000001
 44
0.0000000001
 40
0.0
 40
0.0
 40
0.0
 40
0.0
 40
0.5000167802
 40
1.0
 40
1.0
 40
1.0
 40
1.0
 10
6.4174315823
 20
7.6228820919
 30
0.0
 10
6.4257348757
 20
7.6231043138
 30
0.0
 10
6.442445267
 20
7.6216689379
 30
0.0
 10
6.4583997651
 20
7.6164582395
 30
0.0
 10
6.4659339467
 20
7.6129623976
 30
0.0
  0
SPLINE
  5
595
100
AcDbEntity
  8
0
100
AcDbSpline
 62
9
  6
CONTINUOUS
 70
0
 71
3
 72
12
 73
8
 74
0
 42
0.0000001
 43
0.0000001
 44
0.0000000001
 40
0.0
 40
0.0
 40
0.0
 40
0.0
 40
0.3275366861
 40
0.6317846553
 40
0.8626792366
 40
0.9438306048
 40
1.0
 40
1.0
 40
1.0
 40
1.0
 10
6.4659334498
 20
7.6129626247
 30
0.0
 10
6.4641456835
 20
7.6091055272
 30
0.0
 10
6.4606564125
 20
7.6016844012
 30
0.0
 10
6.4557915531
 20
7.591599293
 30
0.0
 10
6.4522078369
 20
7.5844465963
 30
0.0
 10
6.4499691145
 20
7.5802241993
 30
0.0
 10
6.4491013487
 20
7.5786666756
 30
0.0
 10
6.4487260985
 20
7.5780416121
 30
0.0
  0
SPLINE
  5
596
100
AcDbEntity
  8
0
100
AcDbSpline
 62
9
  6
CONTINUOUS
 70
0
 71
3
 72
10
 73
6
 74
0
 42
0.0000001
 43
0.0000001
 44
0.0000000001
 40
0.0
 40
0.0
 40
0.0
 40
0.0
 40
0.5150028711
 40
0.7623971443
 40
1.0
 40
1.0
 40
1.0
 40
1.0
 10
6.4487262024
 20
7.5780415095
 30
0.0
 10
6.4567715532
 20
7.5749467973
 30
0.0
 10
6.4682700158
 20
7.5692618822
 30
0.0
 10
6.482542331
 20
7.5605200342
 30
0.0
 10
6.4892842135
 20
7.5559919189
 30
0.0
 10
6.4925400466
 20
7.5537081221
 30
0.0
  0
SPLINE
  5
597
100
AcDbEntity
  8
0
100
AcDbSpline
 62
9
  6
CONTINUOUS
 70
0
 71
3
 72
11
 73
7
 74
0
 42
0.0000001
 43
0.0000001
 44
0.0000000001
 40
0.0
 40
0.0
 40
0.0
 40
0.0
 40
0.3357761019
 40
0.616870209
 40
0.839147504
 40
1.0
 40
1.0
 40
1.0
 40
1.0
 10
6.5123151852
 20
7.5385016598
 30
0.0
 10
6.5046735902
 20
7.5367113253
 30
0.0
 10
6.4906369097
 20
7.5334136224
 30
0.0
 10
6.4715586959
 20
7.5288573889
 30
0.0
 10
6.4564890953
 20
7.5251220973
 30
0.0
 10
6.4478265029
 20
7.5228461671
 30
0.0
 10
6.4442100623
 20
7.5218178077
 30
0.0
  0
SPLINE
  5
598
100
AcDbEntity
  8
0
100
AcDbSpline
 62
9
  6
CONTINUOUS
 70
0
 71
3
 72
14
 73
10
 74
0
 42
0.0000001
 43
0.0000001
 44
0.0000000001
 40
0.0
 40
0.0
 40
0.0
 40
0.0
 40
0.423662923
 40
0.591782834
 40
0.7306955359
 40
0.8404151492
 40
0.9210910625
 40
0.9733095701
 40
1.0
 40
1.0
 40
1.0
 40
1.0
 10
6.4442100623
 20
7.5218178077
 30
0.0
 10
6.4429552027
 20
7.5214609799
 30
0.0
 10
6.4412054693
 20
7.5209495114
 30
0.0
 10
6.4390628886
 20
7.5202646999
 30
0.0
 10
6.437848235
 20
7.5198446258
 30
0.0
 10
6.4369048664
 20
7.5194848676
 30
0.0
 10
6.4362140163
 20
7.5191702732
 30
0.0
 10
6.435805433
 20
7.5189385581
 30
0.0
 10
6.4356053074
 20
7.5187417257
 30
0.0
 10
6.4356053078
 20
7.5186595365
 30
0.0
  0
SPLINE
  5
599
100
AcDbEntity
  8
0
100
AcDbSpline
 62
9
  6
CONTINUOUS
 70
0
 71
3
 72
9
 73
5
 74
0
 42
0.0000001
 43
0.0000001
 44
0.0000000001
 40
0.0
 40
0.0
 40
0.0
 40
0.0
 40
0.2512248725
 40
1.0
 40
1.0
 40
1.0
 40
1.0
 10
6.4172125006
 20
7.583036476
 30
0.0
 10
6.4198920902
 20
7.5831600429
 30
0.0
 10
6.4305740191
 20
7.5831139825
 30
0.0
 10
6.4412640306
 20
7.580910729
 30
0.0
 10
6.4487264127
 20
7.5780414366
 30
0.0
  0
SPLINE
  5
59A
100
AcDbEntity
  8
0
100
AcDbSpline
 62
9
  6
CONTINUOUS
 70
0
 71
3
 72
14
 73
10
 74
0
 42
0.0000001
 43
0.0000001
 44
0.0000000001
 40
0.0
 40
0.0
 40
0.0
 40
0.0
 40
0.1293448821
 40
0.2582812339
 40
0.3857958445
 40
0.5116550219
 40
0.636082808
 40
0.7589572757
 40
1.0
 40
1.0
 40
1.0
 40
1.0
 10
6.4659339467
 20
7.6129623976
 30
0.0
 10
6.468637702
 20
7.6105991413
 30
0.0
 10
6.4738532679
 20
7.605665686
 30
0.0
 10
6.481039492
 20
7.5977079626
 30
0.0
 10
6.4874707394
 20
7.5892479281
 30
0.0
 10
6.4931329041
 20
7.580407907
 30
0.0
 10
6.4981712939
 20
7.5713499813
 30
0.0
 10
6.5042482846
 20
7.5592289295
 30
0.0
 10
6.5082296199
 20
7.5499218241
 30
0.0
 10
6.5105256253
 20
7.5436359611
 30
0.0
  0
SPLINE
  5
59B
100
AcDbEntity
  8
0
100
AcDbSpline
 62
9
  6
CONTINUOUS
 70
0
 71
3
 72
9
 73
5
 74
0
 42
0.0000001
 43
0.0000001
 44
0.0000000001
 40
0.0
 40
0.0
 40
0.0
 40
0.0
 40
0.2500143314
 40
1.0
 40
1.0
 40
1.0
 40
1.0
 10
4.0268135107
 20
7.5187036717
 30
0.0
 10
4.2260304962
 20
7.5238511557
 30
0.0
 10
5.0228407961
 20
7.5449033048
 30
0.0
 10
5.8196212485
 20
7.5670607281
 30
0.0
 10
6.4172124638
 20
7.5830369868
 30
0.0
  0
LINE
  5
59C
100
AcDbEntity
  8
0
100
AcDbLine
 62
9
  6
CONTINUOUS
 10
6.4172124711
 20
7.58303698
 11
6.3789668239
 21
7.5745189327
  0
SPLINE
  5
59D
100
AcDbEntity
  8
0
100
AcDbSpline
 62
9
  6
CONTINUOUS
 70
0
 71
3
 72
10
 73
6
 74
0
 42
0.0000001
 43
0.0000001
 44
0.0000000001
 40
0.0
 40
0.0
 40
0.0
 40
0.0
 40
0.5606262019
 40
0.795605477
 40
1.0
 40
1.0
 40
1.0
 40
1.0
 10
9.3608233767
 20
10.8477452558
 30
0.0
 10
9.368404368
 20
10.8574441511
 30
0.0
 10
9.3798173208
 20
10.8707441885
 30
0.0
 10
9.3957380566
 20
10.8858850992
 30
0.0
 10
9.4032286192
 20
10.8919894941
 30
0.0
 10
9.4068518466
 20
10.8946380757
 30
0.0
  0
SPLINE
  5
59E
100
AcDbEntity
  8
0
100
AcDbSpline
 62
9
  6
CONTINUOUS
 70
0
 71
3
 72
15
 73
11
 74
0
 42
0.0000001
 43
0.0000001
 44
0.0000000001
 40
0.0
 40
0.0
 40
0.0
 40
0.0
 40
0.1056170923
 40
0.2182002268
 40
0.336884922
 40
0.4611410944
 40
0.590594674
 40
0.7243144562
 40
0.8613343257
 40
1.0
 40
1.0
 40
1.0
 40
1.0
 10
9.386130837
 20
9.5948503201
 30
0.0
 10
9.3983008139
 20
9.5818405831
 30
0.0
 10
9.4245782738
 20
9.5560023249
 30
0.0
 10
9.4683341229
 20
9.5196441128
 30
0.0
 10
9.5177520825
 20
9.4855233143
 30
0.0
 10
9.5727128093
 20
9.4548992392
 30
0.0
 10
9.6328776473
 20
9.4290836774
 30
0.0
 10
9.6975748102
 20
9.4093162938
 30
0.0
 10
9.7656730974
 20
9.3969802549
 30
0.0
 10
9.8122163417
 20
9.3940900827
 30
0.0
 10
9.835605357
 20
9.394085778
 30
0.0
  0
SPLINE
  5
59F
100
AcDbEntity
  8
0
100
AcDbSpline
 62
7
  6
CONTINUOUS
 70
0
 71
3
 72
12
 73
8
 74
0
 42
0.0000001
 43
0.0000001
 44
0.0000000001
 40
0.0
 40
0.0
 40
0.0
 40
0.0
 40
0.0546653645
 40
0.222940888
 40
0.5206883276
 40
0.7307189423
 40
1.0
 40
1.0
 40
1.0
 40
1.0
 10
12.3252596178
 20
10.9140214001
 30
0.0
 10
12.325600598
 20
10.9137637649
 30
0.0
 10
12.3269851981
 20
10.9127053212
 30
0.0
 10
12.3301622834
 20
10.9101606074
 30
0.0
 10
12.3341382079
 20
10.9066676679
 30
0.0
 10
12.3383708482
 20
10.9023111629
 30
0.0
 10
12.3408179892
 20
10.899453927
 30
0.0
 10
12.3420143019
 20
10.8977218272
 30
0.0
  0
LINE
  5
5A0
100
AcDbEntity
  8
0
100
AcDbLine
 62
7
  6
CONTINUOUS
 10
12.3420143019
 20
10.8977218272
 11
12.344808273
 21
10.8929482745
  0
SPLINE
  5
5A1
100
AcDbEntity
  8
0
100
AcDbSpline
 62
7
  6
CONTINUOUS
 70
0
 71
3
 72
10
 73
6
 74
0
 42
0.0000001
 43
0.0000001
 44
0.0000000001
 40
0.0
 40
0.0
 40
0.0
 40
0.0
 40
0.4438971152
 40
0.710855876
 40
1.0
 40
1.0
 40
1.0
 40
1.0
 10
12.344808294
 20
10.8929481301
 30
0.0
 10
12.3560575129
 20
10.8706834937
 30
0.0
 10
12.3748583167
 20
10.8354281516
 30
0.0
 10
12.4019332263
 20
10.7861863144
 30
0.0
 10
12.4170394261
 20
10.7588290356
 30
0.0
 10
12.4249045834
 20
10.7446107957
 30
0.0
  0
SPLINE
  5
5A2
100
AcDbEntity
  8
0
100
AcDbSpline
 62
9
  6
CONTINUOUS
 70
0
 71
3
 72
11
 73
7
 74
0
 42
0.0000001
 43
0.0000001
 44
0.0000000001
 40
0.0
 40
0.0
 40
0.0
 40
0.0
 40
0.2437510407
 40
0.4858183994
 40
0.7347633148
 40
1.0
 40
1.0
 40
1.0
 40
1.0
 10
6.5512016383
 20
10.6970241407
 30
0.0
 10
6.5614998926
 20
10.6970200251
 30
0.0
 10
6.5820923409
 20
10.6950757334
 30
0.0
 10
6.6119478462
 20
10.6857812275
 30
0.0
 10
6.6399632328
 20
10.6699541724
 30
0.0
 10
6.6564781923
 20
10.6556099711
 30
0.0
 10
6.6642875515
 20
10.6475732786
 30
0.0
  0
SPLINE
  5
5A3
100
AcDbEntity
  8
0
100
AcDbSpline
 62
9
  6
CONTINUOUS
 70
0
 71
3
 72
15
 73
11
 74
0
 42
0.0000001
 43
0.0000001
 44
0.0000000001
 40
0.0
 40
0.0
 40
0.0
 40
0.0
 40
0.1386696639
 40
0.2756941711
 40
0.409414794
 40
0.5388670281
 40
0.6631219186
 40
0.7818052396
 40
0.8943862843
 40
1.0
 40
1.0
 40
1.0
 40
1.0
 10
9.8356053562
 20
9.3940861529
 30
0.0
 10
9.8589946031
 20
9.3940905967
 30
0.0
 10
9.9055383932
 20
9.3969810642
 30
0.0
 10
9.9736370102
 20
9.4093168813
 30
0.0
 10
10.0383336575
 20
9.4290840358
 30
0.0
 10
10.098496969
 20
9.4548992573
 30
0.0
 10
10.1534560634
 20
9.4855224063
 30
0.0
 10
10.2028726295
 20
9.5196418006
 30
0.0
 10
10.2466271625
 20
9.5559980985
 30
0.0
 10
10.2729038346
 20
9.5818348477
 30
0.0
 10
10.2850733698
 20
9.5948437578
 30
0.0
  0
SPLINE
  5
5A4
100
AcDbEntity
  8
0
100
AcDbSpline
 62
9
  6
CONTINUOUS
 70
0
 71
3
 72
11
 73
7
 74
0
 42
0.0000001
 43
0.0000001
 44
0.0000000001
 40
0.0
 40
0.0
 40
0.0
 40
0.0
 40
0.2652467902
 40
0.514194447
 40
0.7562724308
 40
1.0
 40
1.0
 40
1.0
 40
1.0
 10
6.664311509
 20
9.9641421731
 30
0.0
 10
6.6565014214
 20
9.9561013119
 30
0.0
 10
6.6399835135
 20
9.9417502135
 30
0.0
 10
6.6119612621
 20
9.9259157372
 30
0.0
 10
6.5821000479
 20
9.9166123234
 30
0.0
 10
6.5615017233
 20
9.9146678158
 30
0.0
 10
6.5512016383
 20
9.9146671392
 30
0.0
  0
SPLINE
  5
5A5
100
AcDbEntity
  8
0
100
AcDbSpline
 62
9
  6
CONTINUOUS
 70
0
 71
3
 72
51
 73
47
 74
0
 42
0.0000001
 43
0.0000001
 44
0.0000000001
 40
0.0
 40
0.0
 40
0.0
 40
0.0
 40
0.0215208354
 40
0.0443539551
 40
0.0685048577
 40
0.0940614661
 40
0.1211318821
 40
0.1497252657
 40
0.1797978812
 40
0.2112834186
 40
0.2440823271
 40
0.2780758106
 40
0.3131393075
 40
0.3491484482
 40
0.3859736678
 40
0.4046242381
 40
0.4234124787
 40
0.4423957676
 40
0.4616122925
 40
0.4712312936
 40
0.4808314553
 40
0.4904382291
 40
0.5000861591
 40
0.5097624675
 40
0.519434285
 40
0.5290607514
 40
0.5386440515
 40
0.5577520161
 40
0.5767177247
 40
0.595516299
 40
0.6141734625
 40
0.6326683612
 40
0.6509749833
 40
0.6869671308
 40
0.7220218381
 40
0.756001554
 40
0.7887872597
 40
0.8202607553
 40
0.8503223686
 40
0.8789033399
 40
0.9059619682
 40
0.9314970039
 40
0.9437239836
 40
0.9556168777
 40
0.9784376536
 40
1.0
 40
1.0
 40
1.0
 40
1.0
 10
6.5512016383
 20
10.6970241407
 30
0.0
 10
6.5423576321
 20
10.6967028954
 30
0.0
 10
6.5241536871
 20
10.6950252079
 30
0.0
 10
6.4964929882
 20
10.6894144547
 30
0.0
 10
6.4680346112
 20
10.6802563994
 30
0.0
 10
6.439184242
 20
10.667302892
 30
0.0
 10
6.4099520373
 20
10.6510890946
 30
0.0
 10
6.3802625806
 20
10.6320365679
 30
0.0
 10
6.3502108189
 20
10.610298871
 30
0.0
 10
6.3199356177
 20
10.586007613
 30
0.0
 10
6.2895257659
 20
10.5593724209
 30
0.0
 10
6.2591065073
 20
10.5305652778
 30
0.0
 10
6.2288498625
 20
10.499707307
 30
0.0
 10
6.1990856506
 20
10.4667870057
 30
0.0
 10
6.1751506672
 20
10.4377309248
 30
0.0
 10
6.1570069921
 20
10.4131579575
 30
0.0
 10
6.1440426485
 20
10.3939008035
 30
0.0
 10
6.1322662702
 20
10.3736197492
 30
0.0
 10
6.1238641309
 20
10.355790064
 30
0.0
 10
6.1186319218
 20
10.3408598196
 30
0.0
 10
6.1156587741
 20
10.3293674436
 30
0.0
 10
6.113853974
 20
10.3176165052
 30
0.0
 10
6.1133415355
 20
10.3057080722
 30
0.0
 10
6.1140257647
 20
10.2937852812
 30
0.0
 10
6.1158466917
 20
10.2819918918
 30
0.0
 10
6.1187621158
 20
10.2704611567
 30
0.0
 10
6.1239460968
 20
10.2555634563
 30
0.0
 10
6.1323732108
 20
10.2378156464
 30
0.0
 10
6.1441919751
 20
10.2176174964
 30
0.0
 10
6.1571243491
 20
10.1983398435
 30
0.0
 10
6.1708163393
 20
10.1798419887
 30
0.0
 10
6.1850256928
 20
10.1619990853
 30
0.0
 10
6.2043126817
 20
10.1391026461
 30
0.0
 10
6.2289854034
 20
10.1118567771
 30
0.0
 10
6.2592253612
 20
10.0810074774
 30
0.0
 10
6.2896369801
 20
10.0522127813
 30
0.0
 10
6.3200462864
 20
10.025601285
 30
0.0
 10
6.3503113892
 20
10.0013223844
 30
0.0
 10
6.3803341426
 20
9.979568729
 30
0.0
 10
6.4100450888
 20
9.9605724508
 30
0.0
 10
6.4392930814
 20
9.9444323491
 30
0.0
 10
6.463618373
 20
9.9334293644
 30
0.0
 10
6.4828440321
 20
9.9265187115
 30
0.0
 10
6.5013735097
 20
9.9210739445
 30
0.0
 10
6.5241099667
 20
9.9164837517
 30
0.0
 10
6.5423383034
 20
9.9149188683
 30
0.0
 10
6.5512016383
 20
9.9146671392
 30
0.0
  0
SPLINE
  5
5A6
100
AcDbEntity
  8
0
100
AcDbSpline
 62
9
  6
CONTINUOUS
 70
0
 71
3
 72
41
 73
37
 74
0
 42
0.0000001
 43
0.0000001
 44
0.0000000001
 40
0.0
 40
0.0
 40
0.0
 40
0.0
 40
0.0490053888
 40
0.0751467844
 40
0.1024654238
 40
0.1606422128
 40
0.223342447
 40
0.2562104262
 40
0.2899530591
 40
0.3244500984
 40
0.3595435622
 40
0.3950533491
 40
0.4128819142
 40
0.4306931527
 40
0.448416476
 40
0.4659361956
 40
0.4746314314
 40
0.4832258776
 40
0.4999995792
 40
0.5167733311
 40
0.5253678209
 40
0.5340630933
 40
0.5515828302
 40
0.5693061663
 40
0.5871175235
 40
0.6049462017
 40
0.6404558275
 40
0.6755492361
 40
0.710046422
 40
0.7437892264
 40
0.7766572471
 40
0.8393570642
 40
0.8975334736
 40
0.9248518496
 40
0.9509931333
 40
1.0
 40
1.0
 40
1.0
 40
1.0
 10
6.6239849541
 20
10.6458455123
 30
0.0
 10
6.6034779617
 20
10.6458448465
 30
0.0
 10
6.5719716781
 20
10.6419445683
 30
0.0
 10
6.5304777907
 20
10.6310794379
 30
0.0
 10
6.4862997864
 20
10.6157419315
 30
0.0
 10
6.4299633843
 20
10.5894534553
 30
0.0
 10
6.3745632475
 20
10.5565899874
 30
0.0
 10
6.3296838768
 20
10.5263413452
 30
0.0
 10
6.2954818206
 20
10.5014190159
 30
0.0
 10
6.2614252205
 20
10.4747582636
 30
0.0
 10
6.2278704886
 20
10.4463103239
 30
0.0
 10
6.2007059071
 20
10.4211499302
 30
0.0
 10
6.1799177678
 20
10.3998243148
 30
0.0
 10
6.1650672564
 20
10.3831361469
 30
0.0
 10
6.1512611415
 20
10.365725514
 30
0.0
 10
6.1414117745
 20
10.350125975
 30
0.0
 10
6.1351742413
 20
10.3369376573
 30
0.0
 10
6.1303512362
 20
10.3235141651
 30
0.0
 10
6.1273528199
 20
10.3058461901
 30
0.0
 10
6.1303512077
 20
10.2881782009
 30
0.0
 10
6.1351741144
 20
10.274754618
 30
0.0
 10
6.1414114819
 20
10.2615661801
 30
0.0
 10
6.1512605066
 20
10.2459663961
 30
0.0
 10
6.1650664146
 20
10.2285555031
 30
0.0
 10
6.179917167
 20
10.2118674043
 30
0.0
 10
6.200705584
 20
10.1905420275
 30
0.0
 10
6.2278697545
 20
10.1653812677
 30
0.0
 10
6.2614244992
 20
10.1369333682
 30
0.0
 10
6.2954813304
 20
10.1102727371
 30
0.0
 10
6.3296835008
 20
10.0853503132
 30
0.0
 10
6.3745627123
 20
10.0551015876
 30
0.0
 10
6.4299625762
 20
10.0222382676
 30
0.0
 10
6.486298543
 20
9.9959499389
 30
0.0
 10
6.530476149
 20
9.9806122631
 30
0.0
 10
6.5719704367
 20
9.9697467979
 30
0.0
 10
6.6034773101
 20
9.9658465845
 30
0.0
 10
6.6239849209
 20
9.9658458441
 30
0.0
  0
SPLINE
  5
5A7
100
AcDbEntity
  8
0
100
AcDbSpline
 62
7
  6
CONTINUOUS
 70
0
 71
3
 72
10
 73
6
 74
0
 42
0.0000001
 43
0.0000001
 44
0.0000000001
 40
0.0
 40
0.0
 40
0.0
 40
0.0
 40
0.2963347025
 40
0.6265042467
 40
1.0
 40
1.0
 40
1.0
 40
1.0
 10
7.7980318028
 20
9.8766426188
 30
0.0
 10
7.7946768261
 20
9.8777547276
 30
0.0
 10
7.7875473264
 20
9.8799986174
 30
0.0
 10
7.7760238091
 20
9.8830941445
 30
0.0
 10
7.7678255898
 20
9.8848967164
 30
0.0
 10
7.7634870037
 20
9.8859077183
 30
0.0
  0
SPLINE
  5
5A8
100
AcDbEntity
  8
0
100
AcDbSpline
 62
7
  6
CONTINUOUS
 70
0
 71
3
 72
10
 73
6
 74
0
 42
0.0000001
 43
0.0000001
 44
0.0000000001
 40
0.0
 40
0.0
 40
0.0
 40
0.0
 40
0.3734954852
 40
0.7036664313
 40
1.0
 40
1.0
 40
1.0
 40
1.0
 10
7.7634870042
 20
10.7257835613
 30
0.0
 10
7.7678255872
 20
10.7267945625
 30
0.0
 10
7.7760238195
 20
10.7285971372
 30
0.0
 10
7.787547336
 20
10.7316926668
 30
0.0
 10
7.794676839
 20
10.7339365565
 30
0.0
 10
7.7980318028
 20
10.735048661
 30
0.0
  0
SPLINE
  5
5A9
100
AcDbEntity
  8
0
100
AcDbSpline
 62
9
  6
CONTINUOUS
 70
0
 71
3
 72
11
 73
7
 74
0
 42
0.0000001
 43
0.0000001
 44
0.0000000001
 40
0.0
 40
0.0
 40
0.0
 40
0.0
 40
0.2730217477
 40
0.5269304633
 40
0.767881608
 40
1.0
 40
1.0
 40
1.0
 40
1.0
 10
8.9201355426
 20
4.1835966355
 30
0.0
 10
8.9201770552
 20
4.1782926658
 30
0.0
 10
8.9207236656
 20
4.1680523265
 30
0.0
 10
8.9228768025
 20
4.1532731774
 30
0.0
 10
8.9259891289
 20
4.1394858649
 30
0.0
 10
8.9285714816
 20
4.1306589721
 30
0.0
 10
8.929967367
 20
4.1263709736
 30
0.0
  0
SPLINE
  5
5AA
100
AcDbEntity
  8
0
100
AcDbSpline
 62
9
  6
CONTINUOUS
 70
0
 71
3
 72
23
 73
19
 74
0
 42
0.0000001
 43
0.0000001
 44
0.0000000001
 40
0.0
 40
0.0
 40
0.0
 40
0.0
 40
0.0157807964
 40
0.0311499217
 40
0.0610409807
 40
0.0757168961
 40
0.0902807151
 40
0.1191851351
 40
0.1766244606
 40
0.2053772159
 40
0.2342221685
 40
0.2923262428
 40
0.3511557463
 40
0.4713965001
 40
0.5957385748
 40
0.724756528
 40
0.8591477307
 40
1.0
 40
1.0
 40
1.0
 40
1.0
 10
8.929967367
 20
4.1263709736
 30
0.0
 10
8.9316702057
 20
4.1211400499
 30
0.0
 10
8.9354090213
 20
4.1109344286
 30
0.0
 10
8.9439577781
 20
4.0914379443
 30
0.0
 10
8.9539919816
 20
4.0730580692
 30
0.0
 10
8.9651411856
 20
4.0557166379
 30
0.0
 10
8.9767793729
 20
4.0391156088
 30
0.0
 10
8.9985736095
 20
4.01146918
 30
0.0
 10
9.0264582392
 20
3.9824716616
 30
0.0
 10
9.056389185
 20
3.9557712517
 30
0.0
 10
9.0876927177
 20
3.9303167257
 30
0.0
 10
9.1291628181
 20
3.9008409673
 30
0.0
 10
9.1999394553
 20
3.8579982421
 30
0.0
 10
9.2956309832
 20
3.8122672331
 30
0.0
 10
9.4189175719
 20
3.7695819637
 30
0.0
 10
9.5506844639
 20
3.7384796944
 30
0.0
 10
9.6904893309
 20
3.7192545697
 30
0.0
 10
9.7865048725
 20
3.7150737656
 30
0.0
 10
9.8356053076
 20
3.7150737656
 30
0.0
  0
SPLINE
  5
5AB
100
AcDbEntity
  8
0
100
AcDbSpline
 62
9
  6
CONTINUOUS
 70
0
 71
3
 72
11
 73
7
 74
0
 42
0.0000001
 43
0.0000001
 44
0.0000000001
 40
0.0
 40
0.0
 40
0.0
 40
0.0
 40
0.2740546942
 40
0.5284280602
 40
0.7689761481
 40
1.0
 40
1.0
 40
1.0
 40
1.0
 10
10.7745479928
 20
3.7676208436
 30
0.0
 10
10.7745220222
 20
3.7626762539
 30
0.0
 10
10.774049105
 20
3.7531378007
 30
0.0
 10
10.7721137843
 20
3.7393825565
 30
0.0
 10
10.7692578852
 20
3.7265886731
 30
0.0
 10
10.7668728904
 20
3.7184150015
 30
0.0
 10
10.7655816373
 20
3.7144517782
 30
0.0
  0
SPLINE
  5
5AC
100
AcDbEntity
  8
0
100
AcDbSpline
 62
9
  6
CONTINUOUS
 70
0
 71
3
 72
23
 73
19
 74
0
 42
0.0000001
 43
0.0000001
 44
0.0000000001
 40
0.0
 40
0.0
 40
0.0
 40
0.0
 40
0.0308762762
 40
0.0603025376
 40
0.0889692283
 40
0.1172633522
 40
0.1453933952
 40
0.1734961027
 40
0.2016628995
 40
0.2299549816
 40
0.2870863445
 40
0.3451581056
 40
0.4043143617
 40
0.4646740158
 40
0.5892975442
 40
0.7196308756
 40
0.85623861
 40
1.0
 40
1.0
 40
1.0
 40
1.0
 10
10.7655816373
 20
3.7144517782
 30
0.0
 10
10.7622421981
 20
3.7042020884
 30
0.0
 10
10.7541325094
 20
3.6846766278
 30
0.0
 10
10.7385867547
 20
3.6577096513
 30
0.0
 10
10.7207799498
 20
3.6333100419
 30
0.0
 10
10.7013329016
 20
3.6108137604
 30
0.0
 10
10.6804075972
 20
3.5899701211
 30
0.0
 10
10.6582389338
 20
3.570531484
 30
0.0
 10
10.6349597382
 20
3.5523506121
 30
0.0
 10
10.6025220433
 20
3.5295111363
 30
0.0
 10
10.5595937144
 20
3.5035528125
 30
0.0
 10
10.5051926531
 20
3.4761296107
 30
0.0
 10
10.4480758568
 20
3.4519011357
 30
0.0
 10
10.367744544
 20
3.4232812375
 30
0.0
 10
10.261253983
 20
3.3946321737
 30
0.0
 10
10.1265116101
 20
3.3707216294
 30
0.0
 10
9.9837218024
 20
3.3563458546
 30
0.0
 10
9.8857974065
 20
3.3533341886
 30
0.0
 10
9.835605308
 20
3.3533341886
 30
0.0
  0
SPLINE
  5
5AD
100
AcDbEntity
  8
0
100
AcDbSpline
 62
9
  6
CONTINUOUS
 70
0
 71
3
 72
11
 73
7
 74
0
 42
0.0000001
 43
0.0000001
 44
0.0000000001
 40
0.0
 40
0.0
 40
0.0
 40
0.0
 40
0.2730217477
 40
0.5269304633
 40
0.767881608
 40
1.0
 40
1.0
 40
1.0
 40
1.0
 10
10.7510750731
 20
4.1835966355
 30
0.0
 10
10.7510335604
 20
4.1782926658
 30
0.0
 10
10.7504869501
 20
4.1680523265
 30
0.0
 10
10.7483338131
 20
4.1532731774
 30
0.0
 10
10.7452214868
 20
4.1394858649
 30
0.0
 10
10.742639134
 20
4.1306589721
 30
0.0
 10
10.7412432487
 20
4.1263709736
 30
0.0
  0
SPLINE
  5
5AE
100
AcDbEntity
  8
0
100
AcDbSpline
 62
9
  6
CONTINUOUS
 70
0
 71
3
 72
23
 73
19
 74
0
 42
0.0000001
 43
0.0000001
 44
0.0000000001
 40
0.0
 40
0.0
 40
0.0
 40
0.0
 40
0.0157807964
 40
0.0311499217
 40
0.0610409807
 40
0.0757168961
 40
0.0902807151
 40
0.1191851351
 40
0.1766244606
 40
0.2053772159
 40
0.2342221685
 40
0.2923262428
 40
0.3511557463
 40
0.4713965001
 40
0.5957385748
 40
0.7247565279
 40
0.8591477307
 40
1.0
 40
1.0
 40
1.0
 40
1.0
 10
10.7412432487
 20
4.1263709736
 30
0.0
 10
10.73954041
 20
4.1211400499
 30
0.0
 10
10.7358015944
 20
4.1109344285
 30
0.0
 10
10.7272528376
 20
4.0914379443
 30
0.0
 10
10.7172186341
 20
4.0730580692
 30
0.0
 10
10.7060694301
 20
4.0557166379
 30
0.0
 10
10.6944312427
 20
4.0391156088
 30
0.0
 10
10.6726370061
 20
4.01146918
 30
0.0
 10
10.6447523765
 20
3.9824716616
 30
0.0
 10
10.6148214307
 20
3.9557712517
 30
0.0
 10
10.5835178979
 20
3.9303167256
 30
0.0
 10
10.5420477975
 20
3.9008409673
 30
0.0
 10
10.4712711603
 20
3.857998242
 30
0.0
 10
10.3755796323
 20
3.812267233
 30
0.0
 10
10.2522930436
 20
3.7695819637
 30
0.0
 10
10.1205261516
 20
3.7384796944
 30
0.0
 10
9.9807212846
 20
3.7192545697
 30
0.0
 10
9.8847057429
 20
3.7150737656
 30
0.0
 10
9.8356053078
 20
3.7150737656
 30
0.0
  0
SPLINE
  5
5AF
100
AcDbEntity
  8
0
100
AcDbSpline
 62
7
  6
CONTINUOUS
 70
0
 71
3
 72
12
 73
8
 74
0
 42
0.0000001
 43
0.0000001
 44
0.0000000001
 40
0.0
 40
0.0
 40
0.0
 40
0.0
 40
0.3110803605
 40
0.5900659305
 40
0.8239470813
 40
0.9198358429
 40
1.0
 40
1.0
 40
1.0
 40
1.0
 10
7.7634870063
 20
9.8859078124
 30
0.0
 10
7.7602301079
 20
9.8866620893
 30
0.0
 10
7.7540630972
 20
9.8881434208
 30
0.0
 10
7.7455201719
 20
9.8904727562
 30
0.0
 10
7.7392971481
 20
9.8925232082
 30
0.0
 10
7.7352506819
 20
9.8942712362
 30
0.0
 10
7.7335815281
 20
9.8951734232
 30
0.0
 10
7.7328584922
 20
9.8956418327
 30
0.0
  0
SPLINE
  5
5B0
100
AcDbEntity
  8
0
100
AcDbSpline
 62
7
  6
CONTINUOUS
 70
0
 71
3
 72
12
 73
8
 74
0
 42
0.0000001
 43
0.0000001
 44
0.0000000001
 40
0.0
 40
0.0
 40
0.0
 40
0.0
 40
0.0757407242
 40
0.1686053422
 40
0.400785175
 40
0.6828178243
 40
1.0
 40
1.0
 40
1.0
 40
1.0
 10
7.7321267928
 20
10.7155420004
 30
0.0
 10
7.732796635
 20
10.7160428689
 30
0.0
 10
7.7344024532
 20
10.7170019643
 30
0.0
 10
7.7384255022
 20
10.7188539528
 30
0.0
 10
7.744789265
 20
10.7210062978
 30
0.0
 10
7.7536395233
 20
10.7234457924
 30
0.0
 10
7.7600747146
 20
10.7249932133
 30
0.0
 10
7.7634870069
 20
10.7257834671
 30
0.0
  0
SPLINE
  5
5B1
100
AcDbEntity
  8
0
100
AcDbSpline
 62
9
  6
CONTINUOUS
 70
0
 71
3
 72
9
 73
5
 74
0
 42
0.0000001
 43
0.0000001
 44
0.0000000001
 40
0.0
 40
0.0
 40
0.0
 40
0.0
 40
0.5310437033
 40
1.0
 40
1.0
 40
1.0
 40
1.0
 10
7.6662156146
 20
10.845884823
 30
0.0
 10
7.6661475428
 20
10.8348937703
 30
0.0
 10
7.6662961968
 20
10.8141947008
 30
0.0
 10
7.6670089891
 20
10.7935042217
 30
0.0
 10
7.6675746725
 20
10.7838145088
 30
0.0
  0
SPLINE
  5
5B2
100
AcDbEntity
  8
0
100
AcDbSpline
 62
9
  6
CONTINUOUS
 70
0
 71
3
 72
14
 73
10
 74
0
 42
0.0000001
 43
0.0000001
 44
0.0000000001
 40
0.0
 40
0.0
 40
0.0
 40
0.0
 40
0.3832147777
 40
0.544819657
 40
0.6842418786
 40
0.800041473
 40
0.891450155
 40
0.9580322521
 40
1.0
 40
1.0
 40
1.0
 40
1.0
 10
7.6675746725
 20
10.7838145088
 30
0.0
 10
7.6678017848
 20
10.7799242536
 30
0.0
 10
7.6681792771
 20
10.7743957411
 30
0.0
 10
7.6688342544
 20
10.7674685927
 30
0.0
 10
7.6693255063
 20
10.763257287
 30
0.0
 10
7.6698419888
 20
10.7597717459
 30
0.0
 10
7.6703700022
 20
10.7570314938
 30
0.0
 10
7.6709057199
 20
10.7550788709
 30
0.0
 10
7.6713336503
 20
10.7540362355
 30
0.0
 10
7.6715973069
 20
10.7537006542
 30
0.0
  0
SPLINE
  5
5B3
100
AcDbEntity
  8
0
100
AcDbSpline
 62
9
  6
CONTINUOUS
 70
0
 71
3
 72
11
 73
7
 74
0
 42
0.0000001
 43
0.0000001
 44
0.0000000001
 40
0.0
 40
0.0
 40
0.0
 40
0.0
 40
0.2718742614
 40
0.5256474207
 40
0.7670643894
 40
1.0
 40
1.0
 40
1.0
 40
1.0
 10
8.9411295563
 20
4.5556424486
 30
0.0
 10
8.9411681049
 20
4.5503618954
 30
0.0
 10
8.9416873964
 20
4.5401490937
 30
0.0
 10
8.9437287075
 20
4.5253752627
 30
0.0
 10
8.9466834109
 20
4.5115348534
 30
0.0
 10
8.949136769
 20
4.5026481689
 30
0.0
 10
8.950463942
 20
4.4983228251
 30
0.0
  0
SPLINE
  5
5B4
100
AcDbEntity
  8
0
100
AcDbSpline
 62
9
  6
CONTINUOUS
 70
0
 71
3
 72
21
 73
17
 74
0
 42
0.0000001
 43
0.0000001
 44
0.0000000001
 40
0.0
 40
0.0
 40
0.0
 40
0.0
 40
0.0315542584
 40
0.0618634571
 40
0.091489993
 40
0.1207551535
 40
0.1788081354
 40
0.2078132941
 40
0.2368767065
 40
0.2953173674
 40
0.3543582017
 40
0.474677003
 40
0.5986887697
 40
0.7270170995
 40
0.8604107715
 40
1.0
 40
1.0
 40
1.0
 40
1.0
 10
8.950463942
 20
4.4983228251
 30
0.0
 10
8.9536685797
 20
4.4878787004
 30
0.0
 10
8.9613062331
 20
4.4678000372
 30
0.0
 10
8.9757485614
 20
4.4395564519
 30
0.0
 10
8.9922276972
 20
4.4133975015
 30
0.0
 10
9.0161875785
 20
4.3807280074
 30
0.0
 10
9.0430587244
 20
4.3505895021
 30
0.0
 10
9.071999414
 20
4.322671643
 30
0.0
 10
9.102281342
 20
4.2960030653
 30
0.0
 10
9.1424932385
 20
4.2649638495
 30
0.0
 10
9.2112859318
 20
4.2196266326
 30
0.0
 10
9.3046611915
 20
4.1708568913
 30
0.0
 10
9.4255414391
 20
4.1250053573
 30
0.0
 10
9.5550692838
 20
4.0914521549
 30
0.0
 10
9.6926860452
 20
4.0706892773
 30
0.0
 10
9.7872767176
 20
4.0661602626
 30
0.0
 10
9.8356053079
 20
4.0661602626
 30
0.0
  0
SPLINE
  5
5B5
100
AcDbEntity
  8
0
100
AcDbSpline
 62
9
  6
CONTINUOUS
 70
0
 71
3
 72
9
 73
5
 74
0
 42
0.0000001
 43
0.0000001
 44
0.0000000001
 40
0.0
 40
0.0
 40
0.0
 40
0.0
 40
0.4401367119
 40
1.0
 40
1.0
 40
1.0
 40
1.0
 10
7.7065140514
 20
10.7092587237
 30
0.0
 10
7.7069425881
 20
10.7087132835
 30
0.0
 10
7.7077672581
 20
10.7073593267
 30
0.0
 10
7.7084167526
 20
10.7059217436
 30
0.0
 10
7.708750906
 20
10.7051051295
 30
0.0
  0
SPLINE
  5
5B6
100
AcDbEntity
  8
0
100
AcDbSpline
 62
9
  6
CONTINUOUS
 70
0
 71
3
 72
9
 73
5
 74
0
 42
0.0000001
 43
0.0000001
 44
0.0000000001
 40
0.0
 40
0.0
 40
0.0
 40
0.0
 40
0.5598632881
 40
1.0
 40
1.0
 40
1.0
 40
1.0
 10
7.708750906
 20
9.9065861504
 30
0.0
 10
7.7084167526
 20
9.9057695363
 30
0.0
 10
7.7077672581
 20
9.9043319532
 30
0.0
 10
7.7069425881
 20
9.9029779964
 30
0.0
 10
7.7065140514
 20
9.9024325562
 30
0.0
  0
SPLINE
  5
5B7
100
AcDbEntity
  8
0
100
AcDbSpline
 62
9
  6
CONTINUOUS
 70
0
 71
3
 72
30
 73
26
 74
0
 42
0.0000001
 43
0.0000001
 44
0.0000000001
 40
0.0
 40
0.0
 40
0.0
 40
0.0
 40
0.1250263462
 40
0.2500477036
 40
0.3125625374
 40
0.3750766788
 40
0.4375897375
 40
0.5001016904
 40
0.5626121248
 40
0.6251202641
 40
0.656376534
 40
0.6876321771
 40
0.7501376478
 40
0.7813992067
 40
0.8126597872
 40
0.8439166347
 40
0.8751658897
 40
0.8907939258
 40
0.906417676
 40
0.9220372397
 40
0.9376572067
 40
0.9532899328
 40
0.9689001781
 40
0.9844786891
 40
1.0
 40
1.0
 40
1.0
 40
1.0
 10
9.8356052988
 20
2.9652853361
 30
0.0
 10
9.8807884134
 20
2.9652836751
 30
0.0
 10
9.9711695029
 20
2.9674545135
 30
0.0
 10
10.0838575856
 20
2.9760316776
 30
0.0
 10
10.1736116555
 20
2.9866142624
 30
0.0
 10
10.2406716341
 20
2.996510546
 30
0.0
 10
10.3073836282
 20
3.0085354415
 30
0.0
 10
10.3736282193
 20
3.0229251647
 30
0.0
 10
10.4392449261
 20
3.039956495
 30
0.0
 10
10.4932190887
 20
3.0566712269
 30
0.0
 10
10.5357827839
 20
3.0718458705
 30
0.0
 10
10.5778556526
 20
3.0883203828
 30
0.0
 10
10.6190531038
 20
3.1070230633
 30
0.0
 10
10.658774858
 20
3.1285943823
 30
0.0
 10
10.6876319578
 20
3.1464075266
 30
0.0
 10
10.7152147257
 20
3.1661448969
 30
0.0
 10
10.736704815
 20
3.1845384763
 30
0.0
 10
10.7526338506
 20
3.2005679511
 30
0.0
 10
10.7638116366
 20
3.2133132811
 30
0.0
 10
10.7739827347
 20
3.2268788779
 30
0.0
 10
10.7829248679
 20
3.2412942944
 30
0.0
 10
10.7904018951
 20
3.2565246179
 30
0.0
 10
10.7961386702
 20
3.2724850064
 30
0.0
 10
10.7998011177
 20
3.2890177077
 30
0.0
 10
10.800591243
 20
3.3002755659
 30
0.0
 10
10.8006033761
 20
3.3058847799
 30
0.0
  0
SPLINE
  5
5B8
100
AcDbEntity
  8
0
100
AcDbSpline
 62
9
  6
CONTINUOUS
 70
0
 71
3
 72
9
 73
5
 74
0
 42
0.0000001
 43
0.0000001
 44
0.0000000001
 40
0.0
 40
0.0
 40
0.0
 40
0.0
 40
0.257757369
 40
1.0
 40
1.0
 40
1.0
 40
1.0
 10
7.6662156146
 20
9.7658064568
 30
0.0
 10
7.6634657382
 20
9.7658064568
 30
0.0
 10
7.6527973959
 20
9.7658542223
 30
0.0
 10
7.6421292871
 20
9.766079932
 30
0.0
 10
7.6342163323
 20
9.7663786715
 30
0.0
  0
SPLINE
  5
5B9
100
AcDbEntity
  8
0
100
AcDbSpline
 62
9
  6
CONTINUOUS
 70
0
 71
3
 72
12
 73
8
 74
0
 42
0.0000001
 43
0.0000001
 44
0.0000000001
 40
0.0
 40
0.0
 40
0.0
 40
0.0
 40
0.3292223441
 40
0.6120781584
 40
0.8382308927
 40
0.9275832418
 40
1.0
 40
1.0
 40
1.0
 40
1.0
 10
7.6342163323
 20
9.7663786715
 30
0.0
 10
7.6295075978
 20
9.7665564414
 30
0.0
 10
7.6207558851
 20
9.7669750411
 30
0.0
 10
7.6087906968
 20
9.767866384
 30
0.0
 10
7.6002742286
 20
9.7688129919
 30
0.0
 10
7.5947936312
 20
9.7697076447
 30
0.0
 10
7.5925267396
 20
9.7701882487
 30
0.0
 10
7.5915230622
 20
9.7704469646
 30
0.0
  0
SPLINE
  5
5BA
100
AcDbEntity
  8
0
100
AcDbSpline
 62
9
  6
CONTINUOUS
 70
0
 71
3
 72
12
 73
8
 74
0
 42
0.0000001
 43
0.0000001
 44
0.0000000001
 40
0.0
 40
0.0
 40
0.0
 40
0.0
 40
0.3849315481
 40
0.6732215353
 40
0.7828494013
 40
0.8714204012
 40
1.0
 40
1.0
 40
1.0
 40
1.0
 10
7.5915230622
 20
9.7704469646
 30
0.0
 10
7.5908803066
 20
9.7706126463
 30
0.0
 10
7.5897643281
 20
9.7709355699
 30
0.0
 10
7.5885051552
 20
9.7714342047
 30
0.0
 10
7.5877813257
 20
9.7718679244
 30
0.0
 10
7.5873466352
 20
9.7722185915
 30
0.0
 10
7.5871308142
 20
9.7725755913
 30
0.0
 10
7.5871269791
 20
9.7727972774
 30
0.0
  0
SPLINE
  5
5BB
100
AcDbEntity
  8
0
100
AcDbSpline
 62
9
  6
CONTINUOUS
 70
0
 71
3
 72
14
 73
10
 74
0
 42
0.0000001
 43
0.0000001
 44
0.0000000001
 40
0.0
 40
0.0
 40
0.0
 40
0.0
 40
0.0419677479
 40
0.1085498449
 40
0.199958527
 40
0.3157581214
 40
0.455180343
 40
0.6167852223
 40
1.0
 40
1.0
 40
1.0
 40
1.0
 10
7.6715973069
 20
9.8579906257
 30
0.0
 10
7.6713336503
 20
9.8576550443
 30
0.0
 10
7.6709057199
 20
9.856612409
 30
0.0
 10
7.6703700022
 20
9.8546597861
 30
0.0
 10
7.6698419888
 20
9.851919534
 30
0.0
 10
7.6693255063
 20
9.8484339928
 30
0.0
 10
7.6688342544
 20
9.8442226872
 30
0.0
 10
7.6681792771
 20
9.8372955387
 30
0.0
 10
7.6678017848
 20
9.8317670262
 30
0.0
 10
7.6675746725
 20
9.827876771
 30
0.0
  0
SPLINE
  5
5BC
100
AcDbEntity
  8
0
100
AcDbSpline
 62
9
  6
CONTINUOUS
 70
0
 71
3
 72
9
 73
5
 74
0
 42
0.0000001
 43
0.0000001
 44
0.0000000001
 40
0.0
 40
0.0
 40
0.0
 40
0.0
 40
0.4689562967
 40
1.0
 40
1.0
 40
1.0
 40
1.0
 10
7.6675746725
 20
9.827876771
 30
0.0
 10
7.6670089891
 20
9.8181870582
 30
0.0
 10
7.6662961968
 20
9.7974965791
 30
0.0
 10
7.6661475428
 20
9.7767975096
 30
0.0
 10
7.6662156146
 20
9.7658064568
 30
0.0
  0
SPLINE
  5
5BD
100
AcDbEntity
  8
0
100
AcDbSpline
 62
9
  6
CONTINUOUS
 70
0
 71
3
 72
18
 73
14
 74
0
 42
0.0000001
 43
0.0000001
 44
0.0000000001
 40
0.0
 40
0.0
 40
0.0
 40
0.0
 40
0.1973707156
 40
0.3856028356
 40
0.5571497882
 40
0.7063212764
 40
0.8282305686
 40
0.9190593206
 40
0.9518527598
 40
0.9759222218
 40
0.9847508423
 40
0.9915420409
 40
1.0
 40
1.0
 40
1.0
 40
1.0
 10
7.666338997
 20
9.745884823
 30
0.0
 10
7.6663708526
 20
9.7407413273
 30
0.0
 10
7.666498446
 20
9.73069278
 30
0.0
 10
7.6668772674
 20
9.7161775445
 30
0.0
 10
7.6674347218
 20
9.7029251915
 30
0.0
 10
7.668139308
 20
9.6914102982
 30
0.0
 10
7.6689745017
 20
9.6820150007
 30
0.0
 10
7.6697825476
 20
9.6756635474
 30
0.0
 10
7.670539428
 20
9.671885606
 30
0.0
 10
7.6709898698
 20
9.6702354808
 30
0.0
 10
7.6713927871
 20
9.6692712558
 30
0.0
 10
7.6716875318
 20
9.6687384761
 30
0.0
 10
7.6720246687
 20
9.6684104892
 30
0.0
 10
7.6722450648
 20
9.6684072893
 30
0.0
  0
SPLINE
  5
5BE
100
AcDbEntity
  8
0
100
AcDbSpline
 62
9
  6
CONTINUOUS
 70
0
 71
3
 72
9
 73
5
 74
0
 42
0.0000001
 43
0.0000001
 44
0.0000000001
 40
0.0
 40
0.0
 40
0.0
 40
0.0
 40
0.5329472925
 40
1.0
 40
1.0
 40
1.0
 40
1.0
 10
7.7361684805
 20
9.745884823
 30
0.0
 10
7.7471362817
 20
9.745884823
 30
0.0
 10
7.7677162009
 20
9.7462310117
 30
0.0
 10
7.7882771151
 20
9.7472926603
 30
0.0
 10
7.7978559935
 20
9.7480865674
 30
0.0
  0
SPLINE
  5
5BF
100
AcDbEntity
  8
0
100
AcDbSpline
 62
9
  6
CONTINUOUS
 70
0
 71
3
 72
14
 73
10
 74
0
 42
0.0000001
 43
0.0000001
 44
0.0000000001
 40
0.0
 40
0.0
 40
0.0
 40
0.0
 40
0.3866055798
 40
0.5487934916
 40
0.6880984403
 40
0.8031549266
 40
0.893355442
 40
0.9585944627
 40
1.0
 40
1.0
 40
1.0
 40
1.0
 10
7.7978559935
 20
9.7480865674
 30
0.0
 10
7.8016726929
 20
9.7484028993
 30
0.0
 10
7.8070863054
 20
9.7489212412
 30
0.0
 10
7.8138455596
 20
9.7498035432
 30
0.0
 10
7.8179217819
 20
9.7504569531
 30
0.0
 10
7.82126551
 20
9.7511344715
 30
0.0
 10
7.8238646108
 20
9.7518263851
 30
0.0
 10
7.825677213
 20
9.7525115716
 30
0.0
 10
7.8266140884
 20
9.7530795168
 30
0.0
 10
7.8268674922
 20
9.7534020484
 30
0.0
  0
SPLINE
  5
5C0
100
AcDbEntity
  8
0
100
AcDbSpline
 62
9
  6
CONTINUOUS
 70
0
 71
3
 72
18
 73
14
 74
0
 42
0.0000001
 43
0.0000001
 44
0.0000000001
 40
0.0
 40
0.0
 40
0.0
 40
0.0
 40
0.1795705517
 40
0.3560926495
 40
0.5218105521
 40
0.6705574357
 40
0.7968046947
 40
0.8500442206
 40
0.8959758348
 40
0.9341251501
 40
0.9642390607
 40
0.9861740375
 40
1.0
 40
1.0
 40
1.0
 40
1.0
 10
7.7360450981
 20
9.7658064568
 30
0.0
 10
7.73601077
 20
9.7713491616
 30
0.0
 10
7.7360193926
 20
9.7823410835
 30
0.0
 10
7.7362473488
 20
9.7984466945
 30
0.0
 10
7.7366879663
 20
9.8135963189
 30
0.0
 10
7.737317466
 20
9.8271858055
 30
0.0
 10
7.7380088529
 20
9.8372954957
 30
0.0
 10
7.7386637246
 20
9.8442226934
 30
0.0
 10
7.7391549926
 20
9.8484339915
 30
0.0
 10
7.7396714718
 20
9.8519195342
 30
0.0
 10
7.7401994858
 20
9.854659786
 30
0.0
 10
7.7407352034
 20
9.856612409
 30
0.0
 10
7.7411631338
 20
9.8576550443
 30
0.0
 10
7.7414267904
 20
9.8579906257
 30
0.0
  0
SPLINE
  5
5C1
100
AcDbEntity
  8
0
100
AcDbSpline
 62
9
  6
CONTINUOUS
 70
0
 71
3
 72
14
 73
10
 74
0
 42
0.0000001
 43
0.0000001
 44
0.0000000001
 40
0.0
 40
0.0
 40
0.0
 40
0.0
 40
0.0414055373
 40
0.106644558
 40
0.1968450734
 40
0.3119015597
 40
0.4512065084
 40
0.6133944202
 40
1.0
 40
1.0
 40
1.0
 40
1.0
 10
7.8267441098
 20
9.7733236822
 30
0.0
 10
7.826490706
 20
9.7730011506
 30
0.0
 10
7.8255538306
 20
9.7724332054
 30
0.0
 10
7.8237412284
 20
9.7717480189
 30
0.0
 10
7.8211421276
 20
9.7710561053
 30
0.0
 10
7.8177983995
 20
9.7703785868
 30
0.0
 10
7.8137221773
 20
9.769725177
 30
0.0
 10
7.8069629231
 20
9.7688428749
 30
0.0
 10
7.8015493106
 20
9.768324533
 30
0.0
 10
7.7977326111
 20
9.7680082012
 30
0.0
  0
SPLINE
  5
5C2
100
AcDbEntity
  8
0
100
AcDbSpline
 62
9
  6
CONTINUOUS
 70
0
 71
3
 72
9
 73
5
 74
0
 42
0.0000001
 43
0.0000001
 44
0.0000000001
 40
0.0
 40
0.0
 40
0.0
 40
0.0
 40
0.4670527075
 40
1.0
 40
1.0
 40
1.0
 40
1.0
 10
7.7977326111
 20
9.7680082012
 30
0.0
 10
7.7881537327
 20
9.7672142941
 30
0.0
 10
7.7675928185
 20
9.7661526455
 30
0.0
 10
7.7470128993
 20
9.7658064568
 30
0.0
 10
7.7360450981
 20
9.7658064568
 30
0.0
  0
SPLINE
  5
5C3
100
AcDbEntity
  8
0
100
AcDbSpline
 62
9
  6
CONTINUOUS
 70
0
 71
3
 72
11
 73
7
 74
0
 42
0.0000001
 43
0.0000001
 44
0.0000000001
 40
0.0
 40
0.0
 40
0.0
 40
0.0
 40
0.249960314
 40
0.500238856
 40
0.7503776445
 40
1.0
 40
1.0
 40
1.0
 40
1.0
 10
7.7414267904
 20
9.8579906257
 30
0.0
 10
7.7524674063
 20
9.8579906257
 30
0.0
 10
7.7747999992
 20
9.8535738858
 30
0.0
 10
7.8030715812
 20
9.8347470287
 30
0.0
 10
7.8221099662
 20
9.8066334922
 30
0.0
 10
7.8266758248
 20
9.7843491592
 30
0.0
 10
7.8267441098
 20
9.7733236822
 30
0.0
  0
SPLINE
  5
5C4
100
AcDbEntity
  8
0
100
AcDbSpline
 62
7
  6
CONTINUOUS
 70
0
 71
3
 72
12
 73
8
 74
0
 42
0.0000001
 43
0.0000001
 44
0.0000000001
 40
0.0
 40
0.0
 40
0.0
 40
0.0
 40
0.3793816059
 40
0.6564432125
 40
0.8577891449
 40
0.935453996
 40
1.0
 40
1.0
 40
1.0
 40
1.0
 10
7.7980318028
 20
9.8766426188
 30
0.0
 10
7.8035854903
 20
9.8748016807
 30
0.0
 10
7.8129863328
 20
9.8709563553
 30
0.0
 10
7.824709274
 20
9.8648167543
 30
0.0
 10
7.8321679824
 20
9.8605820151
 30
0.0
 10
7.8368761289
 20
9.8581502934
 30
0.0
 10
7.8388804033
 20
9.8572530541
 30
0.0
 10
7.8398093463
 20
9.8568953485
 30
0.0
  0
SPLINE
  5
5C5
100
AcDbEntity
  8
0
100
AcDbSpline
 62
7
  6
CONTINUOUS
 70
0
 71
3
 72
9
 73
5
 74
0
 42
0.0000001
 43
0.0000001
 44
0.0000000001
 40
0.0
 40
0.0
 40
0.0
 40
0.0
 40
0.5532895901
 40
1.0
 40
1.0
 40
1.0
 40
1.0
 10
7.8398093463
 20
9.8568953485
 30
0.0
 10
7.840623908
 20
9.8565816874
 30
0.0
 10
7.8421237575
 20
9.8560811296
 30
0.0
 10
7.8436998369
 20
9.8558444383
 30
0.0
 10
7.8444045638
 20
9.8558444336
 30
0.0
  0
SPLINE
  5
5C6
100
AcDbEntity
  8
0
100
AcDbSpline
 62
9
  6
CONTINUOUS
 70
0
 71
3
 72
28
 73
24
 74
0
 42
0.0000001
 43
0.0000001
 44
0.0000000001
 40
0.0
 40
0.0
 40
0.0
 40
0.0
 40
0.124966764
 40
0.2499342644
 40
0.3124180122
 40
0.3749024151
 40
0.4373847008
 40
0.4998664273
 40
0.5623470647
 40
0.6248247081
 40
0.6872995388
 40
0.7497669481
 40
0.7810112712
 40
0.8122751288
 40
0.843538455
 40
0.8747888577
 40
0.8904203463
 40
0.9060698907
 40
0.9217538237
 40
0.9374307658
 40
0.9530933898
 40
0.9687859419
 40
1.0
 40
1.0
 40
1.0
 40
1.0
 10
9.8356053078
 20
2.9631603453
 30
0.0
 10
9.8808388964
 20
2.9631606175
 30
0.0
 10
9.9713224615
 20
2.9653521979
 30
0.0
 10
10.0841380188
 20
2.9739461044
 30
0.0
 10
10.1739886877
 20
2.9845860332
 30
0.0
 10
10.2411200539
 20
2.9945110312
 30
0.0
 10
10.3079010657
 20
3.006578392
 30
0.0
 10
10.3742125469
 20
3.0210122404
 30
0.0
 10
10.4398990218
 20
3.0380791906
 30
0.0
 10
10.5047177775
 20
3.0582137176
 30
0.0
 10
10.568327765
 20
3.0819037397
 30
0.0
 10
10.6198448515
 20
3.1053641629
 30
0.0
 10
10.6595834857
 20
3.1270176972
 30
0.0
 10
10.6884397498
 20
3.1449324959
 30
0.0
 10
10.7159872606
 20
3.1648173912
 30
0.0
 10
10.7374633259
 20
3.1833039073
 30
0.0
 10
10.7533319172
 20
3.1994620485
 30
0.0
 10
10.764421115
 20
3.2123656143
 30
0.0
 10
10.7745219349
 20
3.2260829033
 30
0.0
 10
10.7833897234
 20
3.2406388589
 30
0.0
 10
10.7907496678
 20
3.2560329233
 30
0.0
 10
10.7981000061
 20
3.2774848625
 30
0.0
 10
10.800604929
 20
3.2945472449
 30
0.0
 10
10.8006053171
 20
3.3058456399
 30
0.0
  0
SPLINE
  5
5C7
100
AcDbEntity
  8
0
100
AcDbSpline
 62
7
  6
CONTINUOUS
 70
0
 71
3
 72
11
 73
7
 74
0
 42
0.0000001
 43
0.0000001
 44
0.0000000001
 40
0.0
 40
0.0
 40
0.0
 40
0.0
 40
0.141751529
 40
0.3443726324
 40
0.6234012877
 40
1.0
 40
1.0
 40
1.0
 40
1.0
 10
7.8444046105
 20
10.7558468463
 30
0.0
 10
7.8431380931
 20
10.7558468463
 30
0.0
 10
7.8400948258
 20
10.7550571422
 30
0.0
 10
7.8350634844
 20
10.7526868262
 30
0.0
 10
7.8283672357
 20
10.7489336751
 30
0.0
 10
7.8232283757
 20
10.7461252407
 30
0.0
 10
7.8202443908
 20
10.7445702904
 30
0.0
  0
SPLINE
  5
5C8
100
AcDbEntity
  8
0
100
AcDbSpline
 62
7
  6
CONTINUOUS
 70
0
 71
3
 72
9
 73
5
 74
0
 42
0.0000001
 43
0.0000001
 44
0.0000000001
 40
0.0
 40
0.0
 40
0.0
 40
0.0
 40
0.4429042398
 40
1.0
 40
1.0
 40
1.0
 40
1.0
 10
7.8202443908
 20
10.7445702904
 30
0.0
 10
7.8170775437
 20
10.7429200509
 30
0.0
 10
7.809837973
 20
10.7393575885
 30
0.0
 10
7.8022953876
 20
10.7364619555
 30
0.0
 10
7.7980318028
 20
10.735048661
 30
0.0
  0
SPLINE
  5
5C9
100
AcDbEntity
  8
0
100
AcDbSpline
 62
9
  6
CONTINUOUS
 70
0
 71
3
 72
9
 73
5
 74
0
 42
0.0000001
 43
0.0000001
 44
0.0000000001
 40
0.0
 40
0.0
 40
0.0
 40
0.0
 40
0.5329472925
 40
1.0
 40
1.0
 40
1.0
 40
1.0
 10
7.7360450981
 20
10.845884823
 30
0.0
 10
7.7470128993
 20
10.845884823
 30
0.0
 10
7.7675928185
 20
10.8455386344
 30
0.0
 10
7.7881537327
 20
10.8444769858
 30
0.0
 10
7.7977326111
 20
10.8436830787
 30
0.0
  0
SPLINE
  5
5CA
100
AcDbEntity
  8
0
100
AcDbSpline
 62
9
  6
CONTINUOUS
 70
0
 71
3
 72
14
 73
10
 74
0
 42
0.0000001
 43
0.0000001
 44
0.0000000001
 40
0.0
 40
0.0
 40
0.0
 40
0.0
 40
0.3866055798
 40
0.5487934916
 40
0.6880984403
 40
0.8031549266
 40
0.893355442
 40
0.9585944627
 40
1.0
 40
1.0
 40
1.0
 40
1.0
 10
7.7977326111
 20
10.8436830787
 30
0.0
 10
7.8015493106
 20
10.8433667468
 30
0.0
 10
7.8069629231
 20
10.8428484049
 30
0.0
 10
7.8137221773
 20
10.8419661029
 30
0.0
 10
7.8177983995
 20
10.841312693
 30
0.0
 10
7.8211421276
 20
10.8406351746
 30
0.0
 10
7.8237412284
 20
10.8399432609
 30
0.0
 10
7.8255538306
 20
10.8392580745
 30
0.0
 10
7.826490706
 20
10.8386901293
 30
0.0
 10
7.8267441098
 20
10.8383675977
 30
0.0
  0
SPLINE
  5
5CB
100
AcDbEntity
  8
0
100
AcDbSpline
 62
9
  6
CONTINUOUS
 70
0
 71
3
 72
18
 73
14
 74
0
 42
0.0000001
 43
0.0000001
 44
0.0000000001
 40
0.0
 40
0.0
 40
0.0
 40
0.0
 40
0.0138259625
 40
0.0357609393
 40
0.0658748499
 40
0.1040241652
 40
0.1499557794
 40
0.2031953053
 40
0.3294425643
 40
0.4781894479
 40
0.6439073505
 40
0.8204294483
 40
1.0
 40
1.0
 40
1.0
 40
1.0
 10
7.7414267904
 20
10.7537006542
 30
0.0
 10
7.7411631338
 20
10.7540362355
 30
0.0
 10
7.7407352034
 20
10.7550788709
 30
0.0
 10
7.7401994858
 20
10.7570314938
 30
0.0
 10
7.7396714718
 20
10.7597717456
 30
0.0
 10
7.7391549926
 20
10.7632572883
 30
0.0
 10
7.7386637246
 20
10.7674685865
 30
0.0
 10
7.7380088529
 20
10.7743957841
 30
0.0
 10
7.737317466
 20
10.7845054743
 30
0.0
 10
7.7366879663
 20
10.798094961
 30
0.0
 10
7.7362473488
 20
10.8132445854
 30
0.0
 10
7.7360193926
 20
10.8293501963
 30
0.0
 10
7.73601077
 20
10.8403421183
 30
0.0
 10
7.7360450981
 20
10.845884823
 30
0.0
  0
SPLINE
  5
5CC
100
AcDbEntity
  8
0
100
AcDbSpline
 62
9
  6
CONTINUOUS
 70
0
 71
3
 72
11
 73
7
 74
0
 42
0.0000001
 43
0.0000001
 44
0.0000000001
 40
0.0
 40
0.0
 40
0.0
 40
0.0
 40
0.2496223555
 40
0.499761144
 40
0.750039686
 40
1.0
 40
1.0
 40
1.0
 40
1.0
 10
7.8267441098
 20
10.8383675977
 30
0.0
 10
7.8266758248
 20
10.8273421207
 30
0.0
 10
7.8221099662
 20
10.8050577876
 30
0.0
 10
7.8030715812
 20
10.7769442511
 30
0.0
 10
7.7747999992
 20
10.7581173941
 30
0.0
 10
7.7524674063
 20
10.7537006542
 30
0.0
 10
7.7414267904
 20
10.7537006542
 30
0.0
  0
SPLINE
  5
5CD
100
AcDbEntity
  8
0
100
AcDbSpline
 62
9
  6
CONTINUOUS
 70
0
 71
3
 72
12
 73
8
 74
0
 42
0.0000001
 43
0.0000001
 44
0.0000000001
 40
0.0
 40
0.0
 40
0.0
 40
0.0
 40
0.0648358983
 40
0.1461580868
 40
0.360542563
 40
0.6452113716
 40
1.0
 40
1.0
 40
1.0
 40
1.0
 10
7.8616608543
 20
9.8177656127
 30
0.0
 10
7.8621385423
 20
9.8183736126
 30
0.0
 10
7.8630628515
 20
9.8198623179
 30
0.0
 10
7.8648787242
 20
9.8237644985
 30
0.0
 10
7.8670092121
 20
9.830371278
 30
0.0
 10
7.8693909243
 20
9.8402726199
 30
0.0
 10
7.8707975868
 20
9.8477716457
 30
0.0
 10
7.8715134808
 20
9.8519417114
 30
0.0
  0
SPLINE
  5
5CE
100
AcDbEntity
  8
0
100
AcDbSpline
 62
9
  6
CONTINUOUS
 70
0
 71
3
 72
9
 73
5
 74
0
 42
0.0000001
 43
0.0000001
 44
0.0000000001
 40
0.0
 40
0.0
 40
0.0
 40
0.0
 40
0.4586135225
 40
1.0
 40
1.0
 40
1.0
 40
1.0
 10
7.8715134808
 20
9.8519417114
 30
0.0
 10
7.8725254176
 20
9.85783622
 30
0.0
 10
7.8744477951
 20
9.8707377937
 30
0.0
 10
7.8760144116
 20
9.8836853285
 30
0.0
 10
7.8767950838
 20
9.8907022094
 30
0.0
  0
SPLINE
  5
5CF
100
AcDbEntity
  8
0
100
AcDbSpline
 62
9
  6
CONTINUOUS
 70
0
 71
3
 72
9
 73
5
 74
0
 42
0.0000001
 43
0.0000001
 44
0.0000000001
 40
0.0
 40
0.0
 40
0.0
 40
0.0
 40
0.5413912953
 40
1.0
 40
1.0
 40
1.0
 40
1.0
 10
7.876795149
 20
10.7209884847
 30
0.0
 10
7.8760144047
 20
10.728006048
 30
0.0
 10
7.8744476465
 20
10.7409547256
 30
0.0
 10
7.872525055
 20
10.7538574325
 30
0.0
 10
7.8715129966
 20
10.7597523921
 30
0.0
  0
SPLINE
  5
5D0
100
AcDbEntity
  8
0
100
AcDbSpline
 62
9
  6
CONTINUOUS
 70
0
 71
3
 72
12
 73
8
 74
0
 42
0.0000001
 43
0.0000001
 44
0.0000000001
 40
0.0
 40
0.0
 40
0.0
 40
0.0
 40
0.3496259625
 40
0.6324179
 40
0.8484755232
 40
0.932028022
 40
1.0
 40
1.0
 40
1.0
 40
1.0
 10
7.8705218247
 20
10.7652681324
 30
0.0
 10
7.8698709112
 20
10.7687236374
 30
0.0
 10
7.8685920528
 20
10.774957462
 30
0.0
 10
7.8664429187
 20
10.7832175519
 30
0.0
 10
7.8645261624
 20
10.7887701223
 30
0.0
 10
7.8629057267
 20
10.7920971501
 30
0.0
 10
7.8620831898
 20
10.7933881198
 30
0.0
 10
7.8616608543
 20
10.7939256672
 30
0.0
  0
SPLINE
  5
5D1
100
AcDbEntity
  8
0
100
AcDbSpline
 62
9
  6
CONTINUOUS
 70
0
 71
3
 72
13
 73
9
 74
0
 42
0.0000001
 43
0.0000001
 44
0.0000000001
 40
0.0
 40
0.0
 40
0.0
 40
0.0
 40
0.0589685357
 40
0.1361516395
 40
0.2322797118
 40
0.3476037171
 40
0.6358670659
 40
1.0
 40
1.0
 40
1.0
 40
1.0
 10
7.8617842367
 20
10.813847301
 30
0.0
 10
7.8624174157
 20
10.8130413925
 30
0.0
 10
7.8636213816
 20
10.8109840605
 30
0.0
 10
7.8651977714
 20
10.807264427
 30
0.0
 10
7.866773178
 20
10.8024963639
 30
0.0
 10
7.8690321531
 20
10.7941075026
 30
0.0
 10
7.8716892178
 20
10.7810205055
 30
0.0
 10
7.8734411621
 20
10.7698162239
 30
0.0
 10
7.8743303225
 20
10.7635502485
 30
0.0
  0
SPLINE
  5
5D2
100
AcDbEntity
  8
0
100
AcDbSpline
 62
9
  6
CONTINUOUS
 70
0
 71
3
 72
9
 73
5
 74
0
 42
0.0000001
 43
0.0000001
 44
0.0000000001
 40
0.0
 40
0.0
 40
0.0
 40
0.0
 40
0.4649719172
 40
1.0
 40
1.0
 40
1.0
 40
1.0
 10
7.8743303225
 20
10.7635502485
 30
0.0
 10
7.8753246641
 20
10.7565430533
 30
0.0
 10
7.8772236027
 20
10.7414388293
 30
0.0
 10
7.8787962328
 20
10.7262982945
 30
0.0
 10
7.8795729961
 20
10.7181916968
 30
0.0
  0
SPLINE
  5
5D3
100
AcDbEntity
  8
0
100
AcDbSpline
 62
9
  6
CONTINUOUS
 70
0
 71
3
 72
10
 73
6
 74
0
 42
0.0000001
 43
0.0000001
 44
0.0000000001
 40
0.0
 40
0.0
 40
0.0
 40
0.0
 40
0.5612223528
 40
0.7964259498
 40
1.0
 40
1.0
 40
1.0
 40
1.0
 10
7.8795722698
 20
9.8934920023
 30
0.0
 10
7.8784006106
 20
9.88126477
 30
0.0
 10
7.8765417313
 20
9.8639284653
 30
0.0
 10
7.8735286631
 20
9.8422488714
 30
0.0
 10
7.8719576279
 20
9.8327729324
 30
0.0
 10
7.871143283
 20
9.8283924433
 30
0.0
  0
SPLINE
  5
5D4
100
AcDbEntity
  8
0
100
AcDbSpline
 62
9
  6
CONTINUOUS
 70
0
 71
3
 72
12
 73
8
 74
0
 42
0.0000001
 43
0.0000001
 44
0.0000000001
 40
0.0
 40
0.0
 40
0.0
 40
0.0
 40
0.3503816308
 40
0.6333973273
 40
0.8491851601
 40
0.9324325241
 40
1.0
 40
1.0
 40
1.0
 40
1.0
 10
7.871143283
 20
9.8283924433
 30
0.0
 10
7.8704572569
 20
9.8247022014
 30
0.0
 10
7.8691092288
 20
9.8180486182
 30
0.0
 10
7.8668405086
 20
9.8092373015
 30
0.0
 10
7.8648155928
 20
9.8033210813
 30
0.0
 10
7.863101715
 20
9.7997830609
 30
0.0
 10
7.8622314115
 20
9.7984131417
 30
0.0
 10
7.8617842367
 20
9.7978439789
 30
0.0
  0
SPLINE
  5
5D5
100
AcDbEntity
  8
0
100
AcDbSpline
 62
9
  6
CONTINUOUS
 70
0
 71
3
 72
18
 73
14
 74
0
 42
0.0000001
 43
0.0000001
 44
0.0000000001
 40
0.0
 40
0.0
 40
0.0
 40
0.0
 40
0.1973707156
 40
0.3856028356
 40
0.5571497882
 40
0.7063212764
 40
0.8282305686
 40
0.9190593206
 40
0.9518527598
 40
0.9759222218
 40
0.9847508423
 40
0.9915420409
 40
1.0
 40
1.0
 40
1.0
 40
1.0
 10
7.7361684805
 20
10.8658064568
 30
0.0
 10
7.7362003362
 20
10.8709499525
 30
0.0
 10
7.7363279295
 20
10.8809984998
 30
0.0
 10
7.736706751
 20
10.8955137353
 30
0.0
 10
7.7372642053
 20
10.9087660884
 30
0.0
 10
7.7379687916
 20
10.9202809817
 30
0.0
 10
7.7388039852
 20
10.9296762791
 30
0.0
 10
7.7396120311
 20
10.9360277324
 30
0.0
 10
7.7403689115
 20
10.9398056739
 30
0.0
 10
7.7408193533
 20
10.9414557991
 30
0.0
 10
7.7412222706
 20
10.9424200241
 30
0.0
 10
7.7415170153
 20
10.9429528037
 30
0.0
 10
7.7418541522
 20
10.9432807907
 30
0.0
 10
7.7420745483
 20
10.9432839905
 30
0.0
  0
SPLINE
  5
5D6
100
AcDbEntity
  8
0
100
AcDbSpline
 62
9
  6
CONTINUOUS
 70
0
 71
3
 72
14
 73
10
 74
0
 42
0.0000001
 43
0.0000001
 44
0.0000000001
 40
0.0
 40
0.0
 40
0.0
 40
0.0
 40
0.0414055373
 40
0.106644558
 40
0.1968450734
 40
0.3119015597
 40
0.4512065084
 40
0.6133944202
 40
1.0
 40
1.0
 40
1.0
 40
1.0
 10
7.8268674922
 20
10.8582892314
 30
0.0
 10
7.8266140884
 20
10.8586117631
 30
0.0
 10
7.825677213
 20
10.8591797082
 30
0.0
 10
7.8238646108
 20
10.8598648947
 30
0.0
 10
7.82126551
 20
10.8605568083
 30
0.0
 10
7.8179217819
 20
10.8612343268
 30
0.0
 10
7.8138455596
 20
10.8618877367
 30
0.0
 10
7.8070863054
 20
10.8627700387
 30
0.0
 10
7.8016726929
 20
10.8632883806
 30
0.0
 10
7.7978559935
 20
10.8636047125
 30
0.0
  0
SPLINE
  5
5D7
100
AcDbEntity
  8
0
100
AcDbSpline
 62
9
  6
CONTINUOUS
 70
0
 71
3
 72
9
 73
5
 74
0
 42
0.0000001
 43
0.0000001
 44
0.0000000001
 40
0.0
 40
0.0
 40
0.0
 40
0.0
 40
0.4670527075
 40
1.0
 40
1.0
 40
1.0
 40
1.0
 10
7.7978559935
 20
10.8636047125
 30
0.0
 10
7.7882771151
 20
10.8643986196
 30
0.0
 10
7.7677162009
 20
10.8654602682
 30
0.0
 10
7.7471362817
 20
10.8658064568
 30
0.0
 10
7.7361684805
 20
10.8658064568
 30
0.0
  0
SPLINE
  5
5D8
100
AcDbEntity
  8
0
100
AcDbSpline
 62
9
  6
CONTINUOUS
 70
0
 71
3
 72
9
 73
5
 74
0
 42
0.0000001
 43
0.0000001
 44
0.0000000001
 40
0.0
 40
0.0
 40
0.0
 40
0.0
 40
0.257757369
 40
1.0
 40
1.0
 40
1.0
 40
1.0
 10
7.666338997
 20
10.8658064568
 30
0.0
 10
7.6635891206
 20
10.8658064568
 30
0.0
 10
7.6529207783
 20
10.8657586914
 30
0.0
 10
7.6422526695
 20
10.8655329816
 30
0.0
 10
7.6343397146
 20
10.8652342421
 30
0.0
  0
SPLINE
  5
5D9
100
AcDbEntity
  8
0
100
AcDbSpline
 62
9
  6
CONTINUOUS
 70
0
 71
3
 72
16
 73
12
 74
0
 42
0.0000001
 43
0.0000001
 44
0.0000000001
 40
0.0
 40
0.0
 40
0.0
 40
0.0
 40
0.4032700438
 40
0.5727450702
 40
0.7165066104
 40
0.8321933403
 40
0.8788568405
 40
0.9177723151
 40
0.9489264114
 40
0.9725318532
 40
1.0
 40
1.0
 40
1.0
 40
1.0
 10
7.6343397146
 20
10.8652342421
 30
0.0
 10
7.6278818791
 20
10.864990438
 30
0.0
 10
7.6187126054
 20
10.8645236396
 30
0.0
 10
7.6072701837
 20
10.8635600511
 30
0.0
 10
7.6004388899
 20
10.8627839025
 30
0.0
 10
7.5955895683
 20
10.8620390937
 30
0.0
 10
7.5924289944
 20
10.8613748474
 30
0.0
 10
7.5906248598
 20
10.8609060921
 30
0.0
 10
7.5891835005
 20
10.8604104421
 30
0.0
 10
7.5880385025
 20
10.8598851177
 30
0.0
 10
7.5872579754
 20
10.8592557497
 30
0.0
 10
7.5872503614
 20
10.8588156362
 30
0.0
  0
SPLINE
  5
5DA
100
AcDbEntity
  8
0
100
AcDbSpline
 62
9
  6
CONTINUOUS
 70
0
 71
3
 72
28
 73
24
 74
0
 42
0.0000001
 43
0.0000001
 44
0.0000000001
 40
0.0
 40
0.0
 40
0.0
 40
0.0
 40
0.0255613981
 40
0.0485279992
 40
0.0689688198
 40
0.0876374748
 40
0.1052625991
 40
0.1221081674
 40
0.1383075933
 40
0.1539564778
 40
0.183910362
 40
0.2127391806
 40
0.2410654133
 40
0.2691317965
 40
0.3249434306
 40
0.3809223686
 40
0.4375337261
 40
0.495020126
 40
0.5535367101
 40
0.6131753733
 40
0.736124642
 40
0.864721556
 40
1.0
 40
1.0
 40
1.0
 40
1.0
 10
10.8786738184
 20
3.3058456399
 30
0.0
 10
10.8786738184
 20
3.2955497593
 30
0.0
 10
10.8771336605
 20
3.275968206
 30
0.0
 10
10.8709861779
 20
3.2488036462
 30
0.0
 10
10.8625975901
 20
3.2251887648
 30
0.0
 10
10.8525732957
 20
3.204612419
 30
0.0
 10
10.8416198301
 20
3.1861990715
 30
0.0
 10
10.8298567816
 20
3.1694974527
 30
0.0
 10
10.8174598737
 20
3.1542801758
 30
0.0
 10
10.8005938168
 20
3.1359572018
 30
0.0
 10
10.7786912446
 20
3.115414421
 30
0.0
 10
10.7510772922
 20
3.0937158788
 30
0.0
 10
10.7227241482
 20
3.0743288352
 30
0.0
 10
10.6840065707
 20
3.0509796917
 30
0.0
 10
10.6337453227
 20
3.0253651582
 30
0.0
 10
10.5710587387
 20
2.9993305865
 30
0.0
 10
10.506346449
 20
2.9767533716
 30
0.0
 10
10.4395999735
 20
2.9571959903
 30
0.0
 10
10.3708904768
 20
2.9402567958
 30
0.0
 10
10.27574199
 20
2.920714773
 30
0.0
 10
10.1516978325
 20
2.9020456372
 30
0.0
 10
9.9964129678
 20
2.8882817132
 30
0.0
 10
9.8900941393
 20
2.8852771293
 30
0.0
 10
9.8356053078
 20
2.8852771293
 30
0.0
  0
SPLINE
  5
5DB
100
AcDbEntity
  8
0
100
AcDbSpline
 62
9
  6
CONTINUOUS
 70
0
 71
3
 72
9
 73
5
 74
0
 42
0.0000001
 43
0.0000001
 44
0.0000000001
 40
0.0
 40
0.0
 40
0.0
 40
0.0
 40
0.5329472925
 40
1.0
 40
1.0
 40
1.0
 40
1.0
 10
11.9350421351
 20
10.8658064568
 30
0.0
 10
11.924074334
 20
10.8658064568
 30
0.0
 10
11.9034944148
 20
10.8654602682
 30
0.0
 10
11.8829335006
 20
10.8643986196
 30
0.0
 10
11.8733546222
 20
10.8636047125
 30
0.0
  0
SPLINE
  5
5DC
100
AcDbEntity
  8
0
100
AcDbSpline
 62
9
  6
CONTINUOUS
 70
0
 71
3
 72
14
 73
10
 74
0
 42
0.0000001
 43
0.0000001
 44
0.0000000001
 40
0.0
 40
0.0
 40
0.0
 40
0.0
 40
0.3866055798
 40
0.5487934916
 40
0.6880984403
 40
0.8031549266
 40
0.893355442
 40
0.9585944627
 40
1.0
 40
1.0
 40
1.0
 40
1.0
 10
11.8733546222
 20
10.8636047125
 30
0.0
 10
11.8695379227
 20
10.8632883806
 30
0.0
 10
11.8641243102
 20
10.8627700387
 30
0.0
 10
11.857365056
 20
10.8618877367
 30
0.0
 10
11.8532888337
 20
10.8612343268
 30
0.0
 10
11.8499451057
 20
10.8605568083
 30
0.0
 10
11.8473460049
 20
10.8598648947
 30
0.0
 10
11.8455334026
 20
10.8591797082
 30
0.0
 10
11.8445965273
 20
10.8586117631
 30
0.0
 10
11.8443431235
 20
10.8582892314
 30
0.0
  0
SPLINE
  5
5DD
100
AcDbEntity
  8
0
100
AcDbSpline
 62
9
  6
CONTINUOUS
 70
0
 71
3
 72
18
 73
14
 74
0
 42
0.0000001
 43
0.0000001
 44
0.0000000001
 40
0.0
 40
0.0
 40
0.0
 40
0.0
 40
0.1973707156
 40
0.3856028356
 40
0.5571497882
 40
0.7063212764
 40
0.8282305686
 40
0.9190593206
 40
0.9518527598
 40
0.9759222218
 40
0.9847508423
 40
0.9915420409
 40
1.0
 40
1.0
 40
1.0
 40
1.0
 10
12.0048716187
 20
10.8658064568
 30
0.0
 10
12.004839763
 20
10.8709499525
 30
0.0
 10
12.0047121696
 20
10.8809984998
 30
0.0
 10
12.0043333482
 20
10.8955137353
 30
0.0
 10
12.0037758938
 20
10.9087660884
 30
0.0
 10
12.0030713076
 20
10.9202809817
 30
0.0
 10
12.002236114
 20
10.9296762791
 30
0.0
 10
12.0014280681
 20
10.9360277324
 30
0.0
 10
12.0006711877
 20
10.9398056739
 30
0.0
 10
12.0002207459
 20
10.9414557991
 30
0.0
 10
11.9998178286
 20
10.9424200241
 30
0.0
 10
11.9995230838
 20
10.9429528037
 30
0.0
 10
11.9991859469
 20
10.9432807907
 30
0.0
 10
11.9989655509
 20
10.9432839905
 30
0.0
  0
SPLINE
  5
5DE
100
AcDbEntity
  8
0
100
AcDbSpline
 62
9
  6
CONTINUOUS
 70
0
 71
3
 72
9
 73
5
 74
0
 42
0.0000001
 43
0.0000001
 44
0.0000000001
 40
0.0
 40
0.0
 40
0.0
 40
0.0
 40
0.5329472925
 40
1.0
 40
1.0
 40
1.0
 40
1.0
 10
11.9351655175
 20
9.7658064568
 30
0.0
 10
11.9241977163
 20
9.7658064568
 30
0.0
 10
11.9036177971
 20
9.7661526455
 30
0.0
 10
11.883056883
 20
9.7672142941
 30
0.0
 10
11.8734780045
 20
9.7680082012
 30
0.0
  0
SPLINE
  5
5DF
100
AcDbEntity
  8
0
100
AcDbSpline
 62
9
  6
CONTINUOUS
 70
0
 71
3
 72
14
 73
10
 74
0
 42
0.0000001
 43
0.0000001
 44
0.0000000001
 40
0.0
 40
0.0
 40
0.0
 40
0.0
 40
0.3866055798
 40
0.5487934916
 40
0.6880984403
 40
0.8031549266
 40
0.893355442
 40
0.9585944627
 40
1.0
 40
1.0
 40
1.0
 40
1.0
 10
11.8734780045
 20
9.7680082012
 30
0.0
 10
11.8696613051
 20
9.768324533
 30
0.0
 10
11.8642476926
 20
9.7688428749
 30
0.0
 10
11.8574884384
 20
9.769725177
 30
0.0
 10
11.8534122161
 20
9.7703785868
 30
0.0
 10
11.8500684881
 20
9.7710561053
 30
0.0
 10
11.8474693873
 20
9.7717480189
 30
0.0
 10
11.845656785
 20
9.7724332054
 30
0.0
 10
11.8447199096
 20
9.7730011506
 30
0.0
 10
11.8444665058
 20
9.7733236822
 30
0.0
  0
SPLINE
  5
5E0
100
AcDbEntity
  8
0
100
AcDbSpline
 62
9
  6
CONTINUOUS
 70
0
 71
3
 72
18
 73
14
 74
0
 42
0.0000001
 43
0.0000001
 44
0.0000000001
 40
0.0
 40
0.0
 40
0.0
 40
0.0
 40
0.0138259625
 40
0.0357609393
 40
0.0658748499
 40
0.1040241652
 40
0.1499557794
 40
0.2031953053
 40
0.3294425643
 40
0.4781894479
 40
0.6439073505
 40
0.8204294483
 40
1.0
 40
1.0
 40
1.0
 40
1.0
 10
11.9297838252
 20
9.8579906257
 30
0.0
 10
11.9300474819
 20
9.8576550443
 30
0.0
 10
11.9304754122
 20
9.856612409
 30
0.0
 10
11.9310111298
 20
9.854659786
 30
0.0
 10
11.9315391438
 20
9.8519195342
 30
0.0
 10
11.9320556231
 20
9.8484339915
 30
0.0
 10
11.932546891
 20
9.8442226934
 30
0.0
 10
11.9332017628
 20
9.8372954957
 30
0.0
 10
11.9338931497
 20
9.8271858055
 30
0.0
 10
11.9345226494
 20
9.8135963189
 30
0.0
 10
11.9349632669
 20
9.7984466945
 30
0.0
 10
11.935191223
 20
9.7823410835
 30
0.0
 10
11.9351998456
 20
9.7713491616
 30
0.0
 10
11.9351655175
 20
9.7658064568
 30
0.0
  0
SPLINE
  5
5E1
100
AcDbEntity
  8
0
100
AcDbSpline
 62
9
  6
CONTINUOUS
 70
0
 71
3
 72
11
 73
7
 74
0
 42
0.0000001
 43
0.0000001
 44
0.0000000001
 40
0.0
 40
0.0
 40
0.0
 40
0.0
 40
0.2496223555
 40
0.499761144
 40
0.750039686
 40
1.0
 40
1.0
 40
1.0
 40
1.0
 10
11.8444665058
 20
9.7733236822
 30
0.0
 10
11.8445347909
 20
9.7843491592
 30
0.0
 10
11.8491006494
 20
9.8066334922
 30
0.0
 10
11.8681390344
 20
9.8347470287
 30
0.0
 10
11.8964106165
 20
9.8535738858
 30
0.0
 10
11.9187432094
 20
9.8579906257
 30
0.0
 10
11.9297838252
 20
9.8579906257
 30
0.0
  0
SPLINE
  5
5E2
100
AcDbEntity
  8
0
100
AcDbSpline
 62
9
  6
CONTINUOUS
 70
0
 71
3
 72
11
 73
7
 74
0
 42
0.0000001
 43
0.0000001
 44
0.0000000001
 40
0.0
 40
0.0
 40
0.0
 40
0.0
 40
0.2493729617
 40
0.4993793193
 40
0.7495490411
 40
1.0
 40
1.0
 40
1.0
 40
1.0
 10
11.8095497614
 20
10.7939256672
 30
0.0
 10
11.809589322
 20
10.7875380972
 30
0.0
 10
11.8111409523
 20
10.774711214
 30
0.0
 10
11.8176979018
 20
10.7564976129
 30
0.0
 10
11.8281991384
 20
10.7402005091
 30
0.0
 10
11.8374724614
 20
10.7311606535
 30
0.0
 10
11.8425363997
 20
10.7272220407
 30
0.0
  0
SPLINE
  5
5E3
100
AcDbEntity
  8
0
100
AcDbSpline
 62
9
  6
CONTINUOUS
 70
0
 71
3
 72
15
 73
11
 74
0
 42
0.0000001
 43
0.0000001
 44
0.0000000001
 40
0.0
 40
0.0
 40
0.0
 40
0.0
 40
0.0211546564
 40
0.0476199005
 40
0.1172320977
 40
0.2095360235
 40
0.3245122039
 40
0.4617847561
 40
0.6206487364
 40
1.0
 40
1.0
 40
1.0
 40
1.0
 10
11.809426379
 20
9.7978439789
 30
0.0
 10
11.8089355097
 20
9.7984687559
 30
0.0
 10
11.8079848497
 20
9.7999947325
 30
0.0
 10
11.8061166812
 20
9.8039867818
 30
0.0
 10
11.803923111
 20
9.8107354582
 30
0.0
 10
11.8014711677
 20
9.8208436363
 30
0.0
 10
11.7990627341
 20
9.8335640249
 30
0.0
 10
11.7967122908
 20
9.8488265045
 30
0.0
 10
11.7934856826
 20
9.8739931168
 30
0.0
 10
11.7915191676
 20
9.894116682
 30
0.0
 10
11.7902876059
 20
9.9083113281
 30
0.0
  0
SPLINE
  5
5E4
100
AcDbEntity
  8
0
100
AcDbSpline
 62
9
  6
CONTINUOUS
 70
0
 71
3
 72
15
 73
11
 74
0
 42
0.0000001
 43
0.0000001
 44
0.0000000001
 40
0.0
 40
0.0
 40
0.0
 40
0.0
 40
0.3793512159
 40
0.5382151387
 40
0.6754876526
 40
0.7904638336
 40
0.8827677732
 40
0.9523800123
 40
0.9788452935
 40
1.0
 40
1.0
 40
1.0
 40
1.0
 10
11.7902876721
 20
10.7033807143
 30
0.0
 10
11.7915192313
 20
10.7175752617
 30
0.0
 10
11.793485741
 20
10.7376986856
 30
0.0
 10
11.7967123396
 20
10.76286512
 30
0.0
 10
11.799062775
 20
10.7781274911
 30
0.0
 10
11.8014711989
 20
10.7908477912
 30
0.0
 10
11.8039231327
 20
10.8009559011
 30
0.0
 10
11.8061166947
 20
10.8077045332
 30
0.0
 10
11.8079848558
 20
10.8116965583
 30
0.0
 10
11.8089355119
 20
10.8132225268
 30
0.0
 10
11.809426379
 20
10.813847301
 30
0.0
  0
SPLINE
  5
5E5
100
AcDbEntity
  8
0
100
AcDbSpline
 62
9
  6
CONTINUOUS
 70
0
 71
3
 72
15
 73
11
 74
0
 42
0.0000001
 43
0.0000001
 44
0.0000000001
 40
0.0
 40
0.0
 40
0.0
 40
0.0
 40
0.0224550759
 40
0.0500097264
 40
0.1211425922
 40
0.2141258991
 40
0.3289994784
 40
0.4655818226
 40
0.6234151554
 40
1.0
 40
1.0
 40
1.0
 40
1.0
 10
11.8095497614
 20
10.7939256672
 30
0.0
 10
11.8091320021
 20
10.7933939445
 30
0.0
 10
11.8083179594
 20
10.7921190617
 30
0.0
 10
11.8067138833
 20
10.7888384297
 30
0.0
 10
11.8048151386
 20
10.7833704071
 30
0.0
 10
11.8026858179
 20
10.7752412818
 30
0.0
 10
11.8005839097
 20
10.7650797064
 30
0.0
 10
11.7985229829
 20
10.7529265435
 30
0.0
 10
11.7956798232
 20
10.7329194596
 30
0.0
 10
11.7939205631
 20
10.7169184544
 30
0.0
 10
11.7928095308
 20
10.7056326713
 30
0.0
  0
SPLINE
  5
5E6
100
AcDbEntity
  8
0
100
AcDbSpline
 62
9
  6
CONTINUOUS
 70
0
 71
3
 72
15
 73
11
 74
0
 42
0.0000001
 43
0.0000001
 44
0.0000000001
 40
0.0
 40
0.0
 40
0.0
 40
0.0
 40
0.3765850815
 40
0.5344185015
 40
0.6710009235
 40
0.7858745071
 40
0.8788577419
 40
0.9499904686
 40
0.9775450275
 40
1.0
 40
1.0
 40
1.0
 40
1.0
 10
11.7928094032
 20
9.906059905
 30
0.0
 10
11.7939204415
 20
9.894773951
 30
0.0
 10
11.7956797124
 20
9.8787727037
 30
0.0
 10
11.7985228923
 20
9.858765316
 30
0.0
 10
11.8005838333
 20
9.8466119701
 30
0.0
 10
11.8026857576
 20
9.8364502449
 30
0.0
 10
11.8048150958
 20
9.8283210054
 30
0.0
 10
11.8067138567
 20
9.8228529097
 30
0.0
 10
11.8083179476
 20
9.8195722374
 30
0.0
 10
11.809131998
 20
9.8182973406
 30
0.0
 10
11.8095497614
 20
9.8177656127
 30
0.0
  0
SPLINE
  5
5E7
100
AcDbEntity
  8
0
100
AcDbSpline
 62
9
  6
CONTINUOUS
 70
0
 71
3
 72
18
 73
14
 74
0
 42
0.0000001
 43
0.0000001
 44
0.0000000001
 40
0.0
 40
0.0
 40
0.0
 40
0.0
 40
0.1795705517
 40
0.3560926495
 40
0.5218105521
 40
0.6705574357
 40
0.7968046947
 40
0.8500442206
 40
0.8959758348
 40
0.9341251501
 40
0.9642390607
 40
0.9861740375
 40
1.0
 40
1.0
 40
1.0
 40
1.0
 10
11.9351655175
 20
10.845884823
 30
0.0
 10
11.9351998456
 20
10.8403421183
 30
0.0
 10
11.935191223
 20
10.8293501963
 30
0.0
 10
11.9349632669
 20
10.8132445854
 30
0.0
 10
11.9345226494
 20
10.798094961
 30
0.0
 10
11.9338931497
 20
10.7845054743
 30
0.0
 10
11.9332017628
 20
10.7743957841
 30
0.0
 10
11.932546891
 20
10.7674685865
 30
0.0
 10
11.9320556231
 20
10.7632572883
 30
0.0
 10
11.9315391438
 20
10.7597717456
 30
0.0
 10
11.9310111298
 20
10.7570314938
 30
0.0
 10
11.9304754122
 20
10.7550788709
 30
0.0
 10
11.9300474819
 20
10.7540362355
 30
0.0
 10
11.9297838252
 20
10.7537006542
 30
0.0
  0
SPLINE
  5
5E8
100
AcDbEntity
  8
0
100
AcDbSpline
 62
9
  6
CONTINUOUS
 70
0
 71
3
 72
14
 73
10
 74
0
 42
0.0000001
 43
0.0000001
 44
0.0000000001
 40
0.0
 40
0.0
 40
0.0
 40
0.0
 40
0.0414055373
 40
0.106644558
 40
0.1968450734
 40
0.3119015597
 40
0.4512065084
 40
0.6133944202
 40
1.0
 40
1.0
 40
1.0
 40
1.0
 10
11.8444665058
 20
10.8383675977
 30
0.0
 10
11.8447199096
 20
10.8386901293
 30
0.0
 10
11.845656785
 20
10.8392580745
 30
0.0
 10
11.8474693873
 20
10.8399432609
 30
0.0
 10
11.8500684881
 20
10.8406351746
 30
0.0
 10
11.8534122161
 20
10.841312693
 30
0.0
 10
11.8574884384
 20
10.8419661029
 30
0.0
 10
11.8642476926
 20
10.8428484049
 30
0.0
 10
11.8696613051
 20
10.8433667468
 30
0.0
 10
11.8734780045
 20
10.8436830787
 30
0.0
  0
SPLINE
  5
5E9
100
AcDbEntity
  8
0
100
AcDbSpline
 62
9
  6
CONTINUOUS
 70
0
 71
3
 72
9
 73
5
 74
0
 42
0.0000001
 43
0.0000001
 44
0.0000000001
 40
0.0
 40
0.0
 40
0.0
 40
0.0
 40
0.4670527075
 40
1.0
 40
1.0
 40
1.0
 40
1.0
 10
11.8734780045
 20
10.8436830787
 30
0.0
 10
11.883056883
 20
10.8444769858
 30
0.0
 10
11.9036177971
 20
10.8455386344
 30
0.0
 10
11.9241977163
 20
10.845884823
 30
0.0
 10
11.9351655175
 20
10.845884823
 30
0.0
  0
SPLINE
  5
5EA
100
AcDbEntity
  8
0
100
AcDbSpline
 62
9
  6
CONTINUOUS
 70
0
 71
3
 72
11
 73
7
 74
0
 42
0.0000001
 43
0.0000001
 44
0.0000000001
 40
0.0
 40
0.0
 40
0.0
 40
0.0
 40
0.249960314
 40
0.500238856
 40
0.7503776445
 40
1.0
 40
1.0
 40
1.0
 40
1.0
 10
11.9297838252
 20
10.7537006542
 30
0.0
 10
11.9187432094
 20
10.7537006542
 30
0.0
 10
11.8964106165
 20
10.7581173941
 30
0.0
 10
11.8681390344
 20
10.7769442512
 30
0.0
 10
11.8491006494
 20
10.8050577876
 30
0.0
 10
11.8445347909
 20
10.8273421207
 30
0.0
 10
11.8444665058
 20
10.8383675977
 30
0.0
  0
SPLINE
  5
5EB
100
AcDbEntity
  8
0
100
AcDbSpline
 62
9
  6
CONTINUOUS
 70
0
 71
3
 72
9
 73
5
 74
0
 42
0.0000001
 43
0.0000001
 44
0.0000000001
 40
0.0
 40
0.0
 40
0.0
 40
0.0
 40
0.5001229576
 40
1.0
 40
1.0
 40
1.0
 40
1.0
 10
11.9925737878
 20
10.7139844751
 30
0.0
 10
11.9987524565
 20
10.7161510092
 30
0.0
 10
12.0106450422
 20
10.7219300554
 30
0.0
 10
12.0208935883
 20
10.7302937582
 30
0.0
 10
12.0254367642
 20
10.7350040895
 30
0.0
  0
SPLINE
  5
5EC
100
AcDbEntity
  8
0
100
AcDbSpline
 62
9
  6
CONTINUOUS
 70
0
 71
3
 72
17
 73
13
 74
0
 42
0.0000001
 43
0.0000001
 44
0.0000000001
 40
0.0
 40
0.0
 40
0.0
 40
0.0
 40
0.1011589806
 40
0.205962511
 40
0.3150319284
 40
0.4292696511
 40
0.4887188187
 40
0.5501205378
 40
0.6142412283
 40
0.6819935608
 40
0.8314378263
 40
1.0
 40
1.0
 40
1.0
 40
1.0
 10
10.7929877763
 20
3.4826722698
 30
0.0
 10
10.7979286352
 20
3.477979865
 30
0.0
 10
10.8077408821
 20
3.4681613478
 30
0.0
 10
10.8218688061
 20
3.4523089433
 30
0.0
 10
10.8353760539
 20
3.434788399
 30
0.0
 10
10.8457478731
 20
3.4187835279
 30
0.0
 10
10.8534736183
 20
3.4049555243
 30
0.0
 10
10.8590337388
 20
3.3937990983
 30
0.0
 10
10.8641695943
 20
3.3818268556
 30
0.0
 10
10.8705311717
 20
3.3639661347
 30
0.0
 10
10.876808
 20
3.3386635363
 30
0.0
 10
10.8786765236
 20
3.3171998918
 30
0.0
 10
10.8786765236
 20
3.3058456399
 30
0.0
  0
SPLINE
  5
5ED
100
AcDbEntity
  8
0
100
AcDbSpline
 62
7
  6
CONTINUOUS
 70
0
 71
3
 72
12
 73
8
 74
0
 42
0.0000001
 43
0.0000001
 44
0.0000000001
 40
0.0
 40
0.0
 40
0.0
 40
0.0
 40
0.3573508126
 40
0.6403289379
 40
0.7543713914
 40
0.8511962351
 40
1.0
 40
1.0
 40
1.0
 40
1.0
 10
11.8850318028
 20
9.879941206
 30
0.0
 10
11.8807902162
 20
9.8798327311
 30
0.0
 10
11.8731960897
 20
9.8793882189
 30
0.0
 10
11.8642692276
 20
9.8787085243
 30
0.0
 10
11.8583936596
 20
9.8786122908
 30
0.0
 10
11.8541510946
 20
9.8788884881
 30
0.0
 10
11.8512010804
 20
9.8795947304
 30
0.0
 10
11.8497042835
 20
9.8805334588
 30
0.0
  0
SPLINE
  5
5EE
100
AcDbEntity
  8
0
100
AcDbSpline
 62
7
  6
CONTINUOUS
 70
0
 71
3
 72
12
 73
8
 74
0
 42
0.0000001
 43
0.0000001
 44
0.0000000001
 40
0.0
 40
0.0
 40
0.0
 40
0.0
 40
0.1488039279
 40
0.2456283518
 40
0.359670448
 40
0.6426493209
 40
1.0
 40
1.0
 40
1.0
 40
1.0
 10
11.8497042835
 20
10.7311578211
 30
0.0
 10
11.8512010822
 20
10.7320965506
 30
0.0
 10
11.8541510853
 20
10.7328028276
 30
0.0
 10
11.8583936487
 20
10.7330789812
 30
0.0
 10
11.8642692152
 20
10.7329827547
 30
0.0
 10
11.8731960824
 20
10.7323030511
 30
0.0
 10
11.8807902172
 20
10.7318585487
 30
0.0
 10
11.8850318028
 20
10.7317500738
 30
0.0
  0
SPLINE
  5
5EF
100
AcDbEntity
  8
0
100
AcDbSpline
 62
9
  6
CONTINUOUS
 70
0
 71
3
 72
18
 73
14
 74
0
 42
0.0000001
 43
0.0000001
 44
0.0000000001
 40
0.0
 40
0.0
 40
0.0
 40
0.0
 40
0.0084579591
 40
0.0152491577
 40
0.0240777782
 40
0.0481472402
 40
0.0809406794
 40
0.1717694314
 40
0.2936787236
 40
0.4428502118
 40
0.6143971644
 40
0.8026292844
 40
1.0
 40
1.0
 40
1.0
 40
1.0
 10
11.9291360674
 20
10.9432839905
 30
0.0
 10
11.9293564634
 20
10.9432807907
 30
0.0
 10
11.9296936003
 20
10.9429528037
 30
0.0
 10
11.9299883451
 20
10.9424200241
 30
0.0
 10
11.9303912624
 20
10.9414557991
 30
0.0
 10
11.9308417042
 20
10.9398056739
 30
0.0
 10
11.9315985846
 20
10.9360277324
 30
0.0
 10
11.9324066305
 20
10.9296762791
 30
0.0
 10
11.9332418241
 20
10.9202809817
 30
0.0
 10
11.9339464103
 20
10.9087660884
 30
0.0
 10
11.9345038647
 20
10.8955137353
 30
0.0
 10
11.9348826861
 20
10.8809984998
 30
0.0
 10
11.9350102795
 20
10.8709499525
 30
0.0
 10
11.9350421351
 20
10.8658064568
 30
0.0
  0
SPLINE
  5
5F0
100
AcDbEntity
  8
0
100
AcDbSpline
 62
7
  6
CONTINUOUS
 70
0
 71
3
 72
9
 73
5
 74
0
 42
0.0000001
 43
0.0000001
 44
0.0000000001
 40
0.0
 40
0.0
 40
0.0
 40
0.0
 40
0.2313352024
 40
1.0
 40
1.0
 40
1.0
 40
1.0
 10
11.8850318028
 20
10.7317500738
 30
0.0
 10
11.8869487391
 20
10.7313184417
 30
0.0
 10
11.8952783803
 20
10.7296556135
 30
0.0
 10
11.9038004897
 20
10.7289065566
 30
0.0
 10
11.9103293449
 20
10.7289390484
 30
0.0
  0
SPLINE
  5
5F1
100
AcDbEntity
  8
0
100
AcDbSpline
 62
7
  6
CONTINUOUS
 70
0
 71
3
 72
9
 73
5
 74
0
 42
0.0000001
 43
0.0000001
 44
0.0000000001
 40
0.0
 40
0.0
 40
0.0
 40
0.0
 40
0.2650120917
 40
1.0
 40
1.0
 40
1.0
 40
1.0
 10
11.9103293449
 20
9.8827522315
 30
0.0
 10
11.908078038
 20
9.8827634355
 30
0.0
 10
11.899582492
 20
9.8825343416
 30
0.0
 10
11.8911231748
 20
9.881312786
 30
0.0
 10
11.8850318028
 20
9.879941206
 30
0.0
  0
SPLINE
  5
5F2
100
AcDbEntity
  8
0
100
AcDbSpline
 62
9
  6
CONTINUOUS
 70
0
 71
3
 72
9
 73
5
 74
0
 42
0.0000001
 43
0.0000001
 44
0.0000000001
 40
0.0
 40
0.0
 40
0.0
 40
0.0
 40
0.2713686893
 40
1.0
 40
1.0
 40
1.0
 40
1.0
 10
10.0641890679
 20
9.6653957405
 30
0.0
 10
10.0799088707
 20
9.6692804362
 30
0.0
 10
10.1374369644
 20
9.6851581565
 30
0.0
 10
10.1933539033
 20
9.7069375452
 30
0.0
 10
10.2323990335
 20
9.7260632287
 30
0.0
  0
SPLINE
  5
5F3
100
AcDbEntity
  8
0
100
AcDbSpline
 62
9
  6
CONTINUOUS
 70
0
 71
3
 72
9
 73
5
 74
0
 42
0.0000001
 43
0.0000001
 44
0.0000000001
 40
0.0
 40
0.0
 40
0.0
 40
0.0
 40
0.2620400558
 40
1.0
 40
1.0
 40
1.0
 40
1.0
 10
10.2323990335
 20
9.7260632287
 30
0.0
 10
10.2380578766
 20
9.7288351299
 30
0.0
 10
10.2595219582
 20
9.7396775913
 30
0.0
 10
10.2804460415
 20
9.7516009021
 30
0.0
 10
10.2954628139
 20
9.7610563772
 30
0.0
  0
SPLINE
  5
5F4
100
AcDbEntity
  8
0
100
AcDbSpline
 62
9
  6
CONTINUOUS
 70
0
 71
3
 72
13
 73
9
 74
0
 42
0.0000001
 43
0.0000001
 44
0.0000000001
 40
0.0
 40
0.0
 40
0.0
 40
0.0
 40
0.2582972582
 40
0.3875064649
 40
0.5151915114
 40
0.6406784751
 40
0.7635997875
 40
1.0
 40
1.0
 40
1.0
 40
1.0
 10
9.3861323283
 20
9.5948327097
 30
0.0
 10
9.3898114723
 20
9.6098997027
 30
0.0
 10
9.3934215017
 20
9.6330478019
 30
0.0
 10
9.3939440293
 20
9.6640137582
 30
0.0
 10
9.3920054495
 20
9.6869383267
 30
0.0
 10
9.3875085714
 20
9.7091302505
 30
0.0
 10
9.3783224088
 20
9.7367946877
 30
0.0
 10
9.367766517
 20
9.7559833896
 30
0.0
 10
9.3592184314
 20
9.7673158323
 30
0.0
  0
LINE
  5
5F5
100
AcDbEntity
  8
0
100
AcDbLine
 62
9
  6
CONTINUOUS
 10
6.3804170781
 20
7.9382099858
 11
6.3846057865
 21
7.9373556636
  0
LINE
  5
5F6
100
AcDbEntity
  8
0
100
AcDbLine
 62
7
  6
CONTINUOUS
 10
12.0664384225
 20
10.3058279388
 11
12.0577283399
 21
10.5851532814
  0
LINE
  5
5F7
100
AcDbEntity
  8
0
100
AcDbLine
 62
7
  6
CONTINUOUS
 10
12.056436107
 20
10.6189089415
 11
12.0562890361
 21
10.62230095
  0
LINE
  5
5F8
100
AcDbEntity
  8
0
100
AcDbLine
 62
7
  6
CONTINUOUS
 10
12.0562890361
 20
10.62230095
 11
12.0546479284
 21
10.6542501107
  0
SPLINE
  5
5F9
100
AcDbEntity
  8
0
100
AcDbSpline
 62
7
  6
CONTINUOUS
 70
0
 71
3
 72
17
 73
13
 74
0
 42
0.0000001
 43
0.0000001
 44
0.0000000001
 40
0.0
 40
0.0
 40
0.0
 40
0.0
 40
0.2136087325
 40
0.4031229366
 40
0.567848057
 40
0.7070806561
 40
0.8201342748
 40
0.9066390317
 40
0.9399021035
 40
0.9665072449
 40
0.9864932737
 40
1.0
 40
1.0
 40
1.0
 40
1.0
 10
12.0546479284
 20
10.6542501107
 30
0.0
 10
12.0543958747
 20
10.6583772655
 30
0.0
 10
12.0538819297
 20
10.6661637718
 30
0.0
 10
12.0530476598
 20
10.6771241336
 30
0.0
 10
12.052230941
 20
10.6866414533
 30
0.0
 10
12.0514643193
 20
10.6946773083
 30
0.0
 10
12.0507882925
 20
10.7012001553
 30
0.0
 10
12.0502658276
 20
10.7056774421
 30
0.0
 10
12.0498539792
 20
10.7084805105
 30
0.0
 10
12.0495825246
 20
10.7100035319
 30
0.0
 10
12.0493161787
 20
10.7111347017
 30
0.0
 10
12.0491080533
 20
10.7117541854
 30
0.0
 10
12.0489857361
 20
10.7119852592
 30
0.0
  0
SPLINE
  5
5FA
100
AcDbEntity
  8
0
100
AcDbSpline
 62
9
  6
CONTINUOUS
 70
0
 71
3
 72
18
 73
14
 74
0
 42
0.0000001
 43
0.0000001
 44
0.0000000001
 40
0.0
 40
0.0
 40
0.0
 40
0.0
 40
0.0084579591
 40
0.0152491577
 40
0.0240777782
 40
0.0481472402
 40
0.0809406794
 40
0.1717694314
 40
0.2936787236
 40
0.4428502118
 40
0.6143971644
 40
0.8026292844
 40
1.0
 40
1.0
 40
1.0
 40
1.0
 10
11.9989655509
 20
9.6684072893
 30
0.0
 10
11.9991859469
 20
9.6684104892
 30
0.0
 10
11.9995230838
 20
9.6687384761
 30
0.0
 10
11.9998178286
 20
9.6692712558
 30
0.0
 10
12.0002207459
 20
9.6702354808
 30
0.0
 10
12.0006711877
 20
9.671885606
 30
0.0
 10
12.0014280681
 20
9.6756635474
 30
0.0
 10
12.002236114
 20
9.6820150007
 30
0.0
 10
12.0030713076
 20
9.6914102982
 30
0.0
 10
12.0037758938
 20
9.7029251915
 30
0.0
 10
12.0043333482
 20
9.7161775445
 30
0.0
 10
12.0047121696
 20
9.73069278
 30
0.0
 10
12.004839763
 20
9.7407413273
 30
0.0
 10
12.0048716187
 20
9.745884823
 30
0.0
  0
SPLINE
  5
5FB
100
AcDbEntity
  8
0
100
AcDbSpline
 62
7
  6
CONTINUOUS
 70
0
 71
3
 72
9
 73
5
 74
0
 42
0.0000001
 43
0.0000001
 44
0.0000000001
 40
0.0
 40
0.0
 40
0.0
 40
0.0
 40
0.480476986
 40
1.0
 40
1.0
 40
1.0
 40
1.0
 10
12.0637813693
 20
10.0932592262
 30
0.0
 10
12.0626226854
 20
10.1272586423
 30
0.0
 10
12.0605520712
 20
10.1980317139
 30
0.0
 10
12.0585801972
 20
10.2688069812
 30
0.0
 10
12.0575339305
 20
10.3055758237
 30
0.0
  0
LINE
  5
5FC
100
AcDbEntity
  8
0
100
AcDbLine
 62
7
  6
CONTINUOUS
 10
12.0575339305
 20
10.3055758237
 11
12.0572765681
 21
10.3146033086
  0
SPLINE
  5
5FD
100
AcDbEntity
  8
0
100
AcDbSpline
 62
7
  6
CONTINUOUS
 70
0
 71
3
 72
16
 73
12
 74
0
 42
0.0000001
 43
0.0000001
 44
0.0000000001
 40
0.0
 40
0.0
 40
0.0
 40
0.0
 40
0.1422165905
 40
0.2825145714
 40
0.419303711
 40
0.5510630994
 40
0.67639161
 40
0.7362137944
 40
0.7939137047
 40
0.9022518731
 40
1.0
 40
1.0
 40
1.0
 40
1.0
 10
12.0572765681
 20
10.3146033086
 30
0.0
 10
12.0568681973
 20
10.3288993236
 30
0.0
 10
12.0560495703
 20
10.3572982772
 30
0.0
 10
12.0548417866
 20
10.399447771
 30
0.0
 10
12.0537239637
 20
10.4405477747
 30
0.0
 10
12.0526780993
 20
10.4801436997
 30
0.0
 10
12.0516594832
 20
10.511997651
 30
0.0
 10
12.0506427914
 20
10.5363986995
 30
0.0
 10
12.0495181639
 20
10.5590844357
 30
0.0
 10
12.0480077546
 20
10.5855686828
 30
0.0
 10
12.0468587112
 20
10.6062621068
 30
0.0
 10
12.0464079459
 20
10.6160816931
 30
0.0
  0
SPLINE
  5
5FE
100
AcDbEntity
  8
0
100
AcDbSpline
 62
9
  6
CONTINUOUS
 70
0
 71
3
 72
16
 73
12
 74
0
 42
0.0000001
 43
0.0000001
 44
0.0000000001
 40
0.0
 40
0.0
 40
0.0
 40
0.0
 40
0.0274681468
 40
0.0510735886
 40
0.0822276849
 40
0.1211431595
 40
0.1678066597
 40
0.2834933896
 40
0.4272549298
 40
0.5967299562
 40
1.0
 40
1.0
 40
1.0
 40
1.0
 10
12.0839602542
 20
10.8588156362
 30
0.0
 10
12.0839526402
 20
10.8592557497
 30
0.0
 10
12.0831721131
 20
10.8598851177
 30
0.0
 10
12.0820271151
 20
10.8604104421
 30
0.0
 10
12.0805857558
 20
10.8609060921
 30
0.0
 10
12.0787816212
 20
10.8613748474
 30
0.0
 10
12.0756210474
 20
10.8620390937
 30
0.0
 10
12.0707717258
 20
10.8627839025
 30
0.0
 10
12.0639404319
 20
10.8635600511
 30
0.0
 10
12.0524980102
 20
10.8645236396
 30
0.0
 10
12.0433287366
 20
10.864990438
 30
0.0
 10
12.036870901
 20
10.8652342421
 30
0.0
  0
SPLINE
  5
5FF
100
AcDbEntity
  8
0
100
AcDbSpline
 62
9
  6
CONTINUOUS
 70
0
 71
3
 72
11
 73
7
 74
0
 42
0.0000001
 43
0.0000001
 44
0.0000000001
 40
0.0
 40
0.0
 40
0.0
 40
0.0
 40
0.2740630166
 40
0.5284374373
 40
0.7689820082
 40
1.0
 40
1.0
 40
1.0
 40
1.0
 10
8.8966625576
 20
3.7676333567
 30
0.0
 10
8.8966881676
 20
3.7626874727
 30
0.0
 10
8.8971605723
 20
3.7531466086
 30
0.0
 10
8.8990957534
 20
3.7393879884
 30
0.0
 10
8.901952011
 20
3.7265912306
 30
0.0
 10
8.9043374598
 20
3.7184158164
 30
0.0
 10
8.9056289783
 20
3.7144517782
 30
0.0
  0
SPLINE
  5
600
100
AcDbEntity
  8
0
100
AcDbSpline
 62
9
  6
CONTINUOUS
 70
0
 71
3
 72
23
 73
19
 74
0
 42
0.0000001
 43
0.0000001
 44
0.0000000001
 40
0.0
 40
0.0
 40
0.0
 40
0.0
 40
0.0308762762
 40
0.0603025375
 40
0.0889692282
 40
0.1172633521
 40
0.1453933952
 40
0.1734961027
 40
0.2016628994
 40
0.2299549815
 40
0.2870863444
 40
0.3451581054
 40
0.4043143615
 40
0.4646740157
 40
0.589297544
 40
0.7196308755
 40
0.85623861
 40
1.0
 40
1.0
 40
1.0
 40
1.0
 10
8.9056289783
 20
3.7144517782
 30
0.0
 10
8.9089684176
 20
3.7042020884
 30
0.0
 10
8.9170781063
 20
3.6846766277
 30
0.0
 10
8.932623861
 20
3.6577096512
 30
0.0
 10
8.950430666
 20
3.6333100418
 30
0.0
 10
8.9698777143
 20
3.6108137602
 30
0.0
 10
8.9908030186
 20
3.5899701209
 30
0.0
 10
9.0129716821
 20
3.5705314838
 30
0.0
 10
9.0362508778
 20
3.5523506118
 30
0.0
 10
9.0686885728
 20
3.529511136
 30
0.0
 10
9.1116169018
 20
3.5035528122
 30
0.0
 10
9.1660179632
 20
3.4761296104
 30
0.0
 10
9.2231347597
 20
3.4519011353
 30
0.0
 10
9.3034660727
 20
3.4232812372
 30
0.0
 10
9.4099566339
 20
3.3946321734
 30
0.0
 10
9.5446990072
 20
3.3707216291
 30
0.0
 10
9.6874888153
 20
3.3563458544
 30
0.0
 10
9.7854132115
 20
3.3533341885
 30
0.0
 10
9.8356053101
 20
3.3533341886
 30
0.0
  0
SPLINE
  5
601
100
AcDbEntity
  8
0
100
AcDbSpline
 62
7
  6
CONTINUOUS
 70
0
 71
3
 72
26
 73
22
 74
0
 42
0.0000001
 43
0.0000001
 44
0.0000000001
 40
0.0
 40
0.0
 40
0.0
 40
0.0
 40
0.0008160386
 40
0.0032274827
 40
0.0072657413
 40
0.012924362
 40
0.0201976267
 40
0.0290874949
 40
0.0517927309
 40
0.0811977634
 40
0.1174832617
 40
0.1608784798
 40
0.211661613
 40
0.2702336519
 40
0.3370867271
 40
0.4128640373
 40
0.4986380888
 40
0.5959182996
 40
0.7063959253
 40
0.8367268932
 40
1.0
 40
1.0
 40
1.0
 40
1.0
 10
12.3252726366
 20
9.6976508023
 30
0.0
 10
12.3252770741
 20
9.6976442753
 30
0.0
 10
12.3253137313
 20
9.6976777349
 30
0.0
 10
12.3253565725
 20
9.6977085328
 30
0.0
 10
12.3254507198
 20
9.6977941821
 30
0.0
 10
12.3255724587
 20
9.6978974818
 30
0.0
 10
12.325736166
 20
9.6980334464
 30
0.0
 10
12.326031043
 20
9.6982653319
 30
0.0
 10
12.3265004169
 20
9.6986236758
 30
0.0
 10
12.3271764905
 20
9.6991466391
 30
0.0
 10
12.328001925
 20
9.6998039587
 30
0.0
 10
12.3289808683
 20
9.7006001038
 30
0.0
 10
12.3301172525
 20
9.7015442647
 30
0.0
 10
12.3314112459
 20
9.7026534866
 30
0.0
 10
12.332865062
 20
9.7039472567
 30
0.0
 10
12.3344853796
 20
9.7054490483
 30
0.0
 10
12.3362724093
 20
9.707203127
 30
0.0
 10
12.3382117369
 20
9.7092771475
 30
0.0
 10
12.3403850974
 20
9.7117217245
 30
0.0
 10
12.342723824
 20
9.7148641668
 30
0.0
 10
12.344096988
 20
9.7173597496
 30
0.0
 10
12.344804406
 20
9.7187715909
 30
0.0
  0
SPLINE
  5
602
100
AcDbEntity
  8
0
100
AcDbSpline
 62
9
  6
CONTINUOUS
 70
0
 71
3
 72
27
 73
23
 74
0
 42
0.0000001
 43
0.0000001
 44
0.0000000001
 40
0.0
 40
0.0
 40
0.0
 40
0.0
 40
0.0311378411
 40
0.0468115232
 40
0.0624595215
 40
0.0781154638
 40
0.0937611092
 40
0.1093987652
 40
0.1250475587
 40
0.1563266962
 40
0.187594305
 40
0.2500772345
 40
0.3125678082
 40
0.3750624151
 40
0.4375591719
 40
0.5000563579
 40
0.5625500561
 40
0.6250432394
 40
0.6875371831
 40
0.7500321091
 40
0.8750140504
 40
1.0
 40
1.0
 40
1.0
 40
1.0
 10
8.8706072382
 20
3.3058846162
 30
0.0
 10
8.8706201056
 20
3.294633041
 30
0.0
 10
8.8732764331
 20
3.2776384342
 30
0.0
 10
8.8808584558
 20
3.2563532407
 30
0.0
 10
8.8883726051
 20
3.2410882783
 30
0.0
 10
8.8973641247
 20
3.2266750352
 30
0.0
 10
8.9075608624
 20
3.213097663
 30
0.0
 10
8.9187446354
 20
3.2003303847
 30
0.0
 10
8.9347282318
 20
3.1843246305
 30
0.0
 10
8.9562681849
 20
3.1659628222
 30
0.0
 10
8.9930393804
 20
3.1396471953
 30
0.0
 10
9.0421790646
 20
3.1115671266
 30
0.0
 10
9.1039159759
 20
3.083535946
 30
0.0
 10
9.1674648208
 20
3.0599294978
 30
0.0
 10
9.2322091567
 20
3.0398852268
 30
0.0
 10
9.2978081173
 20
3.0228725274
 30
0.0
 10
9.3640285002
 20
3.0084973368
 30
0.0
 10
9.4307129223
 20
2.996481643
 30
0.0
 10
9.4977441925
 20
2.9865919406
 30
0.0
 10
9.5874611705
 20
2.9760284206
 30
0.0
 10
9.700099829
 20
2.9674499027
 30
0.0
 10
9.7904419943
 20
2.9652836438
 30
0.0
 10
9.8356053606
 20
2.9652853404
 30
0.0
  0
SPLINE
  5
603
100
AcDbEntity
  8
0
100
AcDbSpline
 62
9
  6
CONTINUOUS
 70
0
 71
3
 72
9
 73
5
 74
0
 42
0.0000001
 43
0.0000001
 44
0.0000000001
 40
0.0
 40
0.0
 40
0.0
 40
0.0
 40
0.2384080369
 40
1.0
 40
1.0
 40
1.0
 40
1.0
 10
10.26435967
 20
10.8946377246
 30
0.0
 10
10.265102778
 20
10.894094423
 30
0.0
 10
10.2681946884
 20
10.8917813405
 30
0.0
 10
10.2711887249
 20
10.8893386501
 30
0.0
 10
10.2734208789
 20
10.8874242671
 30
0.0
  0
SPLINE
  5
604
100
AcDbEntity
  8
0
100
AcDbSpline
 62
9
  6
CONTINUOUS
 70
0
 71
3
 72
9
 73
5
 74
0
 42
0.0000001
 43
0.0000001
 44
0.0000000001
 40
0.0
 40
0.0
 40
0.0
 40
0.0
 40
0.4586169693
 40
1.0
 40
1.0
 40
1.0
 40
1.0
 10
10.2734208789
 20
10.8874242671
 30
0.0
 10
10.2790031789
 20
10.8826366672
 30
0.0
 10
10.2905498691
 20
10.8714654068
 30
0.0
 10
10.3010756249
 20
10.859344874
 30
0.0
 10
10.3065343248
 20
10.8525944759
 30
0.0
  0
SPLINE
  5
605
100
AcDbEntity
  8
0
100
AcDbSpline
 62
9
  6
CONTINUOUS
 70
0
 71
3
 72
24
 73
20
 74
0
 42
0.0000001
 43
0.0000001
 44
0.0000000001
 40
0.0
 40
0.0
 40
0.0
 40
0.0
 40
0.031221119
 40
0.0624603154
 40
0.0937046081
 40
0.1249641918
 40
0.1562240082
 40
0.187474353
 40
0.2187261704
 40
0.2499790031
 40
0.3124760395
 40
0.3749791724
 40
0.4374858923
 40
0.4999922207
 40
0.5624956263
 40
0.6249973518
 40
0.7499923899
 40
0.874993662
 40
1.0
 40
1.0
 40
1.0
 40
1.0
 10
8.8729036011
 20
3.2819799275
 30
0.0
 10
8.8750216968
 20
3.2711339776
 30
0.0
 10
8.8822338332
 20
3.249971052
 30
0.0
 10
8.899182422
 20
3.2212653829
 30
0.0
 10
8.9206754618
 20
3.1958314728
 30
0.0
 10
8.9449816586
 20
3.1731539947
 30
0.0
 10
8.9712809529
 20
3.1528426619
 30
0.0
 10
8.9990115015
 20
3.1345661072
 30
0.0
 10
9.0277831015
 20
3.1179974863
 30
0.0
 10
9.0671837374
 20
3.097835713
 30
0.0
 10
9.1180156597
 20
3.0758923393
 30
0.0
 10
9.1805483504
 20
3.0535581133
 30
0.0
 10
9.2441618486
 20
3.0345308752
 30
0.0
 10
9.3085430208
 20
3.0183219683
 30
0.0
 10
9.3734953965
 20
3.0046034009
 30
0.0
 10
9.4606609348
 20
2.9892816039
 30
0.0
 10
9.5704303359
 20
2.9751385382
 30
0.0
 10
9.702849663
 20
2.9652446477
 30
0.0
 10
9.7913588332
 20
2.9631605239
 30
0.0
 10
9.8356053078
 20
2.9631603453
 30
0.0
  0
SPLINE
  5
606
100
AcDbEntity
  8
0
100
AcDbSpline
 62
9
  6
CONTINUOUS
 70
0
 71
3
 72
28
 73
24
 74
0
 42
0.0000001
 43
0.0000001
 44
0.0000000001
 40
0.0
 40
0.0
 40
0.0
 40
0.0
 40
0.135299487
 40
0.2638739891
 40
0.3868226428
 40
0.4464618593
 40
0.504977328
 40
0.5624630472
 40
0.6190745864
 40
0.6750541979
 40
0.7308647298
 40
0.7589284557
 40
0.7872472781
 40
0.8160636667
 40
0.8460145892
 40
0.8616703115
 40
0.8778784376
 40
0.8947288237
 40
0.9123487787
 40
0.9310012335
 40
0.9514357432
 40
0.9744223922
 40
1.0
 40
1.0
 40
1.0
 40
1.0
 10
9.8356053078
 20
2.8852751131
 30
0.0
 10
9.7811076794
 20
2.8852751131
 30
0.0
 10
9.6747887824
 20
2.8882807113
 30
0.0
 10
9.5195038525
 20
2.9020447712
 30
0.0
 10
9.3954679608
 20
2.9207129576
 30
0.0
 10
9.3003193204
 20
2.9402547262
 30
0.0
 10
9.2316099706
 20
2.9571941702
 30
0.0
 10
9.1648636765
 20
2.9767512895
 30
0.0
 10
9.1001509202
 20
2.999328651
 30
0.0
 10
9.0374643353
 20
3.0253640032
 30
0.0
 10
8.9872038211
 20
3.050977892
 30
0.0
 10
8.9484893604
 20
3.0743239655
 30
0.0
 10
8.9201417804
 20
3.093703288
 30
0.0
 10
8.8925310792
 20
3.1153914844
 30
0.0
 10
8.8706311133
 20
3.1359326107
 30
0.0
 10
8.8537644233
 20
3.1542620864
 30
0.0
 10
8.8413632101
 20
3.1694864995
 30
0.0
 10
8.8295959036
 20
3.1861892559
 30
0.0
 10
8.818639189
 20
3.2045928864
 30
0.0
 10
8.8086102615
 20
3.2251548658
 30
0.0
 10
8.8002219694
 20
3.2487694472
 30
0.0
 10
8.7940779898
 20
3.2759472236
 30
0.0
 10
8.792534781
 20
3.2955431695
 30
0.0
 10
8.792534781
 20
3.3058456399
 30
0.0
  0
SPLINE
  5
607
100
AcDbEntity
  8
0
100
AcDbSpline
 62
9
  6
CONTINUOUS
 70
0
 71
3
 72
12
 73
8
 74
0
 42
0.0000001
 43
0.0000001
 44
0.0000000001
 40
0.0
 40
0.0
 40
0.0
 40
0.0
 40
0.2886006952
 40
0.5523913777
 40
0.674266914
 40
0.7892101724
 40
1.0
 40
1.0
 40
1.0
 40
1.0
 10
9.6522190469
 20
9.6554469286
 30
0.0
 10
9.6233598291
 20
9.6610356599
 30
0.0
 10
9.5685968381
 20
9.6743946199
 30
0.0
 10
9.503646452
 20
9.6970352016
 30
0.0
 10
9.456809175
 20
9.7172346494
 30
0.0
 10
9.4157978817
 20
9.7371694358
 30
0.0
 10
9.3869566986
 20
9.7537106597
 30
0.0
 10
9.3689460355
 20
9.7653972097
 30
0.0
  0
SPLINE
  5
608
100
AcDbEntity
  8
0
100
AcDbSpline
 62
7
  6
CONTINUOUS
 70
0
 71
3
 72
9
 73
5
 74
0
 42
0.0000001
 43
0.0000001
 44
0.0000000001
 40
0.0
 40
0.0
 40
0.0
 40
0.0
 40
0.3883539379
 40
1.0
 40
1.0
 40
1.0
 40
1.0
 10
12.0524963163
 20
9.9384534183
 30
0.0
 10
12.0522469128
 20
9.9388465908
 30
0.0
 10
12.051840936
 20
9.9399928901
 30
0.0
 10
12.051559049
 20
9.9411535012
 30
0.0
 10
12.0514068803
 20
9.9418708513
 30
0.0
  0
SPLINE
  5
609
100
AcDbEntity
  8
0
100
AcDbSpline
 62
7
  6
CONTINUOUS
 70
0
 71
3
 72
11
 73
7
 74
0
 42
0.0000001
 43
0.0000001
 44
0.0000000001
 40
0.0
 40
0.0
 40
0.0
 40
0.0
 40
0.1568104308
 40
0.3764110603
 40
0.6578518911
 40
1.0
 40
1.0
 40
1.0
 40
1.0
 10
12.0514068803
 20
9.9418708513
 30
0.0
 10
12.0510463299
 20
9.943570549
 30
0.0
 10
12.0504123
 20
9.9476972603
 30
0.0
 10
12.0495799577
 20
9.9549382968
 30
0.0
 10
12.0487296587
 20
9.9642434553
 30
0.0
 10
12.0481943801
 20
9.9711322689
 30
0.0
 10
12.0479174185
 20
9.9749132673
 30
0.0
  0
SPLINE
  5
60A
100
AcDbEntity
  8
0
100
AcDbSpline
 62
7
  6
CONTINUOUS
 70
0
 71
3
 72
9
 73
5
 74
0
 42
0.0000001
 43
0.0000001
 44
0.0000000001
 40
0.0
 40
0.0
 40
0.0
 40
0.0
 40
0.2135343016
 40
1.0
 40
1.0
 40
1.0
 40
1.0
 10
12.0479174185
 20
9.9749132673
 30
0.0
 10
12.0476512288
 20
9.9785472097
 30
0.0
 10
12.0464826278
 20
9.9955709617
 30
0.0
 10
12.0456012069
 20
10.0126138932
 30
0.0
 10
12.0450318028
 20
10.0260217985
 30
0.0
  0
SPLINE
  5
60B
100
AcDbEntity
  8
0
100
AcDbSpline
 62
9
  6
CONTINUOUS
 70
0
 71
3
 72
12
 73
8
 74
0
 42
0.0000001
 43
0.0000001
 44
0.0000000001
 40
0.0
 40
0.0
 40
0.0
 40
0.0
 40
0.2241809876
 40
0.4669953742
 40
0.595828054
 40
0.7286929461
 40
1.0
 40
1.0
 40
1.0
 40
1.0
 10
6.6235103078
 20
10.6458472167
 30
0.0
 10
6.6165444637
 20
10.6458979761
 30
0.0
 10
6.6019891178
 20
10.648303504
 30
0.0
 10
6.5851040393
 20
10.6565733931
 30
0.0
 10
6.5729001416
 20
10.6664963627
 30
0.0
 10
6.5615584865
 20
10.6786115974
 30
0.0
 10
6.5547658264
 20
10.6893842261
 30
0.0
 10
6.5512015401
 20
10.6970240765
 30
0.0
  0
SPLINE
  5
60C
100
AcDbEntity
  8
0
100
AcDbSpline
 62
9
  6
CONTINUOUS
 70
0
 71
3
 72
11
 73
7
 74
0
 42
0.0000001
 43
0.0000001
 44
0.0000000001
 40
0.0
 40
0.0
 40
0.0
 40
0.0
 40
0.2328220838
 40
0.4795729863
 40
0.7379359777
 40
1.0
 40
1.0
 40
1.0
 40
1.0
 10
6.6234965985
 20
9.9658439909
 30
0.0
 10
6.6162680783
 20
9.9657891573
 30
0.0
 10
6.6013316202
 20
9.9631918308
 30
0.0
 10
6.5805729314
 20
9.9527145438
 30
0.0
 10
6.5632753988
 20
9.9359000809
 30
0.0
 10
6.5546415921
 20
9.922040878
 30
0.0
 10
6.5512015022
 20
9.9146672292
 30
0.0
  0
SPLINE
  5
60D
100
AcDbEntity
  8
0
100
AcDbSpline
 62
9
  6
CONTINUOUS
 70
0
 71
3
 72
17
 73
13
 74
0
 42
0.0000001
 43
0.0000001
 44
0.0000000001
 40
0.0
 40
0.0
 40
0.0
 40
0.0
 40
0.1686068774
 40
0.3180587954
 40
0.3858024266
 40
0.4499111547
 40
0.5113003644
 40
0.5707375025
 40
0.6849508306
 40
0.7940042042
 40
0.8988104334
 40
1.0
 40
1.0
 40
1.0
 40
1.0
 10
8.7925358106
 20
3.3058456399
 30
0.0
 10
8.7925358106
 20
3.3172103585
 30
0.0
 10
8.7944067917
 20
3.3386916501
 30
0.0
 10
8.8006908635
 20
3.3640132176
 30
0.0
 10
8.8070595187
 20
3.3818837223
 30
0.0
 10
8.8122005612
 20
3.393860619
 30
0.0
 10
8.8177658569
 20
3.4050208538
 30
0.0
 10
8.8254980231
 20
3.4188534023
 30
0.0
 10
8.8358791424
 20
3.4348630023
 30
0.0
 10
8.8493997525
 20
3.4523884061
 30
0.0
 10
8.863543957
 20
3.4682465447
 30
0.0
 10
8.873368321
 20
3.4780690232
 30
0.0
 10
8.87831601
 20
3.4827637244
 30
0.0
  0
SPLINE
  5
60E
100
AcDbEntity
  8
0
100
AcDbSpline
 62
9
  6
CONTINUOUS
 70
0
 71
3
 72
13
 73
9
 74
0
 42
0.0000001
 43
0.0000001
 44
0.0000000001
 40
0.0
 40
0.0
 40
0.0
 40
0.0
 40
0.2353865368
 40
0.3590299749
 40
0.4856575668
 40
0.6142216425
 40
0.7435488459
 40
1.0
 40
1.0
 40
1.0
 40
1.0
 10
9.3861339719
 20
9.594831148
 30
0.0
 10
9.3840654256
 20
9.6099052935
 30
0.0
 10
9.3791293651
 20
9.6326974352
 30
0.0
 10
9.3691301935
 20
9.6624772171
 30
0.0
 10
9.3595263147
 20
9.6850326166
 30
0.0
 10
9.3480214414
 20
9.7070957606
 30
0.0
 10
9.3303517529
 20
9.7352868168
 30
0.0
 10
9.3144569256
 20
9.7547084995
 30
0.0
 10
9.3028844351
 20
9.7665775943
 30
0.0
  0
SPLINE
  5
60F
100
AcDbEntity
  8
0
100
AcDbSpline
 62
9
  6
CONTINUOUS
 70
0
 71
3
 72
15
 73
11
 74
0
 42
0.0000001
 43
0.0000001
 44
0.0000000001
 40
0.0
 40
0.0
 40
0.0
 40
0.0
 40
0.0344721224
 40
0.0592055747
 40
0.0902781967
 40
0.1729222868
 40
0.2839766833
 40
0.42334827
 40
0.5899896194
 40
1.0
 40
1.0
 40
1.0
 40
1.0
 10
7.5872503614
 20
9.7528756437
 30
0.0
 10
7.5872546995
 20
9.7526248884
 30
0.0
 10
7.5875311523
 20
9.7522236604
 30
0.0
 10
7.588056415
 20
9.7518440091
 30
0.0
 10
7.5889488663
 20
9.7513625838
 30
0.0
 10
7.5904938771
 20
9.7508155121
 30
0.0
 10
7.5928419514
 20
9.7502100025
 30
0.0
 10
7.5958212464
 20
9.749628448
 30
0.0
 10
7.6009694403
 20
9.7488284767
 30
0.0
 10
7.6051417084
 20
9.7483695317
 30
0.0
 10
7.6081111782
 20
9.7480865674
 30
0.0
  0
SPLINE
  5
610
100
AcDbEntity
  8
0
100
AcDbSpline
 62
9
  6
CONTINUOUS
 70
0
 71
3
 72
9
 73
5
 74
0
 42
0.0000001
 43
0.0000001
 44
0.0000000001
 40
0.0
 40
0.0
 40
0.0
 40
0.0
 40
0.4621236854
 40
1.0
 40
1.0
 40
1.0
 40
1.0
 10
7.6081111782
 20
9.7480865674
 30
0.0
 10
7.6121413763
 20
9.747702525
 30
0.0
 10
7.6208797812
 20
9.7470544218
 30
0.0
 10
7.6296309802
 20
9.7466348076
 30
0.0
 10
7.6343397146
 20
9.7464570378
 30
0.0
  0
SPLINE
  5
611
100
AcDbEntity
  8
0
100
AcDbSpline
 62
9
  6
CONTINUOUS
 70
0
 71
3
 72
16
 73
12
 74
0
 42
0.0000001
 43
0.0000001
 44
0.0000000001
 40
0.0
 40
0.0
 40
0.0
 40
0.0
 40
0.0274681468
 40
0.0510735886
 40
0.0822276849
 40
0.1211431595
 40
0.1678066597
 40
0.2834933896
 40
0.4272549298
 40
0.5967299562
 40
1.0
 40
1.0
 40
1.0
 40
1.0
 10
12.0840836366
 20
9.7727972774
 30
0.0
 10
12.0840760226
 20
9.7723571639
 30
0.0
 10
12.0832954955
 20
9.7717277959
 30
0.0
 10
12.0821504975
 20
9.7712024716
 30
0.0
 10
12.0807091382
 20
9.7707068216
 30
0.0
 10
12.0789050036
 20
9.7702380662
 30
0.0
 10
12.0757444297
 20
9.76957382
 30
0.0
 10
12.0708951082
 20
9.7688290112
 30
0.0
 10
12.0640638143
 20
9.7680528625
 30
0.0
 10
12.0526213926
 20
9.767089274
 30
0.0
 10
12.043452119
 20
9.7666224756
 30
0.0
 10
12.0369942834
 20
9.7663786715
 30
0.0
  0
SPLINE
  5
612
100
AcDbEntity
  8
0
100
AcDbSpline
 62
9
  6
CONTINUOUS
 70
0
 71
3
 72
10
 73
6
 74
0
 42
0.0000001
 43
0.0000001
 44
0.0000000001
 40
0.0
 40
0.0
 40
0.0
 40
0.0
 40
0.5146426704
 40
0.7620959261
 40
1.0
 40
1.0
 40
1.0
 40
1.0
 10
13.2226847529
 20
7.9359635661
 30
0.0
 10
13.2145952453
 20
7.9391336448
 30
0.0
 10
13.2030497569
 20
7.9449684848
 30
0.0
 10
13.1887489981
 20
7.9539387154
 30
0.0
 10
13.1819949994
 20
7.9585848925
 30
0.0
 10
13.1787329714
 20
7.960928144
 30
0.0
  0
SPLINE
  5
613
100
AcDbEntity
  8
0
100
AcDbSpline
 62
9
  6
CONTINUOUS
 70
0
 71
3
 72
9
 73
5
 74
0
 42
0.0000001
 43
0.0000001
 44
0.0000000001
 40
0.0
 40
0.0
 40
0.0
 40
0.0
 40
0.2510815558
 40
1.0
 40
1.0
 40
1.0
 40
1.0
 10
13.2526003509
 20
7.93070338
 30
0.0
 10
13.2500496248
 20
7.9306528051
 30
0.0
 10
13.2398884934
 20
7.9309410765
 30
0.0
 10
13.2297699456
 20
7.9331879063
 30
0.0
 10
13.2226844012
 20
7.9359633268
 30
0.0
  0
SPLINE
  5
614
100
AcDbEntity
  8
0
100
AcDbSpline
 62
9
  6
CONTINUOUS
 70
0
 71
3
 72
12
 73
8
 74
0
 42
0.0000001
 43
0.0000001
 44
0.0000000001
 40
0.0
 40
0.0
 40
0.0
 40
0.0
 40
0.2569837603
 40
0.3843105836
 40
0.5101091415
 40
0.7577774895
 40
1.0
 40
1.0
 40
1.0
 40
1.0
 10
13.205276669
 20
7.9010019777
 30
0.0
 10
13.2003804032
 20
7.9053314764
 30
0.0
 10
13.1934991312
 20
7.9123363896
 30
0.0
 10
13.1854900188
 20
7.9225545987
 30
0.0
 10
13.1784165697
 20
7.9331607956
 30
0.0
 10
13.1709510789
 20
7.9469528973
 30
0.0
 10
13.1657794452
 20
7.958300597
 30
0.0
 10
13.1634730536
 20
7.9640130399
 30
0.0
  0
SPLINE
  5
615
100
AcDbEntity
  8
0
100
AcDbSpline
 62
9
  6
CONTINUOUS
 70
0
 71
3
 72
9
 73
5
 74
0
 42
0.0000001
 43
0.0000001
 44
0.0000000001
 40
0.0
 40
0.0
 40
0.0
 40
0.0
 40
0.5000098003
 40
1.0
 40
1.0
 40
1.0
 40
1.0
 10
13.2513330598
 20
7.8908406355
 30
0.0
 10
13.2434248626
 20
7.8908363658
 30
0.0
 10
13.2275612662
 20
7.8925376583
 30
0.0
 10
13.2124368851
 20
7.897645491
 30
0.0
 10
13.205276669
 20
7.9010019777
 30
0.0
  0
SPLINE
  5
616
100
AcDbEntity
  8
0
100
AcDbSpline
 62
9
  6
CONTINUOUS
 70
0
 71
3
 72
12
 73
8
 74
0
 42
0.0000001
 43
0.0000001
 44
0.0000000001
 40
0.0
 40
0.0
 40
0.0
 40
0.0
 40
0.3286782654
 40
0.633895337
 40
0.8645054032
 40
0.9449416145
 40
1.0
 40
1.0
 40
1.0
 40
1.0
 10
13.2052768319
 20
7.9010019021
 30
0.0
 10
13.2070918412
 20
7.9048778089
 30
0.0
 10
13.210633568
 20
7.9123337632
 30
0.0
 10
13.215565118
 20
7.9224529987
 30
0.0
 10
13.2191898628
 20
7.929613527
 30
0.0
 10
13.221443235
 20
7.9338143555
 30
0.0
 10
13.2223105882
 20
7.9353515156
 30
0.0
 10
13.2226844964
 20
7.9359632228
 30
0.0
  0
SPLINE
  5
617
100
AcDbEntity
  8
0
100
AcDbSpline
 62
9
  6
CONTINUOUS
 70
0
 71
3
 72
18
 73
14
 74
0
 42
0.0000001
 43
0.0000001
 44
0.0000000001
 40
0.0
 40
0.0
 40
0.0
 40
0.0
 40
0.1749758557
 40
0.3535001178
 40
0.524957165
 40
0.6787351223
 40
0.8057100116
 40
0.8580540286
 40
0.9026831306
 40
0.9393858081
 40
0.9679561247
 40
0.9882036261
 40
1.0
 40
1.0
 40
1.0
 40
1.0
 10
13.251333067
 20
7.8908406355
 30
0.0
 10
13.2513318094
 20
7.893168543
 30
0.0
 10
13.2513460288
 20
7.8978715864
 30
0.0
 10
13.2514106212
 20
7.9048554461
 30
0.0
 10
13.2515179959
 20
7.9115567544
 30
0.0
 10
13.251665568
 20
7.9175712888
 30
0.0
 10
13.2518322373
 20
7.9220000098
 30
0.0
 10
13.2519885892
 20
7.924975313
 30
0.0
 10
13.2521026509
 20
7.9267503409
 30
0.0
 10
13.2522204672
 20
7.9282073038
 30
0.0
 10
13.2523352819
 20
7.9293407116
 30
0.0
 10
13.2524531244
 20
7.9301361128
 30
0.0
 10
13.2525370144
 20
7.9305584465
 30
0.0
 10
13.2525979154
 20
7.9307030892
 30
0.0
  0
SPLINE
  5
618
100
AcDbEntity
  8
0
100
AcDbSpline
 62
9
  6
CONTINUOUS
 70
0
 71
3
 72
9
 73
5
 74
0
 42
0.0000001
 43
0.0000001
 44
0.0000000001
 40
0.0
 40
0.0
 40
0.0
 40
0.0
 40
0.5000188613
 40
1.0
 40
1.0
 40
1.0
 40
1.0
 10
13.2537790242
 20
7.6228820927
 30
0.0
 10
13.2454756979
 20
7.6231051484
 30
0.0
 10
13.2287650199
 20
7.6216697792
 30
0.0
 10
13.2128109205
 20
7.6164580771
 30
0.0
 10
13.205276669
 20
7.612962419
 30
0.0
  0
SPLINE
  5
619
100
AcDbEntity
  8
0
100
AcDbSpline
 62
9
  6
CONTINUOUS
 70
0
 71
3
 72
25
 73
21
 74
0
 42
0.0000001
 43
0.0000001
 44
0.0000000001
 40
0.0
 40
0.0
 40
0.0
 40
0.0
 40
0.2160487445
 40
0.4114254132
 40
0.5832725563
 40
0.6594610087
 40
0.7286652264
 40
0.7905391047
 40
0.8448458941
 40
0.8913759442
 40
0.9299190497
 40
0.9461296731
 40
0.9602644942
 40
0.9722970929
 40
0.9822010194
 40
0.9899497947
 40
0.9955169112
 40
0.9974740564
 40
0.998875834
 40
1.0
 40
1.0
 40
1.0
 40
1.0
 10
10.2850751253
 20
9.5948423473
 30
0.0
 10
10.2925695859
 20
9.5903383005
 30
0.0
 10
10.3067323311
 20
9.5815782292
 30
0.0
 10
10.3265169372
 20
9.568698802
 30
0.0
 10
10.341362687
 20
9.558615208
 30
0.0
 10
10.351895843
 20
9.5512737591
 30
0.0
 10
10.3587466717
 20
9.5464331934
 30
0.0
 10
10.3648534563
 20
9.5420744053
 30
0.0
 10
10.370195642
 20
9.538224124
 30
0.0
 10
10.3747570119
 20
9.5349053236
 30
0.0
 10
10.3780609312
 20
9.5324793681
 30
0.0
 10
10.3803027983
 20
9.5308214676
 30
0.0
 10
10.3816791556
 20
9.529799293
 30
0.0
 10
10.3828507119
 20
9.5289249213
 30
0.0
 10
10.3838082278
 20
9.5282086604
 30
0.0
 10
10.3845694765
 20
9.5276331655
 30
0.0
 10
10.3850412101
 20
9.5272825983
 30
0.0
 10
10.3853581524
 20
9.527034695
 30
0.0
 10
10.3854514887
 20
9.5269773443
 30
0.0
 10
10.3856320078
 20
9.5268139603
 30
0.0
 10
10.3856052978
 20
9.526850791
 30
0.0
  0
SPLINE
  5
61A
100
AcDbEntity
  8
0
100
AcDbSpline
 62
9
  6
CONTINUOUS
 70
0
 71
3
 72
18
 73
14
 74
0
 42
0.0000001
 43
0.0000001
 44
0.0000000001
 40
0.0
 40
0.0
 40
0.0
 40
0.0
 40
0.0084579591
 40
0.0152491577
 40
0.0240777782
 40
0.0481472402
 40
0.0809406794
 40
0.1717694314
 40
0.2936787236
 40
0.4428502118
 40
0.6143971644
 40
0.8026292844
 40
1.0
 40
1.0
 40
1.0
 40
1.0
 10
7.7420745483
 20
9.6684072893
 30
0.0
 10
7.7418541522
 20
9.6684104892
 30
0.0
 10
7.7415170153
 20
9.6687384761
 30
0.0
 10
7.7412222706
 20
9.6692712558
 30
0.0
 10
7.7408193533
 20
9.6702354808
 30
0.0
 10
7.7403689115
 20
9.671885606
 30
0.0
 10
7.7396120311
 20
9.6756635474
 30
0.0
 10
7.7388039852
 20
9.6820150007
 30
0.0
 10
7.7379687916
 20
9.6914102982
 30
0.0
 10
7.7372642053
 20
9.7029251915
 30
0.0
 10
7.736706751
 20
9.7161775445
 30
0.0
 10
7.7363279295
 20
9.73069278
 30
0.0
 10
7.7362003362
 20
9.7407413273
 30
0.0
 10
7.7361684805
 20
9.745884823
 30
0.0
  0
SPLINE
  5
61B
100
AcDbEntity
  8
0
100
AcDbSpline
 62
9
  6
CONTINUOUS
 70
0
 71
3
 72
11
 73
7
 74
0
 42
0.0000001
 43
0.0000001
 44
0.0000000001
 40
0.0
 40
0.0
 40
0.0
 40
0.0
 40
0.2352071209
 40
0.4831696137
 40
0.7399817537
 40
1.0
 40
1.0
 40
1.0
 40
1.0
 10
10.2850669242
 20
9.5948379335
 30
0.0
 10
10.2867119753
 20
9.6068248505
 30
0.0
 10
10.2916077053
 20
9.6312621963
 30
0.0
 10
10.3035011817
 20
9.6675197362
 30
0.0
 10
10.3203834124
 20
9.7031641738
 30
0.0
 10
10.3347297996
 20
9.7256540553
 30
0.0
 10
10.3426803136
 20
9.7364102365
 30
0.0
  0
ENDSEC
  0
SECTION
  2
OBJECTS
  0
DICTIONARY
  5
C
100
AcDbDictionary
280
0
281
1
  3
ACAD_GROUP
350
D
  3
ACAD_MLINESTYLE
350
17
  3
ACAD_LAYOUT
350
1A
  3
ACAD_PLOTSETTINGS
350
19
  3
ACAD_PLOTSTYLENAME
350
E
  0
DICTIONARY
  5
D
102
{ACAD_REACTORS
330
C
102
}
100
AcDbDictionary
280
0
281
1
  0
ACDBDICTIONARYWDFLT
  5
E
102
{ACAD_REACTORS
330
C
102
}
100
AcDbDictionary
281
1
  3
Normal
350
F
100
AcDbDictionaryWithDefault
340
F
  0
DICTIONARY
  5
17
102
{ACAD_REACTORS
330
C
102
}
100
AcDbDictionary
280
0
281
1
  3
Standard
350
18
  0
DICTIONARY
  5
19
102
{ACAD_REACTORS
330
C
102
}
100
AcDbDictionary
281
1
  0
DICTIONARY
  5
1A
102
{ACAD_REACTORS
330
C
102
}
100
AcDbDictionary
281
1
  3
Model
350
61C
  3
Layout1
350
61D
  0
ACDBPLACEHOLDER
  5
F
102
{ACAD_REACTORS
330
E
102
}
  0
MLINESTYLE
  5
18
102
{ACAD_REACTORS
330
17
102
}
100
AcDbMlineStyle
  2
STANDARD
 70
0
  3

 62
256
 51
90.0
 52
90.0
 71
2
 49
0.5
 62
256
  6
BYLAYER
 49
-0.5
 62
256
  6
BYLAYER
  0
LAYOUT
  5
61C
102
{ACAD_REACTORS
330
1A
102
}
100
AcDbPlotSettings
  1

  2
none_device
  4
ANSI_C_(22.00_x_17.00_Inches)
  6

 40
0.0
 41
0.0
 42
0.0
 43
0.0
 44
558.8
 45
431.8
 46
0.0
 47
0.0
 48
0.0
 49
0.0
140
0.0
141
0.0
142
1.0
143
1.0
 70
1024
 72
0
 73
0
 74
0
  7

 75
0
147
1.0
148
0.0
149
0.0
100
AcDbLayout
  1
Model
 70
0
 71
0
 10
0.0
 20
0.0
 11
22.0
 21
17.0
 12
0.0
 22
0.0
 32
0.0
 14
0.0
 24
0.0
 34
0.0
 15
0.0
 25
0.0
 35
0.0
146
0.0
 13
0.0
 23
0.0
 33
0.0
 16
1.0
 26
0.0
 36
0.0
 17
0.0
 27
1.0
 37
0.0
 76
0
330
202
345
0
346
0
  0
LAYOUT
  5
61D
102
{ACAD_REACTORS
330
1A
102
}
100
AcDbPlotSettings
  1

  2
none_device
  4
ANSI_C_(22.00_x_17.00_Inches)
  6

 40
0.0
 41
0.0
 42
0.0
 43
0.0
 44
558.8
 45
431.8
 46
0.0
 47
0.0
 48
0.0
 49
0.0
140
0.0
141
0.0
142
1.0
143
1.0
 70
0
 72
0
 73
0
 74
0
  7

 75
0
147
1.0
148
0.0
149
0.0
100
AcDbLayout
  1
Layout1
 70
0
 71
1
 10
0.0
 20
0.0
 11
22.0
 21
17.0
 12
0.0
 22
0.0
 32
0.0
 14
0.0
 24
0.0
 34
0.0
 15
0.0
 25
0.0
 35
0.0
146
0.0
 13
0.0
 23
0.0
 33
0.0
 16
1.0
 26
0.0
 36
0.0
 17
0.0
 27
1.0
 37
0.0
 76
0
330
203
345
0
346
0
  0
ENDSEC
  0
EOF
