999
DXF file: 1623-1_TOP.dxf
999
Pro/ENGINEER 2023134 by Parametric Technology Corporation
  0
SECTION
  2
HEADER
  9
$ACADVER
  1
AC1032
  9
$DWGCODEPAGE
  3
ANSI_1252
  9
$EXTMAX
 10
22.0
 20
17.0
 30
0.0
  9
$EXTMIN
 10
0.0
 20
0.0
 30
0.0
  9
$LIMMIN
 10
0.0
 20
0.0
  9
$LIMMAX
 10
22.0
 20
17.0
  9
$VIEWCTR
 10
11.0
 20
8.5
  9
$VIEWSIZE
 40
17.0
  9
$CLAYER
  8
0
  9
$LTSCALE
 40
1.21
  9
$CELTYPE
  6
BYLAYER
  9
$DIMSCALE
 40
1.0
  9
$DIMASZ
 40
0.1
  9
$DIMEXO
 40
0.0625
  9
$DIMDLI
 40
0.836
  9
$DIMEXE
 40
0.125
  9
$DIMCEN
 40
0.198
  9
$DIMLFAC
 40
1.0
  9
$DIMBLK
  1
_FILLED
  9
$DIMALT
 70
1
  9
$DIMALTD
 70
2
  9
$DIMALTTD
 70
2
  9
$DIMALTF
 40
25.4
  9
$DIMTXT
 40
0.08
  9
$DIMTOL
 70
1
  9
$DIMLIM
 70
0
  9
$DIMTFAC
 40
1.0
  9
$DIMTP
 40
0.001
  9
$DIMTM
 40
0.001
  9
$DIMGAP
 40
0.09
  9
$DIMDSEP
 70
46
  9
$AUNITS
 70
0
  9
$PDMODE
 70
3
  9
$PDSIZE
 40
0.3125
  9
$HANDSEED
  5
455
  9
$TILEMODE
 70
1
  9
$MEASUREMENT
 70
0
  9
$INSUNITS
 70
1
  0
ENDSEC
  0
SECTION
  2
CLASSES
  0
CLASS
  1
ACDBDICTIONARYWDFLT
  2
AcDbDictionaryWithDefault
  3
AutoCAD 2000
 90
0
 91
1
280
0
281
0
  0
CLASS
  1
ACDBPLACEHOLDER
  2
AcDbPlaceHolder
  3
AutoCAD 2000
 90
0
 91
1
280
0
281
0
  0
CLASS
  1
LAYOUT
  2
AcDbLayout
  3
AutoCAD 2000
 90
0
 91
0
280
0
281
0
  0
ENDSEC
  0
SECTION
  2
TABLES
  0
TABLE
  2
VPORT
  5
8
100
AcDbSymbolTable
 70
2
  0
VPORT
  5
1F4
100
AcDbSymbolTableRecord
100
AcDbViewportTableRecord
  2
*ACTIVE
 70
0
 10
0.0
 20
0.0
 11
1.0
 21
1.0
 12
11.0
 22
8.5
 13
0.0
 23
0.0
 14
1.0
 24
1.0
 15
0.0
 25
0.0
 16
0.0
 26
0.0
 36
1.0
 17
0.0
 27
0.0
 37
0.0
 40
17.0
 41
1.2941176471
 42
50.0
 43
0.0
 44
0.0
 50
0.0
 51
0.0
 71
0
 72
100
 73
1
 74
1
 75
0
 76
0
 77
0
 78
0
  0
ENDTAB
  0
TABLE
  2
LTYPE
  5
5
100
AcDbSymbolTable
 70
6
  0
LTYPE
  5
14
100
AcDbSymbolTableRecord
100
AcDbLinetypeTableRecord
  2
BYBLOCK
 70
0
  3

 72
65
 73
0
 40
0.0
  0
LTYPE
  5
15
100
AcDbSymbolTableRecord
100
AcDbLinetypeTableRecord
  2
BYLAYER
 70
0
  3

 72
65
 73
0
 40
0.0
  0
LTYPE
  5
16
100
AcDbSymbolTableRecord
100
AcDbLinetypeTableRecord
  2
CONTINUOUS
 70
64
  3
Solid line
 72
65
 73
0
 40
0.0
  0
LTYPE
  5
1F5
100
AcDbSymbolTableRecord
100
AcDbLinetypeTableRecord
  2
CENTER
 70
64
  3
____ _ ____ _ ____ _ ____ _ ____ _ ____ _ ____
 72
65
 73
4
 40
0.6
 49
0.375
 74
0
 49
-0.075
 74
0
 49
0.075
 74
0
 49
-0.075
 74
0
  0
LTYPE
  5
1F6
100
AcDbSymbolTableRecord
100
AcDbLinetypeTableRecord
  2
HIDDEN
 70
64
  3
- - - - - - - - - - - - - - - - - - - -
 72
65
 73
2
 40
0.2
 49
0.1
 74
0
 49
-0.1
 74
0
  0
LTYPE
  5
1F7
100
AcDbSymbolTableRecord
100
AcDbLinetypeTableRecord
  2
PHANTOM
 70
64
  3
_____ _ _ _____ _ _ _____ _ _ _____
 72
65
 73
6
 40
0.8
 49
0.45
 74
0
 49
-0.05
 74
0
 49
0.1
 74
0
 49
-0.05
 74
0
 49
0.1
 74
0
 49
-0.05
 74
0
  0
LTYPE
  5
1F8
100
AcDbSymbolTableRecord
100
AcDbLinetypeTableRecord
  2
DOT
 70
64
  3
. . . . . . . . . . . . . . . . . . . .
 72
65
 73
2
 40
0.2
 49
0.1
 74
0
 49
-0.1
 74
0
  0
LTYPE
  5
1F9
100
AcDbSymbolTableRecord
100
AcDbLinetypeTableRecord
  2
DASHED
 70
64
  3
- - - - - - - - - - - - - - - - - - - -
 72
65
 73
2
 40
0.2
 49
0.1
 74
0
 49
-0.1
 74
0
  0
ENDTAB
  0
TABLE
  2
LAYER
  5
2
100
AcDbSymbolTable
 70
36
  0
LAYER
  5
10
100
AcDbSymbolTableRecord
100
AcDbLayerTableRecord
  2
0
 70
0
 62
7
  6
CONTINUOUS
370
-3
390
F
  0
LAYER
  5
1FA
100
AcDbSymbolTableRecord
100
AcDbLayerTableRecord
  2
DEFAULT_1
 70
0
 62
7
  6
CENTER
370
-3
390
F
  0
LAYER
  5
1FB
100
AcDbSymbolTableRecord
100
AcDbLayerTableRecord
  2
DEFAULT_2
 70
0
 62
8
  6
HIDDEN
370
-3
390
F
  0
LAYER
  5
1FC
100
AcDbSymbolTableRecord
100
AcDbLayerTableRecord
  2
DEFAULT_3
 70
0
 62
7
  6
PHANTOM
370
-3
390
F
  0
LAYER
  5
1FD
100
AcDbSymbolTableRecord
100
AcDbLayerTableRecord
  2
DEFAULT_COORDINATE_SYSTEM
 70
0
 62
7
  6
CONTINUOUS
370
-3
390
F
  0
LAYER
  5
1FE
100
AcDbSymbolTableRecord
100
AcDbLayerTableRecord
  2
DEFAULT_DATUM_AXES
 70
0
 62
7
  6
CONTINUOUS
370
-3
390
F
  0
LAYER
  5
1FF
100
AcDbSymbolTableRecord
100
AcDbLayerTableRecord
  2
DEFAULT_DATUM_PLANES
 70
0
 62
7
  6
CONTINUOUS
370
-3
390
F
  0
ENDTAB
  0
TABLE
  2
STYLE
  5
3
100
AcDbSymbolTable
 70
1
  0
STYLE
  5
11
100
AcDbSymbolTableRecord
100
AcDbTextStyleTableRecord
  2
STANDARD
 70
0
 40
0.0
 41
0.8
 50
0.0
 71
0
 42
0.2
  3
txt
  4

  0
STYLE
  5
200
100
AcDbSymbolTableRecord
100
AcDbTextStyleTableRecord
  2
TEXTSTYLE_1
 70
0
 40
0.0
 41
0.8
 50
0.0
 71
0
 42
0.2
  3
gdt
  4

  0
ENDTAB
  0
TABLE
  2
VIEW
  5
6
100
AcDbSymbolTable
 70
0
  0
ENDTAB
  0
TABLE
  2
UCS
  5
7
100
AcDbSymbolTable
 70
0
  0
ENDTAB
  0
TABLE
  2
APPID
  5
9
100
AcDbSymbolTable
 70
1
  0
APPID
  5
201
100
AcDbSymbolTableRecord
100
AcDbRegAppTableRecord
  2
ACAD
 70
0
  0
ENDTAB
  0
TABLE
  2
BLOCK_RECORD
  5
1
100
AcDbSymbolTable
 70
0
  0
BLOCK_RECORD
  5
202
100
AcDbSymbolTableRecord
100
AcDbBlockTableRecord
  2
*Model_Space
  0
BLOCK_RECORD
  5
203
100
AcDbSymbolTableRecord
100
AcDbBlockTableRecord
  2
*Paper_Space
  0
BLOCK_RECORD
  5
204
100
AcDbSymbolTableRecord
100
AcDbBlockTableRecord
  2
_FILLED
  0
ENDTAB
  0
TABLE
  2
DIMSTYLE
  5
A
100
AcDbSymbolTable
 70
1
100
AcDbDimStyleTable
 71
0
  0
DIMSTYLE
105
205
100
AcDbSymbolTableRecord
100
AcDbDimStyleTableRecord
  2
STANDARD
 70
0
  3

  4

 40
1.0
 41
0.1
 42
0.0625
 43
0.38
 44
0.125
 45
0.0
 46
0.0
 47
0.001
 48
0.001
140
0.08
141
0.09
142
0.0
143
25.4
144
1.0
145
0.0
146
1.0
147
0.09
 71
1
 72
0
 73
1
 74
1
 75
0
 76
0
 77
0
 78
4
 79
1
170
1
171
2
172
0
173
0
174
0
175
0
176
0
177
0
178
0
270
2
179
3
271
3
272
3
273
2
274
2
275
0
280
0
281
0
282
0
283
1
284
4
285
0
286
0
287
3
288
0
340
11
278
46
341
204
342
204
343
204
344
204
  0
ENDTAB
  0
ENDSEC
  0
SECTION
  2
BLOCKS
  0
BLOCK
  5
20
100
AcDbEntity
  8
0
100
AcDbBlockBegin
  2
*Model_Space
 70
0
 10
0.0
 20
0.0
 30
0.0
  3
*Model_Space
  1

  0
ENDBLK
  5
21
100
AcDbEntity
  8
0
100
AcDbBlockEnd
  0
BLOCK
  5
1C
100
AcDbEntity
  8
0
100
AcDbBlockBegin
  2
*Paper_Space
 70
0
 10
0.0
 20
0.0
 30
0.0
  3
*Paper_Space
  1

  0
ENDBLK
  5
1D
100
AcDbEntity
  8
0
100
AcDbBlockEnd
  0
BLOCK
  5
206
100
AcDbEntity
  8
0
100
AcDbBlockBegin
  2
_FILLED
 70
64
 10
0.0
 20
0.0
  3
_FILLED
  1

  0
SOLID
  5
207
100
AcDbEntity
  8
0
  6
BYBLOCK
 62
0
100
AcDbTrace
 10
0.0
 20
0.0
 11
-1.0
 21
0.2
 12
-1.0
 22
-0.2
 13
-1.0
 23
-0.2
  0
ENDBLK
  5
208
100
AcDbEntity
  8
0
  6
BYBLOCK
 62
0
100
AcDbBlockEnd
  0
ENDSEC
  0
SECTION
  2
ENTITIES
  0
LINE
  5
209
100
AcDbEntity
  8
0
100
AcDbLine
 62
7
  6
CONTINUOUS
 10
0.0
 20
0.0
 11
0.0
 21
17.0
  0
LINE
  5
20A
100
AcDbEntity
  8
0
100
AcDbLine
 62
7
  6
CONTINUOUS
 10
0.0
 20
0.0
 11
22.0
 21
0.0
  0
LINE
  5
20B
100
AcDbEntity
  8
0
100
AcDbLine
 62
7
  6
CONTINUOUS
 10
0.0
 20
17.0
 11
22.0
 21
17.0
  0
LINE
  5
20C
100
AcDbEntity
  8
0
100
AcDbLine
 62
7
  6
CONTINUOUS
 10
22.0
 20
0.0
 11
22.0
 21
17.0
  0
LINE
  5
20D
100
AcDbEntity
  8
0
100
AcDbLine
 62
7
  6
CONTINUOUS
 10
10.1932746505
 20
2.0051094073
 11
10.2250973037
 21
2.01193247
  0
LINE
  5
20E
100
AcDbEntity
  8
0
100
AcDbLine
 62
7
  6
CONTINUOUS
 10
10.1932746505
 20
2.0350486908
 11
10.2250973037
 21
2.0418717535
  0
LINE
  5
20F
100
AcDbEntity
  8
0
100
AcDbLine
 62
7
  6
CONTINUOUS
 10
11.532104738
 20
2.2708007165
 11
11.5530486868
 21
2.274614436
  0
LINE
  5
210
100
AcDbEntity
  8
0
100
AcDbLine
 62
7
  6
CONTINUOUS
 10
11.521020737
 20
2.2987216953
 11
11.5530486868
 21
2.3045537195
  0
LINE
  5
211
100
AcDbEntity
  8
0
100
AcDbLine
 62
7
  6
CONTINUOUS
 10
10.1172007126
 20
2.0726819556
 11
10.1470769914
 21
2.0756597309
  0
LINE
  5
212
100
AcDbEntity
  8
0
100
AcDbLine
 62
7
  6
CONTINUOUS
 10
10.1172007126
 20
2.102621239
 11
10.1496110837
 21
2.1058515879
  0
LINE
  5
213
100
AcDbEntity
  8
0
100
AcDbLine
 62
7
  6
CONTINUOUS
 10
11.4747980654
 20
2.1871240185
 11
11.4995189713
 21
2.1888148974
  0
LINE
  5
214
100
AcDbEntity
  8
0
100
AcDbLine
 62
7
  6
CONTINUOUS
 10
11.4670201354
 20
2.2165313013
 11
11.4995189713
 21
2.2187541809
  0
LINE
  5
215
100
AcDbEntity
  8
0
100
AcDbLine
 62
7
  6
CONTINUOUS
 10
10.0494974175
 20
2.1482963244
 11
10.076027012
 21
2.1479669172
  0
LINE
  5
216
100
AcDbEntity
  8
0
100
AcDbLine
 62
7
  6
CONTINUOUS
 10
10.0494974175
 20
2.1782356078
 11
10.0820729878
 21
2.1778311303
  0
LINE
  5
217
100
AcDbEntity
  8
0
100
AcDbLine
 62
7
  6
CONTINUOUS
 10
11.4080838678
 20
2.1107718764
 11
11.436339266
 21
2.1095432089
  0
LINE
  5
218
100
AcDbEntity
  8
0
100
AcDbLine
 62
7
  6
CONTINUOUS
 10
11.4037932162
 20
2.1408977361
 11
11.436339266
 21
2.1394824924
  0
LINE
  5
219
100
AcDbEntity
  8
0
100
AcDbLine
 62
7
  6
CONTINUOUS
 10
9.9910473812
 20
2.2309667648
 11
10.0138989847
 21
2.2281141903
  0
LINE
  5
21A
100
AcDbEntity
  8
0
100
AcDbLine
 62
7
  6
CONTINUOUS
 10
9.9910473812
 20
2.2609060483
 11
10.0233634782
 21
2.2568720173
  0
LINE
  5
21B
100
AcDbEntity
  8
0
100
AcDbLine
 62
7
  6
CONTINUOUS
 10
11.3329625433
 20
2.042742769
 11
11.3643332152
 21
2.0378327981
  0
LINE
  5
21C
100
AcDbEntity
  8
0
100
AcDbLine
 62
7
  6
CONTINUOUS
 10
11.3321642388
 20
2.0728069988
 11
11.3643332152
 21
2.0677720816
  0
LINE
  5
21D
100
AcDbEntity
  8
0
100
AcDbLine
 62
7
  6
CONTINUOUS
 10
9.9426125893
 20
2.3196155413
 11
9.961632541
 21
2.3150396216
  0
LINE
  5
21E
100
AcDbEntity
  8
0
100
AcDbLine
 62
7
  6
CONTINUOUS
 10
9.9426125893
 20
2.3495548248
 11
9.9742479233
 21
2.3419438302
  0
LINE
  5
21F
100
AcDbEntity
  8
0
100
AcDbLine
 62
7
  6
CONTINUOUS
 10
11.2530669966
 20
1.9832074728
 11
11.2844395277
 21
1.97461852
  0
LINE
  5
220
100
AcDbEntity
  8
0
100
AcDbLine
 62
7
  6
CONTINUOUS
 10
11.2530669966
 20
2.0131467563
 11
11.2844395277
 21
2.0045578035
  0
LINE
  5
221
100
AcDbEntity
  8
0
100
AcDbLine
 62
7
  6
CONTINUOUS
 10
8.7369743336
 20
14.1956716037
 11
8.78233698
 21
14.2187850265
  0
LINE
  5
222
100
AcDbEntity
  8
0
100
AcDbLine
 62
7
  6
CONTINUOUS
 10
11.4016437157
 20
15.5533884683
 11
11.447006362
 21
15.5765018911
  0
LINE
  5
223
100
AcDbEntity
  8
0
100
AcDbLine
 62
7
  6
CONTINUOUS
 10
8.7721542744
 20
14.3006628917
 11
8.8186644159
 21
14.3213705409
  0
LINE
  5
224
100
AcDbEntity
  8
0
100
AcDbLine
 62
7
  6
CONTINUOUS
 10
11.5042292301
 20
15.5170610324
 11
11.5507393716
 21
15.5377686816
  0
LINE
  5
225
100
AcDbEntity
  8
0
100
AcDbLine
 62
7
  6
CONTINUOUS
 10
8.8127808217
 20
14.403669117
 11
8.8603109774
 21
14.4219142343
  0
LINE
  5
226
100
AcDbEntity
  8
0
100
AcDbLine
 62
7
  6
CONTINUOUS
 10
11.6047729235
 20
15.475414471
 11
11.6523030791
 21
15.4936595883
  0
LINE
  5
227
100
AcDbEntity
  8
0
100
AcDbLine
 62
7
  6
CONTINUOUS
 10
8.8587426211
 20
14.5044079466
 11
8.907162514
 21
14.5201405235
  0
LINE
  5
228
100
AcDbEntity
  8
0
100
AcDbLine
 62
7
  6
CONTINUOUS
 10
11.7029992127
 20
15.4285629344
 11
11.7514191055
 21
15.4442955113
  0
LINE
  5
229
100
AcDbEntity
  8
0
100
AcDbLine
 62
7
  6
CONTINUOUS
 10
9.9048244633
 20
2.4130869814
 11
9.9206378122
 21
2.4073457341
  0
LINE
  5
22A
100
AcDbEntity
  8
0
100
AcDbLine
 62
7
  6
CONTINUOUS
 10
9.9048244633
 20
2.4430262649
 11
9.9353666194
 21
2.4319375276
  0
LINE
  5
22B
100
AcDbEntity
  8
0
100
AcDbLine
 62
7
  6
CONTINUOUS
 10
11.1675326431
 20
1.9327554876
 11
11.1976997399
 21
1.9207244694
  0
LINE
  5
22C
100
AcDbEntity
  8
0
100
AcDbLine
 62
7
  6
CONTINUOUS
 10
11.1675326431
 20
1.9626947711
 11
11.1976997399
 21
1.9506637529
  0
LINE
  5
22D
100
AcDbEntity
  8
0
100
AcDbLine
 62
7
  6
CONTINUOUS
 10
9.8781756293
 20
2.510162542
 11
9.8905822056
 21
2.5040034491
  0
LINE
  5
22E
100
AcDbEntity
  8
0
100
AcDbLine
 62
7
  6
CONTINUOUS
 10
9.8781756293
 20
2.5401018255
 11
9.9072264438
 21
2.5256799042
  0
LINE
  5
22F
100
AcDbEntity
  8
0
100
AcDbLine
 62
7
  6
CONTINUOUS
 10
11.0766762494
 20
1.8921694785
 11
11.1052446377
 21
1.8768532375
  0
LINE
  5
230
100
AcDbEntity
  8
0
100
AcDbLine
 62
7
  6
CONTINUOUS
 10
11.0766762494
 20
1.922108762
 11
11.1052446377
 21
1.906792521
  0
LINE
  5
231
100
AcDbEntity
  8
0
100
AcDbLine
 62
7
  6
CONTINUOUS
 10
8.6650022205
 20
13.8716875606
 11
8.7061906415
 21
13.9016127001
  0
LINE
  5
232
100
AcDbEntity
  8
0
100
AcDbLine
 62
7
  6
CONTINUOUS
 10
11.0844713892
 20
15.6295348069
 11
11.1256598102
 21
15.6594599464
  0
LINE
  5
233
100
AcDbEntity
  8
0
100
AcDbLine
 62
7
  6
CONTINUOUS
 10
8.6833247818
 20
13.9808895868
 11
8.7260229163
 21
14.0086180796
  0
LINE
  5
234
100
AcDbEntity
  8
0
100
AcDbLine
 62
7
  6
CONTINUOUS
 10
11.1914767687
 20
15.609702532
 11
11.2341749032
 21
15.6374310248
  0
LINE
  5
235
100
AcDbEntity
  8
0
100
AcDbLine
 62
7
  6
CONTINUOUS
 10
8.7073374252
 20
14.0889830268
 11
8.7514282406
 21
14.1144388709
  0
LINE
  5
236
100
AcDbEntity
  8
0
100
AcDbLine
 62
7
  6
CONTINUOUS
 10
11.29729756
 20
15.5842972078
 11
11.3413883754
 21
15.6097530519
  0
LINE
  5
237
100
AcDbEntity
  8
0
100
AcDbLine
 62
7
  6
CONTINUOUS
 10
11.5530486868
 20
3.1344251919
 11
11.5467920688
 21
3.1355644702
  0
LINE
  5
238
100
AcDbEntity
  8
0
100
AcDbLine
 62
7
  6
CONTINUOUS
 10
9.8630134956
 20
2.6095766948
 11
9.8723594224
 21
2.6035363624
  0
LINE
  5
239
100
AcDbEntity
  8
0
100
AcDbLine
 62
7
  6
CONTINUOUS
 10
9.8630134956
 20
2.6395159782
 11
9.8901942467
 21
2.6219488847
  0
LINE
  5
23A
100
AcDbEntity
  8
0
100
AcDbLine
 62
7
  6
CONTINUOUS
 10
10.9816822675
 20
1.8619785461
 11
11.0082795147
 21
1.8435767531
  0
LINE
  5
23B
100
AcDbEntity
  8
0
100
AcDbLine
 62
7
  6
CONTINUOUS
 10
10.9816822675
 20
1.8919178296
 11
11.0082795147
 21
1.8735160365
  0
LINE
  5
23C
100
AcDbEntity
  8
0
100
AcDbLine
 62
7
  6
CONTINUOUS
 10
8.6445984739
 20
13.5404333796
 11
8.6805984739
 21
13.5764333796
  0
LINE
  5
23D
100
AcDbEntity
  8
0
100
AcDbLine
 62
7
  6
CONTINUOUS
 10
10.7592920688
 20
15.6551269744
 11
10.7952920688
 21
15.6911269744
  0
LINE
  5
23E
100
AcDbEntity
  8
0
100
AcDbLine
 62
7
  6
CONTINUOUS
 10
8.6456124936
 20
13.6511572278
 11
8.6834472513
 21
13.6852237966
  0
LINE
  5
23F
100
AcDbEntity
  8
0
100
AcDbLine
 62
7
  6
CONTINUOUS
 10
10.8680824858
 20
15.6522781971
 11
10.9059172435
 21
15.6863447659
  0
LINE
  5
240
100
AcDbEntity
  8
0
100
AcDbLine
 62
7
  6
CONTINUOUS
 10
8.652419962
 20
13.7616762631
 11
8.6919857749
 21
13.7937160267
  0
LINE
  5
241
100
AcDbEntity
  8
0
100
AcDbLine
 62
7
  6
CONTINUOUS
 10
10.9765747158
 20
15.6437396734
 11
11.0161405287
 21
15.675779437
  0
LINE
  5
242
100
AcDbEntity
  8
0
100
AcDbLine
 62
7
  6
CONTINUOUS
 10
11.3569332554
 20
14.4104004125
 11
11.3400388048
 21
14.4041893303
  0
LINE
  5
243
100
AcDbEntity
  8
0
100
AcDbLine
 62
7
  6
CONTINUOUS
 10
9.9717920688
 20
3.0964442388
 11
9.9426125893
 21
3.0894240866
  0
LINE
  5
244
100
AcDbEntity
  8
0
100
AcDbLine
 62
7
  6
CONTINUOUS
 10
11.5962305709
 20
3.0432163314
 11
11.5650910405
 21
3.0525814709
  0
LINE
  5
245
100
AcDbEntity
  8
0
100
AcDbLine
 62
7
  6
CONTINUOUS
 10
11.6285016818
 20
2.947787196
 11
11.5986565221
 21
2.9605633619
  0
LINE
  5
246
100
AcDbEntity
  8
0
100
AcDbLine
 62
7
  6
CONTINUOUS
 10
9.8595357237
 20
2.7100334241
 11
9.8662533854
 21
2.7045198139
  0
LINE
  5
247
100
AcDbEntity
  8
0
100
AcDbLine
 62
7
  6
CONTINUOUS
 10
9.8595357237
 20
2.7399727075
 11
9.8844920688
 21
2.7194894557
  0
LINE
  5
248
100
AcDbEntity
  8
0
100
AcDbLine
 62
7
  6
CONTINUOUS
 10
10.8837890893
 20
1.8425762755
 11
10.9080684596
 21
1.8213288259
  0
LINE
  5
249
100
AcDbEntity
  8
0
100
AcDbLine
 62
7
  6
CONTINUOUS
 10
10.8837890893
 20
1.872515559
 11
10.9080684596
 21
1.8512681094
  0
LINE
  5
24A
100
AcDbEntity
  8
0
100
AcDbLine
 62
7
  6
CONTINUOUS
 10
8.676265502
 20
13.2100656381
 11
8.7061906415
 21
13.2512540591
  0
LINE
  5
24B
100
AcDbEntity
  8
0
100
AcDbLine
 62
7
  6
CONTINUOUS
 10
10.4341127483
 20
15.6295348069
 11
10.4640378878
 21
15.6707232279
  0
LINE
  5
24C
100
AcDbEntity
  8
0
100
AcDbLine
 62
7
  6
CONTINUOUS
 10
8.6599460114
 20
13.3195849196
 11
8.6919857749
 21
13.3591507325
  0
LINE
  5
24D
100
AcDbEntity
  8
0
100
AcDbLine
 62
7
  6
CONTINUOUS
 10
10.5420094217
 20
15.6437396734
 11
10.5740491852
 21
15.6833054863
  0
LINE
  5
24E
100
AcDbEntity
  8
0
100
AcDbLine
 62
7
  6
CONTINUOUS
 10
8.6493806824
 20
13.4298082049
 11
8.6834472513
 21
13.4676429626
  0
LINE
  5
24F
100
AcDbEntity
  8
0
100
AcDbLine
 62
7
  6
CONTINUOUS
 10
10.6505016517
 20
15.6522781971
 11
10.6845682206
 21
15.6901129548
  0
LINE
  5
250
100
AcDbEntity
  8
0
100
AcDbLine
 62
7
  6
CONTINUOUS
 10
11.2730226318
 20
14.5651016578
 11
11.2738677274
 21
14.5657333149
  0
LINE
  5
251
100
AcDbEntity
  8
0
100
AcDbLine
 62
7
  6
CONTINUOUS
 10
11.649441316
 20
2.8493818505
 11
11.6212796044
 21
2.8654024859
  0
LINE
  5
252
100
AcDbEntity
  8
0
100
AcDbLine
 62
7
  6
CONTINUOUS
 10
9.8677876519
 20
2.8102231228
 11
9.8723594224
 21
2.8055032655
  0
LINE
  5
253
100
AcDbEntity
  8
0
100
AcDbLine
 62
7
  6
CONTINUOUS
 10
9.8677876519
 20
2.8401624063
 11
9.8901942467
 21
2.8170300267
  0
LINE
  5
254
100
AcDbEntity
  8
0
100
AcDbLine
 62
7
  6
CONTINUOUS
 10
10.784272902
 20
1.834215605
 11
10.8059178767
 21
1.8103994917
  0
LINE
  5
255
100
AcDbEntity
  8
0
100
AcDbLine
 62
7
  6
CONTINUOUS
 10
10.784272902
 20
1.8641548884
 11
10.8059178767
 21
1.8403387752
  0
LINE
  5
256
100
AcDbEntity
  8
0
100
AcDbLine
 62
7
  6
CONTINUOUS
 10
8.7259723965
 20
12.994337073
 11
8.7514282406
 21
13.0384278883
  0
LINE
  5
257
100
AcDbEntity
  8
0
100
AcDbLine
 62
7
  6
CONTINUOUS
 10
10.2212865775
 20
15.5842972078
 11
10.2467424216
 21
15.6283880232
  0
LINE
  5
258
100
AcDbEntity
  8
0
100
AcDbLine
 62
7
  6
CONTINUOUS
 10
8.6982944236
 20
13.1015505451
 11
8.7260229163
 21
13.1442486796
  0
LINE
  5
259
100
AcDbEntity
  8
0
100
AcDbLine
 62
7
  6
CONTINUOUS
 10
10.3271073688
 20
15.609702532
 11
10.3548358615
 21
15.6524006665
  0
LINE
  5
25A
100
AcDbEntity
  8
0
100
AcDbLine
 62
7
  6
CONTINUOUS
 10
11.6587764935
 20
2.7492831589
 11
11.6326653609
 21
2.7683394104
  0
LINE
  5
25B
100
AcDbEntity
  8
0
100
AcDbLine
 62
7
  6
CONTINUOUS
 10
11.6563855159
 20
2.6487960608
 11
11.6326653609
 21
2.670639501
  0
LINE
  5
25C
100
AcDbEntity
  8
0
100
AcDbLine
 62
7
  6
CONTINUOUS
 10
9.8876617034
 20
2.9088396652
 11
9.8905822056
 21
2.9050361788
  0
LINE
  5
25D
100
AcDbEntity
  8
0
100
AcDbLine
 62
7
  6
CONTINUOUS
 10
9.8876617034
 20
2.9387789487
 11
9.9072264438
 21
2.9132990072
  0
LINE
  5
25E
100
AcDbEntity
  8
0
100
AcDbLine
 62
7
  6
CONTINUOUS
 10
10.6844310513
 20
1.8370055285
 11
10.7031594551
 21
1.8109312312
  0
LINE
  5
25F
100
AcDbEntity
  8
0
100
AcDbLine
 62
7
  6
CONTINUOUS
 10
10.6844310513
 20
1.866944812
 11
10.7031594551
 21
1.8408705146
  0
LINE
  5
260
100
AcDbEntity
  8
0
100
AcDbLine
 62
7
  6
CONTINUOUS
 10
8.7979567668
 20
12.7849860768
 11
8.8186644159
 21
12.8314962183
  0
LINE
  5
261
100
AcDbEntity
  8
0
100
AcDbLine
 62
7
  6
CONTINUOUS
 10
10.0143549074
 20
15.5170610324
 11
10.0350625566
 21
15.563571174
  0
LINE
  5
262
100
AcDbEntity
  8
0
100
AcDbLine
 62
7
  6
CONTINUOUS
 10
8.7592235572
 20
12.8887190863
 11
8.78233698
 21
12.9340817327
  0
LINE
  5
263
100
AcDbEntity
  8
0
100
AcDbLine
 62
7
  6
CONTINUOUS
 10
10.1169404219
 20
15.5533884683
 11
10.1400538446
 21
15.5987511147
  0
LINE
  5
264
100
AcDbEntity
  8
0
100
AcDbLine
 62
7
  6
CONTINUOUS
 10
11.6422995533
 20
2.5492305593
 11
11.6212796044
 21
2.5735764255
  0
LINE
  5
265
100
AcDbEntity
  8
0
100
AcDbLine
 62
7
  6
CONTINUOUS
 10
9.9188987898
 20
3.0045974336
 11
9.9206378122
 21
3.0016938938
  0
LINE
  5
266
100
AcDbEntity
  8
0
100
AcDbLine
 62
7
  6
CONTINUOUS
 10
9.9188987898
 20
3.0345367171
 11
9.9353666194
 21
3.0070413837
  0
LINE
  5
267
100
AcDbEntity
  8
0
100
AcDbLine
 62
7
  6
CONTINUOUS
 10
10.5855651285
 20
1.8509096753
 11
10.6011328079
 21
1.8229171122
  0
LINE
  5
268
100
AcDbEntity
  8
0
100
AcDbLine
 62
7
  6
CONTINUOUS
 10
10.5855651285
 20
1.8808489588
 11
10.6011328079
 21
1.8528563957
  0
LINE
  5
269
100
AcDbEntity
  8
0
100
AcDbLine
 62
7
  6
CONTINUOUS
 10
8.8914299371
 20
12.5843063428
 11
8.907162514
 21
12.6327262357
  0
LINE
  5
26A
100
AcDbEntity
  8
0
100
AcDbLine
 62
7
  6
CONTINUOUS
 10
9.8155849248
 20
15.4285629344
 11
9.8313175017
 21
15.4769828272
  0
LINE
  5
26B
100
AcDbEntity
  8
0
100
AcDbLine
 62
7
  6
CONTINUOUS
 10
8.84206586
 20
12.6834223692
 11
8.8603109774
 21
12.7309525249
  0
LINE
  5
26C
100
AcDbEntity
  8
0
100
AcDbLine
 62
7
  6
CONTINUOUS
 10
9.913811214
 20
15.475414471
 11
9.9320563313
 21
15.5229446266
  0
LWPOLYLINE
  5
26D
100
AcDbEntity
  8
0
100
AcDbPolyline
 62
7
  6
CONTINUOUS
 90
21
 70
0
 10
11.2754440554
 20
12.7316329837
 10
11.2722386446
 20
12.7295558304
 10
11.2691179065
 20
12.7272885849
 10
11.266123032
 20
12.7248574277
 10
11.2632626302
 20
12.7222693377
 10
11.2605449097
 20
12.7195317317
 10
11.2579776587
 20
12.7166524405
 10
11.2555682496
 20
12.7136397123
 10
11.2533236167
 20
12.7105021961
 10
11.2512502172
 20
12.707248897
 10
11.2493540141
 20
12.7038891497
 10
11.2476404609
 20
12.7004325936
 10
11.2461144888
 20
12.6968891501
 10
11.2447804899
 20
12.6932689896
 10
11.2436423049
 20
12.6895825024
 10
11.2427032127
 20
12.6858402709
 10
11.2419659209
 20
12.6820530385
 10
11.2414325578
 20
12.6782316788
 10
11.2411046663
 20
12.6743871644
 10
11.2409831991
 20
12.6705305355
 10
11.2410262687
 20
12.6676803516
  0
LINE
  5
26E
100
AcDbEntity
  8
0
100
AcDbLine
 62
7
  6
CONTINUOUS
 10
12.7816098039
 20
12.9571951555
 11
12.7362471575
 21
12.9340817327
  0
LINE
  5
26F
100
AcDbEntity
  8
0
100
AcDbLine
 62
7
  6
CONTINUOUS
 10
12.7464298631
 20
12.8522038675
 11
12.6999197216
 21
12.8314962183
  0
LINE
  5
270
100
AcDbEntity
  8
0
100
AcDbLine
 62
7
  6
CONTINUOUS
 10
12.7058033158
 20
12.7491976422
 11
12.6582731601
 21
12.7309525249
  0
LINE
  5
271
100
AcDbEntity
  8
0
100
AcDbLine
 62
7
  6
CONTINUOUS
 10
12.6598415164
 20
12.6484588126
 11
12.6114216235
 21
12.6327262357
  0
LINE
  5
272
100
AcDbEntity
  8
0
100
AcDbLine
 62
7
  6
CONTINUOUS
 10
9.7692920688
 20
11.7092623641
 11
9.767165032
 21
11.7085712479
  0
LINE
  5
273
100
AcDbEntity
  8
0
100
AcDbLine
 62
7
  6
CONTINUOUS
 10
9.9610916878
 20
3.0962480792
 11
9.9620598352
 21
3.094102807
  0
LINE
  5
274
100
AcDbEntity
  8
0
100
AcDbLine
 62
7
  6
CONTINUOUS
 10
9.9610916878
 20
3.1261873627
 11
9.9717920688
 21
3.1024768935
  0
LINE
  5
275
100
AcDbEntity
  8
0
100
AcDbLine
 62
7
  6
CONTINUOUS
 10
9.0053677958
 20
12.3944965603
 11
9.015952931
 21
12.444295706
  0
LINE
  5
276
100
AcDbEntity
  8
0
100
AcDbLine
 62
7
  6
CONTINUOUS
 10
9.6271543952
 20
15.3197725174
 11
9.6377395304
 21
15.3695716631
  0
LINE
  5
277
100
AcDbEntity
  8
0
100
AcDbLine
 62
7
  6
CONTINUOUS
 10
8.9459136944
 20
12.4879096677
 11
8.959090609
 21
12.5370865822
  0
LINE
  5
278
100
AcDbEntity
  8
0
100
AcDbLine
 62
7
  6
CONTINUOUS
 10
9.7199452713
 20
15.3766348394
 11
9.7331221859
 21
15.4258117539
  0
LINE
  5
279
100
AcDbEntity
  8
0
100
AcDbLine
 62
7
  6
CONTINUOUS
 10
12.853581917
 20
13.2811791986
 11
12.812393496
 21
13.2512540591
  0
LINE
  5
27A
100
AcDbEntity
  8
0
100
AcDbLine
 62
7
  6
CONTINUOUS
 10
12.8352593557
 20
13.1719771724
 11
12.7925612212
 21
13.1442486796
  0
LINE
  5
27B
100
AcDbEntity
  8
0
100
AcDbLine
 62
7
  6
CONTINUOUS
 10
12.8112467123
 20
13.0638837325
 11
12.7671558969
 21
13.0384278883
  0
LINE
  5
27C
100
AcDbEntity
  8
0
100
AcDbLine
 62
7
  6
CONTINUOUS
 10
11.6167022378
 20
2.4518846428
 11
11.5986565221
 21
2.4784155494
  0
LINE
  5
27D
100
AcDbEntity
  8
0
100
AcDbLine
 62
7
  6
CONTINUOUS
 10
10.4889640021
 20
1.8757467835
 11
10.5011680086
 21
1.8462008805
  0
LINE
  5
27E
100
AcDbEntity
  8
0
100
AcDbLine
 62
7
  6
CONTINUOUS
 10
10.4889640021
 20
1.905686067
 11
10.5011680086
 21
1.8761401639
  0
LINE
  5
27F
100
AcDbEntity
  8
0
100
AcDbLine
 62
7
  6
CONTINUOUS
 10
9.1385220159
 20
12.2176363249
 11
9.1438437364
 21
12.2682691136
  0
LINE
  5
280
100
AcDbEntity
  8
0
100
AcDbLine
 62
7
  6
CONTINUOUS
 10
9.4511278028
 20
15.1918817119
 11
9.4564495233
 21
15.2425145006
  0
LINE
  5
281
100
AcDbEntity
  8
0
100
AcDbLine
 62
7
  6
CONTINUOUS
 10
9.0696292817
 20
12.3043230597
 11
9.0775936244
 21
12.3546079405
  0
LINE
  5
282
100
AcDbEntity
  8
0
100
AcDbLine
 62
7
  6
CONTINUOUS
 10
9.5374666297
 20
15.2581318239
 11
9.5454309724
 21
15.3084167048
  0
LWPOLYLINE
  5
283
100
AcDbEntity
  8
0
100
AcDbPolyline
 62
7
  6
CONTINUOUS
 90
3
 70
0
 10
11.7901981432
 20
12.5710220948
 10
11.7861103967
 20
12.5666526517
 10
11.7819047631
 20
12.5617487208
  0
LINE
  5
284
100
AcDbEntity
  8
0
100
AcDbLine
 62
7
  6
CONTINUOUS
 10
12.8739856636
 20
13.6124333796
 11
12.8379856636
 21
13.5764333796
  0
LINE
  5
285
100
AcDbEntity
  8
0
100
AcDbLine
 62
7
  6
CONTINUOUS
 10
12.8729716439
 20
13.5017095314
 11
12.8351368863
 21
13.4676429626
  0
LINE
  5
286
100
AcDbEntity
  8
0
100
AcDbLine
 62
7
  6
CONTINUOUS
 10
12.8661641755
 20
13.3911904961
 11
12.8265983626
 21
13.3591507325
  0
LINE
  5
287
100
AcDbEntity
  8
0
100
AcDbLine
 62
7
  6
CONTINUOUS
 10
11.5799272694
 20
2.3580273644
 11
11.5650910405
 21
2.3863974404
  0
LINE
  5
288
100
AcDbEntity
  8
0
100
AcDbLine
 62
7
  6
CONTINUOUS
 10
10.3958870154
 20
1.9111930635
 11
10.4045682512
 21
1.8804789965
  0
LINE
  5
289
100
AcDbEntity
  8
0
100
AcDbLine
 62
7
  6
CONTINUOUS
 10
10.3958870154
 20
1.941132347
 11
10.4045682512
 21
1.91041828
  0
LINE
  5
28A
100
AcDbEntity
  8
0
100
AcDbLine
 62
7
  6
CONTINUOUS
 10
9.2894337318
 20
12.0556633544
 11
9.2894337318
 21
12.1065750427
  0
LINE
  5
28B
100
AcDbEntity
  8
0
100
AcDbLine
 62
7
  6
CONTINUOUS
 10
9.2894337318
 20
15.0462917165
 11
9.2894337318
 21
15.0972034048
  0
LINE
  5
28C
100
AcDbEntity
  8
0
100
AcDbLine
 62
7
  6
CONTINUOUS
 10
9.2118571681
 20
12.1346739585
 11
9.21452168
 21
12.1855158741
  0
LINE
  5
28D
100
AcDbEntity
  8
0
100
AcDbLine
 62
7
  6
CONTINUOUS
 10
9.3683745632
 20
15.1212037684
 11
9.3710390751
 21
15.1720456839
  0
LINE
  5
28E
100
AcDbEntity
  8
0
100
AcDbLine
 62
7
  6
CONTINUOUS
 10
12.8423186356
 20
13.9428011211
 11
12.812393496
 21
13.9016127001
  0
LWPOLYLINE
  5
28F
100
AcDbEntity
  8
0
100
AcDbPolyline
 62
7
  6
CONTINUOUS
 90
17
 70
0
 10
11.7819047631
 20
12.5617487208
 10
11.7779236573
 20
12.5566615608
 10
11.7741761
 20
12.5514030132
 10
11.7706683828
 20
12.5459822489
 10
11.7674047831
 20
12.5404053411
 10
11.7643914293
 20
12.5346811313
 10
11.7616362062
 20
12.5288228298
 10
11.7591457886
 20
12.522843277
 10
11.756925781
 20
12.5167547385
 10
11.7549809835
 20
12.5105690426
 10
11.7533158627
 20
12.5042988427
 10
11.7519342486
 20
12.4979568397
 10
11.7508393616
 20
12.4915557379
 10
11.7500338699
 20
12.4851084736
 10
11.7495198597
 20
12.4786281152
 10
11.7492988275
 20
12.4721278374
 10
11.7492894652
 20
12.470487545
  0
LINE
  5
290
100
AcDbEntity
  8
0
100
AcDbLine
 62
7
  6
CONTINUOUS
 10
12.8586381261
 20
13.8332818396
 11
12.8265983626
 21
13.7937160267
  0
LINE
  5
291
100
AcDbEntity
  8
0
100
AcDbLine
 62
7
  6
CONTINUOUS
 10
12.8692034551
 20
13.7230585543
 11
12.8351368863
 21
13.6852237966
  0
LINE
  5
292
100
AcDbEntity
  8
0
100
AcDbLine
 62
7
  6
CONTINUOUS
 10
11.5324540663
 20
2.268882297
 11
11.521020737
 21
2.2987216953
  0
LINE
  5
293
100
AcDbEntity
  8
0
100
AcDbLine
 62
7
  6
CONTINUOUS
 10
10.3075475693
 20
1.9567864187
 11
10.3125928612
 21
1.9253045927
  0
LINE
  5
294
100
AcDbEntity
  8
0
100
AcDbLine
 62
7
  6
CONTINUOUS
 10
10.3075475693
 20
1.9867257022
 11
10.3125928612
 21
1.9552438761
  0
LINE
  5
295
100
AcDbEntity
  8
0
100
AcDbLine
 62
7
  6
CONTINUOUS
 10
9.4564495233
 20
11.9103522586
 11
9.4511278028
 21
11.9609850473
  0
LINE
  5
296
100
AcDbEntity
  8
0
100
AcDbLine
 62
7
  6
CONTINUOUS
 10
9.1438437364
 20
14.8845976456
 11
9.1385220159
 21
14.9352304343
  0
LINE
  5
297
100
AcDbEntity
  8
0
100
AcDbLine
 62
7
  6
CONTINUOUS
 10
9.3710390751
 20
11.9808210753
 11
9.3683745632
 21
12.0316629909
  0
LINE
  5
298
100
AcDbEntity
  8
0
100
AcDbLine
 62
7
  6
CONTINUOUS
 10
9.21452168
 20
14.9673508851
 11
9.2118571681
 21
15.0181928007
  0
LWPOLYLINE
  5
299
100
AcDbEntity
  8
0
100
AcDbPolyline
 62
7
  6
CONTINUOUS
 90
17
 70
0
 10
9.769294622
 20
12.4704880751
 10
9.7692849348
 20
12.472156001
 10
9.7690612738
 20
12.4786800382
 10
9.7685428881
 20
12.4851800488
 10
9.7677318186
 20
12.4916427786
 10
9.7666306969
 20
12.4980551294
 10
9.765242733
 20
12.5044041852
 10
9.7635716667
 20
12.5106773627
 10
9.7616218651
 20
12.5168620171
 10
9.7593983692
 20
12.5229454951
 10
9.756906379
 20
12.5289164444
 10
9.754152089
 20
12.5347625816
 10
9.7511431526
 20
12.5404704571
 10
9.747888915
 20
12.5460258219
 10
9.7443952785
 20
12.5514218061
 10
9.7406645557
 20
12.5566561267
 10
9.7367021842
 20
12.561720909
  0
LINE
  5
29A
100
AcDbEntity
  8
0
100
AcDbLine
 62
7
  6
CONTINUOUS
 10
9.7692920688
 20
11.4150866341
 11
9.7692920688
 21
12.4704834817
  0
LINE
  5
29B
100
AcDbEntity
  8
0
100
AcDbLine
 62
7
  6
CONTINUOUS
 10
12.7926117411
 20
14.1585296862
 11
12.7671558969
 21
14.1144388709
  0
LINE
  5
29C
100
AcDbEntity
  8
0
100
AcDbLine
 62
7
  6
CONTINUOUS
 10
12.820289714
 20
14.0513162141
 11
12.7925612212
 21
14.0086180796
  0
LINE
  5
29D
100
AcDbEntity
  8
0
100
AcDbLine
 62
7
  6
CONTINUOUS
 10
11.4749015141
 20
2.1856115831
 11
11.4670201354
 21
2.2165313013
  0
LINE
  5
29E
100
AcDbEntity
  8
0
100
AcDbLine
 62
7
  6
CONTINUOUS
 10
10.2250973037
 20
2.01193247
 11
10.2264408785
 21
1.9800932987
  0
LINE
  5
29F
100
AcDbEntity
  8
0
100
AcDbLine
 62
7
  6
CONTINUOUS
 10
10.2250973037
 20
2.0418717535
 11
10.2264408785
 21
2.0100325822
  0
LINE
  5
2A0
100
AcDbEntity
  8
0
100
AcDbLine
 62
7
  6
CONTINUOUS
 10
9.8595357237
 20
2.7399727075
 11
9.8595357237
 21
2.7100334241
  0
LINE
  5
2A1
100
AcDbEntity
  8
0
100
AcDbLine
 62
7
  6
CONTINUOUS
 10
9.8595357237
 20
2.6990062038
 11
9.8595357237
 21
2.6690669203
  0
LINE
  5
2A2
100
AcDbEntity
  8
0
100
AcDbLine
 62
7
  6
CONTINUOUS
 10
9.8630134956
 20
2.6395159782
 11
9.8630134956
 21
2.6095766948
  0
LINE
  5
2A3
100
AcDbEntity
  8
0
100
AcDbLine
 62
7
  6
CONTINUOUS
 10
9.8677876519
 20
2.8401624063
 11
9.8677876519
 21
2.8102231228
  0
LINE
  5
2A4
100
AcDbEntity
  8
0
100
AcDbLine
 62
7
  6
CONTINUOUS
 10
9.8677876519
 20
2.598816505
 11
9.8677876519
 21
2.5688772215
  0
LINE
  5
2A5
100
AcDbEntity
  8
0
100
AcDbLine
 62
7
  6
CONTINUOUS
 10
9.8781756293
 20
2.5401018255
 11
9.8781756293
 21
2.510162542
  0
LINE
  5
2A6
100
AcDbEntity
  8
0
100
AcDbLine
 62
7
  6
CONTINUOUS
 10
9.8876617034
 20
2.9387789487
 11
9.8876617034
 21
2.9088396652
  0
LINE
  5
2A7
100
AcDbEntity
  8
0
100
AcDbLine
 62
7
  6
CONTINUOUS
 10
9.8876617034
 20
2.5001999627
 11
9.8876617034
 21
2.4702606792
  0
LINE
  5
2A8
100
AcDbEntity
  8
0
100
AcDbLine
 62
7
  6
CONTINUOUS
 10
9.9048244633
 20
2.4430262649
 11
9.9048244633
 21
2.4130869814
  0
LINE
  5
2A9
100
AcDbEntity
  8
0
100
AcDbLine
 62
7
  6
CONTINUOUS
 10
9.9188987898
 20
3.0345367171
 11
9.9188987898
 21
3.0045974336
  0
LINE
  5
2AA
100
AcDbEntity
  8
0
100
AcDbLine
 62
7
  6
CONTINUOUS
 10
9.9188987898
 20
2.4044421943
 11
9.9188987898
 21
2.3745029108
  0
LINE
  5
2AB
100
AcDbEntity
  8
0
100
AcDbLine
 62
7
  6
CONTINUOUS
 10
9.9426125893
 20
2.3495548248
 11
9.9426125893
 21
2.3196155413
  0
LINE
  5
2AC
100
AcDbEntity
  8
0
100
AcDbLine
 62
7
  6
CONTINUOUS
 10
9.9610916878
 20
3.1261873627
 11
9.9610916878
 21
3.0962480792
  0
LINE
  5
2AD
100
AcDbEntity
  8
0
100
AcDbLine
 62
7
  6
CONTINUOUS
 10
9.9610916878
 20
2.3127915487
 11
9.9610916878
 21
2.2828522652
  0
LINE
  5
2AE
100
AcDbEntity
  8
0
100
AcDbLine
 62
7
  6
CONTINUOUS
 10
9.9717920688
 20
11.2742333796
 11
9.9717920688
 21
2.7194894557
  0
LINE
  5
2AF
100
AcDbEntity
  8
0
100
AcDbLine
 62
7
  6
CONTINUOUS
 10
9.9910473812
 20
2.2609060483
 11
9.9910473812
 21
2.2309667648
  0
LINE
  5
2B0
100
AcDbEntity
  8
0
100
AcDbLine
 62
7
  6
CONTINUOUS
 10
10.0136903484
 20
2.2264428323
 11
10.0136903484
 21
2.1965035488
  0
LINE
  5
2B1
100
AcDbEntity
  8
0
100
AcDbLine
 62
7
  6
CONTINUOUS
 10
10.0494974175
 20
2.1782356078
 11
10.0494974175
 21
2.1482963244
  0
LINE
  5
2B2
100
AcDbEntity
  8
0
100
AcDbLine
 62
7
  6
CONTINUOUS
 10
10.0760090678
 20
2.1465217327
 11
10.0760090678
 21
2.1165824492
  0
LINE
  5
2B3
100
AcDbEntity
  8
0
100
AcDbLine
 62
7
  6
CONTINUOUS
 10
10.1172007126
 20
2.102621239
 11
10.1172007126
 21
2.0726819556
  0
LINE
  5
2B4
100
AcDbEntity
  8
0
100
AcDbLine
 62
7
  6
CONTINUOUS
 10
10.1472354259
 20
2.0740701435
 11
10.1472354259
 21
2.04413086
  0
LINE
  5
2B5
100
AcDbEntity
  8
0
100
AcDbLine
 62
7
  6
CONTINUOUS
 10
10.1932746505
 20
2.0350486908
 11
10.1932746505
 21
2.0051094073
  0
LINE
  5
2B6
100
AcDbEntity
  8
0
100
AcDbLine
 62
7
  6
CONTINUOUS
 10
10.2250973037
 20
2.01193247
 11
10.2250973037
 21
2.0418717535
  0
LINE
  5
2B7
100
AcDbEntity
  8
0
100
AcDbLine
 62
7
  6
CONTINUOUS
 10
10.2264408785
 20
2.0100325822
 11
10.2264408785
 21
1.9800932987
  0
LINE
  5
2B8
100
AcDbEntity
  8
0
100
AcDbLine
 62
7
  6
CONTINUOUS
 10
10.276727491
 20
1.9763988747
 11
10.276727491
 21
1.9464595912
  0
LINE
  5
2B9
100
AcDbEntity
  8
0
100
AcDbLine
 62
7
  6
CONTINUOUS
 10
10.3075475693
 20
1.9567864187
 11
10.3075475693
 21
1.9867257022
  0
LINE
  5
2BA
100
AcDbEntity
  8
0
100
AcDbLine
 62
7
  6
CONTINUOUS
 10
10.3125928612
 20
1.9552438761
 11
10.3125928612
 21
1.9253045927
  0
LWPOLYLINE
  5
2BB
100
AcDbEntity
  8
0
100
AcDbPolyline
 62
7
  6
CONTINUOUS
 90
21
 70
0
 10
10.2775578689
 20
12.6676803515
 10
10.2776009385
 20
12.670530539
 10
10.277479471
 20
12.6743871698
 10
10.2771515789
 20
12.6782316862
 10
10.2766182151
 20
12.6820530481
 10
10.2758809223
 20
12.6858402826
 10
10.2749418288
 20
12.6895825162
 10
10.2738036422
 20
12.6932690055
 10
10.2724696416
 20
12.696889168
 10
10.2709436674
 20
12.7004326135
 10
10.2692301119
 20
12.7038891715
 10
10.2673339061
 20
12.7072489205
 10
10.2652605037
 20
12.7105022213
 10
10.2630158676
 20
12.713639739
 10
10.260606455
 20
12.7166524685
 10
10.2580392003
 20
12.7195317608
 10
10.2553214758
 20
12.7222693676
 10
10.2524610699
 20
12.7248574581
 10
10.249466191
 20
12.7272886156
 10
10.2463454483
 20
12.7295558608
 10
10.2431400823
 20
12.7316329834
  0
LINE
  5
2BC
100
AcDbEntity
  8
0
100
AcDbLine
 62
7
  6
CONTINUOUS
 10
10.2775577139
 20
12.6676803567
 11
10.1265875297
 21
8.3444599223
  0
LINE
  5
2BD
100
AcDbEntity
  8
0
100
AcDbLine
 62
7
  6
CONTINUOUS
 10
12.7206273707
 20
14.3678806825
 11
12.6999197216
 21
14.3213705409
  0
LINE
  5
2BE
100
AcDbEntity
  8
0
100
AcDbLine
 62
7
  6
CONTINUOUS
 10
12.7593605803
 20
14.2641476729
 11
12.7362471575
 21
14.2187850265
  0
LINE
  5
2BF
100
AcDbEntity
  8
0
100
AcDbLine
 62
7
  6
CONTINUOUS
 10
9.6377395304
 20
11.7832950961
 11
9.6271543952
 21
11.8330942418
  0
LINE
  5
2C0
100
AcDbEntity
  8
0
100
AcDbLine
 62
7
  6
CONTINUOUS
 10
9.015952931
 20
14.7085710532
 11
9.0053677958
 21
14.7583701989
  0
LINE
  5
2C1
100
AcDbEntity
  8
0
100
AcDbLine
 62
7
  6
CONTINUOUS
 10
9.5454309724
 20
11.8444500544
 11
9.5374666297
 21
11.8947349353
  0
LINE
  5
2C2
100
AcDbEntity
  8
0
100
AcDbLine
 62
7
  6
CONTINUOUS
 10
9.0775936244
 20
14.7982588187
 11
9.0696292817
 21
14.8485436996
  0
LINE
  5
2C3
100
AcDbEntity
  8
0
100
AcDbLine
 62
7
  6
CONTINUOUS
 10
10.3664712988
 20
1.9274363807
 11
10.3664712988
 21
1.8974970972
  0
LINE
  5
2C4
100
AcDbEntity
  8
0
100
AcDbLine
 62
7
  6
CONTINUOUS
 10
10.3958870154
 20
1.9111930635
 11
10.3958870154
 21
1.941132347
  0
LINE
  5
2C5
100
AcDbEntity
  8
0
100
AcDbLine
 62
7
  6
CONTINUOUS
 10
10.4045682512
 20
1.91041828
 11
10.4045682512
 21
1.8804789965
  0
LINE
  5
2C6
100
AcDbEntity
  8
0
100
AcDbLine
 62
7
  6
CONTINUOUS
 10
10.4613361261
 20
1.8887995098
 11
10.4613361261
 21
1.8588602263
  0
LINE
  5
2C7
100
AcDbEntity
  8
0
100
AcDbLine
 62
7
  6
CONTINUOUS
 10
10.4889640021
 20
1.8757467835
 11
10.4889640021
 21
1.905686067
  0
LINE
  5
2C8
100
AcDbEntity
  8
0
100
AcDbLine
 62
7
  6
CONTINUOUS
 10
10.5011680086
 20
1.8761401639
 11
10.5011680086
 21
1.8462008805
  0
LINE
  5
2C9
100
AcDbEntity
  8
0
100
AcDbLine
 62
7
  6
CONTINUOUS
 10
10.5600852647
 20
1.8609919527
 11
10.5600852647
 21
1.8310526693
  0
LINE
  5
2CA
100
AcDbEntity
  8
0
100
AcDbLine
 62
7
  6
CONTINUOUS
 10
10.5855651285
 20
1.8509096753
 11
10.5855651285
 21
1.8808489588
  0
LINE
  5
2CB
100
AcDbEntity
  8
0
100
AcDbLine
 62
7
  6
CONTINUOUS
 10
10.6011328079
 20
1.8528563957
 11
10.6011328079
 21
1.8229171122
  0
LINE
  5
2CC
100
AcDbEntity
  8
0
100
AcDbLine
 62
7
  6
CONTINUOUS
 10
10.6614313687
 20
1.8443762235
 11
10.6614313687
 21
1.8144369401
  0
LINE
  5
2CD
100
AcDbEntity
  8
0
100
AcDbLine
 62
7
  6
CONTINUOUS
 10
10.6844310513
 20
1.8370055285
 11
10.6844310513
 21
1.866944812
  0
LINE
  5
2CE
100
AcDbEntity
  8
0
100
AcDbLine
 62
7
  6
CONTINUOUS
 10
10.7031594551
 20
1.8408705146
 11
10.7031594551
 21
1.8109312312
  0
LINE
  5
2CF
100
AcDbEntity
  8
0
100
AcDbLine
 62
7
  6
CONTINUOUS
 10
10.7640532366
 20
1.8391689336
 11
10.7640532366
 21
1.8092296502
  0
LINE
  5
2D0
100
AcDbEntity
  8
0
100
AcDbLine
 62
7
  6
CONTINUOUS
 10
10.784272902
 20
1.834215605
 11
10.784272902
 21
1.8641548884
  0
LINE
  5
2D1
100
AcDbEntity
  8
0
100
AcDbLine
 62
7
  6
CONTINUOUS
 10
10.8059178767
 20
1.8403387752
 11
10.8059178767
 21
1.8103994917
  0
LINE
  5
2D2
100
AcDbEntity
  8
0
100
AcDbLine
 62
7
  6
CONTINUOUS
 10
10.1496110837
 20
2.1058515879
 11
10.1472354259
 21
2.0740701435
  0
LINE
  5
2D3
100
AcDbEntity
  8
0
100
AcDbLine
 62
7
  6
CONTINUOUS
 10
12.6271542004
 20
14.5685604164
 11
12.6114216235
 21
14.5201405235
  0
LINE
  5
2D4
100
AcDbEntity
  8
0
100
AcDbLine
 62
7
  6
CONTINUOUS
 10
12.6765182775
 20
14.46944439
 11
12.6582731601
 21
14.4219142343
  0
LINE
  5
2D5
100
AcDbEntity
  8
0
100
AcDbLine
 62
7
  6
CONTINUOUS
 10
10.1751802476
 20
8.2738432461
 11
10.3070336013
 21
8.28101883
  0
LINE
  5
2D6
100
AcDbEntity
  8
0
100
AcDbLine
 62
7
  6
CONTINUOUS
 10
10.1265875324
 20
8.3444600003
 11
10.2671411694
 21
8.351348515
  0
LINE
  5
2D7
100
AcDbEntity
  8
0
100
AcDbLine
 62
7
  6
CONTINUOUS
 10
11.2514429681
 20
8.3513485191
 11
11.3919964329
 21
8.3444599441
  0
LINE
  5
2D8
100
AcDbEntity
  8
0
100
AcDbLine
 62
7
  6
CONTINUOUS
 10
11.2115501639
 20
8.2810187524
 11
11.3434038901
 21
8.2738432462
  0
LINE
  5
2D9
100
AcDbEntity
  8
0
100
AcDbLine
 62
7
  6
CONTINUOUS
 10
8.907162514
 20
14.5201405235
 11
8.8914299371
 21
14.5685604164
  0
LINE
  5
2DA
100
AcDbEntity
  8
0
100
AcDbLine
 62
7
  6
CONTINUOUS
 10
9.7331221859
 20
11.7270550053
 11
9.7199452713
 21
11.7762319198
  0
LINE
  5
2DB
100
AcDbEntity
  8
0
100
AcDbLine
 62
7
  6
CONTINUOUS
 10
8.959090609
 20
14.615780177
 11
8.9459136944
 21
14.6649570916
  0
LINE
  5
2DC
100
AcDbEntity
  8
0
100
AcDbLine
 62
7
  6
CONTINUOUS
 10
11.4080198983
 20
2.1093007838
 11
11.4037932162
 21
2.1408977361
  0
LINE
  5
2DD
100
AcDbEntity
  8
0
100
AcDbLine
 62
7
  6
CONTINUOUS
 10
11.3326811233
 20
2.0409447269
 11
11.3321642388
 21
2.0728069988
  0
LINE
  5
2DE
100
AcDbEntity
  8
0
100
AcDbLine
 62
7
  6
CONTINUOUS
 10
10.8666130353
 20
1.845437968
 11
10.8666130353
 21
1.8154986845
  0
LINE
  5
2DF
100
AcDbEntity
  8
0
100
AcDbLine
 62
7
  6
CONTINUOUS
 10
10.8837890893
 20
1.8425762755
 11
10.8837890893
 21
1.872515559
  0
LINE
  5
2E0
100
AcDbEntity
  8
0
100
AcDbLine
 62
7
  6
CONTINUOUS
 10
10.9080684596
 20
1.8512681094
 11
10.9080684596
 21
1.8213288259
  0
LINE
  5
2E1
100
AcDbEntity
  8
0
100
AcDbLine
 62
7
  6
CONTINUOUS
 10
10.9677737412
 20
1.8631016002
 11
10.9677737412
 21
1.8331623167
  0
LINE
  5
2E2
100
AcDbEntity
  8
0
100
AcDbLine
 62
7
  6
CONTINUOUS
 10
10.9816822675
 20
1.8619785461
 11
10.9816822675
 21
1.8919178296
  0
LINE
  5
2E3
100
AcDbEntity
  8
0
100
AcDbLine
 62
7
  6
CONTINUOUS
 10
11.0082795147
 20
1.8735160365
 11
11.0082795147
 21
1.8435767531
  0
LINE
  5
2E4
100
AcDbEntity
  8
0
100
AcDbLine
 62
7
  6
CONTINUOUS
 10
11.0662165696
 20
1.8919295578
 11
11.0662165696
 21
1.8619902743
  0
LINE
  5
2E5
100
AcDbEntity
  8
0
100
AcDbLine
 62
7
  6
CONTINUOUS
 10
11.0766762494
 20
1.8921694785
 11
11.0766762494
 21
1.922108762
  0
LINE
  5
2E6
100
AcDbEntity
  8
0
100
AcDbLine
 62
7
  6
CONTINUOUS
 10
11.1052446377
 20
1.906792521
 11
11.1052446377
 21
1.8768532375
  0
LINE
  5
2E7
100
AcDbEntity
  8
0
100
AcDbLine
 62
7
  6
CONTINUOUS
 10
11.1606581677
 20
1.9315460242
 11
11.1606581677
 21
1.9016067407
  0
LINE
  5
2E8
100
AcDbEntity
  8
0
100
AcDbLine
 62
7
  6
CONTINUOUS
 10
11.1675326431
 20
1.9327554876
 11
11.1675326431
 21
1.9626947711
  0
LINE
  5
2E9
100
AcDbEntity
  8
0
100
AcDbLine
 62
7
  6
CONTINUOUS
 10
11.1976997399
 20
1.9506637529
 11
11.1976997399
 21
1.9207244694
  0
LINE
  5
2EA
100
AcDbEntity
  8
0
100
AcDbLine
 62
7
  6
CONTINUOUS
 10
11.249867345
 20
1.9814345383
 11
11.249867345
 21
1.9514952548
  0
LINE
  5
2EB
100
AcDbEntity
  8
0
100
AcDbLine
 62
7
  6
CONTINUOUS
 10
11.2530669966
 20
1.9832074728
 11
11.2530669966
 21
2.0131467563
  0
LINE
  5
2EC
100
AcDbEntity
  8
0
100
AcDbLine
 62
7
  6
CONTINUOUS
 10
11.2844395277
 20
2.0045578035
 11
11.2844395277
 21
1.97461852
  0
LINE
  5
2ED
100
AcDbEntity
  8
0
100
AcDbLine
 62
7
  6
CONTINUOUS
 10
12.5132163417
 20
14.7583701989
 11
12.5026312065
 21
14.7085710532
  0
LINE
  5
2EE
100
AcDbEntity
  8
0
100
AcDbLine
 62
7
  6
CONTINUOUS
 10
11.8914297423
 20
11.8330942418
 11
11.8808446072
 21
11.7832950961
  0
LINE
  5
2EF
100
AcDbEntity
  8
0
100
AcDbLine
 62
7
  6
CONTINUOUS
 10
12.5726704431
 20
14.6649570916
 11
12.5594935286
 21
14.615780177
  0
LINE
  5
2F0
100
AcDbEntity
  8
0
100
AcDbLine
 62
7
  6
CONTINUOUS
 10
11.7986388662
 20
11.7762319198
 11
11.7854619516
 21
11.7270550053
  0
LINE
  5
2F1
100
AcDbEntity
  8
0
100
AcDbLine
 62
7
  6
CONTINUOUS
 10
8.8186644159
 20
14.3213705409
 11
8.7979567668
 21
14.3678806825
  0
LINE
  5
2F2
100
AcDbEntity
  8
0
100
AcDbLine
 62
7
  6
CONTINUOUS
 10
8.8603109774
 20
14.4219142343
 11
8.84206586
 21
14.46944439
  0
LINE
  5
2F3
100
AcDbEntity
  8
0
100
AcDbLine
 62
7
  6
CONTINUOUS
 10
11.2410264236
 20
12.6676803568
 11
11.3919966078
 21
8.3444599223
  0
LINE
  5
2F4
100
AcDbEntity
  8
0
100
AcDbLine
 62
7
  6
CONTINUOUS
 10
11.3326811233
 20
2.0409447269
 11
11.3326811233
 21
2.0110054434
  0
LINE
  5
2F5
100
AcDbEntity
  8
0
100
AcDbLine
 62
7
  6
CONTINUOUS
 10
11.3643332152
 20
2.0677720816
 11
11.3643332152
 21
2.0378327981
  0
LINE
  5
2F6
100
AcDbEntity
  8
0
100
AcDbLine
 62
7
  6
CONTINUOUS
 10
11.4080198983
 20
2.1093007838
 11
11.4080198983
 21
2.0793615003
  0
LINE
  5
2F7
100
AcDbEntity
  8
0
100
AcDbLine
 62
7
  6
CONTINUOUS
 10
11.436339266
 20
2.1394824924
 11
11.436339266
 21
2.1095432089
  0
LINE
  5
2F8
100
AcDbEntity
  8
0
100
AcDbLine
 62
7
  6
CONTINUOUS
 10
11.4749015141
 20
2.1856115831
 11
11.4749015141
 21
2.1556722997
  0
LINE
  5
2F9
100
AcDbEntity
  8
0
100
AcDbLine
 62
7
  6
CONTINUOUS
 10
11.4995189713
 20
2.2187541809
 11
11.4995189713
 21
2.1888148974
  0
LINE
  5
2FA
100
AcDbEntity
  8
0
100
AcDbLine
 62
7
  6
CONTINUOUS
 10
11.5324540663
 20
2.268882297
 11
11.5324540663
 21
2.2389430136
  0
LINE
  5
2FB
100
AcDbEntity
  8
0
100
AcDbLine
 62
7
  6
CONTINUOUS
 10
11.5467920688
 20
11.2742333796
 11
11.5467920688
 21
2.7194894557
  0
LINE
  5
2FC
100
AcDbEntity
  8
0
100
AcDbLine
 62
7
  6
CONTINUOUS
 10
11.5530486868
 20
2.3045537195
 11
11.5530486868
 21
2.274614436
  0
LINE
  5
2FD
100
AcDbEntity
  8
0
100
AcDbLine
 62
7
  6
CONTINUOUS
 10
11.5799272694
 20
3.080951547
 11
11.5799272694
 21
3.0510122635
  0
LINE
  5
2FE
100
AcDbEntity
  8
0
100
AcDbLine
 62
7
  6
CONTINUOUS
 10
11.5799272694
 20
2.3580273644
 11
11.5799272694
 21
2.3280880809
  0
LINE
  5
2FF
100
AcDbEntity
  8
0
100
AcDbLine
 62
7
  6
CONTINUOUS
 10
11.5962305709
 20
2.3957625799
 11
11.5962305709
 21
2.3658232965
  0
LINE
  5
300
100
AcDbEntity
  8
0
100
AcDbLine
 62
7
  6
CONTINUOUS
 10
11.6167022378
 20
2.9870942685
 11
11.6167022378
 21
2.957154985
  0
LINE
  5
301
100
AcDbEntity
  8
0
100
AcDbLine
 62
7
  6
CONTINUOUS
 10
11.6167022378
 20
2.4518846428
 11
11.6167022378
 21
2.4219453594
  0
LINE
  5
302
100
AcDbEntity
  8
0
100
AcDbLine
 62
7
  6
CONTINUOUS
 10
11.6285016818
 20
2.4911917153
 11
11.6285016818
 21
2.4612524318
  0
LINE
  5
303
100
AcDbEntity
  8
0
100
AcDbLine
 62
7
  6
CONTINUOUS
 10
11.6422995533
 20
2.8897483521
 11
11.6422995533
 21
2.8598090686
  0
LINE
  5
304
100
AcDbEntity
  8
0
100
AcDbLine
 62
7
  6
CONTINUOUS
 10
11.6422995533
 20
2.5492305593
 11
11.6422995533
 21
2.5192912758
  0
LINE
  5
305
100
AcDbEntity
  8
0
100
AcDbLine
 62
7
  6
CONTINUOUS
 10
11.649441316
 20
2.5895970609
 11
11.649441316
 21
2.5596577774
  0
LINE
  5
306
100
AcDbEntity
  8
0
100
AcDbLine
 62
7
  6
CONTINUOUS
 10
11.6563855159
 20
2.7901828505
 11
11.6563855159
 21
2.760243567
  0
LINE
  5
307
100
AcDbEntity
  8
0
100
AcDbLine
 62
7
  6
CONTINUOUS
 10
11.6563855159
 20
2.6487960608
 11
11.6563855159
 21
2.6188567774
  0
LINE
  5
308
100
AcDbEntity
  8
0
100
AcDbLine
 62
7
  6
CONTINUOUS
 10
11.6587764935
 20
2.6896957525
 11
11.6587764935
 21
2.659756469
  0
LINE
  5
309
100
AcDbEntity
  8
0
100
AcDbLine
 62
7
  6
CONTINUOUS
 10
11.6592920688
 20
2.6896957525
 11
11.6592920688
 21
2.6895501722
  0
LINE
  5
30A
100
AcDbEntity
  8
0
100
AcDbLine
 62
7
  6
CONTINUOUS
 10
11.7492920688
 20
11.4150866341
 11
11.7492920688
 21
12.4704841734
  0
LINE
  5
30B
100
AcDbEntity
  8
0
100
AcDbLine
 62
7
  6
CONTINUOUS
 10
12.3800621216
 20
14.9352304343
 11
12.3747404011
 21
14.8845976456
  0
LINE
  5
30C
100
AcDbEntity
  8
0
100
AcDbLine
 62
7
  6
CONTINUOUS
 10
12.0674563347
 20
11.9609850473
 11
12.0621346142
 21
11.9103522586
  0
LINE
  5
30D
100
AcDbEntity
  8
0
100
AcDbLine
 62
7
  6
CONTINUOUS
 10
12.4489548558
 20
14.8485436996
 11
12.4409905131
 21
14.7982588187
  0
LINE
  5
30E
100
AcDbEntity
  8
0
100
AcDbLine
 62
7
  6
CONTINUOUS
 10
11.9811175078
 20
11.8947349353
 11
11.9731531651
 21
11.8444500544
  0
LINE
  5
30F
100
AcDbEntity
  8
0
100
AcDbLine
 62
7
  6
CONTINUOUS
 10
10.0820729878
 20
2.1778311303
 11
10.0760090678
 21
2.1465217327
  0
LINE
  5
310
100
AcDbEntity
  8
0
100
AcDbLine
 62
7
  6
CONTINUOUS
 10
8.7514282406
 20
14.1144388709
 11
8.7259723965
 21
14.1585296862
  0
LINE
  5
311
100
AcDbEntity
  8
0
100
AcDbLine
 62
7
  6
CONTINUOUS
 10
8.78233698
 20
14.2187850265
 11
8.7592235572
 21
14.2641476729
  0
LINE
  5
312
100
AcDbEntity
  8
0
100
AcDbLine
 62
7
  6
CONTINUOUS
 10
12.2291504057
 20
15.0972034048
 11
12.2291504057
 21
15.0462917165
  0
LINE
  5
313
100
AcDbEntity
  8
0
100
AcDbLine
 62
7
  6
CONTINUOUS
 10
12.2291504057
 20
12.1065750427
 11
12.2291504057
 21
12.0556633544
  0
LINE
  5
314
100
AcDbEntity
  8
0
100
AcDbLine
 62
7
  6
CONTINUOUS
 10
12.3067269694
 20
15.0181928007
 11
12.3040624575
 21
14.9673508851
  0
LINE
  5
315
100
AcDbEntity
  8
0
100
AcDbLine
 62
7
  6
CONTINUOUS
 10
12.1502095743
 20
12.0316629909
 11
12.1475450624
 21
11.9808210753
  0
LINE
  5
316
100
AcDbEntity
  8
0
100
AcDbLine
 62
7
  6
CONTINUOUS
 10
11.249867345
 20
1.9814345383
 11
11.2530669966
 21
2.0131467563
  0
LINE
  5
317
100
AcDbEntity
  8
0
100
AcDbLine
 62
7
  6
CONTINUOUS
 10
11.249867345
 20
1.9514952548
 11
11.2530669966
 21
1.9832074728
  0
LINE
  5
318
100
AcDbEntity
  8
0
100
AcDbLine
 62
7
  6
CONTINUOUS
 10
10.0233634782
 20
2.2568720173
 11
10.0136903484
 21
2.2264428323
  0
LINE
  5
319
100
AcDbEntity
  8
0
100
AcDbLine
 62
7
  6
CONTINUOUS
 10
8.7061906415
 20
13.9016127001
 11
8.676265502
 21
13.9428011211
  0
LINE
  5
31A
100
AcDbEntity
  8
0
100
AcDbLine
 62
7
  6
CONTINUOUS
 10
8.7260229163
 20
14.0086180796
 11
8.6982944236
 21
14.0513162141
  0
LINE
  5
31B
100
AcDbEntity
  8
0
100
AcDbLine
 62
7
  6
CONTINUOUS
 10
12.0621346142
 20
15.2425145006
 11
12.0674563347
 21
15.1918817119
  0
LINE
  5
31C
100
AcDbEntity
  8
0
100
AcDbLine
 62
7
  6
CONTINUOUS
 10
12.3747404011
 20
12.2682691136
 11
12.3800621216
 21
12.2176363249
  0
LINE
  5
31D
100
AcDbEntity
  8
0
100
AcDbLine
 62
7
  6
CONTINUOUS
 10
12.1475450624
 20
15.1720456839
 11
12.1502095743
 21
15.1212037684
  0
LINE
  5
31E
100
AcDbEntity
  8
0
100
AcDbLine
 62
7
  6
CONTINUOUS
 10
12.3040624575
 20
12.1855158741
 11
12.3067269694
 21
12.1346739585
  0
LINE
  5
31F
100
AcDbEntity
  8
0
100
AcDbLine
 62
7
  6
CONTINUOUS
 10
11.1606581677
 20
1.9315460242
 11
11.1675326431
 21
1.9626947711
  0
LINE
  5
320
100
AcDbEntity
  8
0
100
AcDbLine
 62
7
  6
CONTINUOUS
 10
11.1606581677
 20
1.9016067407
 11
11.1675326431
 21
1.9327554876
  0
LINE
  5
321
100
AcDbEntity
  8
0
100
AcDbLine
 62
7
  6
CONTINUOUS
 10
9.9742479233
 20
2.3419438302
 11
9.9610916878
 21
2.3127915487
  0
LINE
  5
322
100
AcDbEntity
  8
0
100
AcDbLine
 62
7
  6
CONTINUOUS
 10
8.6805984739
 20
13.5764333796
 11
8.6445984739
 21
13.6124333796
  0
LINE
  5
323
100
AcDbEntity
  8
0
100
AcDbLine
 62
7
  6
CONTINUOUS
 10
8.6834472513
 20
13.6852237966
 11
8.6493806824
 21
13.7230585543
  0
LWPOLYLINE
  5
324
100
AcDbEntity
  8
0
100
AcDbPolyline
 62
7
  6
CONTINUOUS
 90
3
 70
0
 10
9.7367021842
 20
12.561720909
 10
9.7325179847
 20
12.566603386
 10
9.728385363
 20
12.5710228593
  0
LINE
  5
325
100
AcDbEntity
  8
0
100
AcDbLine
 62
7
  6
CONTINUOUS
 10
8.6919857749
 20
13.7937160267
 11
8.6599460114
 21
13.8332818396
  0
LINE
  5
326
100
AcDbEntity
  8
0
100
AcDbLine
 62
7
  6
CONTINUOUS
 10
8.7061906415
 20
13.2512540591
 11
8.6650022205
 21
13.2811791986
  0
LINE
  5
327
100
AcDbEntity
  8
0
100
AcDbLine
 62
7
  6
CONTINUOUS
 10
8.6919857749
 20
13.3591507325
 11
8.652419962
 21
13.3911904961
  0
LINE
  5
328
100
AcDbEntity
  8
0
100
AcDbLine
 62
7
  6
CONTINUOUS
 10
8.6834472513
 20
13.4676429626
 11
8.6456124936
 21
13.5017095314
  0
LINE
  5
329
100
AcDbEntity
  8
0
100
AcDbLine
 62
7
  6
CONTINUOUS
 10
11.8808446072
 20
15.3695716631
 11
11.8914297423
 21
15.3197725174
  0
LINE
  5
32A
100
AcDbEntity
  8
0
100
AcDbLine
 62
7
  6
CONTINUOUS
 10
12.5026312065
 20
12.444295706
 11
12.5132163417
 21
12.3944965603
  0
LINE
  5
32B
100
AcDbEntity
  8
0
100
AcDbLine
 62
7
  6
CONTINUOUS
 10
11.9731531651
 20
15.3084167048
 11
11.9811175078
 21
15.2581318239
  0
LINE
  5
32C
100
AcDbEntity
  8
0
100
AcDbLine
 62
7
  6
CONTINUOUS
 10
12.4409905131
 20
12.3546079405
 11
12.4489548558
 21
12.3043230597
  0
LINE
  5
32D
100
AcDbEntity
  8
0
100
AcDbLine
 62
7
  6
CONTINUOUS
 10
11.5326574222
 20
2.2709013557
 11
11.532222072
 21
2.2694877698
  0
LINE
  5
32E
100
AcDbEntity
  8
0
100
AcDbLine
 62
7
  6
CONTINUOUS
 10
11.5327173342
 20
2.2708831211
 11
11.5322675559
 21
2.2694738354
  0
LINE
  5
32F
100
AcDbEntity
  8
0
100
AcDbLine
 62
7
  6
CONTINUOUS
 10
11.0662165696
 20
1.8919295578
 11
11.0766762494
 21
1.922108762
  0
LINE
  5
330
100
AcDbEntity
  8
0
100
AcDbLine
 62
7
  6
CONTINUOUS
 10
11.0662165696
 20
1.8619902743
 11
11.0766762494
 21
1.8921694785
  0
LINE
  5
331
100
AcDbEntity
  8
0
100
AcDbLine
 62
7
  6
CONTINUOUS
 10
9.9353666194
 20
2.4319375276
 11
9.9188987898
 21
2.4044421943
  0
LINE
  5
332
100
AcDbEntity
  8
0
100
AcDbLine
 62
7
  6
CONTINUOUS
 10
8.78233698
 20
12.9340817327
 11
8.7369743336
 21
12.9571951555
  0
LINE
  5
333
100
AcDbEntity
  8
0
100
AcDbLine
 62
7
  6
CONTINUOUS
 10
8.7514282406
 20
13.0384278883
 11
8.7073374252
 21
13.0638837325
  0
LINE
  5
334
100
AcDbEntity
  8
0
100
AcDbLine
 62
7
  6
CONTINUOUS
 10
8.7260229163
 20
13.1442486796
 11
8.6833247818
 21
13.1719771724
  0
LINE
  5
335
100
AcDbEntity
  8
0
100
AcDbLine
 62
7
  6
CONTINUOUS
 10
11.6872666358
 20
15.4769828272
 11
11.7029992127
 21
15.4285629344
  0
LINE
  5
336
100
AcDbEntity
  8
0
100
AcDbLine
 62
7
  6
CONTINUOUS
 10
12.6114216235
 20
12.6327262357
 11
12.6271542004
 21
12.5843063428
  0
LINE
  5
337
100
AcDbEntity
  8
0
100
AcDbLine
 62
7
  6
CONTINUOUS
 10
11.7854619516
 20
15.4258117539
 11
11.7986388662
 21
15.3766348394
  0
LINE
  5
338
100
AcDbEntity
  8
0
100
AcDbLine
 62
7
  6
CONTINUOUS
 10
12.5594935286
 20
12.5370865822
 11
12.5726704431
 21
12.4879096677
  0
LINE
  5
339
100
AcDbEntity
  8
0
100
AcDbLine
 62
7
  6
CONTINUOUS
 10
10.9677737412
 20
1.8631016002
 11
10.9816822675
 21
1.8919178296
  0
LINE
  5
33A
100
AcDbEntity
  8
0
100
AcDbLine
 62
7
  6
CONTINUOUS
 10
10.9677737412
 20
1.8331623167
 11
10.9816822675
 21
1.8619785461
  0
LINE
  5
33B
100
AcDbEntity
  8
0
100
AcDbLine
 62
7
  6
CONTINUOUS
 10
11.5650910405
 20
3.0525814709
 11
11.5799272694
 21
3.080951547
  0
LINE
  5
33C
100
AcDbEntity
  8
0
100
AcDbLine
 62
7
  6
CONTINUOUS
 10
11.5786200844
 20
3.0485126432
 11
11.5799272694
 21
3.0510122635
  0
LINE
  5
33D
100
AcDbEntity
  8
0
100
AcDbLine
 62
7
  6
CONTINUOUS
 10
9.9072264438
 20
2.5256799042
 11
9.8876617034
 21
2.5001999627
  0
LINE
  5
33E
100
AcDbEntity
  8
0
100
AcDbLine
 62
7
  6
CONTINUOUS
 10
12.6086704431
 20
12.5502634967
 11
12.5594935286
 21
12.5370865822
  0
LINE
  5
33F
100
AcDbEntity
  8
0
100
AcDbLine
 62
7
  6
CONTINUOUS
 10
9.7199452713
 20
11.7762319198
 11
9.6707683568
 21
11.7630550053
  0
LINE
  5
340
100
AcDbEntity
  8
0
100
AcDbLine
 62
7
  6
CONTINUOUS
 10
12.5524303522
 20
12.4548808412
 11
12.5026312065
 21
12.444295706
  0
LINE
  5
341
100
AcDbEntity
  8
0
100
AcDbLine
 62
7
  6
CONTINUOUS
 10
9.6271543952
 20
11.8330942418
 11
9.5773552495
 21
11.8225091067
  0
LINE
  5
342
100
AcDbEntity
  8
0
100
AcDbLine
 62
7
  6
CONTINUOUS
 10
12.491275394
 20
12.3625722832
 11
12.4409905131
 21
12.3546079405
  0
LINE
  5
343
100
AcDbEntity
  8
0
100
AcDbLine
 62
7
  6
CONTINUOUS
 10
9.5374666297
 20
11.8947349353
 11
9.4871817488
 21
11.8867705926
  0
LINE
  5
344
100
AcDbEntity
  8
0
100
AcDbLine
 62
7
  6
CONTINUOUS
 10
12.4253731898
 20
12.2735908342
 11
12.3747404011
 21
12.2682691136
  0
LINE
  5
345
100
AcDbEntity
  8
0
100
AcDbLine
 62
7
  6
CONTINUOUS
 10
9.4511278028
 20
11.9609850473
 11
9.4004950141
 21
11.9556633267
  0
LINE
  5
346
100
AcDbEntity
  8
0
100
AcDbLine
 62
7
  6
CONTINUOUS
 10
12.3549043731
 20
12.188180386
 11
12.3040624575
 21
12.1855158741
  0
LINE
  5
347
100
AcDbEntity
  8
0
100
AcDbLine
 62
7
  6
CONTINUOUS
 10
9.3683745632
 20
12.0316629909
 11
9.3175326477
 21
12.028998479
  0
LINE
  5
348
100
AcDbEntity
  8
0
100
AcDbLine
 62
7
  6
CONTINUOUS
 10
12.2800620939
 20
12.1065750427
 11
12.2291504057
 21
12.1065750427
  0
LINE
  5
349
100
AcDbEntity
  8
0
100
AcDbLine
 62
7
  6
CONTINUOUS
 10
9.2894337318
 20
12.1065750427
 11
9.2385220436
 21
12.1065750427
  0
LINE
  5
34A
100
AcDbEntity
  8
0
100
AcDbLine
 62
7
  6
CONTINUOUS
 10
12.2010514898
 20
12.028998479
 11
12.1502095743
 21
12.0316629909
  0
LINE
  5
34B
100
AcDbEntity
  8
0
100
AcDbLine
 62
7
  6
CONTINUOUS
 10
9.21452168
 20
12.1855158741
 11
9.1636797645
 21
12.188180386
  0
LINE
  5
34C
100
AcDbEntity
  8
0
100
AcDbLine
 62
7
  6
CONTINUOUS
 10
12.1180891234
 20
11.9556633267
 11
12.0674563347
 21
11.9609850473
  0
LINE
  5
34D
100
AcDbEntity
  8
0
100
AcDbLine
 62
7
  6
CONTINUOUS
 10
9.1438437364
 20
12.2682691136
 11
9.0932109477
 21
12.2735908342
  0
LINE
  5
34E
100
AcDbEntity
  8
0
100
AcDbLine
 62
7
  6
CONTINUOUS
 10
12.0314023887
 20
11.8867705926
 11
11.9811175078
 21
11.8947349353
  0
LINE
  5
34F
100
AcDbEntity
  8
0
100
AcDbLine
 62
7
  6
CONTINUOUS
 10
9.0775936244
 20
12.3546079405
 11
9.0273087436
 21
12.3625722832
  0
LINE
  5
350
100
AcDbEntity
  8
0
100
AcDbLine
 62
7
  6
CONTINUOUS
 10
11.941228888
 20
11.8225091067
 11
11.8914297423
 21
11.8330942418
  0
LINE
  5
351
100
AcDbEntity
  8
0
100
AcDbLine
 62
7
  6
CONTINUOUS
 10
9.015952931
 20
12.444295706
 11
8.9661537853
 21
12.4548808412
  0
LINE
  5
352
100
AcDbEntity
  8
0
100
AcDbLine
 62
7
  6
CONTINUOUS
 10
11.8478157807
 20
11.7630550053
 11
11.7986388662
 21
11.7762319198
  0
LINE
  5
353
100
AcDbEntity
  8
0
100
AcDbLine
 62
7
  6
CONTINUOUS
 10
8.959090609
 20
12.5370865822
 11
8.9099136944
 21
12.5502634967
  0
LINE
  5
354
100
AcDbEntity
  8
0
100
AcDbLine
 62
7
  6
CONTINUOUS
 10
11.7514191055
 20
11.7085712479
 11
11.7492920688
 21
11.7092623641
  0
LINE
  5
355
100
AcDbEntity
  8
0
100
AcDbLine
 62
7
  6
CONTINUOUS
 10
8.907162514
 20
12.6327262357
 11
8.8587426211
 21
12.6484588126
  0
LINE
  5
356
100
AcDbEntity
  8
0
100
AcDbLine
 62
7
  6
CONTINUOUS
 10
8.8603109774
 20
12.7309525249
 11
8.8127808217
 21
12.7491976422
  0
LINE
  5
357
100
AcDbEntity
  8
0
100
AcDbLine
 62
7
  6
CONTINUOUS
 10
8.8186644159
 20
12.8314962183
 11
8.7721542744
 21
12.8522038675
  0
LINE
  5
358
100
AcDbEntity
  8
0
100
AcDbLine
 62
7
  6
CONTINUOUS
 10
11.4835215809
 20
15.563571174
 11
11.5042292301
 21
15.5170610324
  0
LINE
  5
359
100
AcDbEntity
  8
0
100
AcDbLine
 62
7
  6
CONTINUOUS
 10
12.6999197216
 20
12.8314962183
 11
12.7206273707
 21
12.7849860768
  0
LINE
  5
35A
100
AcDbEntity
  8
0
100
AcDbLine
 62
7
  6
CONTINUOUS
 10
11.5865278062
 20
15.5229446266
 11
11.6047729235
 21
15.475414471
  0
LINE
  5
35B
100
AcDbEntity
  8
0
100
AcDbLine
 62
7
  6
CONTINUOUS
 10
12.6582731601
 20
12.7309525249
 11
12.6765182775
 21
12.6834223692
  0
LINE
  5
35C
100
AcDbEntity
  8
0
100
AcDbLine
 62
7
  6
CONTINUOUS
 10
10.8666130353
 20
1.845437968
 11
10.8837890893
 21
1.872515559
  0
LINE
  5
35D
100
AcDbEntity
  8
0
100
AcDbLine
 62
7
  6
CONTINUOUS
 10
10.8666130353
 20
1.8154986845
 11
10.8837890893
 21
1.8425762755
  0
LINE
  5
35E
100
AcDbEntity
  8
0
100
AcDbLine
 62
7
  6
CONTINUOUS
 10
11.5986565221
 20
2.9605633619
 11
11.6167022378
 21
2.9870942685
  0
LINE
  5
35F
100
AcDbEntity
  8
0
100
AcDbLine
 62
7
  6
CONTINUOUS
 10
11.6144282595
 20
2.9538117702
 11
11.6167022378
 21
2.957154985
  0
LINE
  5
360
100
AcDbEntity
  8
0
100
AcDbLine
 62
7
  6
CONTINUOUS
 10
9.8901942467
 20
2.6219488847
 11
9.8677876519
 21
2.598816505
  0
LINE
  5
361
100
AcDbEntity
  8
0
100
AcDbLine
 62
7
  6
CONTINUOUS
 10
11.2718417159
 20
15.6283880232
 11
11.29729756
 21
15.5842972078
  0
LINE
  5
362
100
AcDbEntity
  8
0
100
AcDbLine
 62
7
  6
CONTINUOUS
 10
12.7671558969
 20
13.0384278883
 11
12.7926117411
 21
12.994337073
  0
LINE
  5
363
100
AcDbEntity
  8
0
100
AcDbLine
 62
7
  6
CONTINUOUS
 10
11.3785302929
 20
15.5987511147
 11
11.4016437157
 21
15.5533884683
  0
LINE
  5
364
100
AcDbEntity
  8
0
100
AcDbLine
 62
7
  6
CONTINUOUS
 10
12.7362471575
 20
12.9340817327
 11
12.7593605803
 21
12.8887190863
  0
LINE
  5
365
100
AcDbEntity
  8
0
100
AcDbLine
 62
7
  6
CONTINUOUS
 10
10.7640532366
 20
1.8391689336
 11
10.784272902
 21
1.8641548884
  0
LINE
  5
366
100
AcDbEntity
  8
0
100
AcDbLine
 62
7
  6
CONTINUOUS
 10
10.7640532366
 20
1.8092296502
 11
10.784272902
 21
1.834215605
  0
LINE
  5
367
100
AcDbEntity
  8
0
100
AcDbLine
 62
7
  6
CONTINUOUS
 10
9.8844920688
 20
2.7194894557
 11
9.8595357237
 21
2.6990062038
  0
LINE
  5
368
100
AcDbEntity
  8
0
100
AcDbLine
 62
7
  6
CONTINUOUS
 10
11.0545462497
 20
15.6707232279
 11
11.0844713892
 21
15.6295348069
  0
LINE
  5
369
100
AcDbEntity
  8
0
100
AcDbLine
 62
7
  6
CONTINUOUS
 10
12.812393496
 20
13.2512540591
 11
12.8423186356
 21
13.2100656381
  0
LINE
  5
36A
100
AcDbEntity
  8
0
100
AcDbLine
 62
7
  6
CONTINUOUS
 10
11.163748276
 20
15.6524006665
 11
11.1914767687
 21
15.609702532
  0
LINE
  5
36B
100
AcDbEntity
  8
0
100
AcDbLine
 62
7
  6
CONTINUOUS
 10
12.7925612212
 20
13.1442486796
 11
12.820289714
 21
13.1015505451
  0
LINE
  5
36C
100
AcDbEntity
  8
0
100
AcDbLine
 62
7
  6
CONTINUOUS
 10
11.6212796044
 20
2.8654024859
 11
11.6422995533
 21
2.8897483521
  0
LINE
  5
36D
100
AcDbEntity
  8
0
100
AcDbLine
 62
7
  6
CONTINUOUS
 10
11.6386145396
 20
2.8555409874
 11
11.6422995533
 21
2.8598090686
  0
LINE
  5
36E
100
AcDbEntity
  8
0
100
AcDbLine
 62
7
  6
CONTINUOUS
 10
10.6614313687
 20
1.8443762235
 11
10.6844310513
 21
1.866944812
  0
LINE
  5
36F
100
AcDbEntity
  8
0
100
AcDbLine
 62
7
  6
CONTINUOUS
 10
10.6614313687
 20
1.8144369401
 11
10.6844310513
 21
1.8370055285
  0
LINE
  5
370
100
AcDbEntity
  8
0
100
AcDbLine
 62
7
  6
CONTINUOUS
 10
9.8901942467
 20
2.8170300267
 11
9.8630134956
 21
2.7994629331
  0
LINE
  5
371
100
AcDbEntity
  8
0
100
AcDbLine
 62
7
  6
CONTINUOUS
 10
9.9072264438
 20
2.9132990072
 11
9.8781756293
 21
2.8988770858
  0
LINE
  5
372
100
AcDbEntity
  8
0
100
AcDbLine
 62
7
  6
CONTINUOUS
 10
10.7232920688
 20
15.6911269744
 11
10.7592920688
 21
15.6551269744
  0
LINE
  5
373
100
AcDbEntity
  8
0
100
AcDbLine
 62
7
  6
CONTINUOUS
 10
12.8379856636
 20
13.5764333796
 11
12.8739856636
 21
13.5404333796
  0
LINE
  5
374
100
AcDbEntity
  8
0
100
AcDbLine
 62
7
  6
CONTINUOUS
 10
10.834015917
 20
15.6901129548
 11
10.8680824858
 21
15.6522781971
  0
LINE
  5
375
100
AcDbEntity
  8
0
100
AcDbLine
 62
7
  6
CONTINUOUS
 10
12.8351368863
 20
13.4676429626
 11
12.8692034551
 21
13.4298082049
  0
LINE
  5
376
100
AcDbEntity
  8
0
100
AcDbLine
 62
7
  6
CONTINUOUS
 10
10.9445349523
 20
15.6833054863
 11
10.9765747158
 21
15.6437396734
  0
LINE
  5
377
100
AcDbEntity
  8
0
100
AcDbLine
 62
7
  6
CONTINUOUS
 10
12.8265983626
 20
13.3591507325
 11
12.8586381261
 21
13.3195849196
  0
LINE
  5
378
100
AcDbEntity
  8
0
100
AcDbLine
 62
7
  6
CONTINUOUS
 10
11.6326653609
 20
2.7683394104
 11
11.6563855159
 21
2.7901828505
  0
LINE
  5
379
100
AcDbEntity
  8
0
100
AcDbLine
 62
7
  6
CONTINUOUS
 10
11.6508027493
 20
2.7551025033
 11
11.6563855159
 21
2.760243567
  0
LINE
  5
37A
100
AcDbEntity
  8
0
100
AcDbLine
 62
7
  6
CONTINUOUS
 10
10.5600852647
 20
1.8609919527
 11
10.5855651285
 21
1.8808489588
  0
LINE
  5
37B
100
AcDbEntity
  8
0
100
AcDbLine
 62
7
  6
CONTINUOUS
 10
10.5600852647
 20
1.8310526693
 11
10.5855651285
 21
1.8509096753
  0
LINE
  5
37C
100
AcDbEntity
  8
0
100
AcDbLine
 62
7
  6
CONTINUOUS
 10
11.6326653609
 20
2.670639501
 11
11.6587764935
 21
2.6896957525
  0
LINE
  5
37D
100
AcDbEntity
  8
0
100
AcDbLine
 62
7
  6
CONTINUOUS
 10
11.6508027493
 20
2.6539371245
 11
11.6587764935
 21
2.659756469
  0
LINE
  5
37E
100
AcDbEntity
  8
0
100
AcDbLine
 62
7
  6
CONTINUOUS
 10
9.9353666194
 20
3.0070413837
 11
9.9048244633
 21
2.9959526465
  0
LINE
  5
37F
100
AcDbEntity
  8
0
100
AcDbLine
 62
7
  6
CONTINUOUS
 10
10.1616508821
 20
14.4104004125
 11
10.1785453327
 21
14.4041893303
  0
LINE
  5
380
100
AcDbEntity
  8
0
100
AcDbLine
 62
7
  6
CONTINUOUS
 10
10.3929243273
 20
15.6594599464
 11
10.4341127483
 21
15.6295348069
  0
LINE
  5
381
100
AcDbEntity
  8
0
100
AcDbLine
 62
7
  6
CONTINUOUS
 10
12.812393496
 20
13.9016127001
 11
12.853581917
 21
13.8716875606
  0
LINE
  5
382
100
AcDbEntity
  8
0
100
AcDbLine
 62
7
  6
CONTINUOUS
 10
10.5024436088
 20
15.675779437
 11
10.5420094217
 21
15.6437396734
  0
LINE
  5
383
100
AcDbEntity
  8
0
100
AcDbLine
 62
7
  6
CONTINUOUS
 10
12.8265983626
 20
13.7937160267
 11
12.8661641755
 21
13.7616762631
  0
LINE
  5
384
100
AcDbEntity
  8
0
100
AcDbLine
 62
7
  6
CONTINUOUS
 10
10.6126668941
 20
15.6863447659
 11
10.6505016517
 21
15.6522781971
  0
LINE
  5
385
100
AcDbEntity
  8
0
100
AcDbLine
 62
7
  6
CONTINUOUS
 10
12.8351368863
 20
13.6852237966
 11
12.8729716439
 21
13.6511572278
  0
LINE
  5
386
100
AcDbEntity
  8
0
100
AcDbLine
 62
7
  6
CONTINUOUS
 10
10.4613361261
 20
1.8887995098
 11
10.4889640021
 21
1.905686067
  0
LINE
  5
387
100
AcDbEntity
  8
0
100
AcDbLine
 62
7
  6
CONTINUOUS
 10
10.4613361261
 20
1.8588602263
 11
10.4889640021
 21
1.8757467835
  0
LINE
  5
388
100
AcDbEntity
  8
0
100
AcDbLine
 62
7
  6
CONTINUOUS
 10
11.6212796044
 20
2.5735764255
 11
11.649441316
 21
2.5895970609
  0
LINE
  5
389
100
AcDbEntity
  8
0
100
AcDbLine
 62
7
  6
CONTINUOUS
 10
11.6386145396
 20
2.5534986405
 11
11.649441316
 21
2.5596577774
  0
LINE
  5
38A
100
AcDbEntity
  8
0
100
AcDbLine
 62
7
  6
CONTINUOUS
 10
10.0715777755
 20
15.5765018911
 11
10.1169404219
 21
15.5533884683
  0
LINE
  5
38B
100
AcDbEntity
  8
0
100
AcDbLine
 62
7
  6
CONTINUOUS
 10
12.7362471575
 20
14.2187850265
 11
12.7816098039
 21
14.1956716037
  0
LINE
  5
38C
100
AcDbEntity
  8
0
100
AcDbLine
 62
7
  6
CONTINUOUS
 10
10.1771957621
 20
15.6097530519
 11
10.2212865775
 21
15.5842972078
  0
LINE
  5
38D
100
AcDbEntity
  8
0
100
AcDbLine
 62
7
  6
CONTINUOUS
 10
12.7671558969
 20
14.1144388709
 11
12.8112467123
 21
14.0889830268
  0
LINE
  5
38E
100
AcDbEntity
  8
0
100
AcDbLine
 62
7
  6
CONTINUOUS
 10
10.2844092343
 20
15.6374310248
 11
10.3271073688
 21
15.609702532
  0
LINE
  5
38F
100
AcDbEntity
  8
0
100
AcDbLine
 62
7
  6
CONTINUOUS
 10
12.7925612212
 20
14.0086180796
 11
12.8352593557
 21
13.9808895868
  0
LINE
  5
390
100
AcDbEntity
  8
0
100
AcDbLine
 62
7
  6
CONTINUOUS
 10
10.3664712988
 20
1.9274363807
 11
10.3958870154
 21
1.941132347
  0
LINE
  5
391
100
AcDbEntity
  8
0
100
AcDbLine
 62
7
  6
CONTINUOUS
 10
10.3664712988
 20
1.8974970972
 11
10.3958870154
 21
1.9111930635
  0
LINE
  5
392
100
AcDbEntity
  8
0
100
AcDbLine
 62
7
  6
CONTINUOUS
 10
11.5986565221
 20
2.4784155494
 11
11.6285016818
 21
2.4911917153
  0
LINE
  5
393
100
AcDbEntity
  8
0
100
AcDbLine
 62
7
  6
CONTINUOUS
 10
11.6144282595
 20
2.4552278577
 11
11.6285016818
 21
2.4612524318
  0
LINE
  5
394
100
AcDbEntity
  8
0
100
AcDbLine
 62
7
  6
CONTINUOUS
 10
10.276727491
 20
1.9763988747
 11
10.3075475693
 21
1.9867257022
  0
LINE
  5
395
100
AcDbEntity
  8
0
100
AcDbLine
 62
7
  6
CONTINUOUS
 10
10.276727491
 20
1.9464595912
 11
10.3075475693
 21
1.9567864187
  0
LINE
  5
396
100
AcDbEntity
  8
0
100
AcDbLine
 62
7
  6
CONTINUOUS
 10
11.5650910405
 20
2.3863974404
 11
11.5962305709
 21
2.3957625799
  0
LINE
  5
397
100
AcDbEntity
  8
0
100
AcDbLine
 62
7
  6
CONTINUOUS
 10
11.5791294435
 20
2.3606801732
 11
11.5962305709
 21
2.3658232965
  0
LINE
  5
398
100
AcDbEntity
  8
0
100
AcDbLine
 62
7
  6
CONTINUOUS
 10
8.9099136944
 20
14.6026032625
 11
8.959090609
 21
14.615780177
  0
LINE
  5
399
100
AcDbEntity
  8
0
100
AcDbLine
 62
7
  6
CONTINUOUS
 10
11.7986388662
 20
15.3766348394
 11
11.8478157807
 21
15.3898117539
  0
LINE
  5
39A
100
AcDbEntity
  8
0
100
AcDbLine
 62
7
  6
CONTINUOUS
 10
8.9661537853
 20
14.697985918
 11
9.015952931
 21
14.7085710532
  0
LINE
  5
39B
100
AcDbEntity
  8
0
100
AcDbLine
 62
7
  6
CONTINUOUS
 10
11.8914297423
 20
15.3197725174
 11
11.941228888
 21
15.3303576525
  0
LINE
  5
39C
100
AcDbEntity
  8
0
100
AcDbLine
 62
7
  6
CONTINUOUS
 10
9.0273087436
 20
14.790294476
 11
9.0775936244
 21
14.7982588187
  0
LINE
  5
39D
100
AcDbEntity
  8
0
100
AcDbLine
 62
7
  6
CONTINUOUS
 10
11.9811175078
 20
15.2581318239
 11
12.0314023887
 21
15.2660961666
  0
LINE
  5
39E
100
AcDbEntity
  8
0
100
AcDbLine
 62
7
  6
CONTINUOUS
 10
9.0932109477
 20
14.879275925
 11
9.1438437364
 21
14.8845976456
  0
LINE
  5
39F
100
AcDbEntity
  8
0
100
AcDbLine
 62
7
  6
CONTINUOUS
 10
12.0674563347
 20
15.1918817119
 11
12.1180891234
 21
15.1972034325
  0
LINE
  5
3A0
100
AcDbEntity
  8
0
100
AcDbLine
 62
7
  6
CONTINUOUS
 10
9.1636797645
 20
14.9646863733
 11
9.21452168
 21
14.9673508851
  0
LINE
  5
3A1
100
AcDbEntity
  8
0
100
AcDbLine
 62
7
  6
CONTINUOUS
 10
12.1502095743
 20
15.1212037684
 11
12.2010514898
 21
15.1238682802
  0
LINE
  5
3A2
100
AcDbEntity
  8
0
100
AcDbLine
 62
7
  6
CONTINUOUS
 10
9.2385220436
 20
15.0462917165
 11
9.2894337318
 21
15.0462917165
  0
LINE
  5
3A3
100
AcDbEntity
  8
0
100
AcDbLine
 62
7
  6
CONTINUOUS
 10
12.2291504057
 20
15.0462917165
 11
12.2800620939
 21
15.0462917165
  0
LINE
  5
3A4
100
AcDbEntity
  8
0
100
AcDbLine
 62
7
  6
CONTINUOUS
 10
9.3175326477
 20
15.1238682802
 11
9.3683745632
 21
15.1212037684
  0
LINE
  5
3A5
100
AcDbEntity
  8
0
100
AcDbLine
 62
7
  6
CONTINUOUS
 10
12.3040624575
 20
14.9673508851
 11
12.3549043731
 21
14.9646863733
  0
LINE
  5
3A6
100
AcDbEntity
  8
0
100
AcDbLine
 62
7
  6
CONTINUOUS
 10
9.4004950141
 20
15.1972034325
 11
9.4511278028
 21
15.1918817119
  0
LINE
  5
3A7
100
AcDbEntity
  8
0
100
AcDbLine
 62
7
  6
CONTINUOUS
 10
12.3747404011
 20
14.8845976456
 11
12.4253731898
 21
14.879275925
  0
LINE
  5
3A8
100
AcDbEntity
  8
0
100
AcDbLine
 62
7
  6
CONTINUOUS
 10
9.4871817488
 20
15.2660961666
 11
9.5374666297
 21
15.2581318239
  0
LINE
  5
3A9
100
AcDbEntity
  8
0
100
AcDbLine
 62
7
  6
CONTINUOUS
 10
12.4409905131
 20
14.7982588187
 11
12.491275394
 21
14.790294476
  0
LINE
  5
3AA
100
AcDbEntity
  8
0
100
AcDbLine
 62
7
  6
CONTINUOUS
 10
9.5773552495
 20
15.3303576525
 11
9.6271543952
 21
15.3197725174
  0
LINE
  5
3AB
100
AcDbEntity
  8
0
100
AcDbLine
 62
7
  6
CONTINUOUS
 10
12.5026312065
 20
14.7085710532
 11
12.5524303522
 21
14.697985918
  0
LINE
  5
3AC
100
AcDbEntity
  8
0
100
AcDbLine
 62
7
  6
CONTINUOUS
 10
9.6707683568
 20
15.3898117539
 11
9.7199452713
 21
15.3766348394
  0
LINE
  5
3AD
100
AcDbEntity
  8
0
100
AcDbLine
 62
7
  6
CONTINUOUS
 10
12.5594935286
 20
14.615780177
 11
12.6086704431
 21
14.6026032625
  0
LINE
  5
3AE
100
AcDbEntity
  8
0
100
AcDbLine
 62
7
  6
CONTINUOUS
 10
9.767165032
 20
15.4442955113
 11
9.8155849248
 21
15.4285629344
  0
LINE
  5
3AF
100
AcDbEntity
  8
0
100
AcDbLine
 62
7
  6
CONTINUOUS
 10
12.6114216235
 20
14.5201405235
 11
12.6598415164
 21
14.5044079466
  0
LINE
  5
3B0
100
AcDbEntity
  8
0
100
AcDbLine
 62
7
  6
CONTINUOUS
 10
9.8662810584
 20
15.4936595883
 11
9.913811214
 21
15.475414471
  0
LINE
  5
3B1
100
AcDbEntity
  8
0
100
AcDbLine
 62
7
  6
CONTINUOUS
 10
12.6582731601
 20
14.4219142343
 11
12.7058033158
 21
14.403669117
  0
LINE
  5
3B2
100
AcDbEntity
  8
0
100
AcDbLine
 62
7
  6
CONTINUOUS
 10
9.9678447659
 20
15.5377686816
 11
10.0143549074
 21
15.5170610324
  0
LINE
  5
3B3
100
AcDbEntity
  8
0
100
AcDbLine
 62
7
  6
CONTINUOUS
 10
12.6999197216
 20
14.3213705409
 11
12.7464298631
 21
14.3006628917
  0
ARC
  5
3B4
100
AcDbEntity
  8
0
100
AcDbCircle
 62
7
  6
CONTINUOUS
 10
-2023.8337172998
 20
-32.9419073977
 40
2035.4592994012
100
AcDbArc
 50
1.162436206
 51
1.2814355245
  0
ARC
  5
3B5
100
AcDbEntity
  8
0
100
AcDbCircle
 62
7
  6
CONTINUOUS
 10
10.7291183531
 20
2.6919876179
 40
0.8702024362
100
AcDbArc
 50
201.3977399204
 51
205.3352697735
  0
ARC
  5
3B6
100
AcDbEntity
  8
0
100
AcDbCircle
 62
7
  6
CONTINUOUS
 10
10.7291183531
 20
2.71705201
 40
0.8702024362
100
AcDbArc
 50
154.6647302265
 51
158.6022600796
  0
ARC
  5
3B7
100
AcDbEntity
  8
0
100
AcDbCircle
 62
7
  6
CONTINUOUS
 10
10.7286834144
 20
2.7217389884
 40
0.8697289198
100
AcDbArc
 50
201.3966676209
 51
205.336342073
  0
ARC
  5
3B8
100
AcDbEntity
  8
0
100
AcDbCircle
 62
7
  6
CONTINUOUS
 10
10.7251125383
 20
2.6904890715
 40
0.8659240414
100
AcDbArc
 50
194.7337465717
 51
198.684324848
  0
ARC
  5
3B9
100
AcDbEntity
  8
0
100
AcDbCircle
 62
7
  6
CONTINUOUS
 10
10.7251125383
 20
2.7185505564
 40
0.8659240414
100
AcDbArc
 50
161.315675152
 51
165.2662534283
  0
ARC
  5
3BA
100
AcDbEntity
  8
0
100
AcDbCircle
 62
7
  6
CONTINUOUS
 10
10.7247709825
 20
2.7203258246
 40
0.8655676404
100
AcDbArc
 50
194.7329329157
 51
198.685138504
  0
ARC
  5
3BB
100
AcDbEntity
  8
0
100
AcDbCircle
 62
7
  6
CONTINUOUS
 10
10.7221971502
 20
2.6897656401
 40
0.8629192318
100
AcDbArc
 50
188.0531925598
 51
192.0130403573
  0
ARC
  5
3BC
100
AcDbEntity
  8
0
100
AcDbCircle
 62
7
  6
CONTINUOUS
 10
10.7221971502
 20
2.7192739878
 40
0.8629192318
100
AcDbArc
 50
167.9869596427
 51
171.9468074402
  0
ARC
  5
3BD
100
AcDbEntity
  8
0
100
AcDbCircle
 62
7
  6
CONTINUOUS
 10
10.7219791252
 20
2.71966635
 40
0.862697953
100
AcDbArc
 50
188.0526845144
 51
192.0135484027
  0
ARC
  5
3BE
100
AcDbEntity
  8
0
100
AcDbCircle
 62
7
  6
CONTINUOUS
 10
10.7206315024
 20
2.689559425
 40
0.8613395862
100
AcDbArc
 50
181.3632774403
 51
185.3280778925
  0
ARC
  5
3BF
100
AcDbEntity
  8
0
100
AcDbCircle
 62
7
  6
CONTINUOUS
 10
10.7206315024
 20
2.7194802028
 40
0.8613395862
100
AcDbArc
 50
174.6719221075
 51
178.6367225597
  0
ARC
  5
3C0
100
AcDbEntity
  8
0
100
AcDbCircle
 62
7
  6
CONTINUOUS
 10
10.7206315024
 20
2.7194987085
 40
0.8613395862
100
AcDbArc
 50
181.3632774403
 51
185.3280778925
  0
ARC
  5
3C1
100
AcDbEntity
  8
0
100
AcDbCircle
 62
7
  6
CONTINUOUS
 10
10.7307985036
 20
2.5079182306
 40
0.7817359642
100
AcDbArc
 50
200.8422831546
 51
203.4003699913
  0
ARC
  5
3C2
100
AcDbEntity
  8
0
100
AcDbCircle
 62
7
  6
CONTINUOUS
 10
10.1985440183
 20
8.3419471686
 40
0.0719999946
100
AcDbArc
 50
178.0000175868
 51
251.0642907501
  0
ARC
  5
3C3
100
AcDbEntity
  8
0
100
AcDbCircle
 62
7
  6
CONTINUOUS
 10
10.2343208882
 20
14.5510401673
 40
0.0180000265
100
AcDbArc
 50
54.7202500053
 51
118.3191265755
  0
ARC
  5
3C4
100
AcDbEntity
  8
0
100
AcDbCircle
 62
7
  6
CONTINUOUS
 10
2045.2986249509
 20
-32.9407841201
 40
2035.4056111709
100
AcDbArc
 50
178.7185622968
 51
178.8375647543
  0
ARC
  5
3C5
100
AcDbEntity
  8
0
100
AcDbCircle
 62
7
  6
CONTINUOUS
 10
10.7651666945
 20
2.5068370582
 40
0.8042165485
100
AcDbArc
 50
336.5821295993
 51
337.0278491423
  0
ARC
  5
3C6
100
AcDbEntity
  8
0
100
AcDbCircle
 62
7
  6
CONTINUOUS
 10
10.7533097627
 20
2.5067914385
 40
0.804099606
100
AcDbArc
 50
202.7576337555
 51
203.0062164732
  0
ARC
  5
3C7
100
AcDbEntity
  8
0
100
AcDbCircle
 62
7
  6
CONTINUOUS
 10
10.7653978534
 20
2.5067394218
 40
0.8039656159
100
AcDbArc
 50
337.0278260417
 51
337.8964573545
  0
ARC
  5
3C8
100
AcDbEntity
  8
0
100
AcDbCircle
 62
7
  6
CONTINUOUS
 10
10.752772398
 20
2.5065686488
 40
0.8035178928
100
AcDbArc
 50
200.1317023672
 51
202.7578067065
  0
ARC
  5
3C9
100
AcDbEntity
  8
0
100
AcDbCircle
 62
7
  6
CONTINUOUS
 10
10.7592920156
 20
2.7292829679
 40
0.9200656372
100
AcDbArc
 50
266.5022524583
 51
270.2964995933
  0
ARC
  5
3CA
100
AcDbEntity
  8
0
100
AcDbCircle
 62
7
  6
CONTINUOUS
 10
10.7592909422
 20
2.7591838382
 40
0.9200272301
100
AcDbArc
 50
266.5021732327
 51
270.2965788189
  0
ARC
  5
3CB
100
AcDbEntity
  8
0
100
AcDbCircle
 62
7
  6
CONTINUOUS
 10
10.759310695
 20
2.7588728426
 40
0.9197157509
100
AcDbArc
 50
272.9047442827
 51
276.6999012571
  0
ARC
  5
3CC
100
AcDbEntity
  8
0
100
AcDbCircle
 62
7
  6
CONTINUOUS
 10
10.7593203031
 20
2.7288191945
 40
0.9196010463
100
AcDbArc
 50
272.9045075056
 51
276.7001380343
  0
ARC
  5
3CD
100
AcDbEntity
  8
0
100
AcDbCircle
 62
7
  6
CONTINUOUS
 10
10.7591947212
 20
2.7282042822
 40
0.9189822787
100
AcDbArc
 50
260.0960686312
 51
263.8931933968
  0
ARC
  5
3CE
100
AcDbEntity
  8
0
100
AcDbCircle
 62
7
  6
CONTINUOUS
 10
10.7591683216
 20
2.75795585
 40
0.9187928198
100
AcDbArc
 50
260.0956769964
 51
263.8935850316
  0
ARC
  5
3CF
100
AcDbEntity
  8
0
100
AcDbCircle
 62
7
  6
CONTINUOUS
 10
10.759569081
 20
2.7570509779
 40
0.9178750843
100
AcDbArc
 50
279.3105798142
 51
283.1107079069
  0
ARC
  5
3D0
100
AcDbEntity
  8
0
100
AcDbCircle
 62
7
  6
CONTINUOUS
 10
10.7596199813
 20
2.7268548794
 40
0.9176134177
100
AcDbArc
 50
279.3100377933
 51
283.1112499279
  0
ARC
  5
3D1
100
AcDbEntity
  8
0
100
AcDbCircle
 62
7
  6
CONTINUOUS
 10
10.7586969486
 20
2.725680487
 40
0.9164090425
100
AcDbArc
 50
253.6789305227
 51
257.4830631232
  0
ARC
  5
3D2
100
AcDbEntity
  8
0
100
AcDbCircle
 62
7
  6
CONTINUOUS
 10
10.7586146396
 20
2.755299639
 40
0.9160786813
100
AcDbArc
 50
253.6782443371
 51
257.4837493088
  0
ARC
  5
3D3
100
AcDbEntity
  8
0
100
AcDbCircle
 62
7
  6
CONTINUOUS
 10
10.7603767064
 20
2.7538820695
 40
0.9146038237
100
AcDbArc
 50
285.7267211972
 51
289.5358134081
  0
ARC
  5
3D4
100
AcDbEntity
  8
0
100
AcDbCircle
 62
7
  6
CONTINUOUS
 10
10.7604963011
 20
2.7235664882
 40
0.9142091964
100
AcDbArc
 50
285.7258987783
 51
289.5366358269
  0
ARC
  5
3D5
100
AcDbEntity
  8
0
100
AcDbCircle
 62
7
  6
CONTINUOUS
 10
10.7575191747
 20
2.7219372428
 40
0.9124836078
100
AcDbArc
 50
247.2443138301
 51
251.0592632562
  0
ARC
  5
3D6
100
AcDbEntity
  8
0
100
AcDbCircle
 62
7
  6
CONTINUOUS
 10
10.7573576472
 20
2.7514523774
 40
0.9120299946
100
AcDbArc
 50
247.243364765
 51
251.0602123214
  0
ARC
  5
3D7
100
AcDbEntity
  8
0
100
AcDbCircle
 62
7
  6
CONTINUOUS
 10
10.7619727142
 20
2.7496472256
 40
0.9100767366
100
AcDbArc
 50
292.1597384234
 51
295.9813741526
  0
ARC
  5
3D8
100
AcDbEntity
  8
0
100
AcDbCircle
 62
7
  6
CONTINUOUS
 10
10.7621794288
 20
2.719245188
 40
0.9095701929
100
AcDbArc
 50
292.1586738853
 51
295.9824386907
  0
ARC
  5
3D9
100
AcDbEntity
  8
0
100
AcDbCircle
 62
7
  6
CONTINUOUS
 10
10.7554707357
 20
2.7173031587
 40
0.9074153075
100
AcDbArc
 50
240.78650511
 51
244.6155772004
  0
ARC
  5
3DA
100
AcDbEntity
  8
0
100
AcDbCircle
 62
7
  6
CONTINUOUS
 10
10.7552170939
 20
2.7467509983
 40
0.9068625783
100
AcDbArc
 50
240.7853377729
 51
244.6167445375
  0
ARC
  5
3DB
100
AcDbEntity
  8
0
100
AcDbCircle
 62
7
  6
CONTINUOUS
 10
10.7644926276
 20
2.7447132816
 40
0.9045347181
100
AcDbArc
 50
298.6154192431
 51
302.452588834
  0
ARC
  5
3DC
100
AcDbEntity
  8
0
100
AcDbCircle
 62
7
  6
CONTINUOUS
 10
10.764793346
 20
2.7142641717
 40
0.9039431426
100
AcDbArc
 50
298.6141631767
 51
302.4538449005
  0
ARC
  5
3DD
100
AcDbEntity
  8
0
100
AcDbCircle
 62
7
  6
CONTINUOUS
 10
10.7524762745
 20
2.7121729637
 40
0.9014731686
100
AcDbArc
 50
234.3008882105
 51
238.1467183865
  0
ARC
  5
3DE
100
AcDbEntity
  8
0
100
AcDbCircle
 62
7
  6
CONTINUOUS
 10
10.7521299495
 20
2.7415944478
 40
0.9008505773
100
AcDbArc
 50
234.2995587555
 51
238.1480478415
  0
ARC
  5
3DF
100
AcDbEntity
  8
0
100
AcDbCircle
 62
7
  6
CONTINUOUS
 10
10.7485885943
 20
2.706963476
 40
0.8949707872
100
AcDbArc
 50
227.7841950838
 51
231.6486032836
  0
ARC
  5
3E0
100
AcDbEntity
  8
0
100
AcDbCircle
 62
7
  6
CONTINUOUS
 10
10.7481618018
 20
2.7363992108
 40
0.8943110771
100
AcDbArc
 50
227.7827692058
 51
231.6500291617
  0
ARC
  5
3E1
100
AcDbEntity
  8
0
100
AcDbCircle
 62
7
  6
CONTINUOUS
 10
10.7439863689
 20
2.7020674672
 40
0.8882490536
100
AcDbArc
 50
221.23470639
 51
225.1185829863
  0
ARC
  5
3E2
100
AcDbEntity
  8
0
100
AcDbCircle
 62
7
  6
CONTINUOUS
 10
10.7435030543
 20
2.7315532587
 40
0.8875866766
100
AcDbArc
 50
221.233256629
 51
225.1200327473
  0
ARC
  5
3E3
100
AcDbEntity
  8
0
100
AcDbCircle
 62
7
  6
CONTINUOUS
 10
10.7389569266
 20
2.6978107575
 40
0.8816578287
100
AcDbArc
 50
214.652385906
 51
218.555618108
  0
ARC
  5
3E4
100
AcDbEntity
  8
0
100
AcDbCircle
 62
7
  6
CONTINUOUS
 10
10.7384503151
 20
2.7273737432
 40
0.8810271204
100
AcDbArc
 50
214.6509882449
 51
218.557015769
  0
ARC
  5
3E5
100
AcDbEntity
  8
0
100
AcDbCircle
 62
7
  6
CONTINUOUS
 10
10.7338660631
 20
2.6944174951
 40
0.8755376483
100
AcDbArc
 50
208.0389329823
 51
211.9603809114
  0
ARC
  5
3E6
100
AcDbEntity
  8
0
100
AcDbCircle
 62
7
  6
CONTINUOUS
 10
10.7333750949
 20
2.7240733219
 40
0.8749710611
100
AcDbArc
 50
208.03766282
 51
211.9616510738
  0
ARC
  5
3E7
100
AcDbEntity
  8
0
100
AcDbCircle
 62
7
  6
CONTINUOUS
 10
10.7327937637
 20
2.7152214575
 40
0.8743094813
100
AcDbArc
 50
150.5061828604
 51
151.9627003333
  0
ARC
  5
3E8
100
AcDbEntity
  8
0
100
AcDbCircle
 62
7
  6
CONTINUOUS
 10
10.7661213626
 20
2.506471928
 40
0.803193501
100
AcDbArc
 50
342.5852309719
 51
342.9608086069
  0
ARC
  5
3E9
100
AcDbEntity
  8
0
100
AcDbCircle
 62
7
  6
CONTINUOUS
 10
10.7861480394
 20
2.5086131106
 40
0.7835148456
100
AcDbArc
 50
335.8535040228
 51
336.4953397157
  0
ARC
  5
3EA
100
AcDbEntity
  8
0
100
AcDbCircle
 62
7
  6
CONTINUOUS
 10
10.7679483996
 20
2.7394917717
 40
0.89827113
100
AcDbArc
 50
305.0984805826
 51
308.9534281297
  0
ARC
  5
3EB
100
AcDbEntity
  8
0
100
AcDbCircle
 62
7
  6
CONTINUOUS
 10
10.7683372605
 20
2.7090369384
 40
0.8976257368
100
AcDbArc
 50
305.0970942048
 51
308.9548145075
  0
ARC
  5
3EC
100
AcDbEntity
  8
0
100
AcDbCircle
 62
7
  6
CONTINUOUS
 10
10.7722230466
 20
2.7343931794
 40
0.8916154663
100
AcDbArc
 50
311.6123144399
 51
315.486407054
  0
ARC
  5
3ED
100
AcDbEntity
  8
0
100
AcDbCircle
 62
7
  6
CONTINUOUS
 10
10.7726817456
 20
2.7039713613
 40
0.890950081
100
AcDbArc
 50
311.61086725
 51
315.487854244
  0
ARC
  5
3EE
100
AcDbEntity
  8
0
100
AcDbCircle
 62
7
  6
CONTINUOUS
 10
10.7770805398
 20
2.7297817597
 40
0.8849154158
100
AcDbArc
 50
318.1587826496
 51
322.0524154192
  0
ARC
  5
3EF
100
AcDbEntity
  8
0
100
AcDbCircle
 62
7
  6
CONTINUOUS
 10
10.7775801072
 20
2.6994248559
 40
0.8842646588
100
AcDbArc
 50
318.1573493765
 51
322.0538486922
  0
ARC
  5
3F0
100
AcDbEntity
  8
0
100
AcDbCircle
 62
7
  6
CONTINUOUS
 10
10.7821898531
 20
2.7259361543
 40
0.8785184221
100
AcDbArc
 50
324.7380763796
 51
328.6506225343
  0
ARC
  5
3F1
100
AcDbEntity
  8
0
100
AcDbCircle
 62
7
  6
CONTINUOUS
 10
10.7826937059
 20
2.6956658303
 40
0.877915901
100
AcDbArc
 50
324.7367332503
 51
328.6519656636
  0
ARC
  5
3F2
100
AcDbEntity
  8
0
100
AcDbCircle
 62
7
  6
CONTINUOUS
 10
10.7871604158
 20
2.7230203426
 40
0.8727537788
100
AcDbArc
 50
331.3486561405
 51
335.2784709191
  0
ARC
  5
3F3
100
AcDbEntity
  8
0
100
AcDbCircle
 62
7
  6
CONTINUOUS
 10
10.7876283318
 20
2.6928458607
 40
0.872230385
100
AcDbArc
 50
331.3474766079
 51
335.2796504517
  0
ARC
  5
3F4
100
AcDbEntity
  8
0
100
AcDbCircle
 62
7
  6
CONTINUOUS
 10
10.7876283318
 20
2.7161937672
 40
0.872230385
100
AcDbArc
 50
24.7203495483
 51
28.6525233921
  0
ARC
  5
3F5
100
AcDbEntity
  8
0
100
AcDbCircle
 62
7
  6
CONTINUOUS
 10
10.7915848841
 20
2.721068262
 40
0.8679161642
100
AcDbArc
 50
337.9872856759
 51
341.9317698038
  0
ARC
  5
3F6
100
AcDbEntity
  8
0
100
AcDbCircle
 62
7
  6
CONTINUOUS
 10
10.7919774409
 20
2.6909857854
 40
0.8674985542
100
AcDbArc
 50
337.9863358716
 51
341.932719608
  0
ARC
  5
3F7
100
AcDbEntity
  8
0
100
AcDbCircle
 62
7
  6
CONTINUOUS
 10
10.7919774409
 20
2.7180538425
 40
0.8674985542
100
AcDbArc
 50
18.067280392
 51
22.0136641284
  0
ARC
  5
3F8
100
AcDbEntity
  8
0
100
AcDbCircle
 62
7
  6
CONTINUOUS
 10
10.795084294
 20
2.7199838393
 40
0.8642513397
100
AcDbArc
 50
344.6491679276
 51
348.6048923599
  0
ARC
  5
3F9
100
AcDbEntity
  8
0
100
AcDbCircle
 62
7
  6
CONTINUOUS
 10
10.7953672583
 20
2.6899772853
 40
0.8639606624
100
AcDbArc
 50
344.6485022164
 51
348.6055580711
  0
ARC
  5
3FA
100
AcDbEntity
  8
0
100
AcDbCircle
 62
7
  6
CONTINUOUS
 10
10.7953672583
 20
2.7190623426
 40
0.8639606624
100
AcDbArc
 50
11.3944419289
 51
15.3514977836
  0
ARC
  5
3FB
100
AcDbEntity
  8
0
100
AcDbCircle
 62
7
  6
CONTINUOUS
 10
10.7973503701
 20
2.7195563781
 40
0.8619445482
100
AcDbArc
 50
351.3281834124
 51
355.2910714533
  0
ARC
  5
3FC
100
AcDbEntity
  8
0
100
AcDbCircle
 62
7
  6
CONTINUOUS
 10
10.7974985308
 20
2.689599715
 40
0.8617954609
100
AcDbArc
 50
351.3278404934
 51
355.2914143723
  0
ARC
  5
3FD
100
AcDbEntity
  8
0
100
AcDbCircle
 62
7
  6
CONTINUOUS
 10
10.7974985308
 20
2.7194399129
 40
0.8617954609
100
AcDbArc
 50
4.7085856277
 51
8.6721595065
  0
ARC
  5
3FE
100
AcDbEntity
  8
0
100
AcDbCircle
 62
7
  6
CONTINUOUS
 10
10.7981098835
 20
2.6895514978
 40
0.8611821859
100
AcDbArc
 50
358.0172950784
 51
359.9999118083
  0
ARC
  5
3FF
100
AcDbEntity
  8
0
100
AcDbCircle
 62
7
  6
CONTINUOUS
 10
10.7981098835
 20
2.7194907812
 40
0.8611821859
100
AcDbArc
 50
358.0172950784
 51
1.9827049216
  0
ARC
  5
400
100
AcDbEntity
  8
0
100
AcDbCircle
 62
7
  6
CONTINUOUS
 10
10.7592920688
 20
13.5764333796
 40
2.115
100
AcDbArc
 50
150.9752944091
 51
209.0247055909
  0
ARC
  5
401
100
AcDbEntity
  8
0
100
AcDbCircle
 62
7
  6
CONTINUOUS
 10
10.7592920688
 20
13.5764333796
 40
2.115
100
AcDbArc
 50
90.9752944091
 51
150.9679016325
  0
ARC
  5
402
100
AcDbEntity
  8
0
100
AcDbCircle
 62
7
  6
CONTINUOUS
 10
10.7592920688
 20
13.5764333796
 40
2.115
100
AcDbArc
 50
30.9752944091
 51
90.9677205811
  0
ARC
  5
403
100
AcDbEntity
  8
0
100
AcDbCircle
 62
7
  6
CONTINUOUS
 10
10.7592920688
 20
13.5764333796
 40
2.115
100
AcDbArc
 50
329.03240309
 51
30.96759691
  0
ARC
  5
404
100
AcDbEntity
  8
0
100
AcDbCircle
 62
7
  6
CONTINUOUS
 10
10.7592920688
 20
13.5764333796
 40
2.115
100
AcDbArc
 50
297.9113065565
 51
329.0247055909
  0
ARC
  5
405
100
AcDbEntity
  8
0
100
AcDbCircle
 62
7
  6
CONTINUOUS
 10
10.7592920688
 20
13.5764333796
 40
2.115
100
AcDbArc
 50
209.0320983675
 51
242.0886934435
  0
ARC
  5
406
100
AcDbEntity
  8
0
100
AcDbCircle
 62
7
  6
CONTINUOUS
 10
10.7592920688
 20
13.5764333796
 40
1.98
100
AcDbArc
 50
300.000105097
 51
239.999894903
  0
ARC
  5
407
100
AcDbEntity
  8
0
100
AcDbCircle
 62
7
  6
CONTINUOUS
 10
10.7592920688
 20
9.9764333796
 40
1.8
100
AcDbArc
 50
251.0642907132
 51
288.9357092868
  0
ARC
  5
408
100
AcDbEntity
  8
0
100
AcDbCircle
 62
7
  6
CONTINUOUS
 10
10.7592920688
 20
13.5764333796
 40
1.8
100
AcDbArc
 50
303.372059427
 51
236.627940573
  0
ARC
  5
409
100
AcDbEntity
  8
0
100
AcDbCircle
 62
7
  6
CONTINUOUS
 10
10.7592920688
 20
13.5764333796
 40
1.44
100
AcDbArc
 50
290.1998817229
 51
249.8001182772
  0
ARC
  5
40A
100
AcDbEntity
  8
0
100
AcDbCircle
 62
7
  6
CONTINUOUS
 10
10.7592920688
 20
13.5764333796
 40
1.422
100
AcDbArc
 50
290.4374477698
 51
249.5625522302
  0
ARC
  5
40B
100
AcDbEntity
  8
0
100
AcDbCircle
 62
7
  6
CONTINUOUS
 10
10.7592920688
 20
13.5764333796
 40
1.4
100
AcDbArc
 50
290.7383687419
 51
249.261631258
  0
ARC
  5
40C
100
AcDbEntity
  8
0
100
AcDbCircle
 62
7
  6
CONTINUOUS
 10
10.7592920688
 20
13.5764333796
 40
1.296
100
AcDbArc
 50
292.3059297994
 51
247.6940702006
  0
ARC
  5
40D
100
AcDbEntity
  8
0
100
AcDbCircle
 62
7
  6
CONTINUOUS
 10
10.7592920688
 20
13.5764333796
 40
1.2763355729
100
AcDbArc
 50
292.6319403301
 51
247.3680596699
  0
ARC
  5
40E
100
AcDbEntity
  8
0
100
AcDbCircle
 62
7
  6
CONTINUOUS
 10
10.7592920688
 20
13.5764333796
 40
1.125
100
AcDbArc
 50
118.3092517378
 51
244.4357374888
  0
ARC
  5
40F
100
AcDbEntity
  8
0
100
AcDbCircle
 62
7
  6
CONTINUOUS
 10
10.7592920688
 20
13.5764333796
 40
1.125
100
AcDbArc
 50
295.5642624912
 51
61.6907811909
  0
ARC
  5
410
100
AcDbEntity
  8
0
100
AcDbCircle
 62
7
  6
CONTINUOUS
 10
10.7592920688
 20
13.5764333796
 40
1.026
100
AcDbArc
 50
298.00393545
 51
54.3736897562
  0
ARC
  5
411
100
AcDbEntity
  8
0
100
AcDbCircle
 62
7
  6
CONTINUOUS
 10
10.7592920688
 20
13.5764333796
 40
1.026
100
AcDbArc
 50
125.6263102842
 51
241.9960645475
  0
ARC
  5
412
100
AcDbEntity
  8
0
100
AcDbCircle
 62
7
  6
CONTINUOUS
 10
10.7595844354
 20
13.5134824929
 40
1.0015662487
100
AcDbArc
 50
249.0868425068
 51
269.9832747472
  0
ARC
  5
413
100
AcDbEntity
  8
0
100
AcDbCircle
 62
7
  6
CONTINUOUS
 10
10.7590795238
 20
13.5130155313
 40
1.0010974856
100
AcDbArc
 50
270.0121646108
 51
290.9184320509
  0
CIRCLE
  5
414
100
AcDbEntity
  8
0
100
AcDbCircle
 62
7
  6
CONTINUOUS
 10
10.7592920688
 20
13.5764333796
 40
0.99
  0
CIRCLE
  5
415
100
AcDbEntity
  8
0
100
AcDbCircle
 62
7
  6
CONTINUOUS
 10
10.7592920688
 20
13.5764333796
 40
0.927
  0
CIRCLE
  5
416
100
AcDbEntity
  8
0
100
AcDbCircle
 62
7
  6
CONTINUOUS
 10
10.7592920688
 20
13.5764333796
 40
0.783
  0
CIRCLE
  5
417
100
AcDbEntity
  8
0
100
AcDbCircle
 62
7
  6
CONTINUOUS
 10
10.7592920688
 20
13.5764333796
 40
0.729
  0
CIRCLE
  5
418
100
AcDbEntity
  8
0
100
AcDbCircle
 62
7
  6
CONTINUOUS
 10
10.7592920688
 20
13.5764333796
 40
0.693
  0
ARC
  5
419
100
AcDbEntity
  8
0
100
AcDbCircle
 62
7
  6
CONTINUOUS
 10
10.7592920688
 20
14.1906833796
 40
0.6367499999
100
AcDbArc
 50
143.9133936353
 51
159.8145343999
  0
ARC
  5
41A
100
AcDbEntity
  8
0
100
AcDbCircle
 62
7
  6
CONTINUOUS
 10
10.7592920688
 20
14.1906833796
 40
0.63675
100
AcDbArc
 50
20.1854656769
 51
36.0865432577
  0
ARC
  5
41B
100
AcDbEntity
  8
0
100
AcDbCircle
 62
7
  6
CONTINUOUS
 10
10.7592920688
 20
14.1906833796
 40
0.61875
100
AcDbArc
 50
94.9209439079
 51
163.2002606551
  0
ARC
  5
41C
100
AcDbEntity
  8
0
100
AcDbCircle
 62
7
  6
CONTINUOUS
 10
10.7592920688
 20
14.1906833796
 40
0.61875
100
AcDbArc
 50
16.7997734665
 51
85.0776949933
  0
ARC
  5
41D
100
AcDbEntity
  8
0
100
AcDbCircle
 62
7
  6
CONTINUOUS
 10
10.7589416196
 20
14.1921600806
 40
0.617307652
100
AcDbArc
 50
85.0320010616
 51
89.967472852
  0
ARC
  5
41E
100
AcDbEntity
  8
0
100
AcDbCircle
 62
7
  6
CONTINUOUS
 10
10.7595905594
 20
14.1929963768
 40
0.6164713286
100
AcDbArc
 50
90.0277421832
 51
94.9670291595
  0
ARC
  5
41F
100
AcDbEntity
  8
0
100
AcDbCircle
 62
7
  6
CONTINUOUS
 10
11.3200401192
 20
8.3419471686
 40
0.0719999946
100
AcDbArc
 50
288.9357092499
 51
1.9999824132
  0
ARC
  5
420
100
AcDbEntity
  8
0
100
AcDbCircle
 62
7
  6
CONTINUOUS
 10
11.2842634518
 20
14.551039176
 40
0.0180000153
100
AcDbArc
 50
61.684996018
 51
125.2784222394
  0
SPLINE
  5
421
100
AcDbEntity
  8
0
100
AcDbSpline
 62
7
  6
CONTINUOUS
 70
0
 71
3
 72
27
 73
23
 74
0
 42
0.0000001
 43
0.0000001
 44
0.0000000001
 40
0.0
 40
0.0
 40
0.0
 40
0.0
 40
0.0625189306
 40
0.0937872753
 40
0.1250524851
 40
0.1875697046
 40
0.250086484
 40
0.2813488774
 40
0.3126103855
 40
0.3751204569
 40
0.4376267005
 40
0.5001286327
 40
0.5626259795
 40
0.6251186676
 40
0.6876065295
 40
0.7188539003
 40
0.7501001289
 40
0.8125786559
 40
0.875052819
 40
0.906293624
 40
0.9375334729
 40
1.0
 40
1.0
 40
1.0
 40
1.0
 10
10.7592920688
 20
1.7002093685
 30
0.0
 10
10.7395622573
 20
1.7002093685
 30
0.0
 10
10.7099499753
 20
1.7012871331
 30
0.0
 10
10.6706425527
 20
1.7048703963
 30
0.0
 10
10.6314902141
 20
1.7098811214
 30
0.0
 10
10.5829331114
 20
1.718809872
 30
0.0
 10
10.5351543835
 20
1.7312456292
 30
0.0
 10
10.4975585475
 20
1.7432576993
 30
0.0
 10
10.4604267999
 20
1.7566289209
 30
0.0
 10
10.4149636666
 20
1.7758667036
 30
0.0
 10
10.3622440132
 20
1.8028604362
 30
0.0
 10
10.3116347007
 20
1.8336244704
 30
0.0
 10
10.2634087714
 20
1.8679973156
 30
0.0
 10
10.217826665
 20
1.9057970602
 30
0.0
 10
10.1822441677
 20
1.9399929739
 30
0.0
 10
10.1553441447
 20
1.9688485624
 30
0.0
 10
10.1295213283
 20
1.9986683354
 30
0.0
 10
10.0993201128
 20
2.0376858827
 30
0.0
 10
10.0720629573
 20
2.0788119757
 30
0.0
 10
10.0521174377
 20
2.1128385995
 30
0.0
 10
10.0334363005
 20
2.1475706548
 30
0.0
 10
10.0208708235
 20
2.1743790574
 30
0.0
 10
10.0131662657
 20
2.1925243861
 30
0.0
  0
SPLINE
  5
422
100
AcDbEntity
  8
0
100
AcDbSpline
 62
7
  6
CONTINUOUS
 70
0
 71
3
 72
27
 73
23
 74
0
 42
0.0000001
 43
0.0000001
 44
0.0000000001
 40
0.0
 40
0.0
 40
0.0
 40
0.0
 40
0.0624666948
 40
0.0937065828
 40
0.1249474307
 40
0.1874218372
 40
0.2499006077
 40
0.2811468872
 40
0.3123943086
 40
0.3748823815
 40
0.4373752459
 40
0.4998727245
 40
0.5623747366
 40
0.6248809935
 40
0.687391014
 40
0.7186524126
 40
0.7499146826
 40
0.8124312811
 40
0.8749482597
 40
0.9062132904
 40
0.9374814212
 40
1.0
 40
1.0
 40
1.0
 40
1.0
 10
11.5031404983
 20
2.1872139647
 30
0.0
 10
11.4953535425
 20
2.1692347542
 30
0.0
 10
11.482679634
 20
2.1426778201
 30
0.0
 10
11.4638844608
 20
2.1082812276
 30
0.0
 10
11.4438448031
 20
2.0745895853
 30
0.0
 10
11.4165073085
 20
2.0338793658
 30
0.0
 10
11.3862738854
 20
1.9952688351
 30
0.0
 10
11.3604531096
 20
1.9657662944
 30
0.0
 10
11.3335731148
 20
1.9372216892
 30
0.0
 10
11.2980488777
 20
1.9034010255
 30
0.0
 10
11.2525862263
 20
1.8660246559
 30
0.0
 10
11.2045256781
 20
1.8320438094
 30
0.0
 10
11.1541236172
 20
1.8016360773
 30
0.0
 10
11.101648634
 20
1.7749591021
 30
0.0
 10
11.0564167337
 20
1.7559495574
 30
0.0
 10
11.0194836557
 20
1.7427379713
 30
0.0
 10
10.9820948659
 20
1.7308698816
 30
0.0
 10
10.9345891153
 20
1.7185840796
 30
0.0
 10
10.8863191123
 20
1.7097635441
 30
0.0
 10
10.8474020314
 20
1.7048136756
 30
0.0
 10
10.8083327146
 20
1.7012740009
 30
0.0
 10
10.7789014202
 20
1.7002093685
 30
0.0
 10
10.7592920688
 20
1.7002093685
 30
0.0
  0
SPLINE
  5
423
100
AcDbEntity
  8
0
100
AcDbSpline
 62
7
  6
CONTINUOUS
 70
0
 71
3
 72
30
 73
26
 74
0
 42
0.0000001
 43
0.0000001
 44
0.0000000001
 40
0.0
 40
0.0
 40
0.0
 40
0.0
 40
0.0605819021
 40
0.1197492191
 40
0.1777594858
 40
0.2349034128
 40
0.2632696129
 40
0.2915685939
 40
0.3198565414
 40
0.3481923018
 40
0.4632757318
 40
0.4928599727
 40
0.5228880273
 40
0.5534310399
 40
0.5845357201
 40
0.6162249308
 40
0.6485342838
 40
0.715009662
 40
0.7838334889
 40
0.8190456132
 40
0.8547128783
 40
0.8907189052
 40
0.9269359567
 40
0.9633362617
 40
1.0
 40
1.0
 40
1.0
 40
1.0
 10
9.9717219158
 20
11.1938925422
 30
0.0
 10
9.9656513685
 20
11.196139602
 30
0.0
 10
9.953709979
 20
11.200740338
 30
0.0
 10
9.936197977
 20
11.2081022698
 30
0.0
 10
9.919279078
 20
11.2159008622
 30
0.0
 10
9.9055976351
 20
11.222837571
 30
0.0
 10
9.894934888
 20
11.2286858282
 30
0.0
 10
9.8870777018
 20
11.2332325016
 30
0.0
 10
9.8793346805
 20
11.2379658386
 30
0.0
 10
9.8639300114
 20
11.247928833
 30
0.0
 10
9.8490993212
 20
11.2590715877
 30
0.0
 10
9.8352110131
 20
11.2715463991
 30
0.0
 10
9.8282950493
 20
11.2782558398
 30
0.0
 10
9.8215438533
 20
11.2853569168
 30
0.0
 10
9.8149853725
 20
11.2928741738
 30
0.0
 10
9.8086586515
 20
11.3008310398
 30
0.0
 10
9.800515432
 20
11.3121520133
 30
0.0
 10
9.7911790934
 20
11.3274755124
 30
0.0
 10
9.7834582979
 20
11.3440253617
 30
0.0
 10
9.7783600288
 20
11.3580630388
 30
0.0
 10
9.7751263718
 20
11.369024115
 30
0.0
 10
9.7725521895
 20
11.3802685009
 30
0.0
 10
9.7706801492
 20
11.3917309437
 30
0.0
 10
9.7695452012
 20
11.4033599889
 30
0.0
 10
9.7692920688
 20
11.4111691692
 30
0.0
 10
9.7692920688
 20
11.4150866341
 30
0.0
  0
SPLINE
  5
424
100
AcDbEntity
  8
0
100
AcDbSpline
 62
7
  6
CONTINUOUS
 70
0
 71
3
 72
31
 73
27
 74
0
 42
0.0000001
 43
0.0000001
 44
0.0000000001
 40
0.0
 40
0.0
 40
0.0
 40
0.0
 40
0.0366657299
 40
0.0730586703
 40
0.1092696647
 40
0.1452731538
 40
0.1809393206
 40
0.2161493892
 40
0.2508519798
 40
0.2849958077
 40
0.3514630937
 40
0.3837714458
 40
0.4154550625
 40
0.4770836569
 40
0.5071081379
 40
0.5366858542
 40
0.5658844466
 40
0.5947629322
 40
0.6233867645
 40
0.651829779
 40
0.7084421171
 40
0.7651025666
 40
0.8222428819
 40
0.8802506807
 40
0.9394217296
 40
1.0
 40
1.0
 40
1.0
 40
1.0
 10
11.7492920688
 20
11.4150866341
 30
0.0
 10
11.7492920688
 20
11.411167767
 30
0.0
 10
11.7490389947
 20
11.4033567842
 30
0.0
 10
11.7479034415
 20
11.3917254444
 30
0.0
 10
11.7460303576
 20
11.3802613457
 30
0.0
 10
11.7434550369
 20
11.3690146278
 30
0.0
 10
11.7402203325
 20
11.3580511426
 30
0.0
 10
11.7363649062
 20
11.3474385819
 30
0.0
 10
11.7319527356
 20
11.3372223855
 30
0.0
 10
11.7254646689
 20
11.3242900829
 30
0.0
 10
11.7180551299
 20
11.312131685
 30
0.0
 10
11.7099093246
 20
11.3008097783
 30
0.0
 10
11.7015496082
 20
11.2902977122
 30
0.0
 10
11.6926505697
 20
11.2805463635
 30
0.0
 10
11.6833482582
 20
11.2715233271
 30
0.0
 10
11.6762856073
 20
11.2651793643
 30
0.0
 10
11.6690937562
 20
11.2591725069
 30
0.0
 10
11.6617870574
 20
11.2534705115
 30
0.0
 10
11.6543717283
 20
11.2480464404
 30
0.0
 10
11.644355266
 20
11.2411665656
 30
0.0
 10
11.6315176264
 20
11.2331140628
 30
0.0
 10
11.6156384256
 20
11.2241801707
 30
0.0
 10
11.599254946
 20
11.2158753834
 30
0.0
 10
11.5823290695
 20
11.2080787972
 30
0.0
 10
11.5648123306
 20
11.2007140503
 30
0.0
 10
11.5528665265
 20
11.1961138198
 30
0.0
 10
11.5467940757
 20
11.1938673598
 30
0.0
  0
SPLINE
  5
425
100
AcDbEntity
  8
0
100
AcDbSpline
 62
7
  6
CONTINUOUS
 70
0
 71
3
 72
26
 73
22
 74
0
 42
0.0000001
 43
0.0000001
 44
0.0000000001
 40
0.0
 40
0.0
 40
0.0
 40
0.0
 40
0.0618460178
 40
0.0928046415
 40
0.1237848349
 40
0.1858028743
 40
0.24791629
 40
0.2790151789
 40
0.3101390683
 40
0.3724518169
 40
0.4348642536
 40
0.4973735449
 40
0.5599748126
 40
0.622661304
 40
0.6854243917
 40
0.7168365452
 40
0.7482639994
 40
0.8111488219
 40
0.874074038
 40
0.9370322814
 40
1.0
 40
1.0
 40
1.0
 40
1.0
 10
10.0139402007
 20
2.1961084567
 30
0.0
 10
10.0216629936
 20
2.1783525468
 30
0.0
 10
10.0342466887
 20
2.1521249001
 30
0.0
 10
10.0529258995
 20
2.1181620275
 30
0.0
 10
10.0728739649
 20
2.084863588
 30
0.0
 10
10.1001232143
 20
2.0446107451
 30
0.0
 10
10.1302799754
 20
2.0064403411
 30
0.0
 10
10.1560579308
 20
1.9772614725
 30
0.0
 10
10.1829293078
 20
1.9490003353
 30
0.0
 10
10.2184719244
 20
1.9155027974
 30
0.0
 10
10.2639835806
 20
1.8784781692
 30
0.0
 10
10.3121361251
 20
1.8448001024
 30
0.0
 10
10.3626718449
 20
1.8146490956
 30
0.0
 10
10.4153198889
 20
1.7881859782
 30
0.0
 10
10.4607142211
 20
1.7693265017
 30
0.0
 10
10.4977950092
 20
1.7562142944
 30
0.0
 10
10.5353584047
 20
1.7444283008
 30
0.0
 10
10.583097125
 20
1.7322265662
 30
0.0
 10
10.6413048376
 20
1.7217145996
 30
0.0
 10
10.7001389902
 20
1.7153857054
 30
0.0
 10
10.7395781951
 20
1.7139763801
 30
0.0
 10
10.7592920688
 20
1.7139763801
 30
0.0
  0
SPLINE
  5
426
100
AcDbEntity
  8
0
100
AcDbSpline
 62
7
  6
CONTINUOUS
 70
0
 71
3
 72
35
 73
31
 74
0
 42
0.0000001
 43
0.0000001
 44
0.0000000001
 40
0.0
 40
0.0
 40
0.0
 40
0.0
 40
0.0309065487
 40
0.0618164573
 40
0.0927330433
 40
0.1236595753
 40
0.1545991972
 40
0.1855549567
 40
0.2165297006
 40
0.2475261349
 40
0.2785466985
 40
0.3095936504
 40
0.3406689281
 40
0.3717742563
 40
0.4029109988
 40
0.4340802814
 40
0.4652828449
 40
0.496519176
 40
0.5590744979
 40
0.6217622441
 40
0.6531627488
 40
0.6845929927
 40
0.7160512388
 40
0.7475354821
 40
0.8105544304
 40
0.873648042
 40
0.9052236648
 40
0.9368107532
 40
0.9684074134
 40
1.0
 40
1.0
 40
1.0
 40
1.0
 10
11.5467918999
 20
2.7194894557
 30
0.0
 10
11.5467918999
 20
2.7068866903
 30
0.0
 10
11.5461595142
 20
2.6816751958
 30
0.0
 10
11.5433141209
 20
2.6439535093
 30
0.0
 10
11.5385807272
 20
2.6064127691
 30
0.0
 10
11.5319688312
 20
2.5691449391
 30
0.0
 10
11.5234962171
 20
2.5322391646
 30
0.0
 10
11.5131815747
 20
2.495784869
 30
0.0
 10
11.5010513992
 20
2.4598694103
 30
0.0
 10
11.4871334496
 20
2.4245798394
 30
0.0
 10
11.4714626255
 20
2.3900006522
 30
0.0
 10
11.4540755241
 20
2.3562157012
 30
0.0
 10
11.4350150805
 20
2.3233058502
 30
0.0
 10
11.4143264043
 20
2.2913508909
 30
0.0
 10
11.3920599927
 20
2.2604273054
 30
0.0
 10
11.3682692204
 20
2.2306101406
 30
0.0
 10
11.3430109434
 20
2.2019702455
 30
0.0
 10
11.3074477954
 20
2.165434767
 30
0.0
 10
11.2596168047
 20
2.1230375989
 30
0.0
 10
11.2078223422
 20
2.0854733284
 30
0.0
 10
11.164295189
 20
2.0585145337
 30
0.0
 10
11.1306509493
 20
2.0398723448
 30
0.0
 10
11.0961119132
 20
2.0228681287
 30
0.0
 10
11.0489719961
 20
2.0024293777
 30
0.0
 10
10.9882149561
 20
1.9811682489
 30
0.0
 10
10.9256577985
 20
1.9658456157
 30
0.0
 10
10.8748837803
 20
1.9572288216
 30
0.0
 10
10.8365063025
 20
1.9525987053
 30
0.0
 10
10.7979455627
 20
1.9498176078
 30
0.0
 10
10.7721745798
 20
1.9491982201
 30
0.0
 10
10.7592920688
 20
1.9491982201
 30
0.0
  0
SPLINE
  5
427
100
AcDbEntity
  8
0
100
AcDbSpline
 62
7
  6
CONTINUOUS
 70
0
 71
3
 72
27
 73
23
 74
0
 42
0.0000001
 43
0.0000001
 44
0.0000000001
 40
0.0
 40
0.0
 40
0.0
 40
0.0
 40
0.0618065088
 40
0.1236397076
 40
0.1855252276
 40
0.2474866272
 40
0.3095444694
 40
0.3717155244
 40
0.4340121336
 40
0.4964417541
 40
0.5590067005
 40
0.6217040888
 40
0.6531094297
 40
0.6845445015
 40
0.7160075939
 40
0.7474966536
 40
0.8105253373
 40
0.8736285263
 40
0.9052089436
 40
0.9368012224
 40
0.9684029808
 40
1.0
 40
1.0
 40
1.0
 40
1.0
 10
11.5467920688
 20
2.8130497165
 30
0.0
 10
11.5467920688
 20
2.7878507465
 30
0.0
 10
11.5442587025
 20
2.737405341
 30
0.0
 10
11.5328961184
 20
2.6625015127
 30
0.0
 10
11.5140805921
 20
2.5890415374
 30
0.0
 10
11.4879940013
 20
2.5177435678
 30
0.0
 10
11.4548884499
 20
2.4492920482
 30
0.0
 10
11.4150836364
 20
2.3843470717
 30
0.0
 10
11.3689641448
 20
2.3235339831
 30
0.0
 10
11.316973941
 20
2.26743747
 30
0.0
 10
11.2596184417
 20
2.2165996292
 30
0.0
 10
11.2078222418
 20
2.1790332163
 30
0.0
 10
11.164295156
 20
2.1520749625
 30
0.0
 10
11.1306509973
 20
2.1334324738
 30
0.0
 10
11.096111864
 20
2.1164285082
 30
0.0
 10
11.0489720392
 20
2.0959895055
 30
0.0
 10
10.9882149668
 20
2.0747285715
 30
0.0
 10
10.9256578964
 20
2.059405839
 30
0.0
 10
10.8748838063
 20
2.0507890882
 30
0.0
 10
10.8365061187
 20
2.0461589508
 30
0.0
 10
10.7979453123
 20
2.0433779366
 30
0.0
 10
10.7721744068
 20
2.042758481
 30
0.0
 10
10.7592920688
 20
2.042758481
 30
0.0
  0
SPLINE
  5
428
100
AcDbEntity
  8
0
100
AcDbSpline
 62
7
  6
CONTINUOUS
 70
0
 71
3
 72
22
 73
18
 74
0
 42
0.0000001
 43
0.0000001
 44
0.0000000001
 40
0.0
 40
0.0
 40
0.0
 40
0.0
 40
0.0010581759
 40
0.0042299969
 40
0.0095154148
 40
0.0169101057
 40
0.0264020563
 40
0.0379784608
 40
0.0673334783
 40
0.1048632592
 40
0.1504028058
 40
0.2037696938
 40
0.2647713106
 40
0.4087705947
 40
0.5805576519
 40
0.7782700902
 40
1.0
 40
1.0
 40
1.0
 40
1.0
 10
10.277557983
 20
12.667680014
 30
0.0
 10
10.2775831585
 20
12.6676621634
 30
0.0
 10
10.2776853557
 20
12.6675930382
 30
0.0
 10
10.2779133563
 20
12.667434832
 30
0.0
 10
10.2782944457
 20
12.6671730735
 30
0.0
 10
10.2788269816
 20
12.666806249
 30
0.0
 10
10.2795112948
 20
12.6663363244
 30
0.0
 10
10.2807244048
 20
12.6655050379
 30
0.0
 10
10.2826148338
 20
12.6642155633
 30
0.0
 10
10.2853288645
 20
12.6623757117
 30
0.0
 10
10.2886316589
 20
12.6601563639
 30
0.0
 10
10.2925150111
 20
12.6575736914
 30
0.0
 10
10.29881159
 20
12.6534342815
 30
0.0
 10
10.3080536812
 20
12.6474885794
 30
0.0
 10
10.3207699214
 20
12.6395762044
 30
0.0
 10
10.335571457
 20
12.6307286723
 30
0.0
 10
10.3461977517
 20
12.6246658372
 30
0.0
 10
10.3518489025
 20
12.621522003
 30
0.0
  0
SPLINE
  5
429
100
AcDbEntity
  8
0
100
AcDbSpline
 62
7
  6
CONTINUOUS
 70
0
 71
3
 72
27
 73
23
 74
0
 42
0.0000001
 43
0.0000001
 44
0.0000000001
 40
0.0
 40
0.0
 40
0.0
 40
0.0
 40
0.0309206164
 40
0.0618608331
 40
0.0928217359
 40
0.1238042479
 40
0.185827089
 40
0.247944942
 40
0.2790457056
 40
0.3101712758
 40
0.3724868469
 40
0.4349009863
 40
0.4974107328
 40
0.5600111357
 40
0.6226954422
 40
0.6854550741
 40
0.7168649743
 40
0.7482899163
 40
0.811169169
 40
0.8740880076
 40
0.937039518
 40
1.0
 40
1.0
 40
1.0
 40
1.0
 10
11.5011073052
 20
2.1880998324
 30
0.0
 10
11.4971841079
 20
2.1793484622
 30
0.0
 10
11.4890130984
 20
2.161982523
 30
0.0
 10
11.4758058326
 20
2.1363937037
 30
0.0
 10
11.461660777
 20
2.111288216
 30
0.0
 10
11.4415711916
 20
2.0784954634
 30
0.0
 10
11.4142016004
 20
2.0388691863
 30
0.0
 10
11.3839980165
 20
2.001311852
 30
0.0
 10
11.3582248616
 20
1.972610749
 30
0.0
 10
11.3313859824
 20
1.9448185297
 30
0.0
 10
11.29593483
 20
1.9118869438
 30
0.0
 10
11.2506085315
 20
1.8755006252
 30
0.0
 10
11.2027116849
 20
1.8424137543
 30
0.0
 10
11.1524958638
 20
1.8128003041
 30
0.0
 10
11.1002251722
 20
1.7868152563
 30
0.0
 10
11.0551870426
 20
1.7683001845
 30
0.0
 10
11.0184123004
 20
1.7554289787
 30
0.0
 10
10.9811682709
 20
1.7438605609
 30
0.0
 10
10.9338505409
 20
1.7318854351
 30
0.0
 10
10.876173647
 20
1.7215696253
 30
0.0
 10
10.8178878466
 20
1.7153592863
 30
0.0
 10
10.7788202493
 20
1.7139763801
 30
0.0
 10
10.7592920688
 20
1.7139763801
 30
0.0
  0
SPLINE
  5
42A
100
AcDbEntity
  8
0
100
AcDbSpline
 62
7
  6
CONTINUOUS
 70
0
 71
3
 72
38
 73
34
 74
0
 42
0.0000001
 43
0.0000001
 44
0.0000000001
 40
0.0
 40
0.0
 40
0.0
 40
0.0
 40
0.0005117017
 40
0.0011963426
 40
0.0020624287
 40
0.0031130756
 40
0.0043489983
 40
0.005769586
 40
0.0091594503
 40
0.013269962
 40
0.0180857982
 40
0.023590033
 40
0.0297622327
 40
0.0365807152
 40
0.0440236811
 40
0.0606961285
 40
0.0796147352
 40
0.1006216244
 40
0.123564782
 40
0.148312118
 40
0.1747369759
 40
0.2027217117
 40
0.2321722531
 40
0.2629997734
 40
0.3284667072
 40
0.3986225693
 40
0.4730783594
 40
0.5515679006
 40
0.6339012212
 40
0.7199631402
 40
0.8096854955
 40
0.903037448
 40
1.0
 40
1.0
 40
1.0
 40
1.0
 10
11.7492917469
 20
12.470489561
 30
0.0
 10
11.7492917453
 20
12.4703813274
 30
0.0
 10
11.7492511997
 20
12.470129097
 30
0.0
 10
11.7491222101
 20
12.4697121218
 30
0.0
 10
11.7489145698
 20
12.4692018721
 30
0.0
 10
11.748628254
 20
12.4685994426
 30
0.0
 10
11.748263231
 20
12.4679052538
 30
0.0
 10
11.7476340421
 20
12.4667916681
 30
0.0
 10
11.7466472335
 20
12.4651827211
 30
0.0
 10
11.7452218169
 20
12.4630019773
 30
0.0
 10
11.7434987323
 20
12.4604823093
 30
0.0
 10
11.7414847002
 20
12.4576339193
 30
0.0
 10
11.7391852602
 20
12.454468958
 30
0.0
 10
11.7366066802
 20
12.4510002644
 30
0.0
 10
11.7326525305
 20
12.4457870815
 30
0.0
 10
11.7270548194
 20
12.4386087843
 30
0.0
 10
11.719552783
 20
12.4292790538
 30
0.0
 10
11.7110763001
 20
12.4190325081
 30
0.0
 10
11.7016650091
 20
12.4079609032
 30
0.0
 10
11.6913531813
 20
12.3961524858
 30
0.0
 10
11.6801710963
 20
12.3836902269
 30
0.0
 10
11.6681440958
 20
12.3706517168
 30
0.0
 10
11.6552937561
 20
12.3571081352
 30
0.0
 10
11.6367090874
 20
12.3380801593
 30
0.0
 10
11.6115357206
 20
12.3134576872
 30
0.0
 10
11.5787959853
 20
12.2834029456
 30
0.0
 10
11.542968331
 20
12.2526758787
 30
0.0
 10
11.5040477046
 20
12.2216450826
 30
0.0
 10
11.4619969727
 20
12.1906596492
 30
0.0
 10
11.4167632115
 20
12.1600596409
 30
0.0
 10
11.3682789511
 20
12.1301922678
 30
0.0
 10
11.3164826424
 20
12.1014171694
 30
0.0
 10
11.2803863103
 20
12.0835554666
 30
0.0
 10
11.261786369
 20
12.0749142243
 30
0.0
  0
SPLINE
  5
42B
100
AcDbEntity
  8
0
100
AcDbSpline
 62
7
  6
CONTINUOUS
 70
0
 71
3
 72
33
 73
29
 74
0
 42
0.0000001
 43
0.0000001
 44
0.0000000001
 40
0.0
 40
0.0
 40
0.0
 40
0.0
 40
0.0125714935
 40
0.0254199969
 40
0.038804152
 40
0.0529517591
 40
0.0680526048
 40
0.0842596341
 40
0.1016935392
 40
0.1204458609
 40
0.140585431
 40
0.1621638324
 40
0.1852166288
 40
0.2097674414
 40
0.2358314975
 40
0.2634149004
 40
0.292516799
 40
0.3231320529
 40
0.3552497437
 40
0.3888541865
 40
0.4239273211
 40
0.4604471022
 40
0.5377194431
 40
0.6204429245
 40
0.7083478126
 40
0.8011323367
 40
0.8984679334
 40
1.0
 40
1.0
 40
1.0
 40
1.0
 10
11.7492920688
 20
11.4150866341
 30
0.0
 10
11.7492920688
 20
11.4172764375
 30
0.0
 10
11.748948677
 20
11.4217114604
 30
0.0
 10
11.747413672
 20
11.4283176908
 30
0.0
 10
11.7448656342
 20
11.4348968815
 30
0.0
 10
11.741314064
 20
11.4414388583
 30
0.0
 10
11.736769304
 20
11.4479402216
 30
0.0
 10
11.7312392198
 20
11.4543978907
 30
0.0
 10
11.7247300758
 20
11.4608081748
 30
0.0
 10
11.7172490548
 20
11.4671676774
 30
0.0
 10
11.708803264
 20
11.4734720529
 30
0.0
 10
11.6994001185
 20
11.4797156683
 30
0.0
 10
11.6890486733
 20
11.485893382
 30
0.0
 10
11.6777588345
 20
11.4919996684
 30
0.0
 10
11.6655411836
 20
11.4980281755
 30
0.0
 10
11.6524077533
 20
11.5039731977
 30
0.0
 10
11.6383715657
 20
11.509829054
 30
0.0
 10
11.6234463316
 20
11.515589442
 30
0.0
 10
11.6076469694
 20
11.5212486525
 30
0.0
 10
11.5909893862
 20
11.5268011914
 30
0.0
 10
11.5734901437
 20
11.5322411682
 30
0.0
 10
11.54858731
 20
11.539473556
 30
0.0
 10
11.5154682865
 20
11.5481524156
 30
0.0
 10
11.4733844215
 20
11.5578495125
 30
0.0
 10
11.4284128972
 20
11.566975389
 30
0.0
 10
11.3807350772
 20
11.5754926462
 30
0.0
 10
11.3305431473
 20
11.5833656238
 30
0.0
 10
11.2962213604
 20
11.5880700739
 30
0.0
 10
11.278679093
 20
11.5903176746
 30
0.0
  0
SPLINE
  5
42C
100
AcDbEntity
  8
0
100
AcDbSpline
 62
7
  6
CONTINUOUS
 70
0
 71
3
 72
44
 73
40
 74
0
 42
0.0000001
 43
0.0000001
 44
0.0000000001
 40
0.0
 40
0.0
 40
0.0
 40
0.0
 40
0.0048506459
 40
0.0097653083
 40
0.0148053486
 40
0.0200274948
 40
0.0254824914
 40
0.031214163
 40
0.03725969
 40
0.0436502547
 40
0.0504116252
 40
0.0575644009
 40
0.0651251368
 40
0.0731071702
 40
0.0815210213
 40
0.0903743079
 40
0.0996726262
 40
0.1094200572
 40
0.1302693926
 40
0.1529280782
 40
0.1773846656
 40
0.2036132204
 40
0.231578561
 40
0.2612351359
 40
0.2925310316
 40
0.3254062491
 40
0.3597960456
 40
0.3956290617
 40
0.432830215
 40
0.4713188839
 40
0.5110114568
 40
0.5518197168
 40
0.5936530119
 40
0.6364167897
 40
0.7243459928
 40
0.8148083616
 40
0.8607304109
 40
0.9069763703
 40
1.0
 40
1.0
 40
1.0
 40
1.0
 10
11.5467920688
 20
4.6277204326
 30
0.0
 10
11.5467920688
 20
4.6290621476
 30
0.0
 10
11.5466313403
 20
4.631765934
 30
0.0
 10
11.5459107451
 20
4.635806004
 30
0.0
 10
11.5447120332
 20
4.6398380651
 30
0.0
 10
11.5430374704
 20
4.6438581576
 30
0.0
 10
11.5408893752
 20
4.6478638593
 30
0.0
 10
11.5382707218
 20
4.6518533293
 30
0.0
 10
11.5351840209
 20
4.6558249699
 30
0.0
 10
11.5316314468
 20
4.6597771244
 30
0.0
 10
11.5276151015
 20
4.6637079155
 30
0.0
 10
11.5231376778
 20
4.667615753
 30
0.0
 10
11.5182018474
 20
4.6714987607
 30
0.0
 10
11.5128103148
 20
4.6753548862
 30
0.0
 10
11.5069660068
 20
4.6791818732
 30
0.0
 10
11.5006724645
 20
4.6829777626
 30
0.0
 10
11.4939334114
 20
4.6867405008
 30
0.0
 10
11.4841376281
 20
4.6918247584
 30
0.0
 10
11.4707805547
 20
4.6980533039
 30
0.0
 10
11.4533880387
 20
4.7052029959
 30
0.0
 10
11.4343290817
 20
4.7121685998
 30
0.0
 10
11.4136488443
 20
4.7189342224
 30
0.0
 10
11.3913957422
 20
4.7254824993
 30
0.0
 10
11.3676226776
 20
4.7317982602
 30
0.0
 10
11.3423862743
 20
4.7378652774
 30
0.0
 10
11.3157468784
 20
4.7436694624
 30
0.0
 10
11.2877683361
 20
4.7491959336
 30
0.0
 10
11.2585177516
 20
4.7544318789
 30
0.0
 10
11.2280654252
 20
4.7593638921
 30
0.0
 10
11.1964845102
 20
4.7639805804
 30
0.0
 10
11.1638510008
 20
4.7682701227
 30
0.0
 10
11.1302433563
 20
4.772222642
 30
0.0
 10
11.0957424836
 20
4.7758280563
 30
0.0
 10
11.0482205978
 20
4.7802016618
 30
0.0
 10
10.9872088592
 20
4.784716671
 30
0.0
 10
10.925240686
 20
4.7879285254
 30
0.0
 10
10.8747560771
 20
4.7897478336
 30
0.0
 10
10.8235471918
 20
4.7910593316
 30
0.0
 10
10.7850229102
 20
4.7914508891
 30
0.0
 10
10.7592920688
 20
4.7914508891
 30
0.0
  0
SPLINE
  5
42D
100
AcDbEntity
  8
0
100
AcDbSpline
 62
7
  6
CONTINUOUS
 70
0
 71
3
 72
15
 73
11
 74
0
 42
0.0000001
 43
0.0000001
 44
0.0000000001
 40
0.0
 40
0.0
 40
0.0
 40
0.0
 40
0.0971425475
 40
0.2057411937
 40
0.3235311211
 40
0.448794609
 40
0.580161222
 40
0.7164857053
 40
0.8568058127
 40
1.0
 40
1.0
 40
1.0
 40
1.0
 10
10.3518489009
 20
12.6215220262
 30
0.0
 10
10.3533489904
 20
12.6199724052
 30
0.0
 10
10.3565599373
 20
12.616723091
 30
0.0
 10
10.3617012251
 20
12.6117062724
 30
0.0
 10
10.3673907295
 20
12.6063591089
 30
0.0
 10
10.3735603223
 20
12.6007868983
 30
0.0
 10
10.3801595461
 20
12.5950792345
 30
0.0
 10
10.3871440825
 20
12.5893095414
 30
0.0
 10
10.3944613982
 20
12.5835340149
 30
0.0
 10
10.3994984957
 20
12.5797576592
 30
0.0
 10
10.4020693795
 20
12.5778874133
 30
0.0
  0
SPLINE
  5
42E
100
AcDbEntity
  8
0
100
AcDbSpline
 62
7
  6
CONTINUOUS
 70
0
 71
3
 72
13
 73
9
 74
0
 42
0.0000001
 43
0.0000001
 44
0.0000000001
 40
0.0
 40
0.0
 40
0.0
 40
0.0
 40
0.0857066295
 40
0.1854817037
 40
0.2980569753
 40
0.4220681611
 40
0.6981098345
 40
1.0
 40
1.0
 40
1.0
 40
1.0
 10
10.3509425791
 20
12.5778920245
 30
0.0
 10
10.3524023292
 20
12.5779408055
 30
0.0
 10
10.3555622359
 20
12.5780226822
 30
0.0
 10
10.360640944
 20
12.5781047398
 30
0.0
 10
10.3663728665
 20
12.5781540393
 30
0.0
 10
10.3751088064
 20
12.5781756309
 30
0.0
 10
10.3870709388
 20
12.5781107208
 30
0.0
 10
10.3969189494
 20
12.577978998
 30
0.0
 10
10.4020628617
 20
12.5778921658
 30
0.0
  0
SPLINE
  5
42F
100
AcDbEntity
  8
0
100
AcDbSpline
 62
7
  6
CONTINUOUS
 70
0
 71
3
 72
17
 73
13
 74
0
 42
0.0000001
 43
0.0000001
 44
0.0000000001
 40
0.0
 40
0.0
 40
0.0
 40
0.0
 40
0.1470059103
 40
0.2191599992
 40
0.2901652678
 40
0.4281129513
 40
0.5596776041
 40
0.6837039897
 40
0.7990908329
 40
0.8532333637
 40
0.9048456305
 40
1.0
 40
1.0
 40
1.0
 40
1.0
 10
10.3118874359
 20
8.3513485001
 30
0.0
 10
10.3096947834
 20
8.3513707644
 30
0.0
 10
10.3064260173
 20
8.3514125182
 30
0.0
 10
10.3020981594
 20
8.3514633597
 30
0.0
 10
10.2979052858
 20
8.3515015192
 30
0.0
 10
10.2928261198
 20
8.3515279462
 30
0.0
 10
10.2869560372
 20
8.3515413152
 30
0.0
 10
10.2814224451
 20
8.3515303702
 30
0.0
 10
10.2770438451
 20
8.3514957003
 30
0.0
 10
10.2737453933
 20
8.3514647432
 30
0.0
 10
10.2707487923
 20
8.351434257
 30
0.0
 10
10.268559703
 20
8.3513963418
 30
0.0
 10
10.2671411706
 20
8.3513485001
 30
0.0
  0
SPLINE
  5
430
100
AcDbEntity
  8
0
100
AcDbSpline
 62
7
  6
CONTINUOUS
 70
0
 71
3
 72
17
 73
13
 74
0
 42
0.0000001
 43
0.0000001
 44
0.0000000001
 40
0.0
 40
0.0
 40
0.0
 40
0.0
 40
0.1331779108
 40
0.2657753743
 40
0.3966661006
 40
0.5248425437
 40
0.6495203508
 40
0.7702940052
 40
0.8291918848
 40
0.8871435692
 40
0.9441905787
 40
1.0
 40
1.0
 40
1.0
 40
1.0
 10
10.2671411706
 20
8.3513485001
 30
0.0
 10
10.2670880095
 20
8.3475589343
 30
0.0
 10
10.2675244209
 20
8.3399820737
 30
0.0
 10
10.2695648708
 20
8.3288517997
 30
0.0
 10
10.2729890431
 20
8.3182102179
 30
0.0
 10
10.2777002637
 20
8.3083208646
 30
0.0
 10
10.2835873826
 20
8.2994232256
 30
0.0
 10
10.2894232444
 20
8.2929713835
 30
0.0
 10
10.2945347479
 20
8.2885344787
 30
0.0
 10
10.2985345678
 20
8.2856096949
 30
0.0
 10
10.3026977801
 20
8.2830896914
 30
0.0
 10
10.3055798068
 20
8.281662307
 30
0.0
 10
10.30703197
 20
8.2810191678
 30
0.0
  0
SPLINE
  5
431
100
AcDbEntity
  8
0
100
AcDbSpline
 62
7
  6
CONTINUOUS
 70
0
 71
3
 72
22
 73
18
 74
0
 42
0.0000001
 43
0.0000001
 44
0.0000000001
 40
0.0
 40
0.0
 40
0.0
 40
0.0
 40
0.0129448919
 40
0.0272578325
 40
0.0429754747
 40
0.0601181688
 40
0.0986928767
 40
0.1429408193
 40
0.1927121619
 40
0.2477553712
 40
0.3077663835
 40
0.3723788957
 40
0.4411942373
 40
0.5137679098
 40
0.6682669875
 40
0.8318010352
 40
1.0
 40
1.0
 40
1.0
 40
1.0
 10
10.30703197
 20
8.2810191678
 30
0.0
 10
10.306895907
 20
8.2812943746
 30
0.0
 10
10.3066372875
 20
8.2818878257
 30
0.0
 10
10.3063002705
 20
8.2828504314
 30
0.0
 10
10.3059955757
 20
8.2839275459
 30
0.0
 10
10.3056185882
 20
8.2855798504
 30
0.0
 10
10.305246653
 20
8.2879238839
 30
0.0
 10
10.3049506091
 20
8.291055963
 30
0.0
 10
10.3047927405
 20
8.2945888543
 30
0.0
 10
10.3047739672
 20
8.2984986887
 30
0.0
 10
10.304895539
 20
8.3027586535
 30
0.0
 10
10.3051564234
 20
8.3073394096
 30
0.0
 10
10.3055554082
 20
8.3122091385
 30
0.0
 10
10.3062831901
 20
8.3191891292
 30
0.0
 10
10.3075254162
 20
8.3283716476
 30
0.0
 10
10.3094637897
 20
8.339741072
 30
0.0
 10
10.3110321467
 20
8.3474522154
 30
0.0
 10
10.3118874359
 20
8.3513485001
 30
0.0
  0
SPLINE
  5
432
100
AcDbEntity
  8
0
100
AcDbSpline
 62
7
  6
CONTINUOUS
 70
0
 71
3
 72
23
 73
19
 74
0
 42
0.0000001
 43
0.0000001
 44
0.0000000001
 40
0.0
 40
0.0
 40
0.0
 40
0.0
 40
0.1681858544
 40
0.3316989689
 40
0.4103320525
 40
0.486185509
 40
0.558754053
 40
0.6275705183
 40
0.6921890923
 40
0.75220171
 40
0.8072304068
 40
0.8569776108
 40
0.9011984986
 40
0.939697314
 40
0.9567665284
 40
0.9724329705
 40
0.9867953627
 40
1.0
 40
1.0
 40
1.0
 40
1.0
 10
11.2066967016
 20
8.3513485001
 30
0.0
 10
11.2075101941
 20
8.3474432157
 30
0.0
 10
11.2091219273
 20
8.3397418302
 30
0.0
 10
11.2107541856
 20
8.3301445513
 30
0.0
 10
11.211829433
 20
8.3226788813
 30
0.0
 10
11.2124984691
 20
8.3173348201
 30
0.0
 10
11.2130317324
 20
8.3122095222
 30
0.0
 10
11.213426901
 20
8.3073389651
 30
0.0
 10
11.2136818575
 20
8.3027572294
 30
0.0
 10
11.2137998432
 20
8.2984969872
 30
0.0
 10
11.213784575
 20
8.2945877316
 30
0.0
 10
11.2136327754
 20
8.2910558005
 30
0.0
 10
11.213340078
 20
8.2879261002
 30
0.0
 10
11.2129774225
 20
8.2855850522
 30
0.0
 10
11.2126181648
 20
8.2839335783
 30
0.0
 10
11.2123219171
 20
8.2828556886
 30
0.0
 10
11.2119789296
 20
8.2818882197
 30
0.0
 10
11.2117020839
 20
8.2812941505
 30
0.0
 10
11.2115521675
 20
8.2810191678
 30
0.0
  0
SPLINE
  5
433
100
AcDbEntity
  8
0
100
AcDbSpline
 62
7
  6
CONTINUOUS
 70
0
 71
3
 72
16
 73
12
 74
0
 42
0.0000001
 43
0.0000001
 44
0.0000000001
 40
0.0
 40
0.0
 40
0.0
 40
0.0
 40
0.1128768383
 40
0.2295464427
 40
0.3503018257
 40
0.4750224863
 40
0.6032233362
 40
0.6684321684
 40
0.7341959051
 40
0.8668052537
 40
1.0
 40
1.0
 40
1.0
 40
1.0
 10
11.2115521675
 20
8.2810191678
 30
0.0
 10
11.2144952955
 20
8.2823051295
 30
0.0
 10
11.2202487297
 20
8.28548214
 30
0.0
 10
11.228055816
 20
8.2917479485
 30
0.0
 10
11.2349910223
 20
8.299425909
 30
0.0
 10
11.2408844069
 20
8.3083193464
 30
0.0
 10
11.2447919164
 20
8.3165185763
 30
0.0
 10
11.2472858867
 20
8.3234632976
 30
0.0
 10
11.2493533464
 20
8.330677777
 30
0.0
 10
11.2510630565
 20
8.3399833648
 30
0.0
 10
11.2514770927
 20
8.3475587201
 30
0.0
 10
11.2514429669
 20
8.3513485001
 30
0.0
  0
SPLINE
  5
434
100
AcDbEntity
  8
0
100
AcDbSpline
 62
7
  6
CONTINUOUS
 70
0
 71
3
 72
16
 73
12
 74
0
 42
0.0000001
 43
0.0000001
 44
0.0000000001
 40
0.0
 40
0.0
 40
0.0
 40
0.0
 40
0.0951449383
 40
0.2009079634
 40
0.3162928115
 40
0.4403189617
 40
0.5718831608
 40
0.7098305504
 40
0.7808380744
 40
0.8529953283
 40
1.0
 40
1.0
 40
1.0
 40
1.0
 10
11.2514429669
 20
8.3513485001
 30
0.0
 10
11.2500240779
 20
8.3513780509
 30
0.0
 10
11.2470278465
 20
8.3514357649
 30
0.0
 10
11.2423103303
 20
8.3514968771
 30
0.0
 10
11.2371617378
 20
8.3515293232
 30
0.0
 10
11.2316282144
 20
8.3515416404
 30
0.0
 10
11.2257581357
 20
8.3515284777
 30
0.0
 10
11.2206790024
 20
8.3514951146
 30
0.0
 10
11.2164860042
 20
8.3514639049
 30
0.0
 10
11.212157936
 20
8.3514295238
 30
0.0
 10
11.2088890577
 20
8.3513897772
 30
0.0
 10
11.2066967016
 20
8.3513485001
 30
0.0
  0
SPLINE
  5
435
100
AcDbEntity
  8
0
100
AcDbSpline
 62
7
  6
CONTINUOUS
 70
0
 71
3
 72
11
 73
7
 74
0
 42
0.0000001
 43
0.0000001
 44
0.0000000001
 40
0.0
 40
0.0
 40
0.0
 40
0.0
 40
0.2514190937
 40
0.5022539117
 40
0.7519481502
 40
1.0
 40
1.0
 40
1.0
 40
1.0
 10
10.7592920688
 20
8.2322919439
 30
0.0
 10
10.7974834964
 20
8.2322919458
 30
0.0
 10
10.8737931717
 20
8.234326
 30
0.0
 10
10.9877030178
 20
8.2434736685
 30
0.0
 10
11.1004470476
 20
8.2586875114
 30
0.0
 10
11.1747549756
 20
8.2729014028
 30
0.0
 10
11.2115501639
 20
8.2810187524
 30
0.0
  0
SPLINE
  5
436
100
AcDbEntity
  8
0
100
AcDbSpline
 62
7
  6
CONTINUOUS
 70
0
 71
3
 72
11
 73
7
 74
0
 42
0.0000001
 43
0.0000001
 44
0.0000000001
 40
0.0
 40
0.0
 40
0.0
 40
0.0
 40
0.2480521896
 40
0.497746467
 40
0.748581175
 40
1.0
 40
1.0
 40
1.0
 40
1.0
 10
10.3070336013
 20
8.28101883
 30
0.0
 10
10.3438288704
 20
8.2729014609
 30
0.0
 10
10.4181369151
 20
8.2586875376
 30
0.0
 10
10.5308810787
 20
8.2434736696
 30
0.0
 10
10.6447909687
 20
8.2343260013
 30
0.0
 10
10.7211006501
 20
8.2322919474
 30
0.0
 10
10.7592920688
 20
8.2322919439
 30
0.0
  0
SPLINE
  5
437
100
AcDbEntity
  8
0
100
AcDbSpline
 62
7
  6
CONTINUOUS
 70
0
 71
3
 72
15
 73
11
 74
0
 42
0.0000001
 43
0.0000001
 44
0.0000000001
 40
0.0
 40
0.0
 40
0.0
 40
0.0
 40
0.1431949702
 40
0.2835129872
 40
0.4198360911
 40
0.5512094299
 40
0.6764725241
 40
0.7942392489
 40
0.9028481312
 40
1.0
 40
1.0
 40
1.0
 40
1.0
 10
11.1165151511
 20
12.5778864804
 30
0.0
 10
11.1190850875
 20
12.5797580849
 30
0.0
 10
11.1241225098
 20
12.583533929
 30
0.0
 10
11.1314411437
 20
12.5893078198
 30
0.0
 10
11.1384242163
 20
12.5950794936
 30
0.0
 10
11.1450226362
 20
12.6007883015
 30
0.0
 10
11.1511924637
 20
12.6063597176
 30
0.0
 10
11.1568846008
 20
12.6117037029
 30
0.0
 10
11.1620247768
 20
12.6167216907
 30
0.0
 10
11.1652334068
 20
12.6199738673
 30
0.0
 10
11.1667352917
 20
12.6215220519
 30
0.0
  0
SPLINE
  5
438
100
AcDbEntity
  8
0
100
AcDbSpline
 62
7
  6
CONTINUOUS
 70
0
 71
3
 72
13
 73
9
 74
0
 42
0.0000001
 43
0.0000001
 44
0.0000000001
 40
0.0
 40
0.0
 40
0.0
 40
0.0
 40
0.3018890592
 40
0.5779323879
 40
0.7019445092
 40
0.8145202311
 40
0.9142949066
 40
1.0
 40
1.0
 40
1.0
 40
1.0
 10
11.1165132066
 20
12.5778920398
 30
0.0
 10
11.1216579106
 20
12.5779789009
 30
0.0
 10
11.1315074824
 20
12.578110671
 30
0.0
 10
11.1434715253
 20
12.5781756182
 30
0.0
 10
11.1522088939
 20
12.5781540398
 30
0.0
 10
11.1579417368
 20
12.5781047417
 30
0.0
 10
11.1630212201
 20
12.5780226778
 30
0.0
 10
11.1661815919
 20
12.5779407907
 30
0.0
 10
11.1676415459
 20
12.5778920024
 30
0.0
  0
SPLINE
  5
439
100
AcDbEntity
  8
0
100
AcDbSpline
 62
7
  6
CONTINUOUS
 70
0
 71
3
 72
19
 73
15
 74
0
 42
0.0000001
 43
0.0000001
 44
0.0000000001
 40
0.0
 40
0.0
 40
0.0
 40
0.0
 40
0.1345872662
 40
0.200998244
 40
0.266679047
 40
0.3956582941
 40
0.4590066152
 40
0.5215620005
 40
0.5833517608
 40
0.6444197903
 40
0.7048267835
 40
0.7646471049
 40
0.8828451648
 40
1.0
 40
1.0
 40
1.0
 40
1.0
 10
11.1667352586
 20
12.6215220443
 30
0.0
 10
11.1662085446
 20
12.6250188152
 30
0.0
 10
11.1657654369
 20
12.6303025436
 30
0.0
 10
11.1659041255
 20
12.6373124422
 30
0.0
 10
11.1665203456
 20
12.6441486802
 30
0.0
 10
11.167852657
 20
12.6508252257
 30
0.0
 10
11.1699002145
 20
12.6572069171
 30
0.0
 10
11.1717673057
 20
12.6617770757
 30
0.0
 10
11.1739626589
 20
12.6661318241
 30
0.0
 10
11.1764752496
 20
12.670245796
 30
0.0
 10
11.1792897714
 20
12.6740960581
 30
0.0
 10
11.1834056176
 20
12.6788272296
 30
0.0
 10
11.1892378039
 20
12.6840015868
 30
0.0
 10
11.1945490791
 20
12.6872423177
 30
0.0
 10
11.1973095897
 20
12.6886042374
 30
0.0
  0
SPLINE
  5
43A
100
AcDbEntity
  8
0
100
AcDbSpline
 62
7
  6
CONTINUOUS
 70
0
 71
3
 72
19
 73
15
 74
0
 42
0.0000001
 43
0.0000001
 44
0.0000000001
 40
0.0
 40
0.0
 40
0.0
 40
0.0
 40
0.1345872181
 40
0.2009984093
 40
0.2666796151
 40
0.3956600964
 40
0.4590091622
 40
0.521565301
 40
0.5833557487
 40
0.6444243153
 40
0.7048316151
 40
0.7646519328
 40
0.8828486799
 40
1.0
 40
1.0
 40
1.0
 40
1.0
 10
10.3518488985
 20
12.6215220045
 30
0.0
 10
10.3523756444
 20
12.6250187651
 30
0.0
 10
10.3528187772
 20
12.6303024927
 30
0.0
 10
10.3526800622
 20
12.6373123981
 30
0.0
 10
10.352063783
 20
12.644148672
 30
0.0
 10
10.3507313842
 20
12.6508252565
 30
0.0
 10
10.3486837384
 20
12.6572069863
 30
0.0
 10
10.3468165844
 20
12.6617771749
 30
0.0
 10
10.3446211788
 20
12.6661319483
 30
0.0
 10
10.3421085515
 20
12.6702459378
 30
0.0
 10
10.3392940136
 20
12.6740962081
 30
0.0
 10
10.3351781939
 20
12.6788273569
 30
0.0
 10
10.3293461357
 20
12.6840016498
 30
0.0
 10
10.3240349893
 20
12.6872423358
 30
0.0
 10
10.3212745647
 20
12.688604213
 30
0.0
  0
SPLINE
  5
43B
100
AcDbEntity
  8
0
100
AcDbSpline
 62
7
  6
CONTINUOUS
 70
0
 71
3
 72
26
 73
22
 74
0
 42
0.0000001
 43
0.0000001
 44
0.0000000001
 40
0.0
 40
0.0
 40
0.0
 40
0.0
 40
0.1895885766
 40
0.3714878119
 40
0.4574891535
 40
0.5391393511
 40
0.6157105138
 40
0.6865272781
 40
0.7509877104
 40
0.8085558613
 40
0.8588024798
 40
0.8810779271
 40
0.9014203872
 40
0.9198171121
 40
0.936272434
 40
0.9508215614
 40
0.9635329982
 40
0.9745271744
 40
0.9840141912
 40
0.9923357776
 40
1.0
 40
1.0
 40
1.0
 40
1.0
 10
10.4020710748
 20
12.5778919933
 30
0.0
 10
10.4036555286
 20
12.582220287
 30
0.0
 10
10.4066321143
 20
12.5907488152
 30
0.0
 10
10.4099645453
 20
12.6013624831
 30
0.0
 10
10.4122876556
 20
12.6095373808
 30
0.0
 10
10.4137972388
 20
12.6152801497
 30
0.0
 10
10.4150933866
 20
12.6206959991
 30
0.0
 10
10.4161640126
 20
12.6257344992
 30
0.0
 10
10.4170001656
 20
12.6303486181
 30
0.0
 10
10.4175941375
 20
12.6344956023
 30
0.0
 10
10.4178959863
 20
12.6376457317
 30
0.0
 10
10.4179995599
 20
12.6399014753
 30
0.0
 10
10.4180108488
 20
12.6413852241
 30
0.0
 10
10.4179591878
 20
12.6427266705
 30
0.0
 10
10.4178445519
 20
12.6439230142
 30
0.0
 10
10.417667389
 20
12.6449721071
 30
0.0
 10
10.4174279108
 20
12.6458725643
 30
0.0
 10
10.4171254337
 20
12.6466235582
 30
0.0
 10
10.4167578601
 20
12.6472246378
 30
0.0
 10
10.4163218138
 20
12.6476732549
 30
0.0
 10
10.4159771373
 20
12.6478674713
 30
0.0
 10
10.415802383
 20
12.6479321199
 30
0.0
  0
SPLINE
  5
43C
100
AcDbEntity
  8
0
100
AcDbSpline
 62
7
  6
CONTINUOUS
 70
0
 71
3
 72
26
 73
22
 74
0
 42
0.0000001
 43
0.0000001
 44
0.0000000001
 40
0.0
 40
0.0
 40
0.0
 40
0.0
 40
0.1895897338
 40
0.3714901529
 40
0.4574919443
 40
0.5391424432
 40
0.615713731
 40
0.6865304225
 40
0.7509905768
 40
0.8085582504
 40
0.8588042127
 40
0.8810792769
 40
0.9014213267
 40
0.9198176241
 40
0.9362725176
 40
0.9508212443
 40
0.9635323506
 40
0.9745263293
 40
0.9840133506
 40
0.9923352057
 40
1.0
 40
1.0
 40
1.0
 40
1.0
 10
11.1165131167
 20
12.5778919912
 30
0.0
 10
11.1149291202
 20
12.5822204595
 30
0.0
 10
11.1119532316
 20
12.5907492411
 30
0.0
 10
11.1086211574
 20
12.6013630323
 30
0.0
 10
11.106298099
 20
12.6095379518
 30
0.0
 10
11.104788458
 20
12.6152806983
 30
0.0
 10
11.1034921757
 20
12.6206964971
 30
0.0
 10
11.1024213589
 20
12.625734926
 30
0.0
 10
11.1015849798
 20
12.6303489607
 30
0.0
 10
11.1009907671
 20
12.6344958556
 30
0.0
 10
11.1006887139
 20
12.6376459133
 30
0.0
 10
11.1005849879
 20
12.6399016041
 30
0.0
 10
11.1005735973
 20
12.6413853156
 30
0.0
 10
11.1006251666
 20
12.6427267285
 30
0.0
 10
11.1007397228
 20
12.6439230436
 30
0.0
 10
11.100916821
 20
12.6449721141
 30
0.0
 10
11.1011562526
 20
12.6458725564
 30
0.0
 10
11.1014587049
 20
12.6466235433
 30
0.0
 10
11.1018262768
 20
12.6472246235
 30
0.0
 10
11.1022623438
 20
12.6476732463
 30
0.0
 10
11.1026070397
 20
12.6478674657
 30
0.0
 10
11.1027818062
 20
12.6479321189
 30
0.0
  0
SPLINE
  5
43D
100
AcDbEntity
  8
0
100
AcDbSpline
 62
7
  6
CONTINUOUS
 70
0
 71
3
 72
43
 73
39
 74
0
 42
0.0000001
 43
0.0000001
 44
0.0000000001
 40
0.0
 40
0.0
 40
0.0
 40
0.0
 40
0.113748815
 40
0.2217355872
 40
0.323718047
 40
0.419452203
 40
0.5087040082
 40
0.5912415746
 40
0.6668309844
 40
0.7352414328
 40
0.7962424763
 40
0.8238925933
 40
0.849608524
 40
0.8733675508
 40
0.895146902
 40
0.9149237492
 40
0.9326752249
 40
0.9483813391
 40
0.9620284878
 40
0.9680759605
 40
0.9736039017
 40
0.9786107128
 40
0.9830947941
 40
0.9870545449
 40
0.9904883638
 40
0.9933946717
 40
0.9957725963
 40
0.9967633974
 40
0.9976220912
 40
0.9983486775
 40
0.9989431565
 40
0.9994055283
 40
0.9995871739
 40
0.9997357927
 40
0.9998513847
 40
0.99993395
 40
0.9999834884
 40
1.0
 40
1.0
 40
1.0
 40
1.0
 10
11.1667352478
 20
12.6215220434
 30
0.0
 10
11.1696343435
 20
12.6231348642
 30
0.0
 10
11.1752683175
 20
12.6263101339
 30
0.0
 10
11.1834430822
 20
12.6310340342
 30
0.0
 10
11.191117174
 20
12.6355732948
 30
0.0
 10
11.1982800354
 20
12.6399027723
 30
0.0
 10
11.2049212491
 20
12.643998307
 30
0.0
 10
11.2110307574
 20
12.6478362127
 30
0.0
 10
11.2165989459
 20
12.6513927527
 30
0.0
 10
11.2216154245
 20
12.654645892
 30
0.0
 10
11.2254431506
 20
12.6571622509
 30
0.0
 10
11.2282227558
 20
12.6590060866
 30
0.0
 10
11.2300940885
 20
12.6602542153
 30
0.0
 10
11.2318202132
 20
12.6614114661
 30
0.0
 10
11.2334001016
 20
12.6624757751
 30
0.0
 10
11.2348327167
 20
12.6634450919
 30
0.0
 10
11.2361171061
 20
12.6643173943
 30
0.0
 10
11.2372524944
 20
12.6650908862
 30
0.0
 10
11.2381049649
 20
12.6656733784
 30
0.0
 10
11.2387119197
 20
12.6660890091
 30
0.0
 10
11.2391107858
 20
12.6663625049
 30
0.0
 10
11.2394719047
 20
12.6666104217
 30
0.0
 10
11.2397952028
 20
12.666832619
 30
0.0
 10
11.240080607
 20
12.667028956
 30
0.0
 10
11.2403280427
 20
12.6671992946
 30
0.0
 10
11.240537458
 20
12.6673435027
 30
0.0
 10
11.2406881915
 20
12.6674472958
 30
0.0
 10
11.2407897398
 20
12.6675172222
 30
0.0
 10
11.2408516186
 20
12.6675598298
 30
0.0
 10
11.2409039838
 20
12.6675958933
 30
0.0
 10
11.240946811
 20
12.6676253691
 30
0.0
 10
11.2409765914
 20
12.6676459089
 30
0.0
 10
11.2409955855
 20
12.6676589369
 30
0.0
 10
11.2410063923
 20
12.6676664849
 30
0.0
 10
11.2410144727
 20
12.6676717736
 30
0.0
 10
11.2410209874
 20
12.6676768821
 30
0.0
 10
11.2410235671
 20
12.6676775663
 30
0.0
 10
11.2410261787
 20
12.6676804947
 30
0.0
 10
11.2410261546
 20
12.6676800138
 30
0.0
  0
LINE
  5
43E
100
AcDbEntity
  8
0
100
AcDbLine
 62
7
  6
CONTINUOUS
 10
11.1676418107
 20
12.5778919906
 11
11.1667352478
 21
12.6215220434
  0
SPLINE
  5
43F
100
AcDbEntity
  8
0
100
AcDbSpline
 62
7
  6
CONTINUOUS
 70
0
 71
3
 72
11
 73
7
 74
0
 42
0.0000001
 43
0.0000001
 44
0.0000000001
 40
0.0
 40
0.0
 40
0.0
 40
0.0
 40
0.2500026979
 40
0.5000038334
 40
0.7500030767
 40
1.0
 40
1.0
 40
1.0
 40
1.0
 10
11.2514429681
 20
8.3513485191
 30
0.0
 10
11.244725714
 20
8.703569493
 30
0.0
 10
11.2311828448
 20
9.4080071783
 30
0.0
 10
11.2104946702
 20
10.464652688
 30
0.0
 10
11.1893732284
 20
11.5212814933
 30
0.0
 10
11.1749531523
 20
12.2256909869
 30
0.0
 10
11.1676418107
 20
12.5778919906
 30
0.0
  0
SPLINE
  5
440
100
AcDbEntity
  8
0
100
AcDbSpline
 62
7
  6
CONTINUOUS
 70
0
 71
3
 72
11
 73
7
 74
0
 42
0.0000001
 43
0.0000001
 44
0.0000000001
 40
0.0
 40
0.0
 40
0.0
 40
0.0
 40
0.2499969253
 40
0.499996169
 40
0.7499973029
 40
1.0
 40
1.0
 40
1.0
 40
1.0
 10
10.3509426054
 20
12.5778920251
 30
0.0
 10
10.3436312678
 20
12.2256910147
 30
0.0
 10
10.3292109138
 20
11.521281516
 30
0.0
 10
10.3080894023
 20
10.4646526998
 30
0.0
 10
10.2874013257
 20
9.40800718
 30
0.0
 10
10.2738584266
 20
8.7035694913
 30
0.0
 10
10.2671411694
 20
8.351348515
 30
0.0
  0
LINE
  5
441
100
AcDbEntity
  8
0
100
AcDbLine
 62
7
  6
CONTINUOUS
 10
10.3518489025
 20
12.621522003
 11
10.3509426054
 21
12.5778920251
  0
SPLINE
  5
442
100
AcDbEntity
  8
0
100
AcDbSpline
 62
7
  6
CONTINUOUS
 70
0
 71
3
 72
11
 73
7
 74
0
 42
0.0000001
 43
0.0000001
 44
0.0000000001
 40
0.0
 40
0.0
 40
0.0
 40
0.0
 40
0.2480490497
 40
0.4977453494
 40
0.7485812657
 40
1.0
 40
1.0
 40
1.0
 40
1.0
 10
10.311887432
 20
8.3513485041
 30
0.0
 10
10.3483207424
 20
8.3435490723
 30
0.0
 10
10.4218726629
 20
8.329898642
 30
0.0
 10
10.5334136369
 20
8.3152970822
 30
0.0
 10
10.6460703039
 20
8.3065213108
 30
0.0
 10
10.72152713
 20
8.3045703738
 30
0.0
 10
10.7592920688
 20
8.3045703651
 30
0.0
  0
SPLINE
  5
443
100
AcDbEntity
  8
0
100
AcDbSpline
 62
7
  6
CONTINUOUS
 70
0
 71
3
 72
11
 73
7
 74
0
 42
0.0000001
 43
0.0000001
 44
0.0000000001
 40
0.0
 40
0.0
 40
0.0
 40
0.0
 40
0.251418738
 40
0.5022546537
 40
0.7519509507
 40
1.0
 40
1.0
 40
1.0
 40
1.0
 10
10.7592920688
 20
8.3045703651
 30
0.0
 10
10.797057008
 20
8.3045703699
 30
0.0
 10
10.872513834
 20
8.3065213212
 30
0.0
 10
10.9851705023
 20
8.3152970757
 30
0.0
 10
11.096711473
 20
8.3298986537
 30
0.0
 10
11.1702633968
 20
8.3435490638
 30
0.0
 10
11.2066967056
 20
8.3513485023
 30
0.0
  0
SPLINE
  5
444
100
AcDbEntity
  8
0
100
AcDbSpline
 62
7
  6
CONTINUOUS
 70
0
 71
3
 72
32
 73
28
 74
0
 42
0.0000001
 43
0.0000001
 44
0.0000000001
 40
0.0
 40
0.0
 40
0.0
 40
0.0
 40
0.0142766127
 40
0.0287679158
 40
0.0436785592
 40
0.0591958411
 40
0.0754847337
 40
0.092685349
 40
0.1109147377
 40
0.1302694154
 40
0.1508267803
 40
0.1726477104
 40
0.1957805758
 40
0.2202633857
 40
0.2461237139
 40
0.2733812098
 40
0.3020499519
 40
0.3321388492
 40
0.3636506061
 40
0.3965841961
 40
0.4666951354
 40
0.5424055652
 40
0.6236056435
 40
0.710149492
 40
0.8018657247
 40
0.898555093
 40
1.0
 40
1.0
 40
1.0
 40
1.0
 10
11.5467920688
 20
11.2742333796
 30
0.0
 10
11.5467920688
 20
11.2756670118
 30
0.0
 10
11.546608249
 20
11.278559056
 30
0.0
 10
11.5457845928
 20
11.2828777595
 30
0.0
 10
11.5444149819
 20
11.287186192
 30
0.0
 10
11.5425024453
 20
11.2914795195
 30
0.0
 10
11.5400503067
 20
11.2957550539
 30
0.0
 10
11.5370623178
 20
11.3000108102
 30
0.0
 10
11.5335414627
 20
11.3042449855
 30
0.0
 10
11.5294903162
 20
11.3084555078
 30
0.0
 10
11.524911843
 20
11.3126403829
 30
0.0
 10
11.5198093472
 20
11.3167976224
 30
0.0
 10
11.5141860658
 20
11.3209248519
 30
0.0
 10
11.5080454216
 20
11.32501937
 30
0.0
 10
11.5013915571
 20
11.32907878
 30
0.0
 10
11.494228958
 20
11.3331005614
 30
0.0
 10
11.4865622562
 20
11.3370820018
 30
0.0
 10
11.4783964337
 20
11.3410202334
 30
0.0
 10
11.4697371146
 20
11.3449128829
 30
0.0
 10
11.4572795204
 20
11.3501484031
 30
0.0
 10
11.4404961731
 20
11.3565312293
 30
0.0
 10
11.4188900351
 20
11.3638172785
 30
0.0
 10
11.3954751779
 20
11.3708604302
 30
0.0
 10
11.3703153308
 20
11.3776417174
 30
0.0
 10
11.343478565
 20
11.3841414935
 30
0.0
 10
11.315038197
 20
11.3903422732
 30
0.0
 10
11.2955131716
 20
11.3941759044
 30
0.0
 10
11.2854993473
 20
11.3960458309
 30
0.0
  0
SPLINE
  5
445
100
AcDbEntity
  8
0
100
AcDbSpline
 62
7
  6
CONTINUOUS
 70
0
 71
3
 72
15
 73
11
 74
0
 42
0.0000001
 43
0.0000001
 44
0.0000000001
 40
0.0
 40
0.0
 40
0.0
 40
0.0
 40
0.1526894103
 40
0.2983586641
 40
0.4340039487
 40
0.5598854476
 40
0.6776008572
 40
0.7889789419
 40
0.89587818
 40
1.0
 40
1.0
 40
1.0
 40
1.0
 10
10.2447168232
 20
14.5657338817
 30
0.0
 10
10.2458517591
 20
14.5649309059
 30
0.0
 10
10.2478944985
 20
14.5630961742
 30
0.0
 10
10.2501855375
 20
14.5598396649
 30
0.0
 10
10.2516527429
 20
14.55640711
 30
0.0
 10
10.2523769429
 20
14.5530102298
 30
0.0
 10
10.2524659824
 20
14.5497621165
 30
0.0
 10
10.2520063431
 20
14.5467212472
 30
0.0
 10
10.2510571248
 20
14.5439277531
 30
0.0
 10
10.2501148879
 20
14.5422385902
 30
0.0
 10
10.2495774344
 20
14.5414576004
 30
0.0
  0
SPLINE
  5
446
100
AcDbEntity
  8
0
100
AcDbSpline
 62
7
  6
CONTINUOUS
 70
0
 71
3
 72
16
 73
12
 74
0
 42
0.0000001
 43
0.0000001
 44
0.0000000001
 40
0.0
 40
0.0
 40
0.0
 40
0.0
 40
0.104850093
 40
0.2123570807
 40
0.3240966938
 40
0.4418656733
 40
0.567388133
 40
0.7022419624
 40
0.8470201628
 40
0.9227887405
 40
1.0
 40
1.0
 40
1.0
 40
1.0
 10
11.2690067031
 20
14.5414576004
 30
0.0
 10
11.2684861418
 20
14.5422139493
 30
0.0
 10
11.2675696048
 20
14.543845368
 30
0.0
 10
11.266629064
 20
14.5465374452
 30
0.0
 10
11.2661453152
 20
14.5494636016
 30
0.0
 10
11.2661693992
 20
14.5525879175
 30
0.0
 10
11.2667777441
 20
14.5558613321
 30
0.0
 10
11.2680660514
 20
14.559189878
 30
0.0
 10
11.2697570628
 20
14.5618322088
 30
0.0
 10
11.2714963034
 20
14.5637804912
 30
0.0
 10
11.2724969759
 20
14.5646764032
 30
0.0
 10
11.2730249581
 20
14.5650987808
 30
0.0
  0
SPLINE
  5
447
100
AcDbEntity
  8
0
100
AcDbSpline
 62
7
  6
CONTINUOUS
 70
0
 71
3
 72
39
 73
35
 74
0
 42
0.0000001
 43
0.0000001
 44
0.0000000001
 40
0.0
 40
0.0
 40
0.0
 40
0.0
 40
0.1466505951
 40
0.2927515507
 40
0.3653746741
 40
0.4375522896
 40
0.5091241814
 40
0.5798662283
 40
0.6494749375
 40
0.7175100473
 40
0.7507360031
 40
0.7832964213
 40
0.8150308159
 40
0.8457571699
 40
0.8752139219
 40
0.9030633629
 40
0.9288568924
 40
0.9407991694
 40
0.9519964301
 40
0.9623300527
 40
0.9716728853
 40
0.9798978533
 40
0.9868787753
 40
0.9898634674
 40
0.9924900455
 40
0.994742855
 40
0.9966085182
 40
0.9980769244
 40
0.9986590752
 40
0.9991382143
 40
0.9995131092
 40
0.999782527
 40
0.9999452349
 40
1.0
 40
1.0
 40
1.0
 40
1.0
 10
11.3569332554
 20
14.4104004125
 30
0.0
 10
11.3589558488
 20
14.406898982
 30
0.0
 10
11.3629294981
 20
14.3998720981
 30
0.0
 10
11.3677298536
 20
14.3910140818
 30
0.0
 10
11.3714557489
 20
14.3839107705
 30
0.0
 10
11.3741796165
 20
14.3786026934
 30
0.0
 10
11.3768328344
 20
14.3733169299
 30
0.0
 10
11.3794079767
 20
14.3680714878
 30
0.0
 10
11.3818948668
 20
14.3628916104
 30
0.0
 10
11.3838976117
 20
14.3586269762
 30
0.0
 10
11.385445247
 20
14.3552773287
 30
0.0
 10
11.3865631131
 20
14.3528317378
 30
0.0
 10
11.3876428927
 20
14.3504445422
 30
0.0
 10
11.3886783302
 20
14.3481312368
 30
0.0
 10
11.389661614
 20
14.3459119688
 30
0.0
 10
11.3905820951
 20
14.3438136589
 30
0.0
 10
11.39130293
 20
14.3421551359
 30
0.0
 10
11.391838162
 20
14.3409165973
 30
0.0
 10
11.3922032709
 20
14.3400689214
 30
0.0
 10
11.3925389964
 20
14.3392866312
 30
0.0
 10
11.3928413623
 20
14.3385792091
 30
0.0
 10
11.3931061994
 20
14.3379562827
 30
0.0
 10
11.3933016569
 20
14.3374943614
 30
0.0
 10
11.3934367956
 20
14.337174533
 30
0.0
 10
11.3935212016
 20
14.3369747978
 30
0.0
 10
11.3935937001
 20
14.3368035268
 30
0.0
 10
11.3936539347
 20
14.3366617453
 30
0.0
 10
11.3936962338
 20
14.3365623872
 30
0.0
 10
11.3937236698
 20
14.3364982653
 30
0.0
 10
11.393739163
 20
14.3364618058
 30
0.0
 10
11.3937515759
 20
14.3364334643
 30
0.0
 10
11.3937598666
 20
14.3364127148
 30
0.0
 10
11.3937660284
 20
14.3364009139
 30
0.0
 10
11.3937675073
 20
14.3363948524
 30
0.0
 10
11.3937684796
 20
14.336393697
 30
0.0
  0
SPLINE
  5
448
100
AcDbEntity
  8
0
100
AcDbSpline
 62
7
  6
CONTINUOUS
 70
0
 71
3
 72
42
 73
38
 74
0
 42
0.0000001
 43
0.0000001
 44
0.0000000001
 40
0.0
 40
0.0
 40
0.0
 40
0.0
 40
0.114095573
 40
0.1683510697
 40
0.2206449331
 40
0.2709087646
 40
0.3190798743
 40
0.3650992071
 40
0.4089162081
 40
0.4504854694
 40
0.4897696341
 40
0.5267415967
 40
0.5613824107
 40
0.5936881076
 40
0.6236687102
 40
0.651353114
 40
0.6767964515
 40
0.7000832929
 40
0.7213419987
 40
0.740754966
 40
0.7585741751
 40
0.7751374664
 40
0.7830860719
 40
0.7908875911
 40
0.7986068193
 40
0.8063106434
 40
0.8140663481
 40
0.8219398905
 40
0.8299942102
 40
0.838287681
 40
0.8557869037
 40
0.8748104872
 40
0.8956291497
 40
0.9184393616
 40
0.9433811349
 40
0.9705476196
 40
1.0
 40
1.0
 40
1.0
 40
1.0
 10
10.2336750303
 20
11.4120589753
 30
0.0
 10
10.2166132615
 20
11.4092463176
 30
0.0
 10
10.191488221
 20
11.4047776292
 30
0.0
 10
10.158704312
 20
11.3981787526
 30
0.0
 10
10.1354821573
 20
11.3931171759
 30
0.0
 10
10.1132480608
 20
11.3878681037
 30
0.0
 10
10.0920370009
 20
11.3824402543
 30
0.0
 10
10.0718824685
 20
11.3768417216
 30
0.0
 10
10.0528160899
 20
11.3710820176
 30
0.0
 10
10.0348677575
 20
11.3651701327
 30
0.0
 10
10.0180655595
 20
11.3591152721
 30
0.0
 10
10.0024354332
 20
11.3529276914
 30
0.0
 10
9.9880016168
 20
11.3466163812
 30
0.0
 10
9.9747859066
 20
11.3401917423
 30
0.0
 10
9.9628079949
 20
11.3336634549
 30
0.0
 10
9.9520856091
 20
11.3270404768
 30
0.0
 10
9.942633426
 20
11.3203326004
 30
0.0
 10
9.9344649737
 20
11.3135465789
 30
0.0
 10
9.9275914627
 20
11.3066891456
 30
0.0
 10
9.922023883
 20
11.2997633925
 30
0.0
 10
9.917777125
 20
11.292772605
 30
0.0
 10
9.9153206267
 20
11.286810357
 30
0.0
 10
9.9140754662
 20
11.2820677823
 30
0.0
 10
9.9134912247
 20
11.2785537413
 30
0.0
 10
9.9132449503
 20
11.2750371618
 30
0.0
 10
9.9133367314
 20
11.2715200412
 30
0.0
 10
9.9137665166
 20
11.2680046201
 30
0.0
 10
9.9145339384
 20
11.2644930429
 30
0.0
 10
9.9156383502
 20
11.2609871511
 30
0.0
 10
9.9175927084
 20
11.2562385034
 30
0.0
 10
9.9209366838
 20
11.2502942719
 30
0.0
 10
9.9262034576
 20
11.2433546195
 30
0.0
 10
9.9327797465
 20
11.2364810958
 30
0.0
 10
9.9406530998
 20
11.2296782782
 30
0.0
 10
9.9498131514
 20
11.2229519699
 30
0.0
 10
9.9602462698
 20
11.216308926
 30
0.0
 10
9.9677363717
 20
11.2121125522
 30
0.0
 10
9.9716800678
 20
11.2100215804
 30
0.0
  0
SPLINE
  5
449
100
AcDbEntity
  8
0
100
AcDbSpline
 62
7
  6
CONTINUOUS
 70
0
 71
3
 72
42
 73
38
 74
0
 42
0.0000001
 43
0.0000001
 44
0.0000000001
 40
0.0
 40
0.0
 40
0.0
 40
0.0
 40
0.0294523804
 40
0.0566188651
 40
0.0815606384
 40
0.1043708504
 40
0.1251895128
 40
0.1442130963
 40
0.161712319
 40
0.1700057898
 40
0.1780601095
 40
0.1859336519
 40
0.1936893566
 40
0.2013931807
 40
0.2091124088
 40
0.2169139281
 40
0.2248625336
 40
0.2414258249
 40
0.259245034
 40
0.2786580013
 40
0.2999167071
 40
0.3232035485
 40
0.348646886
 40
0.3763312897
 40
0.4063118923
 40
0.4386175892
 40
0.4732584033
 40
0.5102303659
 40
0.5495145306
 40
0.5910837919
 40
0.6349007929
 40
0.6809201257
 40
0.7290912354
 40
0.7793550669
 40
0.8316489303
 40
0.885904427
 40
1.0
 40
1.0
 40
1.0
 40
1.0
 10
11.5469040697
 20
11.2100215804
 30
0.0
 10
11.5508477658
 20
11.2121125522
 30
0.0
 10
11.5583378677
 20
11.216308926
 30
0.0
 10
11.5687709861
 20
11.2229519699
 30
0.0
 10
11.5779310377
 20
11.2296782782
 30
0.0
 10
11.585804391
 20
11.2364810957
 30
0.0
 10
11.5923806799
 20
11.2433546195
 30
0.0
 10
11.5976474537
 20
11.2502942719
 30
0.0
 10
11.6009914291
 20
11.2562385034
 30
0.0
 10
11.6029457873
 20
11.2609871511
 30
0.0
 10
11.6040501991
 20
11.2644930429
 30
0.0
 10
11.604817621
 20
11.2680046201
 30
0.0
 10
11.6052474061
 20
11.2715200412
 30
0.0
 10
11.6053391872
 20
11.2750371618
 30
0.0
 10
11.6050929128
 20
11.2785537413
 30
0.0
 10
11.6045086713
 20
11.2820677823
 30
0.0
 10
11.6032635109
 20
11.286810357
 30
0.0
 10
11.6008070125
 20
11.292772605
 30
0.0
 10
11.5965602545
 20
11.2997633925
 30
0.0
 10
11.5909926748
 20
11.3066891456
 30
0.0
 10
11.5841191638
 20
11.3135465789
 30
0.0
 10
11.5759507115
 20
11.3203326004
 30
0.0
 10
11.5664985283
 20
11.3270404768
 30
0.0
 10
11.5557761426
 20
11.3336634549
 30
0.0
 10
11.5437982308
 20
11.3401917423
 30
0.0
 10
11.5305825206
 20
11.3466163812
 30
0.0
 10
11.5161487042
 20
11.3529276915
 30
0.0
 10
11.5005185779
 20
11.3591152722
 30
0.0
 10
11.4837163799
 20
11.3651701328
 30
0.0
 10
11.4657680474
 20
11.3710820176
 30
0.0
 10
11.4467016689
 20
11.3768417217
 30
0.0
 10
11.4265471364
 20
11.3824402543
 30
0.0
 10
11.4053360765
 20
11.3878681038
 30
0.0
 10
11.38310198
 20
11.393117176
 30
0.0
 10
11.3598798252
 20
11.3981787527
 30
0.0
 10
11.3270959163
 20
11.4047776293
 30
0.0
 10
11.3019708758
 20
11.4092463176
 30
0.0
 10
11.2849091069
 20
11.4120589753
 30
0.0
  0
SPLINE
  5
44A
100
AcDbEntity
  8
0
100
AcDbSpline
 62
7
  6
CONTINUOUS
 70
0
 71
3
 72
32
 73
28
 74
0
 42
0.0000001
 43
0.0000001
 44
0.0000000001
 40
0.0
 40
0.0
 40
0.0
 40
0.0
 40
0.101444907
 40
0.1981342753
 40
0.289850508
 40
0.3763943565
 40
0.4575944348
 40
0.5333048646
 40
0.6034158039
 40
0.6363493939
 40
0.6678611508
 40
0.6979500481
 40
0.7266187902
 40
0.7538762861
 40
0.7797366143
 40
0.8042194242
 40
0.8273522896
 40
0.8491732197
 40
0.8697305846
 40
0.8890852623
 40
0.907314651
 40
0.9245152663
 40
0.9408041589
 40
0.9563214408
 40
0.9712320842
 40
0.9857233873
 40
1.0
 40
1.0
 40
1.0
 40
1.0
 10
10.2330847903
 20
11.3960458309
 30
0.0
 10
10.2230709659
 20
11.3941759044
 30
0.0
 10
10.2035459405
 20
11.3903422732
 30
0.0
 10
10.1751055725
 20
11.3841414935
 30
0.0
 10
10.1482688067
 20
11.3776417174
 30
0.0
 10
10.1231089597
 20
11.3708604302
 30
0.0
 10
10.0996941025
 20
11.3638172785
 30
0.0
 10
10.0780879645
 20
11.3565312293
 30
0.0
 10
10.0613046172
 20
11.3501484031
 30
0.0
 10
10.0488470229
 20
11.3449128829
 30
0.0
 10
10.0401877038
 20
11.3410202334
 30
0.0
 10
10.0320218813
 20
11.3370820018
 30
0.0
 10
10.0243551795
 20
11.3331005614
 30
0.0
 10
10.0171925804
 20
11.32907878
 30
0.0
 10
10.0105387159
 20
11.32501937
 30
0.0
 10
10.0043980717
 20
11.3209248519
 30
0.0
 10
9.9987747903
 20
11.3167976224
 30
0.0
 10
9.9936722945
 20
11.3126403829
 30
0.0
 10
9.9890938214
 20
11.3084555078
 30
0.0
 10
9.9850426748
 20
11.3042449855
 30
0.0
 10
9.9815218198
 20
11.3000108102
 30
0.0
 10
9.9785338308
 20
11.2957550539
 30
0.0
 10
9.9760816922
 20
11.2914795195
 30
0.0
 10
9.9741691556
 20
11.287186192
 30
0.0
 10
9.9727995448
 20
11.2828777595
 30
0.0
 10
9.9719758885
 20
11.278559056
 30
0.0
 10
9.9717920688
 20
11.2756670118
 30
0.0
 10
9.9717920688
 20
11.2742333796
 30
0.0
  0
SPLINE
  5
44B
100
AcDbEntity
  8
0
100
AcDbSpline
 62
7
  6
CONTINUOUS
 70
0
 71
3
 72
33
 73
29
 74
0
 42
0.0000001
 43
0.0000001
 44
0.0000000001
 40
0.0
 40
0.0
 40
0.0
 40
0.0
 40
0.1015320666
 40
0.1988676633
 40
0.2916521874
 40
0.3795570755
 40
0.4622805569
 40
0.5395528978
 40
0.5760726789
 40
0.6111458135
 40
0.6447502563
 40
0.6768679471
 40
0.707483201
 40
0.7365850996
 40
0.7641685025
 40
0.7902325586
 40
0.8147833712
 40
0.8378361676
 40
0.859414569
 40
0.8795541391
 40
0.8983064608
 40
0.9157403659
 40
0.9319473952
 40
0.9470482409
 40
0.961195848
 40
0.9745800031
 40
0.9874285065
 40
1.0
 40
1.0
 40
1.0
 40
1.0
 10
10.2399050446
 20
11.5903176746
 30
0.0
 10
10.2223627772
 20
11.5880700739
 30
0.0
 10
10.1880409902
 20
11.5833656238
 30
0.0
 10
10.1378490603
 20
11.5754926462
 30
0.0
 10
10.0901712404
 20
11.566975389
 30
0.0
 10
10.045199716
 20
11.5578495125
 30
0.0
 10
10.003115851
 20
11.5481524156
 30
0.0
 10
9.9699968275
 20
11.539473556
 30
0.0
 10
9.9450939938
 20
11.5322411682
 30
0.0
 10
9.9275947513
 20
11.5268011914
 30
0.0
 10
9.9109371681
 20
11.5212486525
 30
0.0
 10
9.895137806
 20
11.515589442
 30
0.0
 10
9.8802125718
 20
11.509829054
 30
0.0
 10
9.8661763842
 20
11.5039731977
 30
0.0
 10
9.853042954
 20
11.4980281755
 30
0.0
 10
9.840825303
 20
11.4919996684
 30
0.0
 10
9.8295354643
 20
11.485893382
 30
0.0
 10
9.8191840191
 20
11.4797156683
 30
0.0
 10
9.8097808735
 20
11.4734720529
 30
0.0
 10
9.8013350827
 20
11.4671676774
 30
0.0
 10
9.7938540617
 20
11.4608081748
 30
0.0
 10
9.7873449178
 20
11.4543978907
 30
0.0
 10
9.7818148335
 20
11.4479402216
 30
0.0
 10
9.7772700736
 20
11.4414388583
 30
0.0
 10
9.7737185033
 20
11.4348968815
 30
0.0
 10
9.7711704655
 20
11.4283176908
 30
0.0
 10
9.7696354605
 20
11.4217114604
 30
0.0
 10
9.7692920688
 20
11.4172764375
 30
0.0
 10
9.7692920688
 20
11.4150866341
 30
0.0
  0
SPLINE
  5
44C
100
AcDbEntity
  8
0
100
AcDbSpline
 62
7
  6
CONTINUOUS
 70
0
 71
3
 72
38
 73
34
 74
0
 42
0.0000001
 43
0.0000001
 44
0.0000000001
 40
0.0
 40
0.0
 40
0.0
 40
0.0
 40
0.0969626739
 40
0.1903147228
 40
0.2800370409
 40
0.3660989862
 40
0.4484322004
 40
0.5269217723
 40
0.6013775518
 40
0.6715337007
 40
0.7370008672
 40
0.7678283888
 40
0.7972787275
 40
0.8252636991
 40
0.8516891102
 40
0.8764365727
 40
0.8993795528
 40
0.9203856569
 40
0.9393034376
 40
0.9559763804
 40
0.9634199961
 40
0.9702390461
 40
0.9764114632
 40
0.9819152931
 40
0.9867301957
 40
0.9908396407
 40
0.9942286442
 40
0.9956489917
 40
0.9968848664
 40
0.9979357177
 40
0.9988022666
 40
0.9994875539
 40
1.0
 40
1.0
 40
1.0
 40
1.0
 10
10.2568091857
 20
12.0749085343
 30
0.0
 10
10.2382088728
 20
12.0835499711
 30
0.0
 10
10.2021118581
 20
12.1014121198
 30
0.0
 10
10.1503141177
 20
12.1301870474
 30
0.0
 10
10.101828663
 20
12.1600546078
 30
0.0
 10
10.056593803
 20
12.1906548144
 30
0.0
 10
10.0145420462
 20
12.221640528
 30
0.0
 10
9.9756204773
 20
12.2526716467
 30
0.0
 10
9.9397920612
 20
12.2833993197
 30
0.0
 10
9.9070517038
 20
12.3134548047
 30
0.0
 10
9.8818778476
 20
12.338077896
 30
0.0
 10
9.8632927184
 20
12.3571061433
 30
0.0
 10
9.8504420505
 20
12.3706499172
 30
0.0
 10
9.8384147582
 20
12.3836887911
 30
0.0
 10
9.8272325214
 20
12.3961516059
 30
0.0
 10
9.8169205729
 20
12.4079604569
 30
0.0
 10
9.8075091125
 20
12.4190320481
 30
0.0
 10
9.7990321781
 20
12.4292780578
 30
0.0
 10
9.7915296457
 20
12.4386073831
 30
0.0
 10
9.7859318401
 20
12.4457859192
 30
0.0
 10
9.7819777701
 20
12.4509997752
 30
0.0
 10
9.7793992093
 20
12.4544689643
 30
0.0
 10
9.7770998136
 20
12.4576341487
 30
0.0
 10
9.7750857477
 20
12.4604823039
 30
0.0
 10
9.7733625359
 20
12.4630013378
 30
0.0
 10
9.7719369965
 20
12.4651813369
 30
0.0
 10
9.7709501007
 20
12.4667897367
 30
0.0
 10
9.7703208931
 20
12.4679030616
 30
0.0
 10
9.769955851
 20
12.4685972384
 30
0.0
 10
9.7696695356
 20
12.4691998293
 30
0.0
 10
9.7694618965
 20
12.4697103914
 30
0.0
 10
9.7693329049
 20
12.4701277887
 30
0.0
 10
9.7692923735
 20
12.4703803207
 30
0.0
 10
9.7692923674
 20
12.4704887139
 30
0.0
  0
SPLINE
  5
44D
100
AcDbEntity
  8
0
100
AcDbSpline
 62
7
  6
CONTINUOUS
 70
0
 71
3
 72
39
 73
35
 74
0
 42
0.0000001
 43
0.0000001
 44
0.0000000001
 40
0.0
 40
0.0
 40
0.0
 40
0.0
 40
0.0000548148
 40
0.0002175463
 40
0.0004869646
 40
0.0008618402
 40
0.0013409432
 40
0.0019230441
 40
0.0033913217
 40
0.0052568381
 40
0.0075095457
 40
0.0101362146
 40
0.0131211757
 40
0.0201030489
 40
0.0283293217
 40
0.0376736065
 40
0.0480085796
 40
0.0592068218
 40
0.0711484182
 40
0.0969370277
 40
0.124786717
 40
0.1542469749
 40
0.1849753932
 40
0.2167067058
 40
0.2492638031
 40
0.2824893084
 40
0.350527181
 40
0.4201365041
 40
0.4908779938
 40
0.5624490721
 40
0.6346263909
 40
0.7072494361
 40
0.8533498853
 40
1.0
 40
1.0
 40
1.0
 40
1.0
 10
10.1248156579
 20
14.336393697
 30
0.0
 10
10.1248166157
 20
14.3363948662
 30
0.0
 10
10.1248181328
 20
14.3364008986
 30
0.0
 10
10.1248242575
 20
14.3364127321
 30
0.0
 10
10.1248325665
 20
14.3364334657
 30
0.0
 10
10.1248449664
 20
14.3364618147
 30
0.0
 10
10.1248604581
 20
14.3364982703
 30
0.0
 10
10.124887884
 20
14.3365623908
 30
0.0
 10
10.1249301734
 20
14.3366617428
 30
0.0
 10
10.1249903975
 20
14.3368035177
 30
0.0
 10
10.1250628923
 20
14.3369747855
 30
0.0
 10
10.1251472985
 20
14.3371745283
 30
0.0
 10
10.1252824525
 20
14.3374943895
 30
0.0
 10
10.1254779531
 20
14.3379563682
 30
0.0
 10
10.1257428877
 20
14.3385793644
 30
0.0
 10
10.1260454144
 20
14.3392868409
 30
0.0
 10
10.1263812796
 20
14.3400691847
 30
0.0
 10
10.1267464269
 20
14.3409168937
 30
0.0
 10
10.1272814251
 20
14.3421553945
 30
0.0
 10
10.1280017747
 20
14.3438139677
 30
0.0
 10
10.1289223444
 20
14.3459122049
 30
0.0
 10
10.1299062953
 20
14.3481313529
 30
0.0
 10
10.1309418422
 20
14.3504446834
 30
0.0
 10
10.1320210088
 20
14.3528320245
 30
0.0
 10
10.1331382674
 20
14.355277686
 30
0.0
 10
10.1346858784
 20
14.3586273155
 30
0.0
 10
10.136689322
 20
14.3628917121
 30
0.0
 10
10.1391767172
 20
14.368071431
 30
0.0
 10
10.1417516306
 20
14.3733169604
 30
0.0
 10
10.144404355
 20
14.3786029212
 30
0.0
 10
10.1471281853
 20
14.3839109824
 30
0.0
 10
10.1508542592
 20
14.3910141736
 30
0.0
 10
10.1556548006
 20
14.3998720528
 30
0.0
 10
10.1596282411
 20
14.4068990246
 30
0.0
 10
10.1616508821
 20
14.4104004125
 30
0.0
  0
SPLINE
  5
44E
100
AcDbEntity
  8
0
100
AcDbSpline
 62
7
  6
CONTINUOUS
 70
0
 71
3
 72
44
 73
40
 74
0
 42
0.0000001
 43
0.0000001
 44
0.0000000001
 40
0.0
 40
0.0
 40
0.0
 40
0.0
 40
0.0930236297
 40
0.1392695891
 40
0.1851916384
 40
0.2756540072
 40
0.3635832103
 40
0.4063469881
 40
0.4481802832
 40
0.4889885432
 40
0.5286811161
 40
0.567169785
 40
0.6043709383
 40
0.6402039544
 40
0.6745937509
 40
0.7074689684
 40
0.7387648641
 40
0.768421439
 40
0.7963867796
 40
0.8226153344
 40
0.8470719218
 40
0.8697306074
 40
0.8905799428
 40
0.9003273738
 40
0.9096256921
 40
0.9184789787
 40
0.9268928298
 40
0.9348748632
 40
0.9424355991
 40
0.9495883748
 40
0.9563497453
 40
0.96274031
 40
0.968785837
 40
0.9745175086
 40
0.9799725052
 40
0.9851946514
 40
0.9902346917
 40
0.9951493541
 40
1.0
 40
1.0
 40
1.0
 40
1.0
 10
10.7592920688
 20
4.7914508891
 30
0.0
 10
10.7335612273
 20
4.7914508891
 30
0.0
 10
10.6950369457
 20
4.7910593316
 30
0.0
 10
10.6438280604
 20
4.7897478336
 30
0.0
 10
10.5933434515
 20
4.7879285254
 30
0.0
 10
10.5313752783
 20
4.784716671
 30
0.0
 10
10.4703635397
 20
4.7802016618
 30
0.0
 10
10.4228416539
 20
4.7758280563
 30
0.0
 10
10.3883407812
 20
4.772222642
 30
0.0
 10
10.3547331367
 20
4.7682701227
 30
0.0
 10
10.3220996273
 20
4.7639805804
 30
0.0
 10
10.2905187123
 20
4.7593638921
 30
0.0
 10
10.2600663859
 20
4.7544318789
 30
0.0
 10
10.2308158014
 20
4.7491959336
 30
0.0
 10
10.2028372591
 20
4.7436694624
 30
0.0
 10
10.1761978632
 20
4.7378652774
 30
0.0
 10
10.15096146
 20
4.7317982602
 30
0.0
 10
10.1271883953
 20
4.7254824993
 30
0.0
 10
10.1049352932
 20
4.7189342224
 30
0.0
 10
10.0842550559
 20
4.7121685998
 30
0.0
 10
10.0651960988
 20
4.7052029959
 30
0.0
 10
10.0478035828
 20
4.6980533039
 30
0.0
 10
10.0344465094
 20
4.6918247584
 30
0.0
 10
10.0246507261
 20
4.6867405008
 30
0.0
 10
10.017911673
 20
4.6829777626
 30
0.0
 10
10.0116181307
 20
4.6791818732
 30
0.0
 10
10.0057738227
 20
4.6753548862
 30
0.0
 10
10.0003822901
 20
4.6714987607
 30
0.0
 10
9.9954464597
 20
4.667615753
 30
0.0
 10
9.990969036
 20
4.6637079155
 30
0.0
 10
9.9869526907
 20
4.6597771244
 30
0.0
 10
9.9834001166
 20
4.6558249699
 30
0.0
 10
9.9803134157
 20
4.6518533293
 30
0.0
 10
9.9776947623
 20
4.6478638593
 30
0.0
 10
9.9755466672
 20
4.6438581576
 30
0.0
 10
9.9738721043
 20
4.6398380651
 30
0.0
 10
9.9726733924
 20
4.635806004
 30
0.0
 10
9.9719527972
 20
4.631765934
 30
0.0
 10
9.9717920688
 20
4.6290621476
 30
0.0
 10
9.9717920688
 20
4.6277204326
 30
0.0
  0
SPLINE
  5
44F
100
AcDbEntity
  8
0
100
AcDbSpline
 62
7
  6
CONTINUOUS
 70
0
 71
3
 72
35
 73
31
 74
0
 42
0.0000001
 43
0.0000001
 44
0.0000000001
 40
0.0
 40
0.0
 40
0.0
 40
0.0
 40
0.0315925866
 40
0.0631892468
 40
0.0947763352
 40
0.126351958
 40
0.1894455696
 40
0.2524645179
 40
0.2839487612
 40
0.3154070073
 40
0.3468372512
 40
0.3782377559
 40
0.4409255021
 40
0.503480824
 40
0.5347171551
 40
0.5659197186
 40
0.5970890012
 40
0.6282257437
 40
0.6593310719
 40
0.6904063496
 40
0.7214533015
 40
0.7524738651
 40
0.7834702994
 40
0.8144450433
 40
0.8454008028
 40
0.8763404247
 40
0.9072669567
 40
0.9381835427
 40
0.9690934513
 40
1.0
 40
1.0
 40
1.0
 40
1.0
 10
10.7592920688
 20
1.9491982201
 30
0.0
 10
10.7464095577
 20
1.9491982201
 30
0.0
 10
10.7206385748
 20
1.9498176078
 30
0.0
 10
10.682077835
 20
1.9525987053
 30
0.0
 10
10.6437003572
 20
1.9572288216
 30
0.0
 10
10.592926339
 20
1.9658456157
 30
0.0
 10
10.5303691814
 20
1.9811682489
 30
0.0
 10
10.4696121414
 20
2.0024293777
 30
0.0
 10
10.4224722243
 20
2.0228681287
 30
0.0
 10
10.3879331883
 20
2.0398723448
 30
0.0
 10
10.3542889485
 20
2.0585145337
 30
0.0
 10
10.3107617954
 20
2.0854733284
 30
0.0
 10
10.2589673329
 20
2.1230375989
 30
0.0
 10
10.2111363421
 20
2.165434767
 30
0.0
 10
10.1755731941
 20
2.2019702455
 30
0.0
 10
10.1503149171
 20
2.2306101406
 30
0.0
 10
10.1265241448
 20
2.2604273054
 30
0.0
 10
10.1042577333
 20
2.2913508909
 30
0.0
 10
10.083569057
 20
2.3233058502
 30
0.0
 10
10.0645086134
 20
2.3562157012
 30
0.0
 10
10.047121512
 20
2.3900006522
 30
0.0
 10
10.0314506879
 20
2.4245798394
 30
0.0
 10
10.0175327383
 20
2.4598694103
 30
0.0
 10
10.0054025628
 20
2.495784869
 30
0.0
 10
9.9950879205
 20
2.5322391646
 30
0.0
 10
9.9866153063
 20
2.5691449391
 30
0.0
 10
9.9800034103
 20
2.6064127691
 30
0.0
 10
9.9752700167
 20
2.6439535093
 30
0.0
 10
9.9724246233
 20
2.6816751958
 30
0.0
 10
9.9717922376
 20
2.7068866903
 30
0.0
 10
9.9717922376
 20
2.7194894557
 30
0.0
  0
SPLINE
  5
450
100
AcDbEntity
  8
0
100
AcDbSpline
 62
7
  6
CONTINUOUS
 70
0
 71
3
 72
27
 73
23
 74
0
 42
0.0000001
 43
0.0000001
 44
0.0000000001
 40
0.0
 40
0.0
 40
0.0
 40
0.0
 40
0.0315970192
 40
0.0631987776
 40
0.0947910564
 40
0.1263714737
 40
0.1894746627
 40
0.2525033464
 40
0.2839924061
 40
0.3154554985
 40
0.3468905703
 40
0.3782959112
 40
0.4409932995
 40
0.5035582459
 40
0.5659878664
 40
0.6282844756
 40
0.6904555306
 40
0.7525133728
 40
0.8144747724
 40
0.8763602924
 40
0.9381934912
 40
1.0
 40
1.0
 40
1.0
 40
1.0
 10
10.7592920688
 20
2.042758481
 30
0.0
 10
10.7464097307
 20
2.042758481
 30
0.0
 10
10.7206388252
 20
2.0433779366
 30
0.0
 10
10.6820780188
 20
2.0461589508
 30
0.0
 10
10.6437003312
 20
2.0507890882
 30
0.0
 10
10.5929262412
 20
2.059405839
 30
0.0
 10
10.5303691707
 20
2.0747285715
 30
0.0
 10
10.4696120983
 20
2.0959895055
 30
0.0
 10
10.4224722735
 20
2.1164285082
 30
0.0
 10
10.3879331403
 20
2.1334324738
 30
0.0
 10
10.3542889816
 20
2.1520749625
 30
0.0
 10
10.3107618957
 20
2.1790332163
 30
0.0
 10
10.2589656958
 20
2.2165996292
 30
0.0
 10
10.2016101965
 20
2.26743747
 30
0.0
 10
10.1496199928
 20
2.3235339831
 30
0.0
 10
10.1035005012
 20
2.3843470717
 30
0.0
 10
10.0636956877
 20
2.4492920482
 30
0.0
 10
10.0305901362
 20
2.5177435678
 30
0.0
 10
10.0045035454
 20
2.5890415374
 30
0.0
 10
9.9856880191
 20
2.6625015127
 30
0.0
 10
9.9743254351
 20
2.737405341
 30
0.0
 10
9.9717920688
 20
2.7878507465
 30
0.0
 10
9.9717920688
 20
2.8130497165
 30
0.0
  0
SPLINE
  5
451
100
AcDbEntity
  8
0
100
AcDbSpline
 62
7
  6
CONTINUOUS
 70
0
 71
3
 72
51
 73
47
 74
0
 42
0.0000001
 43
0.0000001
 44
0.0000000001
 40
0.0
 40
0.0
 40
0.0
 40
0.0
 40
0.0000093526
 40
0.0000370956
 40
0.0000832115
 40
0.0001476826
 40
0.0002304913
 40
0.00033162
 40
0.0005887667
 40
0.000918982
 40
0.0013221251
 40
0.0017980551
 40
0.0023466315
 40
0.0036610058
 40
0.0052620709
 40
0.0071453793
 40
0.0093064655
 40
0.0117408679
 40
0.0144437174
 40
0.0206307954
 40
0.027819031
 40
0.0359572763
 40
0.04498915
 40
0.0548578716
 40
0.0655067296
 40
0.0768792525
 40
0.0889205259
 40
0.1015802042
 40
0.128560684
 40
0.1574651671
 40
0.1879795334
 40
0.2198456303
 40
0.2528407059
 40
0.2867827355
 40
0.3215136234
 40
0.3569084694
 40
0.392857312
 40
0.429273983
 40
0.4660814217
 40
0.5406218228
 40
0.616100168
 40
0.6922381465
 40
0.7688341121
 40
0.8457330898
 40
0.922825965
 40
1.0
 40
1.0
 40
1.0
 40
1.0
 10
10.2257852633
 20
14.5668855433
 30
0.0
 10
10.2257861054
 20
14.5668872907
 30
0.0
 10
10.2257912539
 20
14.5668931523
 30
0.0
 10
10.2258006542
 20
14.5669075657
 30
0.0
 10
10.2258177383
 20
14.566930666
 30
0.0
 10
10.2258409592
 20
14.5669633516
 30
0.0
 10
10.2258710712
 20
14.5670051645
 30
0.0
 10
10.2259244215
 20
14.5670794756
 30
0.0
 10
10.2260078188
 20
14.5671953888
 30
0.0
 10
10.2261278564
 20
14.5673621027
 30
0.0
 10
10.2262745348
 20
14.5675655509
 30
0.0
 10
10.2264478259
 20
14.5678056435
 30
0.0
 10
10.2267319442
 20
14.5681988223
 30
0.0
 10
10.2271532192
 20
14.5687807956
 30
0.0
 10
10.2277379662
 20
14.5695861784
 30
0.0
 10
10.2284275674
 20
14.5705324454
 30
0.0
 10
10.229221102
 20
14.5716168301
 30
0.0
 10
10.2301175945
 20
14.5728364938
 30
0.0
 10
10.231512914
 20
14.5747257986
 30
0.0
 10
10.2335052526
 20
14.5773998696
 30
0.0
 10
10.2361940101
 20
14.5809607801
 30
0.0
 10
10.2392675161
 20
14.5849703537
 30
0.0
 10
10.2427156917
 20
14.5893929953
 30
0.0
 10
10.2465275218
 20
14.5941920859
 30
0.0
 10
10.2506915193
 20
14.5993310427
 30
0.0
 10
10.2551961384
 20
14.6047734827
 30
0.0
 10
10.2600305664
 20
14.6104837615
 30
0.0
 10
10.2670516529
 20
14.6185833337
 30
0.0
 10
10.2765664867
 20
14.6291484072
 30
0.0
 10
10.2889087022
 20
14.6421428628
 30
0.0
 10
10.3023311243
 20
14.6554990539
 30
0.0
 10
10.3167605037
 20
14.6690344379
 30
0.0
 10
10.3321351591
 20
14.682587369
 30
0.0
 10
10.348388848
 20
14.6960261217
 30
0.0
 10
10.3654667231
 20
14.7092314593
 30
0.0
 10
10.3833100349
 20
14.7221080134
 30
0.0
 10
10.4018703086
 20
14.7345667681
 30
0.0
 10
10.421094339
 20
14.7465394453
 30
0.0
 10
10.4476601007
 20
14.7618298353
 30
0.0
 10
10.4822449925
 20
14.7793806026
 30
0.0
 10
10.5255094745
 20
14.7976007038
 30
0.0
 10
10.5703740225
 20
14.8128119351
 30
0.0
 10
10.6165045778
 20
14.824820433
 30
0.0
 10
10.6635800881
 20
14.8334905328
 30
0.0
 10
10.7112783179
 20
14.8387270597
 30
0.0
 10
10.743285959
 20
14.839894912
 30
0.0
 10
10.7592920688
 20
14.8398949181
 30
0.0
  0
SPLINE
  5
452
100
AcDbEntity
  8
0
100
AcDbSpline
 62
7
  6
CONTINUOUS
 70
0
 71
3
 72
51
 73
47
 74
0
 42
0.0000001
 43
0.0000001
 44
0.0000000001
 40
0.0
 40
0.0
 40
0.0
 40
0.0
 40
0.0771738915
 40
0.154266705
 40
0.2311655345
 40
0.3077613398
 40
0.3838992177
 40
0.4593774812
 40
0.5339177029
 40
0.5707251007
 40
0.6071417418
 40
0.6430906676
 40
0.6784856886
 40
0.7132165381
 40
0.747158231
 40
0.7801532491
 40
0.8120203646
 40
0.8425352204
 40
0.8714387329
 40
0.8984195339
 40
0.9110799405
 40
0.92312161
 40
0.9344937902
 40
0.9451418856
 40
0.9550099467
 40
0.9640416515
 40
0.9721803953
 40
0.9793698235
 40
0.9825921218
 40
0.9855577484
 40
0.9882603953
 40
0.9906939979
 40
0.9928539655
 40
0.994736233
 40
0.9963367299
 40
0.9976513974
 40
0.9982004705
 40
0.9986770209
 40
0.9990808103
 40
0.9994116004
 40
0.9996691528
 40
0.9998532292
 40
0.9999176393
 40
0.9999635911
 40
0.9999910545
 40
1.0
 40
1.0
 40
1.0
 40
1.0
 10
10.7592920688
 20
14.8398949181
 30
0.0
 10
10.7752981603
 20
14.839894669
 30
0.0
 10
10.8073057348
 20
14.8387261703
 30
0.0
 10
10.8550040197
 20
14.8334907545
 30
0.0
 10
10.902079607
 20
14.8248210444
 30
0.0
 10
10.94820985
 20
14.8128115734
 30
0.0
 10
10.9930744812
 20
14.7976007728
 30
0.0
 10
11.0363389869
 20
14.7793807924
 30
0.0
 10
11.0709237817
 20
14.7618299063
 30
0.0
 10
11.0974894629
 20
14.7465394401
 30
0.0
 10
11.1167135738
 20
14.7345668593
 30
0.0
 10
11.135273977
 20
14.7221081825
 30
0.0
 10
11.1531174044
 20
14.7092316841
 30
0.0
 10
11.1701952947
 20
14.6960264026
 30
0.0
 10
11.1864486836
 20
14.6825873989
 30
0.0
 10
11.2018232974
 20
14.6690342128
 30
0.0
 10
11.2162533488
 20
14.6554990962
 30
0.0
 10
11.2296763172
 20
14.6421432598
 30
0.0
 10
11.24201786
 20
14.6291481851
 30
0.0
 10
11.2515326363
 20
14.618583039
 30
0.0
 10
11.2585543456
 20
14.6104836002
 30
0.0
 10
11.2633890792
 20
14.6047733589
 30
0.0
 10
11.2678934686
 20
14.5993309112
 30
0.0
 10
11.2720569349
 20
14.5941919888
 30
0.0
 10
11.2758683134
 20
14.5893929564
 30
0.0
 10
11.2793164168
 20
14.5849703409
 30
0.0
 10
11.2823902525
 20
14.5809606196
 30
0.0
 10
11.2847089448
 20
14.577890348
 30
0.0
 10
11.2863699667
 20
14.5756679867
 30
0.0
 10
11.287469458
 20
14.5741877134
 30
0.0
 10
11.2884677231
 20
14.5728360261
 30
0.0
 10
11.2893638149
 20
14.5716166122
 30
0.0
 10
11.2901567547
 20
14.5705325523
 30
0.0
 10
11.2908457693
 20
14.5695865544
 30
0.0
 10
11.2914301372
 20
14.5687812398
 30
0.0
 10
11.2918513555
 20
14.5681991509
 30
0.0
 10
11.2921356451
 20
14.5678057628
 30
0.0
 10
11.2923092157
 20
14.5675653549
 30
0.0
 10
11.2924560925
 20
14.5673617713
 30
0.0
 10
11.2925766366
 20
14.5671944727
 30
0.0
 10
11.2926696863
 20
14.5670654291
 30
0.0
 10
11.2927321971
 20
14.566978274
 30
0.0
 10
11.2927662572
 20
14.5669313576
 30
0.0
 10
11.292785596
 20
14.5669038094
 30
0.0
 10
11.2927909443
 20
14.5668975809
 30
0.0
 10
11.292800104
 20
14.5668836573
 30
0.0
 10
11.292799285
 20
14.566885322
 30
0.0
  0
ENDSEC
  0
SECTION
  2
OBJECTS
  0
DICTIONARY
  5
C
100
AcDbDictionary
280
0
281
1
  3
ACAD_GROUP
350
D
  3
ACAD_MLINESTYLE
350
17
  3
ACAD_LAYOUT
350
1A
  3
ACAD_PLOTSETTINGS
350
19
  3
ACAD_PLOTSTYLENAME
350
E
  0
DICTIONARY
  5
D
102
{ACAD_REACTORS
330
C
102
}
100
AcDbDictionary
280
0
281
1
  0
ACDBDICTIONARYWDFLT
  5
E
102
{ACAD_REACTORS
330
C
102
}
100
AcDbDictionary
281
1
  3
Normal
350
F
100
AcDbDictionaryWithDefault
340
F
  0
DICTIONARY
  5
17
102
{ACAD_REACTORS
330
C
102
}
100
AcDbDictionary
280
0
281
1
  3
Standard
350
18
  0
DICTIONARY
  5
19
102
{ACAD_REACTORS
330
C
102
}
100
AcDbDictionary
281
1
  0
DICTIONARY
  5
1A
102
{ACAD_REACTORS
330
C
102
}
100
AcDbDictionary
281
1
  3
Model
350
453
  3
Layout1
350
454
  0
ACDBPLACEHOLDER
  5
F
102
{ACAD_REACTORS
330
E
102
}
  0
MLINESTYLE
  5
18
102
{ACAD_REACTORS
330
17
102
}
100
AcDbMlineStyle
  2
STANDARD
 70
0
  3

 62
256
 51
90.0
 52
90.0
 71
2
 49
0.5
 62
256
  6
BYLAYER
 49
-0.5
 62
256
  6
BYLAYER
  0
LAYOUT
  5
453
102
{ACAD_REACTORS
330
1A
102
}
100
AcDbPlotSettings
  1

  2
none_device
  4
ANSI_C_(22.00_x_17.00_Inches)
  6

 40
0.0
 41
0.0
 42
0.0
 43
0.0
 44
558.8
 45
431.8
 46
0.0
 47
0.0
 48
0.0
 49
0.0
140
0.0
141
0.0
142
1.0
143
1.0
 70
1024
 72
0
 73
0
 74
0
  7

 75
0
147
1.0
148
0.0
149
0.0
100
AcDbLayout
  1
Model
 70
0
 71
0
 10
0.0
 20
0.0
 11
22.0
 21
17.0
 12
0.0
 22
0.0
 32
0.0
 14
0.0
 24
0.0
 34
0.0
 15
0.0
 25
0.0
 35
0.0
146
0.0
 13
0.0
 23
0.0
 33
0.0
 16
1.0
 26
0.0
 36
0.0
 17
0.0
 27
1.0
 37
0.0
 76
0
330
202
345
0
346
0
  0
LAYOUT
  5
454
102
{ACAD_REACTORS
330
1A
102
}
100
AcDbPlotSettings
  1

  2
none_device
  4
ANSI_C_(22.00_x_17.00_Inches)
  6

 40
0.0
 41
0.0
 42
0.0
 43
0.0
 44
558.8
 45
431.8
 46
0.0
 47
0.0
 48
0.0
 49
0.0
140
0.0
141
0.0
142
1.0
143
1.0
 70
0
 72
0
 73
0
 74
0
  7

 75
0
147
1.0
148
0.0
149
0.0
100
AcDbLayout
  1
Layout1
 70
0
 71
1
 10
0.0
 20
0.0
 11
22.0
 21
17.0
 12
0.0
 22
0.0
 32
0.0
 14
0.0
 24
0.0
 34
0.0
 15
0.0
 25
0.0
 35
0.0
146
0.0
 13
0.0
 23
0.0
 33
0.0
 16
1.0
 26
0.0
 36
0.0
 17
0.0
 27
1.0
 37
0.0
 76
0
330
203
345
0
346
0
  0
ENDSEC
  0
EOF
