999
DXF file: 1623_FRONT.dxf
999
Pro/ENGINEER 2018400 by Parametric Technology Corporation
  0
SECTION
  2
HEADER
  9
$ACADVER
  1
AC1027
  9
$DWGCODEPAGE
  3
ANSI_1252
  9
$EXTMAX
 10
11.0
 20
8.5
 30
0.0
  9
$EXTMIN
 10
0.0
 20
0.0
 30
0.0
  9
$LIMMIN
 10
0.0
 20
0.0
  9
$LIMMAX
 10
11.0
 20
8.5
  9
$VIEWCTR
 10
5.5
 20
4.25
  9
$VIEWSIZE
 40
8.5
  9
$CLAYER
  8
0
  9
$LTSCALE
 40
0.605
  9
$CELTYPE
  6
BYLAYER
  9
$DIMSCALE
 40
1.0
  9
$DIMASZ
 40
0.1
  9
$DIMEXO
 40
0.0625
  9
$DIMDLI
 40
0.418
  9
$DIMEXE
 40
0.125
  9
$DIMCEN
 40
0.099
  9
$DIMLFAC
 40
1.0
  9
$DIMBLK
  1
_FILLED
  9
$DIMALT
 70
1
  9
$DIMALTD
 70
2
  9
$DIMALTTD
 70
2
  9
$DIMALTF
 40
25.4
  9
$DIMTXT
 40
0.08
  9
$DIMTOL
 70
1
  9
$DIMLIM
 70
0
  9
$DIMTFAC
 40
1.0
  9
$DIMTP
 40
0.001
  9
$DIMTM
 40
0.001
  9
$DIMGAP
 40
0.09
  9
$DIMDSEP
 70
46
  9
$AUNITS
 70
0
  9
$PDMODE
 70
3
  9
$PDSIZE
 40
0.3125
  9
$HANDSEED
  5
656
  9
$TILEMODE
 70
1
  9
$MEASUREMENT
 70
0
  9
$INSUNITS
 70
1
  0
ENDSEC
  0
SECTION
  2
CLASSES
  0
CLASS
  1
ACDBDICTIONARYWDFLT
  2
AcDbDictionaryWithDefault
  3
AutoCAD 2000
 90
0
 91
1
280
0
281
0
  0
CLASS
  1
ACDBPLACEHOLDER
  2
AcDbPlaceHolder
  3
AutoCAD 2000
 90
0
 91
1
280
0
281
0
  0
CLASS
  1
LAYOUT
  2
AcDbLayout
  3
AutoCAD 2000
 90
0
 91
0
280
0
281
0
  0
ENDSEC
  0
SECTION
  2
TABLES
  0
TABLE
  2
VPORT
  5
8
100
AcDbSymbolTable
 70
2
  0
VPORT
  5
1F4
100
AcDbSymbolTableRecord
100
AcDbViewportTableRecord
  2
*ACTIVE
 70
0
 10
0.0
 20
0.0
 11
1.0
 21
1.0
 12
5.5
 22
4.25
 13
0.0
 23
0.0
 14
1.0
 24
1.0
 15
0.0
 25
0.0
 16
0.0
 26
0.0
 36
1.0
 17
0.0
 27
0.0
 37
0.0
 40
8.5
 41
1.2941176471
 42
50.0
 43
0.0
 44
0.0
 50
0.0
 51
0.0
 71
0
 72
100
 73
1
 74
1
 75
0
 76
0
 77
0
 78
0
  0
ENDTAB
  0
TABLE
  2
LTYPE
  5
5
100
AcDbSymbolTable
 70
6
  0
LTYPE
  5
14
100
AcDbSymbolTableRecord
100
AcDbLinetypeTableRecord
  2
BYBLOCK
 70
0
  3

 72
65
 73
0
 40
0.0
  0
LTYPE
  5
15
100
AcDbSymbolTableRecord
100
AcDbLinetypeTableRecord
  2
BYLAYER
 70
0
  3

 72
65
 73
0
 40
0.0
  0
LTYPE
  5
16
100
AcDbSymbolTableRecord
100
AcDbLinetypeTableRecord
  2
CONTINUOUS
 70
64
  3
Solid line
 72
65
 73
0
 40
0.0
  0
LTYPE
  5
1F5
100
AcDbSymbolTableRecord
100
AcDbLinetypeTableRecord
  2
CENTER
 70
64
  3
____ _ ____ _ ____ _ ____ _ ____ _ ____ _ ____
 72
65
 73
4
 40
0.6
 49
0.375
 74
0
 49
-0.075
 74
0
 49
0.075
 74
0
 49
-0.075
 74
0
  0
LTYPE
  5
1F6
100
AcDbSymbolTableRecord
100
AcDbLinetypeTableRecord
  2
HIDDEN
 70
64
  3
- - - - - - - - - - - - - - - - - - - -
 72
65
 73
2
 40
0.2
 49
0.1
 74
0
 49
-0.1
 74
0
  0
LTYPE
  5
1F7
100
AcDbSymbolTableRecord
100
AcDbLinetypeTableRecord
  2
PHANTOM
 70
64
  3
_____ _ _ _____ _ _ _____ _ _ _____
 72
65
 73
6
 40
0.8
 49
0.45
 74
0
 49
-0.05
 74
0
 49
0.1
 74
0
 49
-0.05
 74
0
 49
0.1
 74
0
 49
-0.05
 74
0
  0
LTYPE
  5
1F8
100
AcDbSymbolTableRecord
100
AcDbLinetypeTableRecord
  2
DOT
 70
64
  3
. . . . . . . . . . . . . . . . . . . .
 72
65
 73
2
 40
0.2
 49
0.1
 74
0
 49
-0.1
 74
0
  0
LTYPE
  5
1F9
100
AcDbSymbolTableRecord
100
AcDbLinetypeTableRecord
  2
DASHED
 70
64
  3
- - - - - - - - - - - - - - - - - - - -
 72
65
 73
2
 40
0.2
 49
0.1
 74
0
 49
-0.1
 74
0
  0
ENDTAB
  0
TABLE
  2
LAYER
  5
2
100
AcDbSymbolTable
 70
36
  0
LAYER
  5
10
100
AcDbSymbolTableRecord
100
AcDbLayerTableRecord
  2
0
 70
0
 62
7
  6
CONTINUOUS
370
-3
390
F
  0
LAYER
  5
1FA
100
AcDbSymbolTableRecord
100
AcDbLayerTableRecord
  2
DEFAULT_1
 70
0
 62
7
  6
CENTER
370
-3
390
F
  0
LAYER
  5
1FB
100
AcDbSymbolTableRecord
100
AcDbLayerTableRecord
  2
DEFAULT_2
 70
0
 62
8
  6
HIDDEN
370
-3
390
F
  0
LAYER
  5
1FC
100
AcDbSymbolTableRecord
100
AcDbLayerTableRecord
  2
DEFAULT_3
 70
0
 62
7
  6
PHANTOM
370
-3
390
F
  0
LAYER
  5
1FD
100
AcDbSymbolTableRecord
100
AcDbLayerTableRecord
  2
DEFAULT_COORDINATE_SYSTEM
 70
0
 62
7
  6
CONTINUOUS
370
-3
390
F
  0
LAYER
  5
1FE
100
AcDbSymbolTableRecord
100
AcDbLayerTableRecord
  2
DEFAULT_DATUM_AXES
 70
0
 62
7
  6
CONTINUOUS
370
-3
390
F
  0
LAYER
  5
1FF
100
AcDbSymbolTableRecord
100
AcDbLayerTableRecord
  2
DEFAULT_DATUM_PLANES
 70
0
 62
7
  6
CONTINUOUS
370
-3
390
F
  0
ENDTAB
  0
TABLE
  2
STYLE
  5
3
100
AcDbSymbolTable
 70
1
  0
STYLE
  5
11
100
AcDbSymbolTableRecord
100
AcDbTextStyleTableRecord
  2
STANDARD
 70
0
 40
0.0
 41
0.8
 50
0.0
 71
0
 42
0.2
  3
txt
  4

  0
STYLE
  5
200
100
AcDbSymbolTableRecord
100
AcDbTextStyleTableRecord
  2
TEXTSTYLE_1
 70
0
 40
0.0
 41
0.8
 50
0.0
 71
0
 42
0.2
  3
gdt
  4

  0
ENDTAB
  0
TABLE
  2
VIEW
  5
6
100
AcDbSymbolTable
 70
0
  0
ENDTAB
  0
TABLE
  2
UCS
  5
7
100
AcDbSymbolTable
 70
0
  0
ENDTAB
  0
TABLE
  2
APPID
  5
9
100
AcDbSymbolTable
 70
1
  0
APPID
  5
201
100
AcDbSymbolTableRecord
100
AcDbRegAppTableRecord
  2
ACAD
 70
0
  0
ENDTAB
  0
TABLE
  2
BLOCK_RECORD
  5
1
100
AcDbSymbolTable
 70
0
  0
BLOCK_RECORD
  5
202
100
AcDbSymbolTableRecord
100
AcDbBlockTableRecord
  2
*Model_Space
  0
BLOCK_RECORD
  5
203
100
AcDbSymbolTableRecord
100
AcDbBlockTableRecord
  2
*Paper_Space
  0
BLOCK_RECORD
  5
204
100
AcDbSymbolTableRecord
100
AcDbBlockTableRecord
  2
_FILLED
  0
ENDTAB
  0
TABLE
  2
DIMSTYLE
  5
A
100
AcDbSymbolTable
 70
1
100
AcDbDimStyleTable
 71
0
  0
DIMSTYLE
105
205
100
AcDbSymbolTableRecord
100
AcDbDimStyleTableRecord
  2
STANDARD
 70
0
  3

  4

 40
1.0
 41
0.1
 42
0.0625
 43
0.38
 44
0.125
 45
0.0
 46
0.0
 47
0.001
 48
0.001
140
0.08
141
0.09
142
0.0
143
25.4
144
1.0
145
0.0
146
1.0
147
0.09
 71
1.0
 72
0.0
 73
1
 74
1
 75
0
 76
0
 77
0
 78
4
 79
1
170
1
171
2
172
0
173
0
174
0
175
0
176
0
177
0
178
0
270
2
179
3
271
3
272
3
273
2
274
2
275
0
280
0
281
0
282
0
283
1
284
4
285
0
286
0
287
3
288
0
340
11
278
46
341
204
342
204
343
204
344
204
  0
ENDTAB
  0
ENDSEC
  0
SECTION
  2
BLOCKS
  0
BLOCK
  5
20
100
AcDbEntity
  8
0
100
AcDbBlockBegin
  2
*Model_Space
 70
0
 10
0.0
 20
0.0
 30
0.0
  3
*Model_Space
  1

  0
ENDBLK
  5
21
100
AcDbEntity
  8
0
100
AcDbBlockEnd
  0
BLOCK
  5
1C
100
AcDbEntity
  8
0
100
AcDbBlockBegin
  2
*Paper_Space
 70
0
 10
0.0
 20
0.0
 30
0.0
  3
*Paper_Space
  1

  0
ENDBLK
  5
1D
100
AcDbEntity
  8
0
100
AcDbBlockEnd
  0
BLOCK
  5
206
100
AcDbEntity
  8
0
100
AcDbBlockBegin
  2
_FILLED
 70
64
 10
0.0
 20
0.0
  3
_FILLED
  1

  0
SOLID
  5
207
100
AcDbEntity
  8
0
  6
BYBLOCK
 62
0
100
AcDbTrace
 10
0.0
 20
0.0
 11
-1.0
 21
0.2
 12
-1.0
 22
-0.2
 13
-1.0
 23
-0.2
  0
ENDBLK
  5
208
100
AcDbEntity
  8
0
  6
BYBLOCK
 62
0
100
AcDbBlockEnd
  0
ENDSEC
  0
SECTION
  2
ENTITIES
  0
MTEXT
  5
209
100
AcDbEntity
  8
0
100
AcDbMText
 62
2
  6
CONTINUOUS
  7
STANDARD
 71
3
 72
1
 10
5.3616459627
 20
1.8817042669
 30
0.0
 11
1.0
 21
0.0
 31
0.0
 73
2
 44
0.9
  1
SCALE  .500
 40
0.08
 41
0.704
  0
LINE
  5
20A
100
AcDbEntity
  8
0
100
AcDbLine
 62
7
  6
CONTINUOUS
 10
0.0
 20
0.0
 11
0.0
 21
8.5
  0
LINE
  5
20B
100
AcDbEntity
  8
0
100
AcDbLine
 62
7
  6
CONTINUOUS
 10
0.0
 20
0.0
 11
11.0
 21
0.0
  0
LINE
  5
20C
100
AcDbEntity
  8
0
100
AcDbLine
 62
7
  6
CONTINUOUS
 10
0.0
 20
8.5
 11
11.0
 21
8.5
  0
LINE
  5
20D
100
AcDbEntity
  8
0
100
AcDbLine
 62
7
  6
CONTINUOUS
 10
11.0
 20
0.0
 11
11.0
 21
8.5
  0
LINE
  5
20E
100
AcDbEntity
  8
0
100
AcDbLine
 62
7
  6
CONTINUOUS
 10
4.33337774
 20
3.0028300433
 11
5.3983769184
 21
3.0028300433
  0
LINE
  5
20F
100
AcDbEntity
  8
0
100
AcDbLine
 62
7
  6
CONTINUOUS
 10
5.3983773292
 20
3.0657589754
 11
4.3333773292
 21
3.0657589754
  0
LINE
  5
210
100
AcDbEntity
  8
0
100
AcDbLine
 62
7
  6
CONTINUOUS
 10
5.3969128631
 20
3.0692945093
 11
4.3348417953
 21
3.0692945093
  0
LINE
  5
211
100
AcDbEntity
  8
0
100
AcDbLine
 62
7
  6
CONTINUOUS
 10
4.3544128631
 20
3.0888655772
 11
5.3773417953
 21
3.0888655772
  0
LINE
  5
212
100
AcDbEntity
  8
0
100
AcDbLine
 62
7
  6
CONTINUOUS
 10
4.3558773292
 20
3.0924011111
 11
5.3758773292
 21
3.0924011111
  0
LINE
  5
213
100
AcDbEntity
  8
0
100
AcDbLine
 62
7
  6
CONTINUOUS
 10
4.3334208569
 20
3.1708300433
 11
4.3334153587
 21
3.1708300433
  0
LINE
  5
214
100
AcDbEntity
  8
0
100
AcDbLine
 62
7
  6
CONTINUOUS
 10
5.3983392997
 20
3.1708300433
 11
4.3334781997
 21
3.1708300433
  0
LINE
  5
215
100
AcDbEntity
  8
0
100
AcDbLine
 62
7
  6
CONTINUOUS
 10
5.3983338015
 20
3.2028300433
 11
5.3983392997
 21
3.2028300433
  0
LINE
  5
216
100
AcDbEntity
  8
0
100
AcDbLine
 62
7
  6
CONTINUOUS
 10
4.3334153587
 20
3.2028300433
 11
5.3982764587
 21
3.2028300433
  0
LINE
  5
217
100
AcDbEntity
  8
0
100
AcDbLine
 62
7
  6
CONTINUOUS
 10
4.4083773292
 20
3.2478300433
 11
5.3233773292
 21
3.2478300433
  0
LINE
  5
218
100
AcDbEntity
  8
0
100
AcDbLine
 62
7
  6
CONTINUOUS
 10
5.3233773292
 20
3.2746435014
 11
4.4083773292
 21
3.2746435014
  0
LINE
  5
219
100
AcDbEntity
  8
0
100
AcDbLine
 62
7
  6
CONTINUOUS
 10
5.3129365384
 20
3.2889338342
 11
4.41881812
 21
3.2889338342
  0
LINE
  5
21A
100
AcDbEntity
  8
0
100
AcDbLine
 62
7
  6
CONTINUOUS
 10
5.2051494049
 20
3.3535812822
 11
4.5266052535
 21
3.3535812822
  0
LINE
  5
21B
100
AcDbEntity
  8
0
100
AcDbLine
 62
7
  6
CONTINUOUS
 10
5.1946890387
 20
3.3578300433
 11
4.5370656197
 21
3.3578300433
  0
LWPOLYLINE
  5
21C
100
AcDbEntity
  8
0
100
AcDbPolyline
 62
7
  6
CONTINUOUS
 90
38
 70
0
 10
4.6686726998
 20
5.4831183465
 10
4.6684556108
 20
5.4830434274
 10
4.6676085745
 20
5.4827240767
 10
4.6667994385
 20
5.4823772464
 10
4.6660299729
 20
5.4820073825
 10
4.6652985991
 20
5.4816173768
 10
4.66460074
 20
5.4812079342
 10
4.6639358664
 20
5.4807814848
 10
4.6633041802
 20
5.4803408971
 10
4.6627024875
 20
5.4798864742
 10
4.6621298972
 20
5.4794197783
 10
4.6615866743
 20
5.4789432756
 10
4.6610715047
 20
5.4784580565
 10
4.6605834161
 20
5.4779653346
 10
4.660122371
 20
5.4774672258
 10
4.6596883444
 20
5.4769660033
 10
4.6592799247
 20
5.4764623572
 10
4.6588969985
 20
5.4759584963
 10
4.6585410265
 20
5.4754591126
 10
4.6582109612
 20
5.4749658686
 10
4.6579054226
 20
5.4744798547
 10
4.6576248016
 20
5.474005094
 10
4.6573680421
 20
5.4735435291
 10
4.6571332732
 20
5.4730955199
 10
4.6569194121
 20
5.4726627014
 10
4.6567253435
 20
5.4722466099
 10
4.6565493653
 20
5.4718473537
 10
4.6563896222
 20
5.4714642711
 10
4.6562450929
 20
5.4710983388
 10
4.6561144679
 20
5.470749612
 10
4.6559957641
 20
5.4704158696
 10
4.6558881184
 20
5.470097505
 10
4.6557906578
 20
5.4697946991
 10
4.65570172
 20
5.4695047749
 10
4.6556206695
 20
5.4692278855
 10
4.6555469092
 20
5.4689641623
 10
4.65547912
 20
5.4687108107
 10
4.6554229272
 20
5.4684919956
  0
LWPOLYLINE
  5
21D
100
AcDbEntity
  8
0
100
AcDbPolyline
 62
7
  6
CONTINUOUS
 90
22
 70
0
 10
4.6866360162
 20
6.1532422158
 10
4.6849160155
 20
6.1491794608
 10
4.6830105922
 20
6.1443803267
 10
4.6812217441
 20
6.1395356258
 10
4.6795501544
 20
6.1346478725
 10
4.6779965871
 20
6.1297198009
 10
4.6765618595
 20
6.1247543731
 10
4.675246652
 20
6.1197541756
 10
4.6740516436
 20
6.114721822
 10
4.6729775939
 20
6.1096603171
 10
4.6720251516
 20
6.1045722365
 10
4.6711949744
 20
6.0994601684
 10
4.6704877982
 20
6.0943271752
 10
4.6699044117
 20
6.0891763784
 10
4.6694455652
 20
6.0840103445
 10
4.669112031
 20
6.0788314613
 10
4.6689046442
 20
6.0736426074
 10
4.6688241038
 20
6.0684467257
 10
4.6688703456
 20
6.0632466186
 10
4.6690430512
 20
6.0580455606
 10
4.6693418709
 20
6.052847185
 10
4.6697031273
 20
6.0483406552
  0
LINE
  5
21E
100
AcDbEntity
  8
0
100
AcDbLine
 62
7
  6
CONTINUOUS
 10
5.3969128631
 20
3.0692945093
 11
5.3773417953
 21
3.0888655772
  0
LINE
  5
21F
100
AcDbEntity
  8
0
100
AcDbLine
 62
7
  6
CONTINUOUS
 10
4.3333773292
 20
3.0028300433
 11
4.3333773292
 21
3.0657589754
  0
LINE
  5
220
100
AcDbEntity
  8
0
100
AcDbLine
 62
7
  6
CONTINUOUS
 10
4.3334153587
 20
3.1708300433
 11
4.3334153587
 21
3.2028300433
  0
LINE
  5
221
100
AcDbEntity
  8
0
100
AcDbLine
 62
7
  6
CONTINUOUS
 10
4.3334781997
 20
3.1708300433
 11
4.3334781997
 21
3.2028300433
  0
LINE
  5
222
100
AcDbEntity
  8
0
100
AcDbLine
 62
7
  6
CONTINUOUS
 10
4.3338779934
 20
3.1708300433
 11
4.3338779934
 21
3.2028300433
  0
LINE
  5
223
100
AcDbEntity
  8
0
100
AcDbLine
 62
7
  6
CONTINUOUS
 10
4.3340664544
 20
3.1708300433
 11
4.3340664544
 21
3.2028300433
  0
LINE
  5
224
100
AcDbEntity
  8
0
100
AcDbLine
 62
7
  6
CONTINUOUS
 10
4.3348656472
 20
3.1708300433
 11
4.3348656472
 21
3.2028300433
  0
LINE
  5
225
100
AcDbEntity
  8
0
100
AcDbLine
 62
7
  6
CONTINUOUS
 10
4.3351795422
 20
3.1708300433
 11
4.3351795422
 21
3.2028300433
  0
LINE
  5
226
100
AcDbEntity
  8
0
100
AcDbLine
 62
7
  6
CONTINUOUS
 10
4.3363773454
 20
3.1708300433
 11
4.3363773454
 21
3.2028300433
  0
LINE
  5
227
100
AcDbEntity
  8
0
100
AcDbLine
 62
7
  6
CONTINUOUS
 10
4.3368163646
 20
3.1708300433
 11
4.3368163646
 21
3.2028300433
  0
LINE
  5
228
100
AcDbEntity
  8
0
100
AcDbLine
 62
7
  6
CONTINUOUS
 10
4.3384115962
 20
3.1708300433
 11
4.3384115962
 21
3.2028300433
  0
LINE
  5
229
100
AcDbEntity
  8
0
100
AcDbLine
 62
7
  6
CONTINUOUS
 10
4.3389753063
 20
3.1708300433
 11
4.3389753063
 21
3.2028300433
  0
LINE
  5
22A
100
AcDbEntity
  8
0
100
AcDbLine
 62
7
  6
CONTINUOUS
 10
4.340966392
 20
3.1708300433
 11
4.340966392
 21
3.2028300433
  0
LINE
  5
22B
100
AcDbEntity
  8
0
100
AcDbLine
 62
7
  6
CONTINUOUS
 10
4.3416542367
 20
3.1708300433
 11
4.3416542367
 21
3.2028300433
  0
LINE
  5
22C
100
AcDbEntity
  8
0
100
AcDbLine
 62
7
  6
CONTINUOUS
 10
4.3440392115
 20
3.1708300433
 11
4.3440392115
 21
3.2028300433
  0
LINE
  5
22D
100
AcDbEntity
  8
0
100
AcDbLine
 62
7
  6
CONTINUOUS
 10
4.344850512
 20
3.1708300433
 11
4.344850512
 21
3.2028300433
  0
LINE
  5
22E
100
AcDbEntity
  8
0
100
AcDbLine
 62
7
  6
CONTINUOUS
 10
4.3476270222
 20
3.1708300433
 11
4.3476270222
 21
3.2028300433
  0
LINE
  5
22F
100
AcDbEntity
  8
0
100
AcDbLine
 62
7
  6
CONTINUOUS
 10
4.3485609779
 20
3.1708300433
 11
4.3485609779
 21
3.2028300433
  0
LINE
  5
230
100
AcDbEntity
  8
0
100
AcDbLine
 62
7
  6
CONTINUOUS
 10
4.3517262834
 20
3.1708300433
 11
4.3517262834
 21
3.2028300433
  0
LINE
  5
231
100
AcDbEntity
  8
0
100
AcDbLine
 62
7
  6
CONTINUOUS
 10
4.3527819726
 20
3.1708300433
 11
4.3527819726
 21
3.2028300433
  0
LINE
  5
232
100
AcDbEntity
  8
0
100
AcDbLine
 62
7
  6
CONTINUOUS
 10
4.3558773292
 20
3.0924011111
 11
4.3558773292
 21
3.1708300433
  0
LINE
  5
233
100
AcDbEntity
  8
0
100
AcDbLine
 62
7
  6
CONTINUOUS
 10
4.3563329496
 20
3.1708300433
 11
4.3563329496
 21
3.2028300433
  0
LINE
  5
234
100
AcDbEntity
  8
0
100
AcDbLine
 62
7
  6
CONTINUOUS
 10
4.3575093304
 20
3.1708300433
 11
4.3575093304
 21
3.2028300433
  0
LINE
  5
235
100
AcDbEntity
  8
0
100
AcDbLine
 62
7
  6
CONTINUOUS
 10
4.3614424746
 20
3.1708300433
 11
4.3614424746
 21
3.2028300433
  0
LINE
  5
236
100
AcDbEntity
  8
0
100
AcDbLine
 62
7
  6
CONTINUOUS
 10
4.3627383861
 20
3.1708300433
 11
4.3627383861
 21
3.2028300433
  0
LINE
  5
237
100
AcDbEntity
  8
0
100
AcDbLine
 62
7
  6
CONTINUOUS
 10
4.3670498159
 20
3.1708300433
 11
4.3670498159
 21
3.2028300433
  0
LINE
  5
238
100
AcDbEntity
  8
0
100
AcDbLine
 62
7
  6
CONTINUOUS
 10
4.3684639791
 20
3.1708300433
 11
4.3684639791
 21
3.2028300433
  0
LINE
  5
239
100
AcDbEntity
  8
0
100
AcDbLine
 62
7
  6
CONTINUOUS
 10
4.3731494397
 20
3.1708300433
 11
4.3731494397
 21
3.2028300433
  0
LINE
  5
23A
100
AcDbEntity
  8
0
100
AcDbLine
 62
7
  6
CONTINUOUS
 10
4.3746804591
 20
3.1708300433
 11
4.3746804591
 21
3.2028300433
  0
LINE
  5
23B
100
AcDbEntity
  8
0
100
AcDbLine
 62
7
  6
CONTINUOUS
 10
4.3797353265
 20
3.1708300433
 11
4.3797353265
 21
3.2028300433
  0
LINE
  5
23C
100
AcDbEntity
  8
0
100
AcDbLine
 62
7
  6
CONTINUOUS
 10
4.3813816911
 20
3.1708300433
 11
4.3813816911
 21
3.2028300433
  0
LINE
  5
23D
100
AcDbEntity
  8
0
100
AcDbLine
 62
7
  6
CONTINUOUS
 10
4.3868009767
 20
3.1708300433
 11
4.3868009767
 21
3.2028300433
  0
LINE
  5
23E
100
AcDbEntity
  8
0
100
AcDbLine
 62
7
  6
CONTINUOUS
 10
4.3885610618
 20
3.1708300433
 11
4.3885610618
 21
3.2028300433
  0
LINE
  5
23F
100
AcDbEntity
  8
0
100
AcDbLine
 62
7
  6
CONTINUOUS
 10
4.3943394175
 20
3.1708300433
 11
4.3943394175
 21
3.2028300433
  0
LINE
  5
240
100
AcDbEntity
  8
0
100
AcDbLine
 62
7
  6
CONTINUOUS
 10
4.396211486
 20
3.1708300433
 11
4.396211486
 21
3.2028300433
  0
LINE
  5
241
100
AcDbEntity
  8
0
100
AcDbLine
 62
7
  6
CONTINUOUS
 10
4.4023432092
 20
3.1708300433
 11
4.4023432092
 21
3.2028300433
  0
LINE
  5
242
100
AcDbEntity
  8
0
100
AcDbLine
 62
7
  6
CONTINUOUS
 10
4.4043254137
 20
3.1708300433
 11
4.4043254137
 21
3.2028300433
  0
LINE
  5
243
100
AcDbEntity
  8
0
100
AcDbLine
 62
7
  6
CONTINUOUS
 10
4.4083773292
 20
3.2478300433
 11
4.4083773292
 21
3.2746435014
  0
LINE
  5
244
100
AcDbEntity
  8
0
100
AcDbLine
 62
7
  6
CONTINUOUS
 10
4.4108044532
 20
3.1708300433
 11
4.4108044532
 21
3.2028300433
  0
LINE
  5
245
100
AcDbEntity
  8
0
100
AcDbLine
 62
7
  6
CONTINUOUS
 10
4.4128948374
 20
3.1708300433
 11
4.4128948374
 21
3.2028300433
  0
LINE
  5
246
100
AcDbEntity
  8
0
100
AcDbLine
 62
7
  6
CONTINUOUS
 10
4.4197147991
 20
3.1708300433
 11
4.4197147991
 21
3.2028300433
  0
LINE
  5
247
100
AcDbEntity
  8
0
100
AcDbLine
 62
7
  6
CONTINUOUS
 10
4.4219113002
 20
3.1708300433
 11
4.4219113002
 21
3.2028300433
  0
LINE
  5
248
100
AcDbEntity
  8
0
100
AcDbLine
 62
7
  6
CONTINUOUS
 10
4.4290654536
 20
3.1708300433
 11
4.4290654536
 21
3.2028300433
  0
LINE
  5
249
100
AcDbEntity
  8
0
100
AcDbLine
 62
7
  6
CONTINUOUS
 10
4.4313659038
 20
3.1708300433
 11
4.4313659038
 21
3.2028300433
  0
LWPOLYLINE
  5
24A
100
AcDbEntity
  8
0
100
AcDbPolyline
 62
7
  6
CONTINUOUS
 90
25
 70
0
 10
4.4259997158
 20
5.027976404
 10
4.4223935244
 20
4.9997656638
 10
4.4189866656
 20
4.9705073833
 10
4.4158839053
 20
4.9409576992
 10
4.4130892296
 20
4.9111200134
 10
4.4106064129
 20
4.8809972528
 10
4.4084390518
 20
4.8505918683
 10
4.4065906949
 20
4.8199076257
 10
4.4050647213
 20
4.7889483258
 10
4.4038643121
 20
4.7577167867
 10
4.4029925731
 20
4.7262176723
 10
4.402452416
 20
4.6944552115
 10
4.4022465879
 20
4.6624319085
 10
4.4023777145
 20
4.6301543638
 10
4.4028482309
 20
4.597626289
 10
4.4036606071
 20
4.564846222
 10
4.4048170863
 20
4.5318208217
 10
4.4063197571
 20
4.4985552821
 10
4.4081710569
 20
4.4650463652
 10
4.4103728826
 20
4.4313011497
 10
4.4129269564
 20
4.3973261294
 10
4.4158357201
 20
4.3631176866
 10
4.4191010722
 20
4.3286798011
 10
4.4227240064
 20
4.2940240141
 10
4.4262519401
 20
4.262987306
  0
LINE
  5
24B
100
AcDbEntity
  8
0
100
AcDbLine
 62
7
  6
CONTINUOUS
 10
4.6469880507
 20
5.4369848336
 11
4.644778115
 21
5.4290930951
  0
LINE
  5
24C
100
AcDbEntity
  8
0
100
AcDbLine
 62
7
  6
CONTINUOUS
 10
4.6292954653
 20
5.3751154492
 11
4.6270741665
 21
5.3671848293
  0
LINE
  5
24D
100
AcDbEntity
  8
0
100
AcDbLine
 62
7
  6
CONTINUOUS
 10
4.644778115
 20
5.4290930951
 11
4.6423758878
 21
5.4206109176
  0
LINE
  5
24E
100
AcDbEntity
  8
0
100
AcDbLine
 62
7
  6
CONTINUOUS
 10
4.6423758878
 20
5.4206109176
 11
4.638396066
 21
5.4067026439
  0
LINE
  5
24F
100
AcDbEntity
  8
0
100
AcDbLine
 62
7
  6
CONTINUOUS
 10
4.6320973481
 20
5.3849068564
 11
4.6292954653
 21
5.3751154492
  0
LINE
  5
250
100
AcDbEntity
  8
0
100
AcDbLine
 62
7
  6
CONTINUOUS
 10
4.638396066
 20
5.4067026439
 11
4.6341536056
 21
5.3919944838
  0
LINE
  5
251
100
AcDbEntity
  8
0
100
AcDbLine
 62
7
  6
CONTINUOUS
 10
4.6341536056
 20
5.3919944838
 11
4.6320973481
 21
5.3849068564
  0
LINE
  5
252
100
AcDbEntity
  8
0
100
AcDbLine
 62
7
  6
CONTINUOUS
 10
4.6329440117
 20
5.3878223496
 11
4.6328662651
 21
5.3875592802
  0
LINE
  5
253
100
AcDbEntity
  8
0
100
AcDbLine
 62
7
  6
CONTINUOUS
 10
4.6883149736
 20
5.1044736785
 11
4.6866557355
 21
5.1030827215
  0
LINE
  5
254
100
AcDbEntity
  8
0
100
AcDbLine
 62
7
  6
CONTINUOUS
 10
4.6883149736
 20
5.0722614285
 11
4.6866557355
 21
5.0708704715
  0
LINE
  5
255
100
AcDbEntity
  8
0
100
AcDbLine
 62
7
  6
CONTINUOUS
 10
4.7090383606
 20
5.1062181695
 11
4.7065622986
 21
5.1048487853
  0
LINE
  5
256
100
AcDbEntity
  8
0
100
AcDbLine
 62
7
  6
CONTINUOUS
 10
4.7090383606
 20
5.0740059194
 11
4.7065622986
 21
5.0726365353
  0
LINE
  5
257
100
AcDbEntity
  8
0
100
AcDbLine
 62
7
  6
CONTINUOUS
 10
4.6058988277
 20
5.0169646809
 11
4.6034227657
 21
5.0155952967
  0
LINE
  5
258
100
AcDbEntity
  8
0
100
AcDbLine
 62
7
  6
CONTINUOUS
 10
4.5575554611
 20
5.0324758821
 11
4.5570838192
 21
5.0322512774
  0
LINE
  5
259
100
AcDbEntity
  8
0
100
AcDbLine
 62
7
  6
CONTINUOUS
 10
4.5575608485
 20
5.032457368
 11
4.5570838192
 21
5.0322512774
  0
LINE
  5
25A
100
AcDbEntity
  8
0
100
AcDbLine
 62
7
  6
CONTINUOUS
 10
4.5570838192
 20
5.0322512774
 11
4.5563839307
 21
5.031960374
  0
LINE
  5
25B
100
AcDbEntity
  8
0
100
AcDbLine
 62
7
  6
CONTINUOUS
 10
4.730728712
 20
5.1077413982
 11
4.7274510918
 21
5.1064020296
  0
LINE
  5
25C
100
AcDbEntity
  8
0
100
AcDbLine
 62
7
  6
CONTINUOUS
 10
4.730728712
 20
5.0755291482
 11
4.7274510918
 21
5.0741897796
  0
LINE
  5
25D
100
AcDbEntity
  8
0
100
AcDbLine
 62
7
  6
CONTINUOUS
 10
4.5942005415
 20
5.0197381981
 11
4.5909229213
 21
5.0183988295
  0
LINE
  5
25E
100
AcDbEntity
  8
0
100
AcDbLine
 62
7
  6
CONTINUOUS
 10
4.5570838192
 20
5.0322512774
 11
4.5563762247
 21
5.0319851903
  0
LINE
  5
25F
100
AcDbEntity
  8
0
100
AcDbLine
 62
7
  6
CONTINUOUS
 10
4.7532522995
 20
5.1090339735
 11
4.7491933288
 21
5.1077328781
  0
LINE
  5
260
100
AcDbEntity
  8
0
100
AcDbLine
 62
7
  6
CONTINUOUS
 10
4.7532522995
 20
5.0768217235
 11
4.7491933288
 21
5.0755206281
  0
LINE
  5
261
100
AcDbEntity
  8
0
100
AcDbLine
 62
7
  6
CONTINUOUS
 10
4.5841772329
 20
5.0226250317
 11
4.5801182622
 21
5.0213239364
  0
LINE
  5
262
100
AcDbEntity
  8
0
100
AcDbLine
 62
7
  6
CONTINUOUS
 10
4.5530509886
 20
4.0978300433
 11
5.1787035239
 21
4.0978300433
  0
LINE
  5
263
100
AcDbEntity
  8
0
100
AcDbLine
 62
7
  6
CONTINUOUS
 10
4.535501416
 20
4.1082377285
 11
5.1962532424
 21
4.1082377285
  0
LWPOLYLINE
  5
264
100
AcDbEntity
  8
0
100
AcDbPolyline
 62
7
  6
CONTINUOUS
 90
26
 70
0
 10
4.435995832
 20
4.2480784735
 10
4.4367510375
 20
4.2476127103
 10
4.4374338077
 20
4.2471501603
 10
4.4380969283
 20
4.2466598557
 10
4.4387392718
 20
4.2461426299
 10
4.4393597459
 20
4.2455993624
 10
4.4399572958
 20
4.2450309771
 10
4.4405309052
 20
4.2444384402
 10
4.441079599
 20
4.2438227594
 10
4.4416024442
 20
4.2431849814
 10
4.4420985517
 20
4.2425261908
 10
4.4425670781
 20
4.2418475076
 10
4.4430072266
 20
4.2411500859
 10
4.4434182488
 20
4.2404351114
 10
4.443799446
 20
4.2397038
 10
4.4441501699
 20
4.2389573949
 10
4.4444698243
 20
4.2381971655
 10
4.4447578655
 20
4.2374244042
 10
4.4450138038
 20
4.236640425
 10
4.4452372041
 20
4.235846561
 10
4.4454276865
 20
4.235044162
 10
4.4455849271
 20
4.2342345923
 10
4.4457086586
 20
4.2334192284
 10
4.4457986706
 20
4.2325994568
 10
4.44585481
 20
4.2317766712
 10
4.4458769813
 20
4.2309522707
  0
LINE
  5
265
100
AcDbEntity
  8
0
100
AcDbLine
 62
7
  6
CONTINUOUS
 10
4.4388471887
 20
3.1708300433
 11
4.4388471887
 21
3.2028300433
  0
LINE
  5
266
100
AcDbEntity
  8
0
100
AcDbLine
 62
7
  6
CONTINUOUS
 10
4.4412493177
 20
3.1708300433
 11
4.4412493177
 21
3.2028300433
  0
LINE
  5
267
100
AcDbEntity
  8
0
100
AcDbLine
 62
7
  6
CONTINUOUS
 10
4.4458769813
 20
4.2309522707
 11
4.4458773292
 21
4.2130030267
  0
LINE
  5
268
100
AcDbEntity
  8
0
100
AcDbLine
 62
7
  6
CONTINUOUS
 10
4.4490503509
 20
3.1708300433
 11
4.4490503509
 21
3.2028300433
  0
LINE
  5
269
100
AcDbEntity
  8
0
100
AcDbLine
 62
7
  6
CONTINUOUS
 10
4.4515517882
 20
3.1708300433
 11
4.4515517882
 21
3.2028300433
  0
LINE
  5
26A
100
AcDbEntity
  8
0
100
AcDbLine
 62
7
  6
CONTINUOUS
 10
4.4596648711
 20
3.1708300433
 11
4.4596648711
 21
3.2028300433
  0
LINE
  5
26B
100
AcDbEntity
  8
0
100
AcDbLine
 62
7
  6
CONTINUOUS
 10
4.462263148
 20
3.1708300433
 11
4.462263148
 21
3.2028300433
  0
LINE
  5
26C
100
AcDbEntity
  8
0
100
AcDbLine
 62
7
  6
CONTINUOUS
 10
4.4706802739
 20
3.1708300433
 11
4.4706802739
 21
3.2028300433
  0
LINE
  5
26D
100
AcDbEntity
  8
0
100
AcDbLine
 62
7
  6
CONTINUOUS
 10
4.4733728263
 20
3.1708300433
 11
4.4733728263
 21
3.2028300433
  0
LINE
  5
26E
100
AcDbEntity
  8
0
100
AcDbLine
 62
7
  6
CONTINUOUS
 10
4.4820856885
 20
3.1708300433
 11
4.4820856885
 21
3.2028300433
  0
LINE
  5
26F
100
AcDbEntity
  8
0
100
AcDbLine
 62
7
  6
CONTINUOUS
 10
4.4848698591
 20
3.1708300433
 11
4.4848698591
 21
3.2028300433
  0
LINE
  5
270
100
AcDbEntity
  8
0
100
AcDbLine
 62
7
  6
CONTINUOUS
 10
4.4938698591
 20
3.1708300433
 11
4.4938698591
 21
3.2028300433
  0
LINE
  5
271
100
AcDbEntity
  8
0
100
AcDbLine
 62
7
  6
CONTINUOUS
 10
4.4967429004
 20
3.1708300433
 11
4.4967429004
 21
3.2028300433
  0
LINE
  5
272
100
AcDbEntity
  8
0
100
AcDbLine
 62
7
  6
CONTINUOUS
 10
4.5057384594
 20
3.2028300433
 11
4.5057384594
 21
3.1708300433
  0
LINE
  5
273
100
AcDbEntity
  8
0
100
AcDbLine
 62
7
  6
CONTINUOUS
 10
4.5060211562
 20
3.1708300433
 11
4.5060211562
 21
3.2028300433
  0
LINE
  5
274
100
AcDbEntity
  8
0
100
AcDbLine
 62
7
  6
CONTINUOUS
 10
4.5089802327
 20
3.1708300433
 11
4.5089802327
 21
3.2028300433
  0
LINE
  5
275
100
AcDbEntity
  8
0
100
AcDbLine
 62
7
  6
CONTINUOUS
 10
4.5179624732
 20
3.2028300433
 11
4.5179624732
 21
3.1708300433
  0
LINE
  5
276
100
AcDbEntity
  8
0
100
AcDbLine
 62
7
  6
CONTINUOUS
 10
4.5185275879
 20
3.1708300433
 11
4.5185275879
 21
3.2028300433
  0
LINE
  5
277
100
AcDbEntity
  8
0
100
AcDbLine
 62
7
  6
CONTINUOUS
 10
4.5215697793
 20
3.1708300433
 11
4.5215697793
 21
3.2028300433
  0
LINE
  5
278
100
AcDbEntity
  8
0
100
AcDbLine
 62
7
  6
CONTINUOUS
 10
4.530529837
 20
3.2028300433
 11
4.530529837
 21
3.1708300433
  0
LINE
  5
279
100
AcDbEntity
  8
0
100
AcDbLine
 62
7
  6
CONTINUOUS
 10
4.5313768118
 20
3.1708300433
 11
4.5313768118
 21
3.2028300433
  0
LINE
  5
27A
100
AcDbEntity
  8
0
100
AcDbLine
 62
7
  6
CONTINUOUS
 10
4.534499116
 20
3.1708300433
 11
4.534499116
 21
3.2028300433
  0
LINE
  5
27B
100
AcDbEntity
  8
0
100
AcDbLine
 62
7
  6
CONTINUOUS
 10
4.5434281483
 20
3.2028300433
 11
4.5434281483
 21
3.1708300433
  0
LWPOLYLINE
  5
27C
100
AcDbEntity
  8
0
100
AcDbPolyline
 62
7
  6
CONTINUOUS
 90
27
 70
0
 10
4.4458773292
 20
5.0776570598
 10
4.4458769271
 20
5.0598702165
 10
4.4458541978
 20
5.0590396083
 10
4.4457969872
 20
5.058210661
 10
4.445705394
 20
5.0573848054
 10
4.4455795762
 20
5.0565634671
 10
4.4454197511
 20
5.0557480638
 10
4.4452261945
 20
5.0549400028
 10
4.4449992405
 20
5.054140679
 10
4.4447392809
 20
5.053351472
 10
4.4444467644
 20
5.052573744
 10
4.4441221958
 20
5.0518088375
 10
4.4437661354
 20
5.0510580728
 10
4.4433791977
 20
5.0503227457
 10
4.4429620508
 20
5.0496041254
 10
4.4425154145
 20
5.0489034523
 10
4.4420400598
 20
5.0482219359
 10
4.4415368072
 20
5.0475607524
 10
4.4410065253
 20
5.0469210432
 10
4.4404501295
 20
5.0463039124
 10
4.4398685802
 20
5.0457104252
 10
4.439262881
 20
5.045141606
 10
4.4386340776
 20
5.0445984366
 10
4.4379832552
 20
5.0440818547
 10
4.4373115373
 20
5.0435927518
 10
4.4366200832
 20
5.0431319721
 10
4.4358506141
 20
5.042665961
  0
LINE
  5
27D
100
AcDbEntity
  8
0
100
AcDbLine
 62
7
  6
CONTINUOUS
 10
4.5499367285
 20
5.2186897553
 11
4.5498529599
 21
5.2158300433
  0
LINE
  5
27E
100
AcDbEntity
  8
0
100
AcDbLine
 62
7
  6
CONTINUOUS
 10
4.5499366176
 20
5.218687694
 11
4.5499141415
 21
5.2182371533
  0
LWPOLYLINE
  5
27F
100
AcDbEntity
  8
0
100
AcDbPolyline
 62
7
  6
CONTINUOUS
 90
14
 70
0
 10
4.6129199887
 20
5.3112339067
 10
4.6100818327
 20
5.2984292307
 10
4.6068800645
 20
5.2830175337
 10
4.6039262673
 20
5.2676875297
 10
4.6012160713
 20
5.2524431047
 10
4.5987452423
 20
5.2372914183
 10
4.5965085833
 20
5.2222344742
 10
4.5945010588
 20
5.2072749782
 10
4.5927182506
 20
5.192420989
 10
4.5911549029
 20
5.1776752136
 10
4.5898056348
 20
5.1630392113
 10
4.5886653908
 20
5.1485189418
 10
4.5877286872
 20
5.134117401
 10
4.5870124559
 20
5.1203344392
  0
LINE
  5
280
100
AcDbEntity
  8
0
100
AcDbLine
 62
7
  6
CONTINUOUS
 10
4.6142030539
 20
5.3168181235
 11
4.6126373084
 21
5.3099899646
  0
LINE
  5
281
100
AcDbEntity
  8
0
100
AcDbLine
 62
7
  6
CONTINUOUS
 10
4.6160726637
 20
5.324730583
 11
4.6142030539
 21
5.3168181235
  0
LINE
  5
282
100
AcDbEntity
  8
0
100
AcDbLine
 62
7
  6
CONTINUOUS
 10
4.6179003726
 20
5.3322364753
 11
4.6160726637
 21
5.324730583
  0
LINE
  5
283
100
AcDbEntity
  8
0
100
AcDbLine
 62
7
  6
CONTINUOUS
 10
4.6196813968
 20
5.3393534696
 11
4.6179003726
 21
5.3322364753
  0
LINE
  5
284
100
AcDbEntity
  8
0
100
AcDbLine
 62
7
  6
CONTINUOUS
 10
4.6554224562
 20
5.4684903067
 11
4.6545047775
 21
5.464886125
  0
LINE
  5
285
100
AcDbEntity
  8
0
100
AcDbLine
 62
7
  6
CONTINUOUS
 10
4.621414625
 20
5.3461098366
 11
4.6196813968
 21
5.3393534696
  0
LINE
  5
286
100
AcDbEntity
  8
0
100
AcDbLine
 62
7
  6
CONTINUOUS
 10
4.6545047775
 20
5.464886125
 11
4.6532403157
 21
5.4600261684
  0
LINE
  5
287
100
AcDbEntity
  8
0
100
AcDbLine
 62
7
  6
CONTINUOUS
 10
4.623098312
 20
5.3525273038
 11
4.621414625
 21
5.3461098366
  0
LINE
  5
288
100
AcDbEntity
  8
0
100
AcDbLine
 62
7
  6
CONTINUOUS
 10
4.6532403157
 20
5.4600261684
 11
4.6517036553
 21
5.454238411
  0
LINE
  5
289
100
AcDbEntity
  8
0
100
AcDbLine
 62
7
  6
CONTINUOUS
 10
4.6247294791
 20
5.3586198449
 11
4.623098312
 21
5.3525273038
  0
LINE
  5
28A
100
AcDbEntity
  8
0
100
AcDbLine
 62
7
  6
CONTINUOUS
 10
4.6517036553
 20
5.454238411
 11
4.649959261
 21
5.4477777547
  0
LWPOLYLINE
  5
28B
100
AcDbEntity
  8
0
100
AcDbPolyline
 62
7
  6
CONTINUOUS
 90
3
 70
0
 10
4.649959261
 20
5.4477777547
 10
4.6480224033
 20
5.4407152938
 10
4.6469880507
 20
5.4369848336
  0
LINE
  5
28C
100
AcDbEntity
  8
0
100
AcDbLine
 62
7
  6
CONTINUOUS
 10
4.6270741665
 20
5.3671848293
 11
4.6247294791
 21
5.3586198449
  0
LINE
  5
28D
100
AcDbEntity
  8
0
100
AcDbLine
 62
7
  6
CONTINUOUS
 10
4.6686863176
 20
5.1025186807
 11
4.6678541332
 21
5.1011147265
  0
LINE
  5
28E
100
AcDbEntity
  8
0
100
AcDbLine
 62
7
  6
CONTINUOUS
 10
4.6686863176
 20
5.0703064307
 11
4.6678541332
 21
5.0689024765
  0
LINE
  5
28F
100
AcDbEntity
  8
0
100
AcDbLine
 62
7
  6
CONTINUOUS
 10
5.1475774255
 20
5.0536105547
 11
5.1516363962
 21
5.0549116501
  0
LINE
  5
290
100
AcDbEntity
  8
0
100
AcDbLine
 62
7
  6
CONTINUOUS
 10
4.4459246153
 20
4.2308286357
 11
4.4458773292
 21
4.2308270514
  0
LINE
  5
291
100
AcDbEntity
  8
0
100
AcDbLine
 62
7
  6
CONTINUOUS
 10
4.4581811856
 20
4.2310968724
 11
4.4458773417
 21
4.2308268101
  0
LINE
  5
292
100
AcDbEntity
  8
0
100
AcDbLine
 62
7
  6
CONTINUOUS
 10
4.4487888577
 20
4.2482134597
 11
4.4359958285
 21
4.2480784696
  0
LINE
  5
293
100
AcDbEntity
  8
0
100
AcDbLine
 62
7
  6
CONTINUOUS
 10
4.426251944
 20
4.2629873061
 11
4.4395604699
 21
4.2630651854
  0
LINE
  5
294
100
AcDbEntity
  8
0
100
AcDbLine
 62
7
  6
CONTINUOUS
 10
4.4547850647
 20
4.1963608613
 11
5.2769695937
 21
4.1963608613
  0
LINE
  5
295
100
AcDbEntity
  8
0
100
AcDbLine
 62
7
  6
CONTINUOUS
 10
4.4458773292
 20
4.2130030267
 11
5.2858773292
 21
4.2130030267
  0
LINE
  5
296
100
AcDbEntity
  8
0
100
AcDbLine
 62
7
  6
CONTINUOUS
 10
5.2957517479
 20
4.2480785662
 11
5.2957589543
 21
4.2480785427
  0
LINE
  5
297
100
AcDbEntity
  8
0
100
AcDbLine
 62
7
  6
CONTINUOUS
 10
5.2921941879
 20
4.2630651854
 11
5.3055027081
 21
4.2629873054
  0
LINE
  5
298
100
AcDbEntity
  8
0
100
AcDbLine
 62
7
  6
CONTINUOUS
 10
5.2957588267
 20
4.2480784695
 11
5.2829658002
 21
4.2482134596
  0
LINE
  5
299
100
AcDbEntity
  8
0
100
AcDbLine
 62
7
  6
CONTINUOUS
 10
5.2957589543
 20
4.2480785427
 11
5.2957335166
 21
4.2480789349
  0
LINE
  5
29A
100
AcDbEntity
  8
0
100
AcDbLine
 62
7
  6
CONTINUOUS
 10
4.5445561474
 20
3.1708300433
 11
4.5445561474
 21
3.2028300433
  0
LINE
  5
29B
100
AcDbEntity
  8
0
100
AcDbLine
 62
7
  6
CONTINUOUS
 10
4.5477554829
 20
3.1708300433
 11
4.5477554829
 21
3.2028300433
  0
LINE
  5
29C
100
AcDbEntity
  8
0
100
AcDbLine
 62
7
  6
CONTINUOUS
 10
4.5533773292
 20
3.3578300433
 11
4.5533773292
 21
4.0978300433
  0
LINE
  5
29D
100
AcDbEntity
  8
0
100
AcDbLine
 62
7
  6
CONTINUOUS
 10
4.5534673422
 20
5.0713258585
 11
4.5534673422
 21
5.0371219779
  0
LINE
  5
29E
100
AcDbEntity
  8
0
100
AcDbLine
 62
7
  6
CONTINUOUS
 10
4.5538419547
 20
5.0725918086
 11
4.5538419547
 21
5.0403795586
  0
LINE
  5
29F
100
AcDbEntity
  8
0
100
AcDbLine
 62
7
  6
CONTINUOUS
 10
4.5550188411
 20
5.0745772997
 11
4.5550188411
 21
5.0423650496
  0
LINE
  5
2A0
100
AcDbEntity
  8
0
100
AcDbLine
 62
7
  6
CONTINUOUS
 10
4.5550188411
 20
5.0357225679
 11
4.5550188411
 21
5.0338705368
  0
LINE
  5
2A1
100
AcDbEntity
  8
0
100
AcDbLine
 62
7
  6
CONTINUOUS
 10
4.556140369
 20
5.0758354448
 11
4.556140369
 21
5.0436231947
  0
LINE
  5
2A2
100
AcDbEntity
  8
0
100
AcDbLine
 62
7
  6
CONTINUOUS
 10
4.556644678
 20
3.2028300433
 11
4.556644678
 21
3.1708300433
  0
LINE
  5
2A3
100
AcDbEntity
  8
0
100
AcDbLine
 62
7
  6
CONTINUOUS
 10
4.5580525882
 20
3.1708300433
 11
4.5580525882
 21
3.2028300433
  0
LINE
  5
2A4
100
AcDbEntity
  8
0
100
AcDbLine
 62
7
  6
CONTINUOUS
 10
4.558486886
 20
5.0778025551
 11
4.558486886
 21
5.045590305
  0
LINE
  5
2A5
100
AcDbEntity
  8
0
100
AcDbLine
 62
7
  6
CONTINUOUS
 10
4.558486886
 20
5.0323860303
 11
4.558486886
 21
5.0306452814
  0
LINE
  5
2A6
100
AcDbEntity
  8
0
100
AcDbLine
 62
7
  6
CONTINUOUS
 10
4.5603484147
 20
5.0790451383
 11
4.5603484147
 21
5.0468328883
  0
LINE
  5
2A7
100
AcDbEntity
  8
0
100
AcDbLine
 62
7
  6
CONTINUOUS
 10
4.5613257977
 20
3.1708300433
 11
4.5613257977
 21
3.2028300433
  0
LINE
  5
2A8
100
AcDbEntity
  8
0
100
AcDbLine
 62
7
  6
CONTINUOUS
 10
4.5638500952
 20
5.08098174
 11
4.5638500952
 21
5.0487694899
  0
LINE
  5
2A9
100
AcDbEntity
  8
0
100
AcDbLine
 62
7
  6
CONTINUOUS
 10
4.5638500952
 20
5.0291177845
 11
4.5638500952
 21
5.0274660965
  0
LINE
  5
2AA
100
AcDbEntity
  8
0
100
AcDbLine
 62
7
  6
CONTINUOUS
 10
4.5664401478
 20
5.0822011003
 11
4.5664401478
 21
5.0499888503
  0
LINE
  5
2AB
100
AcDbEntity
  8
0
100
AcDbLine
 62
7
  6
CONTINUOUS
 10
4.570166383
 20
3.2028300433
 11
4.570166383
 21
3.1708300433
  0
LINE
  5
2AC
100
AcDbEntity
  8
0
100
AcDbLine
 62
7
  6
CONTINUOUS
 10
4.5710754027
 20
5.0840952536
 11
4.5710754027
 21
5.0518830035
  0
LINE
  5
2AD
100
AcDbEntity
  8
0
100
AcDbLine
 62
7
  6
CONTINUOUS
 10
4.5710754027
 20
5.0259331499
 11
4.5710754027
 21
5.0243525829
  0
LINE
  5
2AE
100
AcDbEntity
  8
0
100
AcDbLine
 62
7
  6
CONTINUOUS
 10
4.5718528148
 20
3.1708300433
 11
4.5718528148
 21
3.2028300433
  0
LINE
  5
2AF
100
AcDbEntity
  8
0
100
AcDbLine
 62
7
  6
CONTINUOUS
 10
4.5743780107
 20
5.0852838734
 11
4.5743780107
 21
5.0530716233
  0
LINE
  5
2B0
100
AcDbEntity
  8
0
100
AcDbLine
 62
7
  6
CONTINUOUS
 10
4.5751966681
 20
3.1708300433
 11
4.5751966681
 21
3.2028300433
  0
LINE
  5
2B1
100
AcDbEntity
  8
0
100
AcDbLine
 62
7
  6
CONTINUOUS
 10
4.5801182622
 20
5.0871239001
 11
4.5801182622
 21
5.0549116501
  0
LINE
  5
2B2
100
AcDbEntity
  8
0
100
AcDbLine
 62
7
  6
CONTINUOUS
 10
4.5801182622
 20
5.0228482644
 11
4.5801182622
 21
5.0213239364
  0
LINE
  5
2B3
100
AcDbEntity
  8
0
100
AcDbLine
 62
7
  6
CONTINUOUS
 10
4.5839799189
 20
3.2028300433
 11
4.5839799189
 21
3.1708300433
  0
LINE
  5
2B4
100
AcDbEntity
  8
0
100
AcDbLine
 62
7
  6
CONTINUOUS
 10
4.5841130638
 20
5.0882744511
 11
4.5841130638
 21
5.056062201
  0
LINE
  5
2B5
100
AcDbEntity
  8
0
100
AcDbLine
 62
7
  6
CONTINUOUS
 10
4.5859432081
 20
3.1708300433
 11
4.5859432081
 21
3.2028300433
  0
LINE
  5
2B6
100
AcDbEntity
  8
0
100
AcDbLine
 62
7
  6
CONTINUOUS
 10
4.5893544052
 20
3.1708300433
 11
4.5893544052
 21
3.2028300433
  0
LINE
  5
2B7
100
AcDbEntity
  8
0
100
AcDbLine
 62
7
  6
CONTINUOUS
 10
4.5909229213
 20
5.0900490069
 11
4.5909229213
 21
5.0578367569
  0
LINE
  5
2B8
100
AcDbEntity
  8
0
100
AcDbLine
 62
7
  6
CONTINUOUS
 10
4.5909229213
 20
5.019879599
 11
4.5909229213
 21
5.0183988295
  0
LINE
  5
2B9
100
AcDbEntity
  8
0
100
AcDbLine
 62
7
  6
CONTINUOUS
 10
4.5955852873
 20
5.0911543955
 11
4.5955852873
 21
5.0589421455
  0
LINE
  5
2BA
100
AcDbEntity
  8
0
100
AcDbLine
 62
7
  6
CONTINUOUS
 10
4.5980716536
 20
3.2028300433
 11
4.5980716536
 21
3.1708300433
  0
LINE
  5
2BB
100
AcDbEntity
  8
0
100
AcDbLine
 62
7
  6
CONTINUOUS
 10
4.6003098626
 20
3.1708300433
 11
4.6003098626
 21
3.2028300433
  0
LINE
  5
2BC
100
AcDbEntity
  8
0
100
AcDbLine
 62
7
  6
CONTINUOUS
 10
4.6034227657
 20
5.0928525398
 11
4.6034227657
 21
5.0606402897
  0
LINE
  5
2BD
100
AcDbEntity
  8
0
100
AcDbLine
 62
7
  6
CONTINUOUS
 10
4.6034227657
 20
5.0170436092
 11
4.6034227657
 21
5.0155952967
  0
LINE
  5
2BE
100
AcDbEntity
  8
0
100
AcDbLine
 62
7
  6
CONTINUOUS
 10
4.603785037
 20
3.1708300433
 11
4.603785037
 21
3.2028300433
  0
LINE
  5
2BF
100
AcDbEntity
  8
0
100
AcDbLine
 62
7
  6
CONTINUOUS
 10
4.6087239511
 20
5.093905951
 11
4.6087239511
 21
5.0616937009
  0
LINE
  5
2C0
100
AcDbEntity
  8
0
100
AcDbLine
 62
7
  6
CONTINUOUS
 10
4.6124276802
 20
3.2028300433
 11
4.6124276802
 21
3.1708300433
  0
LINE
  5
2C1
100
AcDbEntity
  8
0
100
AcDbLine
 62
7
  6
CONTINUOUS
 10
4.6149386002
 20
3.1708300433
 11
4.6149386002
 21
3.2028300433
  0
LINE
  5
2C2
100
AcDbEntity
  8
0
100
AcDbLine
 62
7
  6
CONTINUOUS
 10
4.6158773292
 20
5.0282063317
 11
4.6158773292
 21
4.9786490239
  0
LINE
  5
2C3
100
AcDbEntity
  8
0
100
AcDbLine
 62
7
  6
CONTINUOUS
 10
4.6175407299
 20
5.0955172139
 11
4.6175407299
 21
5.0633049639
  0
LINE
  5
2C4
100
AcDbEntity
  8
0
100
AcDbLine
 62
7
  6
CONTINUOUS
 10
4.6184743223
 20
3.1708300433
 11
4.6184743223
 21
3.2028300433
  0
LINE
  5
2C5
100
AcDbEntity
  8
0
100
AcDbLine
 62
7
  6
CONTINUOUS
 10
4.623448051
 20
5.096512153
 11
4.623448051
 21
5.064299903
  0
LINE
  5
2C6
100
AcDbEntity
  8
0
100
AcDbLine
 62
7
  6
CONTINUOUS
 10
4.627033831
 20
3.2028300433
 11
4.627033831
 21
3.1708300433
  0
LINE
  5
2C7
100
AcDbEntity
  8
0
100
AcDbLine
 62
7
  6
CONTINUOUS
 10
4.6298149839
 20
3.1708300433
 11
4.6298149839
 21
3.2028300433
  0
LINE
  5
2C8
100
AcDbEntity
  8
0
100
AcDbLine
 62
7
  6
CONTINUOUS
 10
4.6331897717
 20
5.0980266008
 11
4.6331897717
 21
5.0658143508
  0
LINE
  5
2C9
100
AcDbEntity
  8
0
100
AcDbLine
 62
7
  6
CONTINUOUS
 10
4.6334077645
 20
3.1708300433
 11
4.6334077645
 21
3.2028300433
  0
LINE
  5
2CA
100
AcDbEntity
  8
0
100
AcDbLine
 62
7
  6
CONTINUOUS
 10
4.639666808
 20
5.0989569337
 11
4.639666808
 21
5.0667446837
  0
LINE
  5
2CB
100
AcDbEntity
  8
0
100
AcDbLine
 62
7
  6
CONTINUOUS
 10
4.6418756914
 20
3.2028300433
 11
4.6418756914
 21
3.1708300433
  0
LINE
  5
2CC
100
AcDbEntity
  8
0
100
AcDbLine
 62
7
  6
CONTINUOUS
 10
4.6449243327
 20
3.1708300433
 11
4.6449243327
 21
3.2028300433
  0
LINE
  5
2CD
100
AcDbEntity
  8
0
100
AcDbLine
 62
7
  6
CONTINUOUS
 10
4.6485706261
 20
3.1708300433
 11
4.6485706261
 21
3.2028300433
  0
LINE
  5
2CE
100
AcDbEntity
  8
0
100
AcDbLine
 62
7
  6
CONTINUOUS
 10
4.6502734097
 20
5.1003652292
 11
4.6502734097
 21
5.0667446837
  0
LWPOLYLINE
  5
2CF
100
AcDbEntity
  8
0
100
AcDbPolyline
 62
7
  6
CONTINUOUS
 90
5
 70
0
 10
4.586664326
 20
5.1119964679
 10
4.5864128021
 20
5.1047221549
 10
4.5862118498
 20
5.0975324099
 10
4.5860596516
 20
5.0904273622
 10
4.5860286128
 20
5.0883570904
  0
LINE
  5
2D0
100
AcDbEntity
  8
0
100
AcDbLine
 62
7
  6
CONTINUOUS
 10
4.5870124559
 20
5.1203344392
 11
4.586664326
 21
5.1119964679
  0
LINE
  5
2D1
100
AcDbEntity
  8
0
100
AcDbLine
 62
7
  6
CONTINUOUS
 10
4.9618152307
 20
5.7506726461
 11
4.9624625835
 21
5.7526339099
  0
LINE
  5
2D2
100
AcDbEntity
  8
0
100
AcDbLine
 62
7
  6
CONTINUOUS
 10
4.9624625835
 20
5.7526339099
 11
4.9626421867
 21
5.7531685868
  0
LINE
  5
2D3
100
AcDbEntity
  8
0
100
AcDbLine
 62
7
  6
CONTINUOUS
 10
4.9626421867
 20
5.7531685868
 11
4.9627821238
 21
5.7535770413
  0
LWPOLYLINE
  5
2D4
100
AcDbEntity
  8
0
100
AcDbPolyline
 62
7
  6
CONTINUOUS
 90
14
 70
0
 10
5.0495751543
 20
5.9932083302
 10
5.0507913767
 20
5.9966518386
 10
5.0521833267
 20
6.0008330248
 10
5.0534914074
 20
6.0050390116
 10
5.0547151405
 20
6.009267966
 10
5.0558541349
 20
6.0135183211
 10
5.0569079848
 20
6.0177884695
 10
5.0578762193
 20
6.0220765123
 10
5.0587584535
 20
6.0263809757
 10
5.0595542786
 20
6.0307003703
 10
5.0602632223
 20
6.0350328126
 10
5.0608848783
 20
6.0393766955
 10
5.0614188778
 20
6.0437306896
 10
5.0618005556
 20
6.0474068522
  0
LINE
  5
2D5
100
AcDbEntity
  8
0
100
AcDbLine
 62
7
  6
CONTINUOUS
 10
4.9627821238
 20
5.7535770413
 11
4.962884279
 21
5.7538681412
  0
LINE
  5
2D6
100
AcDbEntity
  8
0
100
AcDbLine
 62
7
  6
CONTINUOUS
 10
4.9945493157
 20
5.841105699
 11
5.0110709841
 21
5.8868441453
  0
LINE
  5
2D7
100
AcDbEntity
  8
0
100
AcDbLine
 62
7
  6
CONTINUOUS
 10
5.0110709841
 20
5.8868441453
 11
5.0298598008
 21
5.9387774756
  0
LINE
  5
2D8
100
AcDbEntity
  8
0
100
AcDbLine
 62
7
  6
CONTINUOUS
 10
4.9810029478
 20
5.8036443356
 11
4.9945400959
 21
5.8410801506
  0
LINE
  5
2D9
100
AcDbEntity
  8
0
100
AcDbLine
 62
7
  6
CONTINUOUS
 10
5.0495751846
 20
5.9932084285
 11
5.0495817074
 21
5.9932264263
  0
LINE
  5
2DA
100
AcDbEntity
  8
0
100
AcDbLine
 62
7
  6
CONTINUOUS
 10
5.0298598008
 20
5.9387774756
 11
5.0495816997
 21
5.9932264049
  0
LINE
  5
2DB
100
AcDbEntity
  8
0
100
AcDbLine
 62
7
  6
CONTINUOUS
 10
4.962884279
 20
5.7538681412
 11
4.9629438952
 21
5.7540336975
  0
LINE
  5
2DC
100
AcDbEntity
  8
0
100
AcDbLine
 62
7
  6
CONTINUOUS
 10
4.9697860353
 20
5.7727734976
 11
4.9810029478
 21
5.8036443356
  0
LINE
  5
2DD
100
AcDbEntity
  8
0
100
AcDbLine
 62
7
  6
CONTINUOUS
 10
4.9629458443
 20
5.7540407173
 11
4.9697860353
 21
5.7727734976
  0
LINE
  5
2DE
100
AcDbEntity
  8
0
100
AcDbLine
 62
7
  6
CONTINUOUS
 10
5.1258558307
 20
5.0592709056
 11
5.1283318926
 21
5.0606402897
  0
LINE
  5
2DF
100
AcDbEntity
  8
0
100
AcDbLine
 62
7
  6
CONTINUOUS
 10
5.1375541169
 20
5.0564973883
 11
5.1408317371
 21
5.0578367569
  0
LINE
  5
2E0
100
AcDbEntity
  8
0
100
AcDbLine
 62
7
  6
CONTINUOUS
 10
4.6569386145
 20
3.2028300433
 11
4.6569386145
 21
3.1708300433
  0
LINE
  5
2E1
100
AcDbEntity
  8
0
100
AcDbLine
 62
7
  6
CONTINUOUS
 10
4.6572802281
 20
5.1012252201
 11
4.6572802281
 21
5.0690129701
  0
LINE
  5
2E2
100
AcDbEntity
  8
0
100
AcDbLine
 62
7
  6
CONTINUOUS
 10
4.6602517354
 20
3.1708300433
 11
4.6602517354
 21
3.2028300433
  0
LINE
  5
2E3
100
AcDbEntity
  8
0
100
AcDbLine
 62
7
  6
CONTINUOUS
 10
4.6639479432
 20
3.1708300433
 11
4.6639479432
 21
3.2028300433
  0
LINE
  5
2E4
100
AcDbEntity
  8
0
100
AcDbLine
 62
7
  6
CONTINUOUS
 10
4.6678541332
 20
5.1011147265
 11
4.6678541332
 21
5.0689024765
  0
LINE
  5
2E5
100
AcDbEntity
  8
0
100
AcDbLine
 62
7
  6
CONTINUOUS
 10
4.6686863176
 20
5.1025186807
 11
4.6686863176
 21
5.0703064307
  0
LINE
  5
2E6
100
AcDbEntity
  8
0
100
AcDbLine
 62
7
  6
CONTINUOUS
 10
4.6722077348
 20
3.2028300433
 11
4.6722077348
 21
3.1708300433
  0
LINE
  5
2E7
100
AcDbEntity
  8
0
100
AcDbLine
 62
7
  6
CONTINUOUS
 10
4.6757820658
 20
3.1708300433
 11
4.6757820658
 21
3.2028300433
  0
LINE
  5
2E8
100
AcDbEntity
  8
0
100
AcDbLine
 62
7
  6
CONTINUOUS
 10
4.6761797187
 20
5.1033030274
 11
4.6761797187
 21
5.0710907774
  0
LINE
  5
2E9
100
AcDbEntity
  8
0
100
AcDbLine
 62
7
  6
CONTINUOUS
 10
4.6795245402
 20
3.1708300433
 11
4.6795245402
 21
3.2028300433
  0
LINE
  5
2EA
100
AcDbEntity
  8
0
100
AcDbLine
 62
7
  6
CONTINUOUS
 10
4.6866557355
 20
5.1030827215
 11
4.6866557355
 21
5.0708704715
  0
LINE
  5
2EB
100
AcDbEntity
  8
0
100
AcDbLine
 62
7
  6
CONTINUOUS
 10
4.6876679836
 20
3.2028300433
 11
4.6876679836
 21
3.1708300433
  0
LINE
  5
2EC
100
AcDbEntity
  8
0
100
AcDbLine
 62
7
  6
CONTINUOUS
 10
4.6883149736
 20
5.1044736785
 11
4.6883149736
 21
5.0722614285
  0
LINE
  5
2ED
100
AcDbEntity
  8
0
100
AcDbLine
 62
7
  6
CONTINUOUS
 10
4.6914999973
 20
3.1708300433
 11
4.6914999973
 21
3.2028300433
  0
LINE
  5
2EE
100
AcDbEntity
  8
0
100
AcDbLine
 62
7
  6
CONTINUOUS
 10
4.6952850449
 20
3.1708300433
 11
4.6952850449
 21
3.2028300433
  0
LINE
  5
2EF
100
AcDbEntity
  8
0
100
AcDbLine
 62
7
  6
CONTINUOUS
 10
4.6958773292
 20
5.7228300433
 11
4.6958773292
 21
5.8928300433
  0
LINE
  5
2F0
100
AcDbEntity
  8
0
100
AcDbLine
 62
7
  6
CONTINUOUS
 10
4.6962487581
 20
5.1051775454
 11
4.6962487581
 21
5.0729652953
  0
LINE
  5
2F1
100
AcDbEntity
  8
0
100
AcDbLine
 62
7
  6
CONTINUOUS
 10
4.7033041036
 20
3.2028300433
 11
4.7033041036
 21
3.1708300433
  0
LINE
  5
2F2
100
AcDbEntity
  8
0
100
AcDbLine
 62
7
  6
CONTINUOUS
 10
4.7046273292
 20
5.9078300433
 11
4.7046273292
 21
5.9028300433
  0
LINE
  5
2F3
100
AcDbEntity
  8
0
100
AcDbLine
 62
7
  6
CONTINUOUS
 10
4.7065622986
 20
5.1048487853
 11
4.7065622986
 21
5.0726365353
  0
LINE
  5
2F4
100
AcDbEntity
  8
0
100
AcDbLine
 62
7
  6
CONTINUOUS
 10
4.7073900181
 20
3.1708300433
 11
4.7073900181
 21
3.2028300433
  0
LINE
  5
2F5
100
AcDbEntity
  8
0
100
AcDbLine
 62
7
  6
CONTINUOUS
 10
4.7090383606
 20
5.1062181695
 11
4.7090383606
 21
5.0740059194
  0
LINE
  5
2F6
100
AcDbEntity
  8
0
100
AcDbLine
 62
7
  6
CONTINUOUS
 10
4.7112139035
 20
3.1708300433
 11
4.7112139035
 21
3.2028300433
  0
LINE
  5
2F7
100
AcDbEntity
  8
0
100
AcDbLine
 62
7
  6
CONTINUOUS
 10
4.7173636141
 20
5.1068372169
 11
4.7173636141
 21
5.0746249668
  0
LINE
  5
2F8
100
AcDbEntity
  8
0
100
AcDbLine
 62
7
  6
CONTINUOUS
 10
4.7191006637
 20
3.2028300433
 11
4.7191006637
 21
3.1708300433
  0
LINE
  5
2F9
100
AcDbEntity
  8
0
100
AcDbLine
 62
7
  6
CONTINUOUS
 10
4.7234364467
 20
3.1708300433
 11
4.7234364467
 21
3.2028300433
  0
LINE
  5
2FA
100
AcDbEntity
  8
0
100
AcDbLine
 62
7
  6
CONTINUOUS
 10
4.7272953963
 20
3.1708300433
 11
4.7272953963
 21
3.2028300433
  0
LINE
  5
2FB
100
AcDbEntity
  8
0
100
AcDbLine
 62
7
  6
CONTINUOUS
 10
4.7274510918
 20
5.1064020296
 11
4.7274510918
 21
5.0741897796
  0
LINE
  5
2FC
100
AcDbEntity
  8
0
100
AcDbLine
 62
7
  6
CONTINUOUS
 10
4.730728712
 20
5.1077413982
 11
4.730728712
 21
5.0755291482
  0
LINE
  5
2FD
100
AcDbEntity
  8
0
100
AcDbLine
 62
7
  6
CONTINUOUS
 10
4.7350420746
 20
3.2028300433
 11
4.7350420746
 21
3.1708300433
  0
LINE
  5
2FE
100
AcDbEntity
  8
0
100
AcDbLine
 62
7
  6
CONTINUOUS
 10
4.7393941066
 20
5.1082718095
 11
4.7393941066
 21
5.0760595595
  0
LINE
  5
2FF
100
AcDbEntity
  8
0
100
AcDbLine
 62
7
  6
CONTINUOUS
 10
4.7396234473
 20
3.1708300433
 11
4.7396234473
 21
3.2028300433
  0
LINE
  5
300
100
AcDbEntity
  8
0
100
AcDbLine
 62
7
  6
CONTINUOUS
 10
4.7435136528
 20
3.1708300433
 11
4.7435136528
 21
3.2028300433
  0
LINE
  5
301
100
AcDbEntity
  8
0
100
AcDbLine
 62
7
  6
CONTINUOUS
 10
4.7491933288
 20
5.1077328781
 11
4.7491933288
 21
5.0755206281
  0
LINE
  5
302
100
AcDbEntity
  8
0
100
AcDbLine
 62
7
  6
CONTINUOUS
 10
4.7511126041
 20
3.2028300433
 11
4.7511126041
 21
3.1708300433
  0
LINE
  5
303
100
AcDbEntity
  8
0
100
AcDbLine
 62
7
  6
CONTINUOUS
 10
4.7532522995
 20
5.1090339735
 11
4.7532522995
 21
5.0768217235
  0
LINE
  5
304
100
AcDbEntity
  8
0
100
AcDbLine
 62
7
  6
CONTINUOUS
 10
4.7559350453
 20
3.1708300433
 11
4.7559350453
 21
3.2028300433
  0
LINE
  5
305
100
AcDbEntity
  8
0
100
AcDbLine
 62
7
  6
CONTINUOUS
 10
4.7598526674
 20
3.1708300433
 11
4.7598526674
 21
3.2028300433
  0
LINE
  5
306
100
AcDbEntity
  8
0
100
AcDbLine
 62
7
  6
CONTINUOUS
 10
4.7622044101
 20
5.1094724785
 11
4.7622044101
 21
5.0772602285
  0
LINE
  5
307
100
AcDbEntity
  8
0
100
AcDbLine
 62
7
  6
CONTINUOUS
 10
4.7672963926
 20
3.2028300433
 11
4.7672963926
 21
3.1708300433
  0
LINE
  5
308
100
AcDbEntity
  8
0
100
AcDbLine
 62
7
  6
CONTINUOUS
 10
5.0612277159
 20
5.473151916
 11
5.0611981529
 21
5.4730692563
  0
LINE
  5
309
100
AcDbEntity
  8
0
100
AcDbLine
 62
7
  6
CONTINUOUS
 10
5.1125546905
 20
5.0619140069
 11
5.1142139285
 21
5.0633049639
  0
LWPOLYLINE
  5
30A
100
AcDbEntity
  8
0
100
AcDbPolyline
 62
7
  6
CONTINUOUS
 90
14
 70
0
 10
4.6697028496
 20
6.0483405562
 10
4.6700696923
 20
6.0446492845
 10
4.6705945261
 20
6.040218217
 10
4.6712103684
 20
6.0357964461
 10
4.6719167729
 20
6.0313854113
 10
4.672713282
 20
6.0269867916
 10
4.6735994648
 20
6.0226025756
 10
4.6745749632
 20
6.0182344607
 10
4.6756394301
 20
6.0138841064
 10
4.6767924413
 20
6.0095534644
 10
4.6780336346
 20
6.005244185
 10
4.6793626331
 20
6.0009579467
 10
4.680778958
 20
5.9966967304
 10
4.6820297631
 20
5.9931547076
  0
LINE
  5
30B
100
AcDbEntity
  8
0
100
AcDbLine
 62
7
  6
CONTINUOUS
 10
4.7716549614
 20
5.1088331257
 11
4.7716549614
 21
5.0766208757
  0
LINE
  5
30C
100
AcDbEntity
  8
0
100
AcDbLine
 62
7
  6
CONTINUOUS
 10
4.772355143
 20
3.1708300433
 11
4.772355143
 21
3.2028300433
  0
LINE
  5
30D
100
AcDbEntity
  8
0
100
AcDbLine
 62
7
  6
CONTINUOUS
 10
4.7762963156
 20
3.1708300433
 11
4.7762963156
 21
3.2028300433
  0
LINE
  5
30E
100
AcDbEntity
  8
0
100
AcDbLine
 62
7
  6
CONTINUOUS
 10
4.7764702579
 20
5.1100879262
 11
4.7764702579
 21
5.0778756762
  0
LINE
  5
30F
100
AcDbEntity
  8
0
100
AcDbLine
 62
7
  6
CONTINUOUS
 10
4.7835774685
 20
3.2028300433
 11
4.7835774685
 21
3.1708300433
  0
LINE
  5
310
100
AcDbEntity
  8
0
100
AcDbLine
 62
7
  6
CONTINUOUS
 10
4.7856538917
 20
5.1104318214
 11
4.7856538917
 21
5.0782195714
  0
LINE
  5
311
100
AcDbEntity
  8
0
100
AcDbLine
 62
7
  6
CONTINUOUS
 10
4.7888675358
 20
3.1708300433
 11
4.7888675358
 21
3.2028300433
  0
LINE
  5
312
100
AcDbEntity
  8
0
100
AcDbLine
 62
7
  6
CONTINUOUS
 10
4.7928283694
 20
3.1708300433
 11
4.7928283694
 21
3.2028300433
  0
LINE
  5
313
100
AcDbEntity
  8
0
100
AcDbLine
 62
7
  6
CONTINUOUS
 10
4.7946975063
 20
5.109695989
 11
4.7946975063
 21
5.077483739
  0
LINE
  5
314
100
AcDbEntity
  8
0
100
AcDbLine
 62
7
  6
CONTINUOUS
 10
4.7999397645
 20
3.2028300433
 11
4.7999397645
 21
3.1708300433
  0
LINE
  5
315
100
AcDbEntity
  8
0
100
AcDbLine
 62
7
  6
CONTINUOUS
 10
4.8002394405
 20
5.1108967583
 11
4.8002394405
 21
5.0786845083
  0
LINE
  5
316
100
AcDbEntity
  8
0
100
AcDbLine
 62
7
  6
CONTINUOUS
 10
4.805455928
 20
3.1708300433
 11
4.805455928
 21
3.2028300433
  0
LINE
  5
317
100
AcDbEntity
  8
0
100
AcDbLine
 62
7
  6
CONTINUOUS
 10
4.8094325137
 20
3.1708300433
 11
4.8094325137
 21
3.2028300433
  0
LINE
  5
318
100
AcDbEntity
  8
0
100
AcDbLine
 62
7
  6
CONTINUOUS
 10
4.8095979774
 20
5.1111439235
 11
4.8095979774
 21
5.0789316735
  0
LINE
  5
319
100
AcDbEntity
  8
0
100
AcDbLine
 62
7
  6
CONTINUOUS
 10
4.8163671329
 20
3.2028300433
 11
4.8163671329
 21
3.1708300433
  0
LINE
  5
31A
100
AcDbEntity
  8
0
100
AcDbLine
 62
7
  6
CONTINUOUS
 10
4.8181788985
 20
5.1103161482
 11
4.8181788985
 21
5.0781038981
  0
LINE
  5
31B
100
AcDbEntity
  8
0
100
AcDbLine
 62
7
  6
CONTINUOUS
 10
4.8221039488
 20
3.1708300433
 11
4.8221039488
 21
3.2028300433
  0
LINE
  5
31C
100
AcDbEntity
  8
0
100
AcDbLine
 62
7
  6
CONTINUOUS
 10
4.8244133026
 20
5.1114554832
 11
4.8244133026
 21
5.0792432331
  0
LINE
  5
31D
100
AcDbEntity
  8
0
100
AcDbLine
 62
7
  6
CONTINUOUS
 10
4.8260923622
 20
3.1708300433
 11
4.8260923622
 21
3.2028300433
  0
LINE
  5
31E
100
AcDbEntity
  8
0
100
AcDbLine
 62
7
  6
CONTINUOUS
 10
4.8328433619
 20
3.2028300433
 11
4.8328433619
 21
3.1708300433
  0
LINE
  5
31F
100
AcDbEntity
  8
0
100
AcDbLine
 62
7
  6
CONTINUOUS
 10
4.8338890441
 20
5.1116043944
 11
4.8338890441
 21
5.0793921444
  0
LINE
  5
320
100
AcDbEntity
  8
0
100
AcDbLine
 62
7
  6
CONTINUOUS
 10
4.8387951686
 20
3.1708300433
 11
4.8387951686
 21
3.2028300433
  0
LINE
  5
321
100
AcDbEntity
  8
0
100
AcDbLine
 62
7
  6
CONTINUOUS
 10
4.8419543673
 20
5.1106897797
 11
4.8419543673
 21
5.0784775297
  0
LINE
  5
322
100
AcDbEntity
  8
0
100
AcDbLine
 62
7
  6
CONTINUOUS
 10
4.8427914737
 20
3.1708300433
 11
4.8427914737
 21
3.2028300433
  0
LINE
  5
323
100
AcDbEntity
  8
0
100
AcDbLine
 62
7
  6
CONTINUOUS
 10
4.8488428041
 20
5.111760656
 11
4.8488428041
 21
5.0795484059
  0
LINE
  5
324
100
AcDbEntity
  8
0
100
AcDbLine
 62
7
  6
CONTINUOUS
 10
4.8493521914
 20
3.2028300433
 11
4.8493521914
 21
3.1708300433
  0
LINE
  5
325
100
AcDbEntity
  8
0
100
AcDbLine
 62
7
  6
CONTINUOUS
 10
4.8555131153
 20
3.1708300433
 11
4.8555131153
 21
3.2028300433
  0
LINE
  5
326
100
AcDbEntity
  8
0
100
AcDbLine
 62
7
  6
CONTINUOUS
 10
4.8583773292
 20
5.1118103953
 11
4.8583773292
 21
5.0795981453
  0
LINE
  5
327
100
AcDbEntity
  8
0
100
AcDbLine
 62
7
  6
CONTINUOUS
 10
4.8595133682
 20
3.1708300433
 11
4.8595133682
 21
3.2028300433
  0
LINE
  5
328
100
AcDbEntity
  8
0
100
AcDbLine
 62
7
  6
CONTINUOUS
 10
4.8658773292
 20
3.2028300433
 11
4.8658773292
 21
3.1708300433
  0
LINE
  5
329
100
AcDbEntity
  8
0
100
AcDbLine
 62
7
  6
CONTINUOUS
 10
4.8722412902
 20
3.1708300433
 11
4.8722412902
 21
3.2028300433
  0
LINE
  5
32A
100
AcDbEntity
  8
0
100
AcDbLine
 62
7
  6
CONTINUOUS
 10
4.8733773292
 20
5.1118103953
 11
4.8733773292
 21
5.0795981453
  0
LINE
  5
32B
100
AcDbEntity
  8
0
100
AcDbLine
 62
7
  6
CONTINUOUS
 10
4.8762415431
 20
3.1708300433
 11
4.8762415431
 21
3.2028300433
  0
LINE
  5
32C
100
AcDbEntity
  8
0
100
AcDbLine
 62
7
  6
CONTINUOUS
 10
4.8658773292
 20
5.07860233
 11
4.8658773292
 21
5.5159929753
  0
LINE
  5
32D
100
AcDbEntity
  8
0
100
AcDbLine
 62
7
  6
CONTINUOUS
 10
4.8658773292
 20
4.864106562
 11
4.8658773292
 21
4.2255762021
  0
LINE
  5
32E
100
AcDbEntity
  8
0
100
AcDbLine
 62
7
  6
CONTINUOUS
 10
5.0730468071
 20
5.4618883576
 11
5.0729662639
 21
5.4615929999
  0
LINE
  5
32F
100
AcDbEntity
  8
0
100
AcDbLine
 62
7
  6
CONTINUOUS
 10
5.0612254599
 20
5.4731527405
 11
5.061200283
 21
5.4730684789
  0
LINE
  5
330
100
AcDbEntity
  8
0
100
AcDbLine
 62
7
  6
CONTINUOUS
 10
5.0730507757
 20
5.4618782188
 11
5.0729840991
 21
5.4616859415
  0
LINE
  5
331
100
AcDbEntity
  8
0
100
AcDbLine
 62
7
  6
CONTINUOUS
 10
5.0729903052
 20
5.4616701167
 11
5.0729643159
 21
5.4615979642
  0
LINE
  5
332
100
AcDbEntity
  8
0
100
AcDbLine
 62
7
  6
CONTINUOUS
 10
5.0977327023
 20
5.0644103966
 11
5.0985648867
 21
5.0658143508
  0
LINE
  5
333
100
AcDbEntity
  8
0
100
AcDbLine
 62
7
  6
CONTINUOUS
 10
4.882402467
 20
3.2028300433
 11
4.882402467
 21
3.1708300433
  0
LINE
  5
334
100
AcDbEntity
  8
0
100
AcDbLine
 62
7
  6
CONTINUOUS
 10
4.8829118543
 20
5.111760656
 11
4.8829118543
 21
5.0795484059
  0
LINE
  5
335
100
AcDbEntity
  8
0
100
AcDbLine
 62
7
  6
CONTINUOUS
 10
4.8889631847
 20
3.1708300433
 11
4.8889631847
 21
3.2028300433
  0
LINE
  5
336
100
AcDbEntity
  8
0
100
AcDbLine
 62
7
  6
CONTINUOUS
 10
4.8898002911
 20
5.1106897797
 11
4.8898002911
 21
5.0784775297
  0
LINE
  5
337
100
AcDbEntity
  8
0
100
AcDbLine
 62
7
  6
CONTINUOUS
 10
4.8929594897
 20
3.1708300433
 11
4.8929594897
 21
3.2028300433
  0
LINE
  5
338
100
AcDbEntity
  8
0
100
AcDbLine
 62
7
  6
CONTINUOUS
 10
4.8978656143
 20
5.1116043944
 11
4.8978656143
 21
5.0793921444
  0
LINE
  5
339
100
AcDbEntity
  8
0
100
AcDbLine
 62
7
  6
CONTINUOUS
 10
4.8989112965
 20
3.2028300433
 11
4.8989112965
 21
3.1708300433
  0
LINE
  5
33A
100
AcDbEntity
  8
0
100
AcDbLine
 62
7
  6
CONTINUOUS
 10
4.9056622962
 20
3.1708300433
 11
4.9056622962
 21
3.2028300433
  0
LINE
  5
33B
100
AcDbEntity
  8
0
100
AcDbLine
 62
7
  6
CONTINUOUS
 10
4.9073413558
 20
5.1114554832
 11
4.9073413558
 21
5.0792432331
  0
LINE
  5
33C
100
AcDbEntity
  8
0
100
AcDbLine
 62
7
  6
CONTINUOUS
 10
4.9096507096
 20
3.1708300433
 11
4.9096507096
 21
3.2028300433
  0
LINE
  5
33D
100
AcDbEntity
  8
0
100
AcDbLine
 62
7
  6
CONTINUOUS
 10
4.9135757599
 20
5.1103161482
 11
4.9135757599
 21
5.0781038981
  0
LINE
  5
33E
100
AcDbEntity
  8
0
100
AcDbLine
 62
7
  6
CONTINUOUS
 10
4.9153875255
 20
3.2028300433
 11
4.9153875255
 21
3.1708300433
  0
LINE
  5
33F
100
AcDbEntity
  8
0
100
AcDbLine
 62
7
  6
CONTINUOUS
 10
4.9221566809
 20
5.1111439235
 11
4.9221566809
 21
5.0789316735
  0
LINE
  5
340
100
AcDbEntity
  8
0
100
AcDbLine
 62
7
  6
CONTINUOUS
 10
4.9223221447
 20
3.1708300433
 11
4.9223221447
 21
3.2028300433
  0
LINE
  5
341
100
AcDbEntity
  8
0
100
AcDbLine
 62
7
  6
CONTINUOUS
 10
4.9262987304
 20
3.1708300433
 11
4.9262987304
 21
3.2028300433
  0
LINE
  5
342
100
AcDbEntity
  8
0
100
AcDbLine
 62
7
  6
CONTINUOUS
 10
4.9315152179
 20
5.1108967583
 11
4.9315152179
 21
5.0786845083
  0
LINE
  5
343
100
AcDbEntity
  8
0
100
AcDbLine
 62
7
  6
CONTINUOUS
 10
4.9318148939
 20
3.2028300433
 11
4.9318148939
 21
3.1708300433
  0
LINE
  5
344
100
AcDbEntity
  8
0
100
AcDbLine
 62
7
  6
CONTINUOUS
 10
4.9370571521
 20
5.109695989
 11
4.9370571521
 21
5.077483739
  0
LINE
  5
345
100
AcDbEntity
  8
0
100
AcDbLine
 62
7
  6
CONTINUOUS
 10
4.938926289
 20
3.1708300433
 11
4.938926289
 21
3.2028300433
  0
LINE
  5
346
100
AcDbEntity
  8
0
100
AcDbLine
 62
7
  6
CONTINUOUS
 10
4.9428871226
 20
3.1708300433
 11
4.9428871226
 21
3.2028300433
  0
LINE
  5
347
100
AcDbEntity
  8
0
100
AcDbLine
 62
7
  6
CONTINUOUS
 10
4.9461007667
 20
5.1104318214
 11
4.9461007667
 21
5.0782195714
  0
LINE
  5
348
100
AcDbEntity
  8
0
100
AcDbLine
 62
7
  6
CONTINUOUS
 10
4.9481771899
 20
3.2028300433
 11
4.9481771899
 21
3.1708300433
  0
LINE
  5
349
100
AcDbEntity
  8
0
100
AcDbLine
 62
7
  6
CONTINUOUS
 10
4.9552844005
 20
5.1100879262
 11
4.9552844005
 21
5.0778756762
  0
LINE
  5
34A
100
AcDbEntity
  8
0
100
AcDbLine
 62
7
  6
CONTINUOUS
 10
4.9554583428
 20
3.1708300433
 11
4.9554583428
 21
3.2028300433
  0
LINE
  5
34B
100
AcDbEntity
  8
0
100
AcDbLine
 62
7
  6
CONTINUOUS
 10
4.9593995154
 20
3.1708300433
 11
4.9593995154
 21
3.2028300433
  0
LINE
  5
34C
100
AcDbEntity
  8
0
100
AcDbLine
 62
7
  6
CONTINUOUS
 10
4.9600996969
 20
5.1088331257
 11
4.9600996969
 21
5.0766208757
  0
LINE
  5
34D
100
AcDbEntity
  8
0
100
AcDbLine
 62
7
  6
CONTINUOUS
 10
4.9644582658
 20
3.2028300433
 11
4.9644582658
 21
3.1708300433
  0
LINE
  5
34E
100
AcDbEntity
  8
0
100
AcDbLine
 62
7
  6
CONTINUOUS
 10
4.9695502483
 20
5.1094724785
 11
4.9695502483
 21
5.0772602285
  0
LINE
  5
34F
100
AcDbEntity
  8
0
100
AcDbLine
 62
7
  6
CONTINUOUS
 10
4.971901991
 20
3.1708300433
 11
4.971901991
 21
3.2028300433
  0
LINE
  5
350
100
AcDbEntity
  8
0
100
AcDbLine
 62
7
  6
CONTINUOUS
 10
4.9758196131
 20
3.1708300433
 11
4.9758196131
 21
3.2028300433
  0
LINE
  5
351
100
AcDbEntity
  8
0
100
AcDbLine
 62
7
  6
CONTINUOUS
 10
4.9785023588
 20
5.1090339735
 11
4.9785023588
 21
5.0768217235
  0
LINE
  5
352
100
AcDbEntity
  8
0
100
AcDbLine
 62
7
  6
CONTINUOUS
 10
4.9806420543
 20
3.2028300433
 11
4.9806420543
 21
3.1708300433
  0
LINE
  5
353
100
AcDbEntity
  8
0
100
AcDbLine
 62
7
  6
CONTINUOUS
 10
4.9825613296
 20
5.1077328781
 11
4.9825613296
 21
5.0755206281
  0
LINE
  5
354
100
AcDbEntity
  8
0
100
AcDbLine
 62
7
  6
CONTINUOUS
 10
4.9882410056
 20
3.1708300433
 11
4.9882410056
 21
3.2028300433
  0
LINE
  5
355
100
AcDbEntity
  8
0
100
AcDbLine
 62
7
  6
CONTINUOUS
 10
4.9921312111
 20
3.1708300433
 11
4.9921312111
 21
3.2028300433
  0
LINE
  5
356
100
AcDbEntity
  8
0
100
AcDbLine
 62
7
  6
CONTINUOUS
 10
4.9923605518
 20
5.1082718095
 11
4.9923605518
 21
5.0760595595
  0
LWPOLYLINE
  5
357
100
AcDbEntity
  8
0
100
AcDbPolyline
 62
7
  6
CONTINUOUS
 90
25
 70
0
 10
5.0618008178
 20
6.0474068621
 10
5.0621313466
 20
6.051243046
 10
5.0624362623
 20
6.0558324021
 10
5.0626429303
 20
6.0604249759
 10
5.0627511919
 20
6.0650182222
 10
5.0627609126
 20
6.0696099122
 10
5.06267195
 20
6.0741981325
 10
5.0624841844
 20
6.0787805599
 10
5.062197896
 20
6.08335507
 10
5.0618136314
 20
6.0879201287
 10
5.0613319443
 20
6.0924738926
 10
5.0607534043
 20
6.0970143229
 10
5.0600785536
 20
6.101539589
 10
5.0593079134
 20
6.1060479078
 10
5.058442019
 20
6.1105372171
 10
5.0574813895
 20
6.1150053469
 10
5.0564264807
 20
6.1194504773
 10
5.0552777288
 20
6.1238708602
 10
5.0540356505
 20
6.1282644514
 10
5.0527007003
 20
6.1326294666
 10
5.0512733362
 20
6.1369641135
 10
5.0497541244
 20
6.1412663418
 10
5.04814359
 20
6.1455342784
 10
5.0464421941
 20
6.1497662215
 10
5.0449253666
 20
6.1533327431
  0
LINE
  5
358
100
AcDbEntity
  8
0
100
AcDbLine
 62
7
  6
CONTINUOUS
 10
4.6331897717
 20
5.0658143508
 11
4.6340219561
 21
5.0644103966
  0
LINE
  5
359
100
AcDbEntity
  8
0
100
AcDbLine
 62
7
  6
CONTINUOUS
 10
4.6587903425
 20
5.4615979642
 11
4.6587643531
 21
5.4616701167
  0
LINE
  5
35A
100
AcDbEntity
  8
0
100
AcDbLine
 62
7
  6
CONTINUOUS
 10
4.6705565055
 20
5.4730692563
 11
4.6705269425
 21
5.473151916
  0
LINE
  5
35B
100
AcDbEntity
  8
0
100
AcDbLine
 62
7
  6
CONTINUOUS
 10
4.6587705588
 20
5.4616859402
 11
4.6587038822
 21
5.4618782175
  0
LINE
  5
35C
100
AcDbEntity
  8
0
100
AcDbLine
 62
7
  6
CONTINUOUS
 10
4.6705543753
 20
5.4730684789
 11
4.6705291985
 21
5.4731527405
  0
LINE
  5
35D
100
AcDbEntity
  8
0
100
AcDbLine
 62
7
  6
CONTINUOUS
 10
4.6587883945
 20
5.4615929999
 11
4.6587078513
 21
5.4618883576
  0
LINE
  5
35E
100
AcDbEntity
  8
0
100
AcDbLine
 62
7
  6
CONTINUOUS
 10
4.9967125838
 20
3.2028300433
 11
4.9967125838
 21
3.1708300433
  0
LINE
  5
35F
100
AcDbEntity
  8
0
100
AcDbLine
 62
7
  6
CONTINUOUS
 10
5.0010259464
 20
5.1077413982
 11
5.0010259464
 21
5.0755291482
  0
LINE
  5
360
100
AcDbEntity
  8
0
100
AcDbLine
 62
7
  6
CONTINUOUS
 10
5.0043035666
 20
5.1064020296
 11
5.0043035666
 21
5.0741897796
  0
LINE
  5
361
100
AcDbEntity
  8
0
100
AcDbLine
 62
7
  6
CONTINUOUS
 10
5.004459262
 20
3.1708300433
 11
5.004459262
 21
3.2028300433
  0
LINE
  5
362
100
AcDbEntity
  8
0
100
AcDbLine
 62
7
  6
CONTINUOUS
 10
5.0083182117
 20
3.1708300433
 11
5.0083182117
 21
3.2028300433
  0
LINE
  5
363
100
AcDbEntity
  8
0
100
AcDbLine
 62
7
  6
CONTINUOUS
 10
5.0126539947
 20
3.2028300433
 11
5.0126539947
 21
3.1708300433
  0
LINE
  5
364
100
AcDbEntity
  8
0
100
AcDbLine
 62
7
  6
CONTINUOUS
 10
5.0143910443
 20
5.1068372169
 11
5.0143910443
 21
5.0746249668
  0
LINE
  5
365
100
AcDbEntity
  8
0
100
AcDbLine
 62
7
  6
CONTINUOUS
 10
5.0205407549
 20
3.1708300433
 11
5.0205407549
 21
3.2028300433
  0
LINE
  5
366
100
AcDbEntity
  8
0
100
AcDbLine
 62
7
  6
CONTINUOUS
 10
5.0227162978
 20
5.1062181695
 11
5.0227162978
 21
5.0740059194
  0
LINE
  5
367
100
AcDbEntity
  8
0
100
AcDbLine
 62
7
  6
CONTINUOUS
 10
5.0243646403
 20
3.1708300433
 11
5.0243646403
 21
3.2028300433
  0
LINE
  5
368
100
AcDbEntity
  8
0
100
AcDbLine
 62
7
  6
CONTINUOUS
 10
5.0251923598
 20
5.1048487853
 11
5.0251923598
 21
5.0726365353
  0
LINE
  5
369
100
AcDbEntity
  8
0
100
AcDbLine
 62
7
  6
CONTINUOUS
 10
5.0271273292
 20
5.9078300433
 11
5.0271273292
 21
5.9028300433
  0
LINE
  5
36A
100
AcDbEntity
  8
0
100
AcDbLine
 62
7
  6
CONTINUOUS
 10
5.0284505548
 20
3.2028300433
 11
5.0284505548
 21
3.1708300433
  0
LINE
  5
36B
100
AcDbEntity
  8
0
100
AcDbLine
 62
7
  6
CONTINUOUS
 10
5.0355059003
 20
5.1051775454
 11
5.0355059003
 21
5.0729652953
  0
LINE
  5
36C
100
AcDbEntity
  8
0
100
AcDbLine
 62
7
  6
CONTINUOUS
 10
5.0358773292
 20
5.7228300433
 11
5.0358773292
 21
5.8928300433
  0
LINE
  5
36D
100
AcDbEntity
  8
0
100
AcDbLine
 62
7
  6
CONTINUOUS
 10
5.0364696135
 20
3.1708300433
 11
5.0364696135
 21
3.2028300433
  0
LINE
  5
36E
100
AcDbEntity
  8
0
100
AcDbLine
 62
7
  6
CONTINUOUS
 10
5.0402546611
 20
3.1708300433
 11
5.0402546611
 21
3.2028300433
  0
LINE
  5
36F
100
AcDbEntity
  8
0
100
AcDbLine
 62
7
  6
CONTINUOUS
 10
5.0434396848
 20
5.1044736785
 11
5.0434396848
 21
5.0722614285
  0
LINE
  5
370
100
AcDbEntity
  8
0
100
AcDbLine
 62
7
  6
CONTINUOUS
 10
5.0440866748
 20
3.2028300433
 11
5.0440866748
 21
3.1708300433
  0
LINE
  5
371
100
AcDbEntity
  8
0
100
AcDbLine
 62
7
  6
CONTINUOUS
 10
5.0450989228
 20
5.1030827215
 11
5.0450989228
 21
5.0708704715
  0
LINE
  5
372
100
AcDbEntity
  8
0
100
AcDbLine
 62
7
  6
CONTINUOUS
 10
5.0522301182
 20
3.1708300433
 11
5.0522301182
 21
3.2028300433
  0
LINE
  5
373
100
AcDbEntity
  8
0
100
AcDbLine
 62
7
  6
CONTINUOUS
 10
5.0555749397
 20
5.1033030274
 11
5.0555749397
 21
5.0710907774
  0
LINE
  5
374
100
AcDbEntity
  8
0
100
AcDbLine
 62
7
  6
CONTINUOUS
 10
5.0559725926
 20
3.1708300433
 11
5.0559725926
 21
3.2028300433
  0
LINE
  5
375
100
AcDbEntity
  8
0
100
AcDbLine
 62
7
  6
CONTINUOUS
 10
5.0595469236
 20
3.2028300433
 11
5.0595469236
 21
3.1708300433
  0
LINE
  5
376
100
AcDbEntity
  8
0
100
AcDbLine
 62
7
  6
CONTINUOUS
 10
5.0630683408
 20
5.1025186807
 11
5.0630683408
 21
5.0703064307
  0
LINE
  5
377
100
AcDbEntity
  8
0
100
AcDbLine
 62
7
  6
CONTINUOUS
 10
5.0639005252
 20
5.1011147265
 11
5.0639005252
 21
5.0689024765
  0
LINE
  5
378
100
AcDbEntity
  8
0
100
AcDbLine
 62
7
  6
CONTINUOUS
 10
5.0678067152
 20
3.1708300433
 11
5.0678067152
 21
3.2028300433
  0
LINE
  5
379
100
AcDbEntity
  8
0
100
AcDbLine
 62
7
  6
CONTINUOUS
 10
5.0715029229
 20
3.1708300433
 11
5.0715029229
 21
3.2028300433
  0
LINE
  5
37A
100
AcDbEntity
  8
0
100
AcDbLine
 62
7
  6
CONTINUOUS
 10
5.0744744303
 20
5.1012252201
 11
5.0744744303
 21
5.0690129701
  0
LINE
  5
37B
100
AcDbEntity
  8
0
100
AcDbLine
 62
7
  6
CONTINUOUS
 10
5.0748160439
 20
3.2028300433
 11
5.0748160439
 21
3.1708300433
  0
LINE
  5
37C
100
AcDbEntity
  8
0
100
AcDbLine
 62
7
  6
CONTINUOUS
 10
5.0814812487
 20
5.0667446837
 11
5.0814812487
 21
5.1003652292
  0
LINE
  5
37D
100
AcDbEntity
  8
0
100
AcDbLine
 62
7
  6
CONTINUOUS
 10
5.0831840323
 20
3.1708300433
 11
5.0831840323
 21
3.2028300433
  0
LINE
  5
37E
100
AcDbEntity
  8
0
100
AcDbLine
 62
7
  6
CONTINUOUS
 10
5.0868303257
 20
3.1708300433
 11
5.0868303257
 21
3.2028300433
  0
LINE
  5
37F
100
AcDbEntity
  8
0
100
AcDbLine
 62
7
  6
CONTINUOUS
 10
5.0898789669
 20
3.2028300433
 11
5.0898789669
 21
3.1708300433
  0
LINE
  5
380
100
AcDbEntity
  8
0
100
AcDbLine
 62
7
  6
CONTINUOUS
 10
5.0920878504
 20
5.0989569337
 11
5.0920878504
 21
5.0667446837
  0
LINE
  5
381
100
AcDbEntity
  8
0
100
AcDbLine
 62
7
  6
CONTINUOUS
 10
5.0983468939
 20
3.1708300433
 11
5.0983468939
 21
3.2028300433
  0
LINE
  5
382
100
AcDbEntity
  8
0
100
AcDbLine
 62
7
  6
CONTINUOUS
 10
5.0985648867
 20
5.0980266008
 11
5.0985648867
 21
5.0658143508
  0
LINE
  5
383
100
AcDbEntity
  8
0
100
AcDbLine
 62
7
  6
CONTINUOUS
 10
5.1019396745
 20
3.1708300433
 11
5.1019396745
 21
3.2028300433
  0
LINE
  5
384
100
AcDbEntity
  8
0
100
AcDbLine
 62
7
  6
CONTINUOUS
 10
5.1047208274
 20
3.2028300433
 11
5.1047208274
 21
3.1708300433
  0
LINE
  5
385
100
AcDbEntity
  8
0
100
AcDbLine
 62
7
  6
CONTINUOUS
 10
4.6175407299
 20
5.0633049639
 11
4.6191999679
 21
5.0619140069
  0
LWPOLYLINE
  5
386
100
AcDbEntity
  8
0
100
AcDbPolyline
 62
7
  6
CONTINUOUS
 90
13
 70
0
 10
5.1447422025
 20
5.1203344392
 10
5.1440259712
 20
5.134117401
 10
5.1430892676
 20
5.1485189418
 10
5.1419490235
 20
5.1630392113
 10
5.1405997555
 20
5.1776752136
 10
5.1390364078
 20
5.192420989
 10
5.1372535996
 20
5.2072749782
 10
5.1352460751
 20
5.2222344742
 10
5.133009416
 20
5.2372914183
 10
5.1305385871
 20
5.2524431047
 10
5.1278283911
 20
5.2676875298
 10
5.1248745938
 20
5.2830175337
 10
5.1216728257
 20
5.2984292307
  0
LINE
  5
387
100
AcDbEntity
  8
0
100
AcDbLine
 62
7
  6
CONTINUOUS
 10
5.1818416232
 20
5.2182129994
 11
5.1818172225
 21
5.218702941
  0
LINE
  5
388
100
AcDbEntity
  8
0
100
AcDbLine
 62
7
  6
CONTINUOUS
 10
5.1819016985
 20
5.2158300433
 11
5.1818183767
 21
5.2186813963
  0
LWPOLYLINE
  5
389
100
AcDbEntity
  8
0
100
AcDbPolyline
 62
7
  6
CONTINUOUS
 90
6
 70
0
 10
5.1457260456
 20
5.0883570904
 10
5.1456950068
 20
5.0904273622
 10
5.1455428086
 20
5.0975324099
 10
5.1453418563
 20
5.1047221549
 10
5.1450903324
 20
5.1119964679
 10
5.1447422025
 20
5.1203344392
  0
LINE
  5
38A
100
AcDbEntity
  8
0
100
AcDbLine
 62
7
  6
CONTINUOUS
 10
5.1083066074
 20
5.096512153
 11
5.1083066074
 21
5.064299903
  0
LINE
  5
38B
100
AcDbEntity
  8
0
100
AcDbLine
 62
7
  6
CONTINUOUS
 10
5.1132803361
 20
3.1708300433
 11
5.1132803361
 21
3.2028300433
  0
LINE
  5
38C
100
AcDbEntity
  8
0
100
AcDbLine
 62
7
  6
CONTINUOUS
 10
5.1142139285
 20
5.0955172139
 11
5.1142139285
 21
5.0633049639
  0
LINE
  5
38D
100
AcDbEntity
  8
0
100
AcDbLine
 62
7
  6
CONTINUOUS
 10
5.1158773292
 20
5.0282063317
 11
5.1158773292
 21
4.9786490239
  0
LINE
  5
38E
100
AcDbEntity
  8
0
100
AcDbLine
 62
7
  6
CONTINUOUS
 10
5.1168160582
 20
3.1708300433
 11
5.1168160582
 21
3.2028300433
  0
LINE
  5
38F
100
AcDbEntity
  8
0
100
AcDbLine
 62
7
  6
CONTINUOUS
 10
5.1193269782
 20
3.2028300433
 11
5.1193269782
 21
3.1708300433
  0
LINE
  5
390
100
AcDbEntity
  8
0
100
AcDbLine
 62
7
  6
CONTINUOUS
 10
5.1230307073
 20
5.093905951
 11
5.1230307073
 21
5.0616937009
  0
LINE
  5
391
100
AcDbEntity
  8
0
100
AcDbLine
 62
7
  6
CONTINUOUS
 10
5.1279696214
 20
3.1708300433
 11
5.1279696214
 21
3.2028300433
  0
LINE
  5
392
100
AcDbEntity
  8
0
100
AcDbLine
 62
7
  6
CONTINUOUS
 10
5.1283318926
 20
5.0928525398
 11
5.1283318926
 21
5.0606402897
  0
LINE
  5
393
100
AcDbEntity
  8
0
100
AcDbLine
 62
7
  6
CONTINUOUS
 10
5.1283318926
 20
5.0170436092
 11
5.1283318926
 21
5.0155952967
  0
LINE
  5
394
100
AcDbEntity
  8
0
100
AcDbLine
 62
7
  6
CONTINUOUS
 10
5.1314447958
 20
3.1708300433
 11
5.1314447958
 21
3.2028300433
  0
LINE
  5
395
100
AcDbEntity
  8
0
100
AcDbLine
 62
7
  6
CONTINUOUS
 10
5.1336830047
 20
3.2028300433
 11
5.1336830047
 21
3.1708300433
  0
LINE
  5
396
100
AcDbEntity
  8
0
100
AcDbLine
 62
7
  6
CONTINUOUS
 10
5.1361693711
 20
5.0911543955
 11
5.1361693711
 21
5.0589421455
  0
LINE
  5
397
100
AcDbEntity
  8
0
100
AcDbLine
 62
7
  6
CONTINUOUS
 10
5.1408317371
 20
5.0900490069
 11
5.1408317371
 21
5.0578367569
  0
LINE
  5
398
100
AcDbEntity
  8
0
100
AcDbLine
 62
7
  6
CONTINUOUS
 10
5.1408317371
 20
5.019879599
 11
5.1408317371
 21
5.0183988295
  0
LINE
  5
399
100
AcDbEntity
  8
0
100
AcDbLine
 62
7
  6
CONTINUOUS
 10
5.1424002532
 20
3.1708300433
 11
5.1424002532
 21
3.2028300433
  0
LINE
  5
39A
100
AcDbEntity
  8
0
100
AcDbLine
 62
7
  6
CONTINUOUS
 10
5.1458114503
 20
3.1708300433
 11
5.1458114503
 21
3.2028300433
  0
LINE
  5
39B
100
AcDbEntity
  8
0
100
AcDbLine
 62
7
  6
CONTINUOUS
 10
5.1476415946
 20
5.0882744511
 11
5.1476415946
 21
5.056062201
  0
LINE
  5
39C
100
AcDbEntity
  8
0
100
AcDbLine
 62
7
  6
CONTINUOUS
 10
5.1477747394
 20
3.2028300433
 11
5.1477747394
 21
3.1708300433
  0
LINE
  5
39D
100
AcDbEntity
  8
0
100
AcDbLine
 62
7
  6
CONTINUOUS
 10
5.1516363962
 20
5.0871239001
 11
5.1516363962
 21
5.0549116501
  0
LINE
  5
39E
100
AcDbEntity
  8
0
100
AcDbLine
 62
7
  6
CONTINUOUS
 10
5.1516363962
 20
5.0228482644
 11
5.1516363962
 21
5.0213239364
  0
LINE
  5
39F
100
AcDbEntity
  8
0
100
AcDbLine
 62
7
  6
CONTINUOUS
 10
5.1565579903
 20
3.1708300433
 11
5.1565579903
 21
3.2028300433
  0
LINE
  5
3A0
100
AcDbEntity
  8
0
100
AcDbLine
 62
7
  6
CONTINUOUS
 10
5.1573766477
 20
5.0852838734
 11
5.1573766477
 21
5.0530716233
  0
LINE
  5
3A1
100
AcDbEntity
  8
0
100
AcDbLine
 62
7
  6
CONTINUOUS
 10
5.1599018436
 20
3.1708300433
 11
5.1599018436
 21
3.2028300433
  0
LINE
  5
3A2
100
AcDbEntity
  8
0
100
AcDbLine
 62
7
  6
CONTINUOUS
 10
5.1606792557
 20
5.0840952536
 11
5.1606792557
 21
5.0518830035
  0
LINE
  5
3A3
100
AcDbEntity
  8
0
100
AcDbLine
 62
7
  6
CONTINUOUS
 10
5.1606792557
 20
5.0259331499
 11
5.1606792557
 21
5.0243525829
  0
LINE
  5
3A4
100
AcDbEntity
  8
0
100
AcDbLine
 62
7
  6
CONTINUOUS
 10
5.1615882754
 20
3.2028300433
 11
5.1615882754
 21
3.1708300433
  0
LINE
  5
3A5
100
AcDbEntity
  8
0
100
AcDbLine
 62
7
  6
CONTINUOUS
 10
5.1653145106
 20
5.0822011003
 11
5.1653145106
 21
5.0499888503
  0
LINE
  5
3A6
100
AcDbEntity
  8
0
100
AcDbLine
 62
7
  6
CONTINUOUS
 10
5.1679045632
 20
5.08098174
 11
5.1679045632
 21
5.0487694899
  0
LINE
  5
3A7
100
AcDbEntity
  8
0
100
AcDbLine
 62
7
  6
CONTINUOUS
 10
5.1679045632
 20
5.0291177845
 11
5.1679045632
 21
5.0274660965
  0
LINE
  5
3A8
100
AcDbEntity
  8
0
100
AcDbLine
 62
7
  6
CONTINUOUS
 10
5.1704288607
 20
3.1708300433
 11
5.1704288607
 21
3.2028300433
  0
LINE
  5
3A9
100
AcDbEntity
  8
0
100
AcDbLine
 62
7
  6
CONTINUOUS
 10
5.1714062436
 20
5.0790451383
 11
5.1714062436
 21
5.0468328883
  0
LINE
  5
3AA
100
AcDbEntity
  8
0
100
AcDbLine
 62
7
  6
CONTINUOUS
 10
5.1732677724
 20
5.0778025551
 11
5.1732677724
 21
5.045590305
  0
LINE
  5
3AB
100
AcDbEntity
  8
0
100
AcDbLine
 62
7
  6
CONTINUOUS
 10
5.1732677724
 20
5.0323860303
 11
5.1732677724
 21
5.0306452814
  0
LINE
  5
3AC
100
AcDbEntity
  8
0
100
AcDbLine
 62
7
  6
CONTINUOUS
 10
5.1737020702
 20
3.1708300433
 11
5.1737020702
 21
3.2028300433
  0
LINE
  5
3AD
100
AcDbEntity
  8
0
100
AcDbLine
 62
7
  6
CONTINUOUS
 10
5.1751099804
 20
3.2028300433
 11
5.1751099804
 21
3.1708300433
  0
LINE
  5
3AE
100
AcDbEntity
  8
0
100
AcDbLine
 62
7
  6
CONTINUOUS
 10
5.1756142894
 20
5.0758354448
 11
5.1756142894
 21
5.0436231947
  0
LINE
  5
3AF
100
AcDbEntity
  8
0
100
AcDbLine
 62
7
  6
CONTINUOUS
 10
5.1767358173
 20
5.0745772997
 11
5.1767358173
 21
5.0423650496
  0
LINE
  5
3B0
100
AcDbEntity
  8
0
100
AcDbLine
 62
7
  6
CONTINUOUS
 10
5.1767358173
 20
5.0357225679
 11
5.1767358173
 21
5.0338705368
  0
LINE
  5
3B1
100
AcDbEntity
  8
0
100
AcDbLine
 62
7
  6
CONTINUOUS
 10
5.1779127037
 20
5.0725918086
 11
5.1779127037
 21
5.0403795586
  0
LINE
  5
3B2
100
AcDbEntity
  8
0
100
AcDbLine
 62
7
  6
CONTINUOUS
 10
5.1782873162
 20
5.0713258585
 11
5.1782873162
 21
5.0371219779
  0
LINE
  5
3B3
100
AcDbEntity
  8
0
100
AcDbLine
 62
7
  6
CONTINUOUS
 10
5.1783773292
 20
3.3578300433
 11
5.1783773292
 21
4.0978300433
  0
LINE
  5
3B4
100
AcDbEntity
  8
0
100
AcDbLine
 62
7
  6
CONTINUOUS
 10
5.1839991755
 20
3.1708300433
 11
5.1839991755
 21
3.2028300433
  0
LINE
  5
3B5
100
AcDbEntity
  8
0
100
AcDbLine
 62
7
  6
CONTINUOUS
 10
5.187198511
 20
3.1708300433
 11
5.187198511
 21
3.2028300433
  0
LINE
  5
3B6
100
AcDbEntity
  8
0
100
AcDbLine
 62
7
  6
CONTINUOUS
 10
5.1883265101
 20
3.2028300433
 11
5.1883265101
 21
3.1708300433
  0
LINE
  5
3B7
100
AcDbEntity
  8
0
100
AcDbLine
 62
7
  6
CONTINUOUS
 10
5.1972555424
 20
3.1708300433
 11
5.1972555424
 21
3.2028300433
  0
LINE
  5
3B8
100
AcDbEntity
  8
0
100
AcDbLine
 62
7
  6
CONTINUOUS
 10
5.2003778466
 20
3.1708300433
 11
5.2003778466
 21
3.2028300433
  0
LINE
  5
3B9
100
AcDbEntity
  8
0
100
AcDbLine
 62
7
  6
CONTINUOUS
 10
5.2012248214
 20
3.2028300433
 11
5.2012248214
 21
3.1708300433
  0
LINE
  5
3BA
100
AcDbEntity
  8
0
100
AcDbLine
 62
7
  6
CONTINUOUS
 10
5.2101848791
 20
3.1708300433
 11
5.2101848791
 21
3.2028300433
  0
LINE
  5
3BB
100
AcDbEntity
  8
0
100
AcDbLine
 62
7
  6
CONTINUOUS
 10
5.2132270705
 20
3.1708300433
 11
5.2132270705
 21
3.2028300433
  0
LINE
  5
3BC
100
AcDbEntity
  8
0
100
AcDbLine
 62
7
  6
CONTINUOUS
 10
5.2137921852
 20
3.2028300433
 11
5.2137921852
 21
3.1708300433
  0
LINE
  5
3BD
100
AcDbEntity
  8
0
100
AcDbLine
 62
7
  6
CONTINUOUS
 10
4.5801182622
 20
5.0549116501
 11
4.5841772329
 21
5.0536105547
  0
LINE
  5
3BE
100
AcDbEntity
  8
0
100
AcDbLine
 62
7
  6
CONTINUOUS
 10
4.5909229213
 20
5.0578367569
 11
4.5942005415
 21
5.0564973883
  0
LINE
  5
3BF
100
AcDbEntity
  8
0
100
AcDbLine
 62
7
  6
CONTINUOUS
 10
4.6034227657
 20
5.0606402897
 11
4.6058988277
 21
5.0592709056
  0
LINE
  5
3C0
100
AcDbEntity
  8
0
100
AcDbLine
 62
7
  6
CONTINUOUS
 10
4.7618888703
 20
5.7729907466
 11
4.768838365
 21
5.7540002685
  0
LWPOLYLINE
  5
3C1
100
AcDbEntity
  8
0
100
AcDbPolyline
 62
7
  6
CONTINUOUS
 90
4
 70
0
 10
4.7688378901
 20
5.7540001441
 10
4.768859867
 20
5.7539398649
 10
4.7688939307
 20
5.7538450633
 10
4.7689373703
 20
5.7537223842
  0
LINE
  5
3C2
100
AcDbEntity
  8
0
100
AcDbLine
 62
7
  6
CONTINUOUS
 10
4.7505047495
 20
5.8042532782
 11
4.7618888703
 21
5.7729907466
  0
LINE
  5
3C3
100
AcDbEntity
  8
0
100
AcDbLine
 62
7
  6
CONTINUOUS
 10
4.682029873
 20
5.9931544008
 11
4.7112324694
 21
5.9126721831
  0
LINE
  5
3C4
100
AcDbEntity
  8
0
100
AcDbLine
 62
7
  6
CONTINUOUS
 10
4.7112324694
 20
5.9126721831
 11
4.7294152706
 21
5.8624797637
  0
LINE
  5
3C5
100
AcDbEntity
  8
0
100
AcDbLine
 62
7
  6
CONTINUOUS
 10
4.7294152706
 20
5.8624797637
 11
4.7365241614
 21
5.8428315581
  0
LINE
  5
3C6
100
AcDbEntity
  8
0
100
AcDbLine
 62
7
  6
CONTINUOUS
 10
4.7365191133
 20
5.8428455086
 11
4.7505047495
 21
5.8042532782
  0
LINE
  5
3C7
100
AcDbEntity
  8
0
100
AcDbLine
 62
7
  6
CONTINUOUS
 10
4.7689373703
 20
5.7537223842
 11
4.7690542877
 21
5.7533850032
  0
LINE
  5
3C8
100
AcDbEntity
  8
0
100
AcDbLine
 62
7
  6
CONTINUOUS
 10
4.7690542877
 20
5.7533850032
 11
4.7692156553
 21
5.7529088111
  0
LINE
  5
3C9
100
AcDbEntity
  8
0
100
AcDbLine
 62
7
  6
CONTINUOUS
 10
4.7692156553
 20
5.7529088111
 11
4.7696676831
 21
5.7515491276
  0
LINE
  5
3CA
100
AcDbEntity
  8
0
100
AcDbLine
 62
7
  6
CONTINUOUS
 10
4.7696676831
 20
5.7515491276
 11
4.7699611341
 21
5.7506589369
  0
LINE
  5
3CB
100
AcDbEntity
  8
0
100
AcDbLine
 62
7
  6
CONTINUOUS
 10
5.2227744257
 20
3.1708300433
 11
5.2227744257
 21
3.2028300433
  0
LINE
  5
3CC
100
AcDbEntity
  8
0
100
AcDbLine
 62
7
  6
CONTINUOUS
 10
5.2257335022
 20
3.1708300433
 11
5.2257335022
 21
3.2028300433
  0
LINE
  5
3CD
100
AcDbEntity
  8
0
100
AcDbLine
 62
7
  6
CONTINUOUS
 10
5.226016199
 20
3.2028300433
 11
5.226016199
 21
3.1708300433
  0
LINE
  5
3CE
100
AcDbEntity
  8
0
100
AcDbLine
 62
7
  6
CONTINUOUS
 10
5.235011758
 20
3.1708300433
 11
5.235011758
 21
3.2028300433
  0
LINE
  5
3CF
100
AcDbEntity
  8
0
100
AcDbLine
 62
7
  6
CONTINUOUS
 10
5.2378847992
 20
3.1708300433
 11
5.2378847992
 21
3.2028300433
  0
LINE
  5
3D0
100
AcDbEntity
  8
0
100
AcDbLine
 62
7
  6
CONTINUOUS
 10
5.2468847992
 20
3.1708300433
 11
5.2468847992
 21
3.2028300433
  0
LINE
  5
3D1
100
AcDbEntity
  8
0
100
AcDbLine
 62
7
  6
CONTINUOUS
 10
5.2496689699
 20
3.1708300433
 11
5.2496689699
 21
3.2028300433
  0
LINE
  5
3D2
100
AcDbEntity
  8
0
100
AcDbLine
 62
7
  6
CONTINUOUS
 10
5.2583818321
 20
3.1708300433
 11
5.2583818321
 21
3.2028300433
  0
LINE
  5
3D3
100
AcDbEntity
  8
0
100
AcDbLine
 62
7
  6
CONTINUOUS
 10
5.2610743845
 20
3.1708300433
 11
5.2610743845
 21
3.2028300433
  0
LINE
  5
3D4
100
AcDbEntity
  8
0
100
AcDbLine
 62
7
  6
CONTINUOUS
 10
5.2694915103
 20
3.1708300433
 11
5.2694915103
 21
3.2028300433
  0
LINE
  5
3D5
100
AcDbEntity
  8
0
100
AcDbLine
 62
7
  6
CONTINUOUS
 10
5.2720897873
 20
3.1708300433
 11
5.2720897873
 21
3.2028300433
  0
LINE
  5
3D6
100
AcDbEntity
  8
0
100
AcDbLine
 62
7
  6
CONTINUOUS
 10
5.2802028701
 20
3.1708300433
 11
5.2802028701
 21
3.2028300433
  0
LINE
  5
3D7
100
AcDbEntity
  8
0
100
AcDbLine
 62
7
  6
CONTINUOUS
 10
5.2827043075
 20
3.1708300433
 11
5.2827043075
 21
3.2028300433
  0
LINE
  5
3D8
100
AcDbEntity
  8
0
100
AcDbLine
 62
7
  6
CONTINUOUS
 10
5.2858773292
 20
5.0776570598
 11
5.2858777322
 21
5.0598702165
  0
LINE
  5
3D9
100
AcDbEntity
  8
0
100
AcDbLine
 62
7
  6
CONTINUOUS
 10
5.2905053407
 20
3.1708300433
 11
5.2905053407
 21
3.2028300433
  0
LINE
  5
3DA
100
AcDbEntity
  8
0
100
AcDbLine
 62
7
  6
CONTINUOUS
 10
5.2929074697
 20
3.1708300433
 11
5.2929074697
 21
3.2028300433
  0
LINE
  5
3DB
100
AcDbEntity
  8
0
100
AcDbLine
 62
7
  6
CONTINUOUS
 10
5.3003887546
 20
3.1708300433
 11
5.3003887546
 21
3.2028300433
  0
LINE
  5
3DC
100
AcDbEntity
  8
0
100
AcDbLine
 62
7
  6
CONTINUOUS
 10
5.3026892048
 20
3.1708300433
 11
5.3026892048
 21
3.2028300433
  0
LINE
  5
3DD
100
AcDbEntity
  8
0
100
AcDbLine
 62
7
  6
CONTINUOUS
 10
5.3098433582
 20
3.1708300433
 11
5.3098433582
 21
3.2028300433
  0
LINE
  5
3DE
100
AcDbEntity
  8
0
100
AcDbLine
 62
7
  6
CONTINUOUS
 10
5.3120398593
 20
3.1708300433
 11
5.3120398593
 21
3.2028300433
  0
LINE
  5
3DF
100
AcDbEntity
  8
0
100
AcDbLine
 62
7
  6
CONTINUOUS
 10
5.318859821
 20
3.1708300433
 11
5.318859821
 21
3.2028300433
  0
LINE
  5
3E0
100
AcDbEntity
  8
0
100
AcDbLine
 62
7
  6
CONTINUOUS
 10
5.3209502052
 20
3.1708300433
 11
5.3209502052
 21
3.2028300433
  0
LINE
  5
3E1
100
AcDbEntity
  8
0
100
AcDbLine
 62
7
  6
CONTINUOUS
 10
5.3233773292
 20
3.2478300433
 11
5.3233773292
 21
3.2746435014
  0
LINE
  5
3E2
100
AcDbEntity
  8
0
100
AcDbLine
 62
7
  6
CONTINUOUS
 10
5.3274292447
 20
3.1708300433
 11
5.3274292447
 21
3.2028300433
  0
LINE
  5
3E3
100
AcDbEntity
  8
0
100
AcDbLine
 62
7
  6
CONTINUOUS
 10
5.3294114492
 20
3.1708300433
 11
5.3294114492
 21
3.2028300433
  0
LWPOLYLINE
  5
3E4
100
AcDbEntity
  8
0
100
AcDbPolyline
 62
7
  6
CONTINUOUS
 90
27
 70
0
 10
5.2858773292
 20
4.2130030267
 10
5.2858776757
 20
4.2309522706
 10
5.2858998471
 20
4.2317766711
 10
5.2859559865
 20
4.2325994567
 10
5.2860459985
 20
4.2334192283
 10
5.28616973
 20
4.2342345921
 10
5.2863269707
 20
4.2350441618
 10
5.2865174531
 20
4.2358465608
 10
5.2867408534
 20
4.2366404248
 10
5.2869967918
 20
4.2374244039
 10
5.287284833
 20
4.2381971652
 10
5.2876044874
 20
4.2389573946
 10
5.2879552113
 20
4.2397037996
 10
5.2883364085
 20
4.2404351111
 10
5.2887474308
 20
4.2411500855
 10
5.2891875793
 20
4.2418475072
 10
5.2896561056
 20
4.2425261904
 10
5.2901522132
 20
4.243184981
 10
5.2906750584
 20
4.2438227589
 10
5.2912237522
 20
4.2444384397
 10
5.2917973616
 20
4.2450309765
 10
5.2923949115
 20
4.2455993619
 10
5.2930153856
 20
4.2461426293
 10
5.2936577291
 20
4.246659855
 10
5.2943208497
 20
4.2471501597
 10
5.2950036199
 20
4.2476127096
 10
5.2957588257
 20
4.248078473
  0
LINE
  5
3E5
100
AcDbEntity
  8
0
100
AcDbLine
 62
7
  6
CONTINUOUS
 10
5.1558639592
 20
5.0506282031
 11
5.1606792557
 21
5.0518830035
  0
LINE
  5
3E6
100
AcDbEntity
  8
0
100
AcDbLine
 62
7
  6
CONTINUOUS
 10
5.162362629
 20
5.0475687206
 11
5.1679045632
 21
5.0487694899
  0
LINE
  5
3E7
100
AcDbEntity
  8
0
100
AcDbLine
 62
7
  6
CONTINUOUS
 10
5.1670333683
 20
5.0444509701
 11
5.1732677724
 21
5.045590305
  0
LINE
  5
3E8
100
AcDbEntity
  8
0
100
AcDbLine
 62
7
  6
CONTINUOUS
 10
5.1698473805
 20
5.0412941734
 11
5.1767358173
 21
5.0423650496
  0
LINE
  5
3E9
100
AcDbEntity
  8
0
100
AcDbLine
 62
7
  6
CONTINUOUS
 10
5.1707873162
 20
5.0381177932
 11
5.1782873162
 21
5.0391136085
  0
LINE
  5
3EA
100
AcDbEntity
  8
0
100
AcDbLine
 62
7
  6
CONTINUOUS
 10
5.1698473805
 20
5.0349414131
 11
5.1779127037
 21
5.0358560278
  0
LINE
  5
3EB
100
AcDbEntity
  8
0
100
AcDbLine
 62
7
  6
CONTINUOUS
 10
5.1670333683
 20
5.0317846164
 11
5.1756142894
 21
5.0326123917
  0
LINE
  5
3EC
100
AcDbEntity
  8
0
100
AcDbLine
 62
7
  6
CONTINUOUS
 10
5.162362629
 20
5.0286668658
 11
5.1714062436
 21
5.0294026982
  0
LINE
  5
3ED
100
AcDbEntity
  8
0
100
AcDbLine
 62
7
  6
CONTINUOUS
 10
5.1558639592
 20
5.0256073833
 11
5.1653145106
 21
5.0262467361
  0
LINE
  5
3EE
100
AcDbEntity
  8
0
100
AcDbLine
 62
7
  6
CONTINUOUS
 10
5.1475774255
 20
5.0226250317
 11
5.1573766477
 21
5.0231639631
  0
LINE
  5
3EF
100
AcDbEntity
  8
0
100
AcDbLine
 62
7
  6
CONTINUOUS
 10
5.1375541169
 20
5.0197381981
 11
5.1476415946
 21
5.0201733854
  0
LINE
  5
3F0
100
AcDbEntity
  8
0
100
AcDbLine
 62
7
  6
CONTINUOUS
 10
4.5116531406
 20
5.027645298
 11
4.5113564611
 21
5.027632844
  0
LINE
  5
3F1
100
AcDbEntity
  8
0
100
AcDbLine
 62
7
  6
CONTINUOUS
 10
5.1258558307
 20
5.0169646809
 11
5.1361693711
 21
5.0172934409
  0
LINE
  5
3F2
100
AcDbEntity
  8
0
100
AcDbLine
 62
7
  6
CONTINUOUS
 10
5.1158773292
 20
5.0143914532
 11
5.1230307073
 21
5.0145418855
  0
LINE
  5
3F3
100
AcDbEntity
  8
0
100
AcDbLine
 62
7
  6
CONTINUOUS
 10
4.5469246971
 20
5.0453122765
 11
4.5463394543
 21
5.0453045381
  0
LINE
  5
3F4
100
AcDbEntity
  8
0
100
AcDbLine
 62
7
  6
CONTINUOUS
 10
5.3057549401
 20
5.0279764138
 11
5.296705231
 21
5.0278982085
  0
LINE
  5
3F5
100
AcDbEntity
  8
0
100
AcDbLine
 62
7
  6
CONTINUOUS
 10
5.2203974038
 20
5.027639874
 11
5.2201023038
 21
5.0276383313
  0
LINE
  5
3F6
100
AcDbEntity
  8
0
100
AcDbLine
 62
7
  6
CONTINUOUS
 10
5.285024897
 20
5.0599970099
 11
5.2858773292
 21
5.0600018165
  0
LINE
  5
3F7
100
AcDbEntity
  8
0
100
AcDbLine
 62
7
  6
CONTINUOUS
 10
5.2005458741
 20
5.0453300439
 11
5.189728946
 21
5.0452852235
  0
LINE
  5
3F8
100
AcDbEntity
  8
0
100
AcDbLine
 62
7
  6
CONTINUOUS
 10
5.273422009
 20
5.0599505395
 11
5.2858773209
 21
5.0600019004
  0
LINE
  5
3F9
100
AcDbEntity
  8
0
100
AcDbLine
 62
7
  6
CONTINUOUS
 10
5.1886954967
 20
5.0452881075
 11
5.187956069
 21
5.0452861007
  0
LINE
  5
3FA
100
AcDbEntity
  8
0
100
AcDbLine
 62
7
  6
CONTINUOUS
 10
5.2870832854
 20
5.0426456175
 11
5.2959040518
 21
5.0426659622
  0
LINE
  5
3FB
100
AcDbEntity
  8
0
100
AcDbLine
 62
7
  6
CONTINUOUS
 10
4.5476835709
 20
5.0453300433
 11
4.4875050069
 21
5.045330025
  0
LINE
  5
3FC
100
AcDbEntity
  8
0
100
AcDbLine
 62
7
  6
CONTINUOUS
 10
5.1839751551
 20
5.0453300433
 11
5.2441877693
 21
5.0453300433
  0
LINE
  5
3FD
100
AcDbEntity
  8
0
100
AcDbLine
 62
7
  6
CONTINUOUS
 10
4.5047628176
 20
5.0653300432
 11
4.5534673422
 21
5.0653300433
  0
LINE
  5
3FE
100
AcDbEntity
  8
0
100
AcDbLine
 62
7
  6
CONTINUOUS
 10
5.1782873162
 20
5.0653300433
 11
5.2269918409
 21
5.0653300432
  0
LINE
  5
3FF
100
AcDbEntity
  8
0
100
AcDbLine
 62
7
  6
CONTINUOUS
 10
4.4358505363
 20
5.0426659235
 11
4.444671373
 21
5.0426456175
  0
LWPOLYLINE
  5
400
100
AcDbEntity
  8
0
100
AcDbPolyline
 62
7
  6
CONTINUOUS
 90
4
 70
0
 10
5.189728946
 20
5.0452852235
 10
5.1864512439
 20
5.0452943707
 10
5.183361238
 20
5.0453388878
 10
5.1804658665
 20
5.0454287685
  0
LINE
  5
401
100
AcDbEntity
  8
0
100
AcDbLine
 62
7
  6
CONTINUOUS
 10
4.4458773376
 20
5.0600019005
 11
4.4583326493
 21
5.0599505395
  0
LINE
  5
402
100
AcDbEntity
  8
0
100
AcDbLine
 62
7
  6
CONTINUOUS
 10
4.5116523546
 20
5.0276383313
 11
4.5113572545
 21
5.027639874
  0
LINE
  5
403
100
AcDbEntity
  8
0
100
AcDbLine
 62
7
  6
CONTINUOUS
 10
5.187956069
 20
5.0452861007
 11
5.1854152147
 21
5.045304538
  0
LINE
  5
404
100
AcDbEntity
  8
0
100
AcDbLine
 62
7
  6
CONTINUOUS
 10
4.4350494273
 20
5.0278982085
 11
4.4259997199
 21
5.027976414
  0
LINE
  5
405
100
AcDbEntity
  8
0
100
AcDbLine
 62
7
  6
CONTINUOUS
 10
4.4458773292
 20
5.0600018165
 11
4.4459059278
 21
5.0600015469
  0
LINE
  5
406
100
AcDbEntity
  8
0
100
AcDbLine
 62
7
  6
CONTINUOUS
 10
4.6087239511
 20
5.0145418855
 11
4.6158773292
 21
5.0143914532
  0
LINE
  5
407
100
AcDbEntity
  8
0
100
AcDbLine
 62
7
  6
CONTINUOUS
 10
4.5955852873
 20
5.0172934409
 11
4.6058988277
 21
5.0169646809
  0
LINE
  5
408
100
AcDbEntity
  8
0
100
AcDbLine
 62
7
  6
CONTINUOUS
 10
5.2203981972
 20
5.027632844
 11
5.2201015178
 21
5.0276452981
  0
LINE
  5
409
100
AcDbEntity
  8
0
100
AcDbLine
 62
7
  6
CONTINUOUS
 10
4.5841130638
 20
5.0201733854
 11
4.5942005415
 21
5.0197381981
  0
LINE
  5
40A
100
AcDbEntity
  8
0
100
AcDbLine
 62
7
  6
CONTINUOUS
 10
5.1804658665
 20
5.0454287685
 11
5.1782873162
 21
5.0455437907
  0
LINE
  5
40B
100
AcDbEntity
  8
0
100
AcDbLine
 62
7
  6
CONTINUOUS
 10
4.5743780107
 20
5.0231639631
 11
4.5841772329
 21
5.0226250317
  0
LINE
  5
40C
100
AcDbEntity
  8
0
100
AcDbLine
 62
7
  6
CONTINUOUS
 10
4.5664401478
 20
5.0262467361
 11
4.5758906991
 21
5.0256073833
  0
LINE
  5
40D
100
AcDbEntity
  8
0
100
AcDbLine
 62
7
  6
CONTINUOUS
 10
4.5603484147
 20
5.0294026982
 11
4.5693920294
 21
5.0286668658
  0
LINE
  5
40E
100
AcDbEntity
  8
0
100
AcDbLine
 62
7
  6
CONTINUOUS
 10
4.556140369
 20
5.0326123917
 11
4.5647212901
 21
5.0317846164
  0
LINE
  5
40F
100
AcDbEntity
  8
0
100
AcDbLine
 62
7
  6
CONTINUOUS
 10
4.5538419547
 20
5.0358560278
 11
4.5619072779
 21
5.0349414131
  0
LINE
  5
410
100
AcDbEntity
  8
0
100
AcDbLine
 62
7
  6
CONTINUOUS
 10
4.5534673422
 20
5.0391136085
 11
4.5609673422
 21
5.0381177932
  0
LINE
  5
411
100
AcDbEntity
  8
0
100
AcDbLine
 62
7
  6
CONTINUOUS
 10
4.5550188411
 20
5.0423650496
 11
4.5619072779
 21
5.0412941734
  0
LINE
  5
412
100
AcDbEntity
  8
0
100
AcDbLine
 62
7
  6
CONTINUOUS
 10
4.558486886
 20
5.045590305
 11
4.5647212901
 21
5.0444509701
  0
LINE
  5
413
100
AcDbEntity
  8
0
100
AcDbLine
 62
7
  6
CONTINUOUS
 10
4.5638500952
 20
5.0487694899
 11
4.5693920294
 21
5.0475687206
  0
LINE
  5
414
100
AcDbEntity
  8
0
100
AcDbLine
 62
7
  6
CONTINUOUS
 10
4.5710754027
 20
5.0518830035
 11
4.5758906991
 21
5.0506282031
  0
LINE
  5
415
100
AcDbEntity
  8
0
100
AcDbLine
 62
7
  6
CONTINUOUS
 10
5.0639005252
 20
5.0689024765
 11
5.0630683408
 21
5.0703064307
  0
LINE
  5
416
100
AcDbEntity
  8
0
100
AcDbLine
 62
7
  6
CONTINUOUS
 10
5.0639005252
 20
5.1011147265
 11
5.0630683408
 21
5.1025186807
  0
LINE
  5
417
100
AcDbEntity
  8
0
100
AcDbLine
 62
7
  6
CONTINUOUS
 10
5.1154647002
 20
5.0301126563
 11
5.1154543577
 21
5.0301363793
  0
LINE
  5
418
100
AcDbEntity
  8
0
100
AcDbLine
 62
7
  6
CONTINUOUS
 10
5.115462697
 20
5.030112641
 11
5.1154543699
 21
5.0301363794
  0
LINE
  5
419
100
AcDbEntity
  8
0
100
AcDbLine
 62
7
  6
CONTINUOUS
 10
5.0988111447
 20
5.3878206319
 11
5.098888987
 21
5.3875572371
  0
LINE
  5
41A
100
AcDbEntity
  8
0
100
AcDbLine
 62
7
  6
CONTINUOUS
 10
5.1011352056
 20
5.3797688041
 11
5.0947583774
 21
5.4018377711
  0
LINE
  5
41B
100
AcDbEntity
  8
0
100
AcDbLine
 62
7
  6
CONTINUOUS
 10
5.0947583774
 20
5.4018377711
 11
5.0906517335
 21
5.416146923
  0
LINE
  5
41C
100
AcDbEntity
  8
0
100
AcDbLine
 62
7
  6
CONTINUOUS
 10
5.0906517335
 20
5.416146923
 11
5.0881533491
 21
5.4249270865
  0
LINE
  5
41D
100
AcDbEntity
  8
0
100
AcDbLine
 62
7
  6
CONTINUOUS
 10
5.1032488073
 20
5.3723150385
 11
5.1011352056
 21
5.3797688041
  0
LINE
  5
41E
100
AcDbEntity
  8
0
100
AcDbLine
 62
7
  6
CONTINUOUS
 10
5.0881533491
 20
5.4249270865
 11
5.085847981
 21
5.433111012
  0
LINE
  5
41F
100
AcDbEntity
  8
0
100
AcDbLine
 62
7
  6
CONTINUOUS
 10
5.085847981
 20
5.433111012
 11
5.0837322547
 21
5.4407152954
  0
LINE
  5
420
100
AcDbEntity
  8
0
100
AcDbLine
 62
7
  6
CONTINUOUS
 10
5.1054669645
 20
5.3643355961
 11
5.1032488073
 21
5.3723150385
  0
LINE
  5
421
100
AcDbEntity
  8
0
100
AcDbLine
 62
7
  6
CONTINUOUS
 10
5.0837322547
 20
5.4407152954
 11
5.081795397
 21
5.4477777561
  0
LINE
  5
422
100
AcDbEntity
  8
0
100
AcDbLine
 62
7
  6
CONTINUOUS
 10
5.1070608419
 20
5.3584878744
 11
5.1054669645
 21
5.3643355961
  0
LINE
  5
423
100
AcDbEntity
  8
0
100
AcDbLine
 62
7
  6
CONTINUOUS
 10
5.081795397
 20
5.4477777561
 11
5.0800510029
 21
5.4542384115
  0
LWPOLYLINE
  5
424
100
AcDbEntity
  8
0
100
AcDbPolyline
 62
7
  6
CONTINUOUS
 90
37
 70
0
 10
5.0762754277
 20
5.4687112326
 10
5.0762076445
 20
5.4689645438
 10
5.076133894
 20
5.469228216
 10
5.0760528564
 20
5.4695050472
 10
5.0759639358
 20
5.4697949042
 10
5.0758664965
 20
5.4700976361
 10
5.0757588736
 20
5.4704159286
 10
5.0756401934
 20
5.4707496035
 10
5.0755095939
 20
5.4710982646
 10
5.0753650922
 20
5.4714641331
 10
5.0752053808
 20
5.4718471492
 10
5.0750294369
 20
5.4722463408
 10
5.0748353989
 20
5.4726623835
 10
5.0746215631
 20
5.4730951703
 10
5.0743868143
 20
5.4735431626
 10
5.0741300637
 20
5.4740047332
 10
5.0738494347
 20
5.4744795285
 10
5.0735438733
 20
5.4749655972
 10
5.0732137776
 20
5.4754589017
 10
5.0728577656
 20
5.4759583527
 10
5.0724747904
 20
5.476462285
 10
5.0720663263
 20
5.4769659886
 10
5.0716322658
 20
5.4774672498
 10
5.0711711938
 20
5.477965385
 10
5.0706830872
 20
5.478458121
 10
5.0701679107
 20
5.478943342
 10
5.0696246917
 20
5.4794198365
 10
5.0690521139
 20
5.4798865182
 10
5.0684504456
 20
5.48034092
 10
5.0678187936
 20
5.4807814829
 10
5.0671539516
 20
5.4812079128
 10
5.0664561205
 20
5.4816173415
 10
5.0657247713
 20
5.4820073379
 10
5.0649553142
 20
5.4823772023
 10
5.0641461655
 20
5.4827240425
 10
5.0632990983
 20
5.4830434082
 10
5.06308196
 20
5.4831183447
  0
LINE
  5
425
100
AcDbEntity
  8
0
100
AcDbLine
 62
7
  6
CONTINUOUS
 10
5.1087608001
 20
5.3521331035
 11
5.1070608419
 21
5.3584878744
  0
LINE
  5
426
100
AcDbEntity
  8
0
100
AcDbLine
 62
7
  6
CONTINUOUS
 10
5.0800510029
 20
5.4542384115
 11
5.0785143428
 21
5.460026168
  0
LINE
  5
427
100
AcDbEntity
  8
0
100
AcDbLine
 62
7
  6
CONTINUOUS
 10
5.1105620213
 20
5.3452532946
 11
5.1087608001
 21
5.3521331035
  0
LINE
  5
428
100
AcDbEntity
  8
0
100
AcDbLine
 62
7
  6
CONTINUOUS
 10
5.0785143428
 20
5.460026168
 11
5.077249881
 21
5.4648861244
  0
LINE
  5
429
100
AcDbEntity
  8
0
100
AcDbLine
 62
7
  6
CONTINUOUS
 10
5.1124439476
 20
5.3378873196
 11
5.1105620213
 21
5.3452532946
  0
LINE
  5
42A
100
AcDbEntity
  8
0
100
AcDbLine
 62
7
  6
CONTINUOUS
 10
5.077249881
 20
5.4648861244
 11
5.0762754277
 21
5.4687112326
  0
LINE
  5
42B
100
AcDbEntity
  8
0
100
AcDbLine
 62
7
  6
CONTINUOUS
 10
5.1143906414
 20
5.3300559615
 11
5.1124439476
 21
5.3378873196
  0
LWPOLYLINE
  5
42C
100
AcDbEntity
  8
0
100
AcDbPolyline
 62
7
  6
CONTINUOUS
 90
3
 70
0
 10
5.1173877031
 20
5.3175219022
 10
5.1163817401
 20
5.3217982461
 10
5.1143906414
 20
5.3300559615
  0
LINE
  5
42D
100
AcDbEntity
  8
0
100
AcDbLine
 62
7
  6
CONTINUOUS
 10
5.1191091632
 20
5.3099954967
 11
5.1173877031
 21
5.3175219022
  0
LINE
  5
42E
100
AcDbEntity
  8
0
100
AcDbLine
 62
7
  6
CONTINUOUS
 10
5.1216728257
 20
5.2984292307
 11
5.1188346696
 21
5.3112339067
  0
LINE
  5
42F
100
AcDbEntity
  8
0
100
AcDbLine
 62
7
  6
CONTINUOUS
 10
5.3355431724
 20
3.1708300433
 11
5.3355431724
 21
3.2028300433
  0
LINE
  5
430
100
AcDbEntity
  8
0
100
AcDbLine
 62
7
  6
CONTINUOUS
 10
5.3374152409
 20
3.1708300433
 11
5.3374152409
 21
3.2028300433
  0
LINE
  5
431
100
AcDbEntity
  8
0
100
AcDbLine
 62
7
  6
CONTINUOUS
 10
5.3431935966
 20
3.1708300433
 11
5.3431935966
 21
3.2028300433
  0
LINE
  5
432
100
AcDbEntity
  8
0
100
AcDbLine
 62
7
  6
CONTINUOUS
 10
5.3449536817
 20
3.1708300433
 11
5.3449536817
 21
3.2028300433
  0
LINE
  5
433
100
AcDbEntity
  8
0
100
AcDbLine
 62
7
  6
CONTINUOUS
 10
5.3503729673
 20
3.1708300433
 11
5.3503729673
 21
3.2028300433
  0
LINE
  5
434
100
AcDbEntity
  8
0
100
AcDbLine
 62
7
  6
CONTINUOUS
 10
5.3520193319
 20
3.1708300433
 11
5.3520193319
 21
3.2028300433
  0
LINE
  5
435
100
AcDbEntity
  8
0
100
AcDbLine
 62
7
  6
CONTINUOUS
 10
5.3570741993
 20
3.1708300433
 11
5.3570741993
 21
3.2028300433
  0
LINE
  5
436
100
AcDbEntity
  8
0
100
AcDbLine
 62
7
  6
CONTINUOUS
 10
5.3586052187
 20
3.1708300433
 11
5.3586052187
 21
3.2028300433
  0
LINE
  5
437
100
AcDbEntity
  8
0
100
AcDbLine
 62
7
  6
CONTINUOUS
 10
5.3632906793
 20
3.1708300433
 11
5.3632906793
 21
3.2028300433
  0
LINE
  5
438
100
AcDbEntity
  8
0
100
AcDbLine
 62
7
  6
CONTINUOUS
 10
5.3647048425
 20
3.1708300433
 11
5.3647048425
 21
3.2028300433
  0
LINE
  5
439
100
AcDbEntity
  8
0
100
AcDbLine
 62
7
  6
CONTINUOUS
 10
5.3690162723
 20
3.1708300433
 11
5.3690162723
 21
3.2028300433
  0
LINE
  5
43A
100
AcDbEntity
  8
0
100
AcDbLine
 62
7
  6
CONTINUOUS
 10
5.3703121838
 20
3.1708300433
 11
5.3703121838
 21
3.2028300433
  0
LINE
  5
43B
100
AcDbEntity
  8
0
100
AcDbLine
 62
7
  6
CONTINUOUS
 10
5.374245328
 20
3.1708300433
 11
5.374245328
 21
3.2028300433
  0
LINE
  5
43C
100
AcDbEntity
  8
0
100
AcDbLine
 62
7
  6
CONTINUOUS
 10
5.3754217088
 20
3.1708300433
 11
5.3754217088
 21
3.2028300433
  0
LINE
  5
43D
100
AcDbEntity
  8
0
100
AcDbLine
 62
7
  6
CONTINUOUS
 10
5.3758773292
 20
3.0924011111
 11
5.3758773292
 21
3.1708300433
  0
LINE
  5
43E
100
AcDbEntity
  8
0
100
AcDbLine
 62
7
  6
CONTINUOUS
 10
5.3789726858
 20
3.1708300433
 11
5.3789726858
 21
3.2028300433
  0
LINE
  5
43F
100
AcDbEntity
  8
0
100
AcDbLine
 62
7
  6
CONTINUOUS
 10
5.380028375
 20
3.1708300433
 11
5.380028375
 21
3.2028300433
  0
LINE
  5
440
100
AcDbEntity
  8
0
100
AcDbLine
 62
7
  6
CONTINUOUS
 10
5.3831936805
 20
3.1708300433
 11
5.3831936805
 21
3.2028300433
  0
LINE
  5
441
100
AcDbEntity
  8
0
100
AcDbLine
 62
7
  6
CONTINUOUS
 10
5.3841276362
 20
3.1708300433
 11
5.3841276362
 21
3.2028300433
  0
LINE
  5
442
100
AcDbEntity
  8
0
100
AcDbLine
 62
7
  6
CONTINUOUS
 10
5.3869041464
 20
3.1708300433
 11
5.3869041464
 21
3.2028300433
  0
LINE
  5
443
100
AcDbEntity
  8
0
100
AcDbLine
 62
7
  6
CONTINUOUS
 10
5.3877154469
 20
3.1708300433
 11
5.3877154469
 21
3.2028300433
  0
LINE
  5
444
100
AcDbEntity
  8
0
100
AcDbLine
 62
7
  6
CONTINUOUS
 10
5.3901004217
 20
3.1708300433
 11
5.3901004217
 21
3.2028300433
  0
LINE
  5
445
100
AcDbEntity
  8
0
100
AcDbLine
 62
7
  6
CONTINUOUS
 10
5.3907882664
 20
3.1708300433
 11
5.3907882664
 21
3.2028300433
  0
LINE
  5
446
100
AcDbEntity
  8
0
100
AcDbLine
 62
7
  6
CONTINUOUS
 10
5.3927793521
 20
3.1708300433
 11
5.3927793521
 21
3.2028300433
  0
LINE
  5
447
100
AcDbEntity
  8
0
100
AcDbLine
 62
7
  6
CONTINUOUS
 10
5.3933430622
 20
3.1708300433
 11
5.3933430622
 21
3.2028300433
  0
LINE
  5
448
100
AcDbEntity
  8
0
100
AcDbLine
 62
7
  6
CONTINUOUS
 10
5.3949382938
 20
3.1708300433
 11
5.3949382938
 21
3.2028300433
  0
LINE
  5
449
100
AcDbEntity
  8
0
100
AcDbLine
 62
7
  6
CONTINUOUS
 10
5.395377313
 20
3.1708300433
 11
5.395377313
 21
3.2028300433
  0
LINE
  5
44A
100
AcDbEntity
  8
0
100
AcDbLine
 62
7
  6
CONTINUOUS
 10
5.3965751162
 20
3.1708300433
 11
5.3965751162
 21
3.2028300433
  0
LINE
  5
44B
100
AcDbEntity
  8
0
100
AcDbLine
 62
7
  6
CONTINUOUS
 10
5.3968890112
 20
3.1708300433
 11
5.3968890112
 21
3.2028300433
  0
LINE
  5
44C
100
AcDbEntity
  8
0
100
AcDbLine
 62
7
  6
CONTINUOUS
 10
5.397688204
 20
3.1708300433
 11
5.397688204
 21
3.2028300433
  0
LINE
  5
44D
100
AcDbEntity
  8
0
100
AcDbLine
 62
7
  6
CONTINUOUS
 10
5.397876665
 20
3.1708300433
 11
5.397876665
 21
3.2028300433
  0
LINE
  5
44E
100
AcDbEntity
  8
0
100
AcDbLine
 62
7
  6
CONTINUOUS
 10
5.3982764587
 20
3.1708300433
 11
5.3982764587
 21
3.2028300433
  0
LINE
  5
44F
100
AcDbEntity
  8
0
100
AcDbLine
 62
7
  6
CONTINUOUS
 10
5.3983392997
 20
3.1708300433
 11
5.3983392997
 21
3.2028300433
  0
LINE
  5
450
100
AcDbEntity
  8
0
100
AcDbLine
 62
7
  6
CONTINUOUS
 10
5.3983773292
 20
3.0028300433
 11
5.3983773292
 21
3.0657589754
  0
LWPOLYLINE
  5
451
100
AcDbEntity
  8
0
100
AcDbPolyline
 62
7
  6
CONTINUOUS
 90
25
 70
0
 10
5.3055027183
 20
4.262987306
 10
5.309030652
 20
4.2940240139
 10
5.3126535862
 20
4.3286798009
 10
5.3159189383
 20
4.3631176865
 10
5.318827702
 20
4.3973261292
 10
5.3213817758
 20
4.4313011495
 10
5.3235836015
 20
4.4650463651
 10
5.3254349012
 20
4.498555282
 10
5.3269375721
 20
4.5318208216
 10
5.3280940512
 20
4.564846222
 10
5.3289064275
 20
4.5976262889
 10
5.3293769439
 20
4.6301543637
 10
5.3295080705
 20
4.6624319084
 10
5.3293022424
 20
4.6944552115
 10
5.3287620853
 20
4.7262176723
 10
5.3278903463
 20
4.7577167867
 10
5.3266899371
 20
4.7889483257
 10
5.3251639635
 20
4.8199076257
 10
5.3233156066
 20
4.8505918683
 10
5.3211482455
 20
4.8809972528
 10
5.3186654288
 20
4.9111200134
 10
5.3158707531
 20
4.9409576992
 10
5.3127679928
 20
4.9705073833
 10
5.309361134
 20
4.9997656639
 10
5.3057549426
 20
5.027976404
  0
LINE
  5
452
100
AcDbEntity
  8
0
100
AcDbLine
 62
7
  6
CONTINUOUS
 10
4.7764702579
 20
5.0778756762
 11
4.7716549614
 21
5.0766208757
  0
LINE
  5
453
100
AcDbEntity
  8
0
100
AcDbLine
 62
7
  6
CONTINUOUS
 10
4.5758906991
 20
5.0256073833
 11
4.5710754027
 21
5.0243525829
  0
LINE
  5
454
100
AcDbEntity
  8
0
100
AcDbLine
 62
7
  6
CONTINUOUS
 10
4.7764702579
 20
5.1100879262
 11
4.7716549614
 21
5.1088331257
  0
LINE
  5
455
100
AcDbEntity
  8
0
100
AcDbLine
 62
7
  6
CONTINUOUS
 10
4.8002394405
 20
5.0786845083
 11
4.7946975063
 21
5.077483739
  0
LINE
  5
456
100
AcDbEntity
  8
0
100
AcDbLine
 62
7
  6
CONTINUOUS
 10
4.5693920294
 20
5.0286668658
 11
4.5638500952
 21
5.0274660965
  0
LINE
  5
457
100
AcDbEntity
  8
0
100
AcDbLine
 62
7
  6
CONTINUOUS
 10
4.8002394405
 20
5.1108967583
 11
4.7946975063
 21
5.109695989
  0
LINE
  5
458
100
AcDbEntity
  8
0
100
AcDbLine
 62
7
  6
CONTINUOUS
 10
4.8244133026
 20
5.0792432331
 11
4.8181788985
 21
5.0781038981
  0
LINE
  5
459
100
AcDbEntity
  8
0
100
AcDbLine
 62
7
  6
CONTINUOUS
 10
4.5647212901
 20
5.0317846164
 11
4.558486886
 21
5.0306452814
  0
LINE
  5
45A
100
AcDbEntity
  8
0
100
AcDbLine
 62
7
  6
CONTINUOUS
 10
4.8244133026
 20
5.1114554832
 11
4.8181788985
 21
5.1103161482
  0
LINE
  5
45B
100
AcDbEntity
  8
0
100
AcDbLine
 62
7
  6
CONTINUOUS
 10
4.8488428041
 20
5.0795484059
 11
4.8419543673
 21
5.0784775297
  0
LINE
  5
45C
100
AcDbEntity
  8
0
100
AcDbLine
 62
7
  6
CONTINUOUS
 10
4.5619072779
 20
5.0349414131
 11
4.5550188411
 21
5.0338705368
  0
LINE
  5
45D
100
AcDbEntity
  8
0
100
AcDbLine
 62
7
  6
CONTINUOUS
 10
4.8488428041
 20
5.111760656
 11
4.8419543673
 21
5.1106897797
  0
LINE
  5
45E
100
AcDbEntity
  8
0
100
AcDbLine
 62
7
  6
CONTINUOUS
 10
4.8733773292
 20
5.0795981453
 11
4.8658773292
 21
5.07860233
  0
LINE
  5
45F
100
AcDbEntity
  8
0
100
AcDbLine
 62
7
  6
CONTINUOUS
 10
4.5609673422
 20
5.0381177932
 11
4.5534673422
 21
5.0371219779
  0
LINE
  5
460
100
AcDbEntity
  8
0
100
AcDbLine
 62
7
  6
CONTINUOUS
 10
4.8733773292
 20
5.1118103953
 11
4.8658773292
 21
5.11081458
  0
LINE
  5
461
100
AcDbEntity
  8
0
100
AcDbLine
 62
7
  6
CONTINUOUS
 10
4.8978656143
 20
5.0793921444
 11
4.8898002911
 21
5.0784775297
  0
LINE
  5
462
100
AcDbEntity
  8
0
100
AcDbLine
 62
7
  6
CONTINUOUS
 10
4.5619072779
 20
5.0412941734
 11
4.5538419547
 21
5.0403795586
  0
LINE
  5
463
100
AcDbEntity
  8
0
100
AcDbLine
 62
7
  6
CONTINUOUS
 10
4.8978656143
 20
5.1116043944
 11
4.8898002911
 21
5.1106897797
  0
LINE
  5
464
100
AcDbEntity
  8
0
100
AcDbLine
 62
7
  6
CONTINUOUS
 10
4.5550188411
 20
5.0727252686
 11
4.5538419547
 21
5.0725918086
  0
LINE
  5
465
100
AcDbEntity
  8
0
100
AcDbLine
 62
7
  6
CONTINUOUS
 10
4.9221566809
 20
5.0789316735
 11
4.9135757599
 21
5.0781038981
  0
LINE
  5
466
100
AcDbEntity
  8
0
100
AcDbLine
 62
7
  6
CONTINUOUS
 10
4.5647212901
 20
5.0444509701
 11
4.556140369
 21
5.0436231947
  0
LINE
  5
467
100
AcDbEntity
  8
0
100
AcDbLine
 62
7
  6
CONTINUOUS
 10
4.9221566809
 20
5.1111439235
 11
4.9135757599
 21
5.1103161482
  0
LINE
  5
468
100
AcDbEntity
  8
0
100
AcDbLine
 62
7
  6
CONTINUOUS
 10
4.558486886
 20
5.0760618061
 11
4.556140369
 21
5.0758354448
  0
LINE
  5
469
100
AcDbEntity
  8
0
100
AcDbLine
 62
7
  6
CONTINUOUS
 10
4.9461007667
 20
5.0782195714
 11
4.9370571521
 21
5.077483739
  0
LINE
  5
46A
100
AcDbEntity
  8
0
100
AcDbLine
 62
7
  6
CONTINUOUS
 10
4.5693920294
 20
5.0475687206
 11
4.5603484147
 21
5.0468328883
  0
LINE
  5
46B
100
AcDbEntity
  8
0
100
AcDbLine
 62
7
  6
CONTINUOUS
 10
4.9461007667
 20
5.1104318214
 11
4.9370571521
 21
5.109695989
  0
LINE
  5
46C
100
AcDbEntity
  8
0
100
AcDbLine
 62
7
  6
CONTINUOUS
 10
4.5638500952
 20
5.079330052
 11
4.5603484147
 21
5.0790451383
  0
LWPOLYLINE
  5
46D
100
AcDbEntity
  8
0
100
AcDbPolyline
 62
7
  6
CONTINUOUS
 90
4
 70
0
 10
4.5534673422
 20
5.0455402613
 10
4.553346119
 20
5.0455312578
 10
4.5502592313
 20
5.0453903445
 10
4.5469246971
 20
5.0453122765
  0
LINE
  5
46E
100
AcDbEntity
  8
0
100
AcDbLine
 62
7
  6
CONTINUOUS
 10
4.9695502483
 20
5.0772602285
 11
4.9600996969
 21
5.0766208757
  0
LINE
  5
46F
100
AcDbEntity
  8
0
100
AcDbLine
 62
7
  6
CONTINUOUS
 10
4.5758906991
 20
5.0506282031
 11
4.5664401478
 21
5.0499888503
  0
LINE
  5
470
100
AcDbEntity
  8
0
100
AcDbLine
 62
7
  6
CONTINUOUS
 10
4.9695502483
 20
5.1094724785
 11
4.9600996969
 21
5.1088331257
  0
LINE
  5
471
100
AcDbEntity
  8
0
100
AcDbLine
 62
7
  6
CONTINUOUS
 10
4.5710754027
 20
5.0825146866
 11
4.5664401478
 21
5.0822011003
  0
LINE
  5
472
100
AcDbEntity
  8
0
100
AcDbLine
 62
7
  6
CONTINUOUS
 10
4.9923605518
 20
5.0760595595
 11
4.9825613296
 21
5.0755206281
  0
LINE
  5
473
100
AcDbEntity
  8
0
100
AcDbLine
 62
7
  6
CONTINUOUS
 10
4.5841772329
 20
5.0536105547
 11
4.5743780107
 21
5.0530716233
  0
LINE
  5
474
100
AcDbEntity
  8
0
100
AcDbLine
 62
7
  6
CONTINUOUS
 10
4.9923605518
 20
5.1082718095
 11
4.9825613296
 21
5.1077328781
  0
LINE
  5
475
100
AcDbEntity
  8
0
100
AcDbLine
 62
7
  6
CONTINUOUS
 10
4.5801182622
 20
5.0855995721
 11
4.5743780107
 21
5.0852838734
  0
LINE
  5
476
100
AcDbEntity
  8
0
100
AcDbLine
 62
7
  6
CONTINUOUS
 10
5.0143910443
 20
5.0746249668
 11
5.0043035666
 21
5.0741897796
  0
LINE
  5
477
100
AcDbEntity
  8
0
100
AcDbLine
 62
7
  6
CONTINUOUS
 10
4.5942005415
 20
5.0564973883
 11
4.5841130638
 21
5.056062201
  0
LINE
  5
478
100
AcDbEntity
  8
0
100
AcDbLine
 62
7
  6
CONTINUOUS
 10
5.0143910443
 20
5.1068372169
 11
5.0043035666
 21
5.1064020296
  0
LINE
  5
479
100
AcDbEntity
  8
0
100
AcDbLine
 62
7
  6
CONTINUOUS
 10
4.5909229213
 20
5.0885682374
 11
4.5841130638
 21
5.0882744511
  0
LINE
  5
47A
100
AcDbEntity
  8
0
100
AcDbLine
 62
7
  6
CONTINUOUS
 10
5.0355059003
 20
5.0729652953
 11
5.0251923598
 21
5.0726365353
  0
LINE
  5
47B
100
AcDbEntity
  8
0
100
AcDbLine
 62
7
  6
CONTINUOUS
 10
4.6058988277
 20
5.0592709056
 11
4.5955852873
 21
5.0589421455
  0
LINE
  5
47C
100
AcDbEntity
  8
0
100
AcDbLine
 62
7
  6
CONTINUOUS
 10
5.0355059003
 20
5.1051775454
 11
5.0251923598
 21
5.1048487853
  0
LINE
  5
47D
100
AcDbEntity
  8
0
100
AcDbLine
 62
7
  6
CONTINUOUS
 10
4.6034227657
 20
5.0914042273
 11
4.5955852873
 21
5.0911543955
  0
LINE
  5
47E
100
AcDbEntity
  8
0
100
AcDbLine
 62
7
  6
CONTINUOUS
 10
5.0555749397
 20
5.0710907774
 11
5.0450989228
 21
5.0708704715
  0
LINE
  5
47F
100
AcDbEntity
  8
0
100
AcDbLine
 62
7
  6
CONTINUOUS
 10
4.6191999679
 20
5.0619140069
 11
4.6087239511
 21
5.0616937009
  0
LINE
  5
480
100
AcDbEntity
  8
0
100
AcDbLine
 62
7
  6
CONTINUOUS
 10
5.0555749397
 20
5.1033030274
 11
5.0450989228
 21
5.1030827215
  0
LINE
  5
481
100
AcDbEntity
  8
0
100
AcDbLine
 62
7
  6
CONTINUOUS
 10
4.6175407299
 20
5.0940913639
 11
4.6087239511
 21
5.093905951
  0
LINE
  5
482
100
AcDbEntity
  8
0
100
AcDbLine
 62
7
  6
CONTINUOUS
 10
5.0744744303
 20
5.0690129701
 11
5.0639005252
 21
5.0689024765
  0
LINE
  5
483
100
AcDbEntity
  8
0
100
AcDbLine
 62
7
  6
CONTINUOUS
 10
4.6340219561
 20
5.0644103966
 11
4.623448051
 21
5.064299903
  0
LINE
  5
484
100
AcDbEntity
  8
0
100
AcDbLine
 62
7
  6
CONTINUOUS
 10
5.0744744303
 20
5.1012252201
 11
5.0639005252
 21
5.1011147265
  0
LINE
  5
485
100
AcDbEntity
  8
0
100
AcDbLine
 62
7
  6
CONTINUOUS
 10
4.6331897717
 20
5.0966139506
 11
4.623448051
 21
5.096512153
  0
LINE
  5
486
100
AcDbEntity
  8
0
100
AcDbLine
 62
7
  6
CONTINUOUS
 10
5.0920878504
 20
5.0667446837
 11
5.0814812487
 21
5.0667446837
  0
LINE
  5
487
100
AcDbEntity
  8
0
100
AcDbLine
 62
7
  6
CONTINUOUS
 10
4.6502734097
 20
5.0667446837
 11
4.639666808
 21
5.0667446837
  0
LINE
  5
488
100
AcDbEntity
  8
0
100
AcDbLine
 62
7
  6
CONTINUOUS
 10
4.4458773292
 20
5.0776570598
 11
4.558486886
 21
5.0776570598
  0
LINE
  5
489
100
AcDbEntity
  8
0
100
AcDbLine
 62
7
  6
CONTINUOUS
 10
5.1732677724
 20
5.0776570598
 11
5.2858773292
 21
5.0776570598
  0
LINE
  5
48A
100
AcDbEntity
  8
0
100
AcDbLine
 62
7
  6
CONTINUOUS
 10
4.4547850647
 20
5.0942992252
 11
4.5861425913
 21
5.0942992252
  0
LINE
  5
48B
100
AcDbEntity
  8
0
100
AcDbLine
 62
7
  6
CONTINUOUS
 10
5.1456120671
 20
5.0942992252
 11
5.2769695937
 21
5.0942992252
  0
LINE
  5
48C
100
AcDbEntity
  8
0
100
AcDbLine
 62
7
  6
CONTINUOUS
 10
5.0920878504
 20
5.0989569337
 11
5.0814812487
 21
5.0989569337
  0
LINE
  5
48D
100
AcDbEntity
  8
0
100
AcDbLine
 62
7
  6
CONTINUOUS
 10
4.6502734097
 20
5.0989569337
 11
4.639666808
 21
5.0989569337
  0
LINE
  5
48E
100
AcDbEntity
  8
0
100
AcDbLine
 62
7
  6
CONTINUOUS
 10
5.1083066074
 20
5.064299903
 11
5.0977327023
 21
5.0644103966
  0
LINE
  5
48F
100
AcDbEntity
  8
0
100
AcDbLine
 62
7
  6
CONTINUOUS
 10
4.6678541332
 20
5.0689024765
 11
4.6572802281
 21
5.0690129701
  0
LINE
  5
490
100
AcDbEntity
  8
0
100
AcDbLine
 62
7
  6
CONTINUOUS
 10
5.1083066074
 20
5.096512153
 11
5.0985648867
 21
5.0966139506
  0
LINE
  5
491
100
AcDbEntity
  8
0
100
AcDbLine
 62
7
  6
CONTINUOUS
 10
4.6678541332
 20
5.1011147265
 11
4.6572802281
 21
5.1012252201
  0
LINE
  5
492
100
AcDbEntity
  8
0
100
AcDbLine
 62
7
  6
CONTINUOUS
 10
5.1230307073
 20
5.0616937009
 11
5.1125546905
 21
5.0619140069
  0
LINE
  5
493
100
AcDbEntity
  8
0
100
AcDbLine
 62
7
  6
CONTINUOUS
 10
4.6866557355
 20
5.0708704715
 11
4.6761797187
 21
5.0710907774
  0
LINE
  5
494
100
AcDbEntity
  8
0
100
AcDbLine
 62
7
  6
CONTINUOUS
 10
5.1230307073
 20
5.093905951
 11
5.1142139285
 21
5.0940913639
  0
LINE
  5
495
100
AcDbEntity
  8
0
100
AcDbLine
 62
7
  6
CONTINUOUS
 10
4.6866557355
 20
5.1030827215
 11
4.6761797187
 21
5.1033030274
  0
LINE
  5
496
100
AcDbEntity
  8
0
100
AcDbLine
 62
7
  6
CONTINUOUS
 10
5.1361693711
 20
5.0589421455
 11
5.1258558307
 21
5.0592709056
  0
LINE
  5
497
100
AcDbEntity
  8
0
100
AcDbLine
 62
7
  6
CONTINUOUS
 10
4.7065622986
 20
5.0726365353
 11
4.6962487581
 21
5.0729652953
  0
LINE
  5
498
100
AcDbEntity
  8
0
100
AcDbLine
 62
7
  6
CONTINUOUS
 10
5.1361693711
 20
5.0911543955
 11
5.1283318926
 21
5.0914042273
  0
LINE
  5
499
100
AcDbEntity
  8
0
100
AcDbLine
 62
7
  6
CONTINUOUS
 10
4.7065622986
 20
5.1048487853
 11
4.6962487581
 21
5.1051775454
  0
LINE
  5
49A
100
AcDbEntity
  8
0
100
AcDbLine
 62
7
  6
CONTINUOUS
 10
5.1476415946
 20
5.056062201
 11
5.1375541169
 21
5.0564973883
  0
LINE
  5
49B
100
AcDbEntity
  8
0
100
AcDbLine
 62
7
  6
CONTINUOUS
 10
4.7274510918
 20
5.0741897796
 11
4.7173636141
 21
5.0746249668
  0
LINE
  5
49C
100
AcDbEntity
  8
0
100
AcDbLine
 62
7
  6
CONTINUOUS
 10
5.1476415946
 20
5.0882744511
 11
5.1408317371
 21
5.0885682374
  0
LINE
  5
49D
100
AcDbEntity
  8
0
100
AcDbLine
 62
7
  6
CONTINUOUS
 10
4.7274510918
 20
5.1064020296
 11
4.7173636141
 21
5.1068372169
  0
LINE
  5
49E
100
AcDbEntity
  8
0
100
AcDbLine
 62
7
  6
CONTINUOUS
 10
5.1573766477
 20
5.0530716233
 11
5.1475774255
 21
5.0536105547
  0
LINE
  5
49F
100
AcDbEntity
  8
0
100
AcDbLine
 62
7
  6
CONTINUOUS
 10
4.7491933288
 20
5.0755206281
 11
4.7393941066
 21
5.0760595595
  0
LINE
  5
4A0
100
AcDbEntity
  8
0
100
AcDbLine
 62
7
  6
CONTINUOUS
 10
5.1573766477
 20
5.0852838734
 11
5.1516363962
 21
5.0855995721
  0
LINE
  5
4A1
100
AcDbEntity
  8
0
100
AcDbLine
 62
7
  6
CONTINUOUS
 10
4.7491933288
 20
5.1077328781
 11
4.7393941066
 21
5.1082718095
  0
LINE
  5
4A2
100
AcDbEntity
  8
0
100
AcDbLine
 62
7
  6
CONTINUOUS
 10
5.1653145106
 20
5.0499888503
 11
5.1558639592
 21
5.0506282031
  0
LINE
  5
4A3
100
AcDbEntity
  8
0
100
AcDbLine
 62
7
  6
CONTINUOUS
 10
4.7716549614
 20
5.0766208757
 11
4.7622044101
 21
5.0772602285
  0
LINE
  5
4A4
100
AcDbEntity
  8
0
100
AcDbLine
 62
7
  6
CONTINUOUS
 10
5.1653145106
 20
5.0822011003
 11
5.1606792557
 21
5.0825146866
  0
LINE
  5
4A5
100
AcDbEntity
  8
0
100
AcDbLine
 62
7
  6
CONTINUOUS
 10
4.7716549614
 20
5.1088331257
 11
4.7622044101
 21
5.1094724785
  0
LINE
  5
4A6
100
AcDbEntity
  8
0
100
AcDbLine
 62
7
  6
CONTINUOUS
 10
5.1714062436
 20
5.0468328883
 11
5.162362629
 21
5.0475687206
  0
LINE
  5
4A7
100
AcDbEntity
  8
0
100
AcDbLine
 62
7
  6
CONTINUOUS
 10
4.7946975063
 20
5.077483739
 11
4.7856538917
 21
5.0782195714
  0
LINE
  5
4A8
100
AcDbEntity
  8
0
100
AcDbLine
 62
7
  6
CONTINUOUS
 10
5.1714062436
 20
5.0790451383
 11
5.1679045632
 21
5.079330052
  0
LINE
  5
4A9
100
AcDbEntity
  8
0
100
AcDbLine
 62
7
  6
CONTINUOUS
 10
4.7946975063
 20
5.109695989
 11
4.7856538917
 21
5.1104318214
  0
LINE
  5
4AA
100
AcDbEntity
  8
0
100
AcDbLine
 62
7
  6
CONTINUOUS
 10
5.1756142894
 20
5.0436231947
 11
5.1670333683
 21
5.0444509701
  0
LINE
  5
4AB
100
AcDbEntity
  8
0
100
AcDbLine
 62
7
  6
CONTINUOUS
 10
4.8181788985
 20
5.0781038981
 11
4.8095979774
 21
5.0789316735
  0
LINE
  5
4AC
100
AcDbEntity
  8
0
100
AcDbLine
 62
7
  6
CONTINUOUS
 10
5.1756142894
 20
5.0758354448
 11
5.1732677724
 21
5.0760618061
  0
LINE
  5
4AD
100
AcDbEntity
  8
0
100
AcDbLine
 62
7
  6
CONTINUOUS
 10
4.8181788985
 20
5.1103161482
 11
4.8095979774
 21
5.1111439235
  0
LINE
  5
4AE
100
AcDbEntity
  8
0
100
AcDbLine
 62
7
  6
CONTINUOUS
 10
5.1779127037
 20
5.0403795586
 11
5.1698473805
 21
5.0412941734
  0
LINE
  5
4AF
100
AcDbEntity
  8
0
100
AcDbLine
 62
7
  6
CONTINUOUS
 10
4.8419543673
 20
5.0784775297
 11
4.8338890441
 21
5.0793921444
  0
LINE
  5
4B0
100
AcDbEntity
  8
0
100
AcDbLine
 62
7
  6
CONTINUOUS
 10
5.1779127037
 20
5.0725918086
 11
5.1767358173
 21
5.0727252686
  0
LINE
  5
4B1
100
AcDbEntity
  8
0
100
AcDbLine
 62
7
  6
CONTINUOUS
 10
4.8419543673
 20
5.1106897797
 11
4.8338890441
 21
5.1116043944
  0
LINE
  5
4B2
100
AcDbEntity
  8
0
100
AcDbLine
 62
7
  6
CONTINUOUS
 10
5.1782873162
 20
5.0371219779
 11
5.1707873162
 21
5.0381177932
  0
LINE
  5
4B3
100
AcDbEntity
  8
0
100
AcDbLine
 62
7
  6
CONTINUOUS
 10
4.8658773292
 20
5.07860233
 11
4.8583773292
 21
5.0795981453
  0
LINE
  5
4B4
100
AcDbEntity
  8
0
100
AcDbLine
 62
7
  6
CONTINUOUS
 10
4.8658773292
 20
5.11081458
 11
4.8583773292
 21
5.1118103953
  0
LINE
  5
4B5
100
AcDbEntity
  8
0
100
AcDbLine
 62
7
  6
CONTINUOUS
 10
5.1767358173
 20
5.0338705368
 11
5.1698473805
 21
5.0349414131
  0
LINE
  5
4B6
100
AcDbEntity
  8
0
100
AcDbLine
 62
7
  6
CONTINUOUS
 10
4.8898002911
 20
5.0784775297
 11
4.8829118543
 21
5.0795484059
  0
LINE
  5
4B7
100
AcDbEntity
  8
0
100
AcDbLine
 62
7
  6
CONTINUOUS
 10
4.8898002911
 20
5.1106897797
 11
4.8829118543
 21
5.111760656
  0
LINE
  5
4B8
100
AcDbEntity
  8
0
100
AcDbLine
 62
7
  6
CONTINUOUS
 10
5.1732677724
 20
5.0306452814
 11
5.1670333683
 21
5.0317846164
  0
LINE
  5
4B9
100
AcDbEntity
  8
0
100
AcDbLine
 62
7
  6
CONTINUOUS
 10
4.9135757599
 20
5.0781038981
 11
4.9073413558
 21
5.0792432331
  0
LINE
  5
4BA
100
AcDbEntity
  8
0
100
AcDbLine
 62
7
  6
CONTINUOUS
 10
4.9135757599
 20
5.1103161482
 11
4.9073413558
 21
5.1114554832
  0
LINE
  5
4BB
100
AcDbEntity
  8
0
100
AcDbLine
 62
7
  6
CONTINUOUS
 10
5.1679045632
 20
5.0274660965
 11
5.162362629
 21
5.0286668658
  0
LINE
  5
4BC
100
AcDbEntity
  8
0
100
AcDbLine
 62
7
  6
CONTINUOUS
 10
4.9370571521
 20
5.077483739
 11
4.9315152179
 21
5.0786845083
  0
LINE
  5
4BD
100
AcDbEntity
  8
0
100
AcDbLine
 62
7
  6
CONTINUOUS
 10
4.9370571521
 20
5.109695989
 11
4.9315152179
 21
5.1108967583
  0
LINE
  5
4BE
100
AcDbEntity
  8
0
100
AcDbLine
 62
7
  6
CONTINUOUS
 10
5.1606792557
 20
5.0243525829
 11
5.1558639592
 21
5.0256073833
  0
LINE
  5
4BF
100
AcDbEntity
  8
0
100
AcDbLine
 62
7
  6
CONTINUOUS
 10
4.9600996969
 20
5.0766208757
 11
4.9552844005
 21
5.0778756762
  0
LINE
  5
4C0
100
AcDbEntity
  8
0
100
AcDbLine
 62
7
  6
CONTINUOUS
 10
4.9600996969
 20
5.1088331257
 11
4.9552844005
 21
5.1100879262
  0
LINE
  5
4C1
100
AcDbEntity
  8
0
100
AcDbLine
 62
7
  6
CONTINUOUS
 10
5.1516363962
 20
5.0213239364
 11
5.1475774255
 21
5.0226250317
  0
LINE
  5
4C2
100
AcDbEntity
  8
0
100
AcDbLine
 62
7
  6
CONTINUOUS
 10
4.9825613296
 20
5.0755206281
 11
4.9785023588
 21
5.0768217235
  0
LINE
  5
4C3
100
AcDbEntity
  8
0
100
AcDbLine
 62
7
  6
CONTINUOUS
 10
4.9825613296
 20
5.1077328781
 11
4.9785023588
 21
5.1090339735
  0
LINE
  5
4C4
100
AcDbEntity
  8
0
100
AcDbLine
 62
7
  6
CONTINUOUS
 10
5.1408317371
 20
5.0183988295
 11
5.1375541169
 21
5.0197381981
  0
LINE
  5
4C5
100
AcDbEntity
  8
0
100
AcDbLine
 62
7
  6
CONTINUOUS
 10
5.0043035666
 20
5.0741897796
 11
5.0010259464
 21
5.0755291482
  0
LINE
  5
4C6
100
AcDbEntity
  8
0
100
AcDbLine
 62
7
  6
CONTINUOUS
 10
5.0043035666
 20
5.1064020296
 11
5.0010259464
 21
5.1077413982
  0
LINE
  5
4C7
100
AcDbEntity
  8
0
100
AcDbLine
 62
7
  6
CONTINUOUS
 10
5.1283318926
 20
5.0155952967
 11
5.1258558307
 21
5.0169646809
  0
LINE
  5
4C8
100
AcDbEntity
  8
0
100
AcDbLine
 62
7
  6
CONTINUOUS
 10
5.0251923598
 20
5.0726365353
 11
5.0227162978
 21
5.0740059194
  0
LINE
  5
4C9
100
AcDbEntity
  8
0
100
AcDbLine
 62
7
  6
CONTINUOUS
 10
5.0251923598
 20
5.1048487853
 11
5.0227162978
 21
5.1062181695
  0
LINE
  5
4CA
100
AcDbEntity
  8
0
100
AcDbLine
 62
7
  6
CONTINUOUS
 10
5.0450989228
 20
5.0708704715
 11
5.0434396848
 21
5.0722614285
  0
LINE
  5
4CB
100
AcDbEntity
  8
0
100
AcDbLine
 62
7
  6
CONTINUOUS
 10
5.0450989228
 20
5.1030827215
 11
5.0434396848
 21
5.1044736785
  0
LINE
  5
4CC
100
AcDbEntity
  8
0
100
AcDbLine
 62
7
  6
CONTINUOUS
 10
4.535501416
 20
5.182422358
 11
4.5916581954
 21
5.182422358
  0
LINE
  5
4CD
100
AcDbEntity
  8
0
100
AcDbLine
 62
7
  6
CONTINUOUS
 10
5.140096463
 20
5.182422358
 11
5.1962532424
 21
5.182422358
  0
LINE
  5
4CE
100
AcDbEntity
  8
0
100
AcDbLine
 62
7
  6
CONTINUOUS
 10
4.5927673462
 20
5.1928300433
 11
4.5530509886
 21
5.1928300433
  0
LINE
  5
4CF
100
AcDbEntity
  8
0
100
AcDbLine
 62
7
  6
CONTINUOUS
 10
5.1389873122
 20
5.1928300433
 11
5.1787035239
 21
5.1928300433
  0
LINE
  5
4D0
100
AcDbEntity
  8
0
100
AcDbLine
 62
7
  6
CONTINUOUS
 10
5.1819037457
 20
5.2158300433
 11
5.1361055327
 21
5.2158300433
  0
LINE
  5
4D1
100
AcDbEntity
  8
0
100
AcDbLine
 62
7
  6
CONTINUOUS
 10
4.5956491257
 20
5.2158300433
 11
4.54985296
 21
5.2158300433
  0
LWPOLYLINE
  5
4D2
100
AcDbEntity
  8
0
100
AcDbPolyline
 62
7
  6
CONTINUOUS
 90
26
 70
0
 10
5.2959040448
 20
5.0426659608
 10
5.2951345755
 20
5.0431319722
 10
5.2944431214
 20
5.0435927518
 10
5.2937714035
 20
5.0440818548
 10
5.2931205812
 20
5.0445984367
 10
5.2924917778
 20
5.0451416061
 10
5.2918860787
 20
5.0457104253
 10
5.2913045293
 20
5.0463039125
 10
5.2907481336
 20
5.0469210433
 10
5.2902178518
 20
5.0475607525
 10
5.2897145992
 20
5.048221936
 10
5.2892392446
 20
5.0489034524
 10
5.2887926083
 20
5.0496041255
 10
5.2883754613
 20
5.0503227458
 10
5.2879885237
 20
5.0510580729
 10
5.2876324634
 20
5.0518088376
 10
5.2873078948
 20
5.0525737441
 10
5.2870153783
 20
5.0533514721
 10
5.2867554187
 20
5.0541406791
 10
5.2865284647
 20
5.0549400029
 10
5.2863349082
 20
5.0557480638
 10
5.2861750831
 20
5.0565634672
 10
5.2860492653
 20
5.0573848054
 10
5.2859576721
 20
5.058210661
 10
5.2859004615
 20
5.0590396082
 10
5.2858777322
 20
5.0598702165
  0
LINE
  5
4D3
100
AcDbEntity
  8
0
100
AcDbLine
 62
7
  6
CONTINUOUS
 10
4.3348417953
 20
3.0692945093
 11
4.3544128631
 21
3.0888655772
  0
LINE
  5
4D4
100
AcDbEntity
  8
0
100
AcDbLine
 62
7
  6
CONTINUOUS
 10
5.12999568
 20
5.5096189248
 11
4.9531702949
 21
5.5096189248
  0
LINE
  5
4D5
100
AcDbEntity
  8
0
100
AcDbLine
 62
7
  6
CONTINUOUS
 10
4.7785843633
 20
5.5096189248
 11
4.6017589783
 21
5.5096189248
  0
LWPOLYLINE
  5
4D6
100
AcDbEntity
  8
0
100
AcDbPolyline
 62
7
  6
CONTINUOUS
 90
28
 70
0
 10
5.0630820504
 20
5.4831182605
 10
5.0568181229
 20
5.4852040286
 10
5.0485586083
 20
5.487844828
 10
5.0403804043
 20
5.4903380357
 10
5.0322892049
 20
5.492686702
 10
5.0242834915
 20
5.4948959555
 10
5.016354373
 20
5.4969725408
 10
5.0085039474
 20
5.4989199003
 10
5.0007338543
 20
5.5007415557
 10
4.9930342151
 20
5.5024434645
 10
4.9854071634
 20
5.504028523
 10
4.9778538624
 20
5.5054998082
 10
4.970362667
 20
5.5068626033
 10
4.9629327723
 20
5.508119739
 10
4.955567753
 20
5.5092732598
 10
4.9482622886
 20
5.5103265603
 10
4.9410172885
 20
5.5112819435
 10
4.933834251
 20
5.5121416491
 10
4.9267085864
 20
5.5129085689
 10
4.9196411556
 20
5.5135848501
 10
4.9126331402
 20
5.5141726232
 10
4.9056803082
 20
5.5146744017
 10
4.8987835072
 20
5.5150921945
 10
4.8919435739
 20
5.5154280234
 10
4.8851561552
 20
5.5156840885
 10
4.8784202438
 20
5.5158622995
 10
4.8717381864
 20
5.5159644674
 10
4.8658773292
 20
5.5159929753
  0
LWPOLYLINE
  5
4D7
100
AcDbEntity
  8
0
100
AcDbPolyline
 62
7
  6
CONTINUOUS
 90
28
 70
0
 10
4.8658773292
 20
5.5159929753
 10
4.8600164728
 20
5.5159644674
 10
4.8533344162
 20
5.5158622996
 10
4.8465985054
 20
5.5156840886
 10
4.8398110872
 20
5.5154280235
 10
4.8329711544
 20
5.5150921947
 10
4.8260743538
 20
5.5146744019
 10
4.8191215221
 20
5.5141726235
 10
4.8121135068
 20
5.5135848505
 10
4.8050460762
 20
5.5129085693
 10
4.7979204117
 20
5.5121416496
 10
4.7907373742
 20
5.5112819441
 10
4.7834923742
 20
5.5103265609
 10
4.7761869097
 20
5.5092732604
 10
4.7688218904
 20
5.5081197398
 10
4.7613919956
 20
5.5068626041
 10
4.7539008001
 20
5.505499809
 10
4.7463474989
 20
5.5040285238
 10
4.7387204472
 20
5.5024434654
 10
4.7310208078
 20
5.5007415566
 10
4.7232507146
 20
5.4989199012
 10
4.7154002889
 20
5.4969725417
 10
4.7074711703
 20
5.4948959565
 10
4.6994654568
 20
5.492686703
 10
4.6913742572
 20
5.4903380368
 10
4.6831960533
 20
5.4878448291
 10
4.6749365386
 20
5.4852040297
 10
4.6686726091
 20
5.483118261
  0
LINE
  5
4D8
100
AcDbEntity
  8
0
100
AcDbLine
 62
7
  6
CONTINUOUS
 10
5.1244533841
 20
5.5184212947
 11
4.6073012743
 21
5.5184212947
  0
LINE
  5
4D9
100
AcDbEntity
  8
0
100
AcDbLine
 62
7
  6
CONTINUOUS
 10
4.7308773292
 20
5.6828300433
 11
5.0008773292
 21
5.6828300433
  0
LINE
  5
4DA
100
AcDbEntity
  8
0
100
AcDbLine
 62
7
  6
CONTINUOUS
 10
4.7058774583
 20
5.7128300433
 11
5.0258772001
 21
5.7128300433
  0
LINE
  5
4DB
100
AcDbEntity
  8
0
100
AcDbLine
 62
7
  6
CONTINUOUS
 10
4.6958773292
 20
5.7228300433
 11
4.7799873941
 21
5.7228300433
  0
LINE
  5
4DC
100
AcDbEntity
  8
0
100
AcDbLine
 62
7
  6
CONTINUOUS
 10
4.9516464679
 20
5.7228300433
 11
5.0358773292
 21
5.7228300433
  0
LINE
  5
4DD
100
AcDbEntity
  8
0
100
AcDbLine
 62
7
  6
CONTINUOUS
 10
4.8658773292
 20
5.7216637676
 11
4.8642126291
 21
5.7216642098
  0
LINE
  5
4DE
100
AcDbEntity
  8
0
100
AcDbLine
 62
7
  6
CONTINUOUS
 10
4.6958773292
 20
5.8928300433
 11
4.7184233297
 21
5.8928300433
  0
LINE
  5
4DF
100
AcDbEntity
  8
0
100
AcDbLine
 62
7
  6
CONTINUOUS
 10
5.0132358538
 20
5.8928300433
 11
5.0358773292
 21
5.8928300433
  0
LINE
  5
4E0
100
AcDbEntity
  8
0
100
AcDbLine
 62
7
  6
CONTINUOUS
 10
5.0271271808
 20
5.9028300433
 11
5.0168524704
 21
5.9028300433
  0
LINE
  5
4E1
100
AcDbEntity
  8
0
100
AcDbLine
 62
7
  6
CONTINUOUS
 10
4.7046274776
 20
5.9028300433
 11
4.714799295
 21
5.9028300433
  0
LINE
  5
4E2
100
AcDbEntity
  8
0
100
AcDbLine
 62
7
  6
CONTINUOUS
 10
5.0271273292
 20
5.9078300433
 11
5.0186607786
 21
5.9078300433
  0
LINE
  5
4E3
100
AcDbEntity
  8
0
100
AcDbLine
 62
7
  6
CONTINUOUS
 10
4.7046273292
 20
5.9078300433
 11
4.7129872776
 21
5.9078300433
  0
LWPOLYLINE
  5
4E4
100
AcDbEntity
  8
0
100
AcDbPolyline
 62
7
  6
CONTINUOUS
 90
28
 70
0
 10
4.8721321072
 20
6.2004213128
 10
4.8661650067
 20
6.2004695523
 10
4.8594361715
 20
6.2004180048
 10
4.8527065941
 20
6.2002541171
 10
4.8459796716
 20
6.1999778355
 10
4.8392572989
 20
6.1995890593
 10
4.8325398641
 20
6.199087552
 10
4.8258297743
 20
6.1984735364
 10
4.8191295695
 20
6.1977474961
 10
4.8124397702
 20
6.1969096583
 10
4.8057628565
 20
6.1959604184
 10
4.799101308
 20
6.1949001758
 10
4.7924557014
 20
6.1937289803
 10
4.7858285692
 20
6.1924471785
 10
4.7792223601
 20
6.1910553306
 10
4.7726375926
 20
6.1895536456
 10
4.7660767263
 20
6.1879426977
 10
4.7595422792
 20
6.186223081
 10
4.7530349499
 20
6.1843948685
 10
4.7465573012
 20
6.1824586044
 10
4.740111787
 20
6.1804150411
 10
4.7336990276
 20
6.1782644419
 10
4.727321486
 20
6.1760076169
 10
4.72098165
 20
6.1736453937
 10
4.7146802987
 20
6.1711779244
 10
4.7084193694
 20
6.168605847
 10
4.7022018565
 20
6.1659304394
 10
4.6966416507
 20
6.1634334927
  0
LWPOLYLINE
  5
4E5
100
AcDbEntity
  8
0
100
AcDbPolyline
 62
7
  6
CONTINUOUS
 90
25
 70
0
 10
5.0349118794
 20
6.1635253342
 10
5.0291583169
 20
6.1661036556
 10
5.0226798079
 20
6.1688805934
 10
5.0161476463
 20
6.1715479941
 10
5.0095645746
 20
6.1741044895
 10
5.0029332699
 20
6.1765487664
 10
4.9962563272
 20
6.1788795471
 10
4.9895364041
 20
6.181095537
 10
4.9827762085
 20
6.183195542
 10
4.9759785159
 20
6.1851786499
 10
4.969146168
 20
6.187043983
 10
4.96228201
 20
6.188790669
 10
4.9553888166
 20
6.1904178611
 10
4.9484694049
 20
6.1919247096
 10
4.9415265631
 20
6.1933104991
 10
4.9345630934
 20
6.1945748
 10
4.9275819488
 20
6.1957171972
 10
4.9205859959
 20
6.1967372959
 10
4.9135778868
 20
6.197634731
 10
4.9065604664
 20
6.1984091091
 10
4.8995365635
 20
6.1990600522
 10
4.8925088906
 20
6.1995874855
 10
4.8854804398
 20
6.1999916873
 10
4.8784543304
 20
6.2002729559
 10
4.8721321063
 20
6.2004212945
  0
ARC
  5
4E6
100
AcDbEntity
  8
0
100
AcDbCircle
 62
7
  6
CONTINUOUS
 10
2.9891348914
 20
4.929408118
 40
2.1562504835
100
AcDbArc
 50
351.067744177
 51
2.407747367
  0
ARC
  5
4E7
100
AcDbEntity
  8
0
100
AcDbCircle
 62
7
  6
CONTINUOUS
 10
3.9751500565
 20
5.1538300433
 40
1.2084097577
100
AcDbArc
 50
3.0772759763
 51
17.1232019022
  0
ARC
  5
4E8
100
AcDbEntity
  8
0
100
AcDbCircle
 62
7
  6
CONTINUOUS
 10
4.0560974196
 20
5.0695711651
 40
1.0898681868
100
AcDbArc
 50
12.8110067933
 51
21.086176197
  0
ARC
  5
4E9
100
AcDbEntity
  8
0
100
AcDbCircle
 62
7
  6
CONTINUOUS
 10
4.057597403
 20
5.0691311285
 40
1.0885061585
100
AcDbArc
 50
17.0035197794
 51
21.1272448243
  0
ARC
  5
4EA
100
AcDbEntity
  8
0
100
AcDbCircle
 62
7
  6
CONTINUOUS
 10
4.0595611358
 20
5.0697028757
 40
1.0864610709
100
AcDbArc
 50
12.8447397226
 51
17.0049700743
  0
ARC
  5
4EB
100
AcDbEntity
  8
0
100
AcDbCircle
 62
7
  6
CONTINUOUS
 10
4.069814933
 20
5.071320125
 40
1.0760441605
100
AcDbArc
 50
0.9072281304
 51
2.5944995994
  0
ARC
  5
4EC
100
AcDbEntity
  8
0
100
AcDbCircle
 62
7
  6
CONTINUOUS
 10
5.311726899
 20
-11.6984665086
 40
16.7263559467
100
AcDbArc
 50
90.0653944264
 51
90.312848818
  0
ARC
  5
4ED
100
AcDbEntity
  8
0
100
AcDbCircle
 62
7
  6
CONTINUOUS
 10
4.4214091703
 20
-11.2678243669
 40
16.2957122002
100
AcDbArc
 50
89.6837406297
 51
89.9377344562
  0
ARC
  5
4EE
100
AcDbEntity
  8
0
100
AcDbCircle
 62
7
  6
CONTINUOUS
 10
4.7451899025
 20
4.309074325
 40
0.7649833305
100
AcDbArc
 50
97.9287582555
 51
98.4188560311
  0
ARC
  5
4EF
100
AcDbEntity
  8
0
100
AcDbCircle
 62
7
  6
CONTINUOUS
 10
4.7434743332
 20
4.3532304763
 40
0.7529169619
100
AcDbArc
 50
97.924831038
 51
98.4227832486
  0
ARC
  5
4F0
100
AcDbEntity
  8
0
100
AcDbCircle
 62
7
  6
CONTINUOUS
 10
4.3355365649
 20
3.5499705798
 40
0.274
100
AcDbArc
 50
287.6948410521
 51
314.213258492
  0
ARC
  5
4F1
100
AcDbEntity
  8
0
100
AcDbCircle
 62
7
  6
CONTINUOUS
 10
4.3161317589
 20
3.9883337939
 40
0.25
100
AcDbArc
 50
28.6603082854
 51
56.3159212954
  0
ARC
  5
4F2
100
AcDbEntity
  8
0
100
AcDbCircle
 62
7
  6
CONTINUOUS
 10
4.4483577536
 20
4.1222954165
 40
0.1259474375
100
AcDbArc
 50
86.4846901367
 51
87.2474717451
  0
ARC
  5
4F3
100
AcDbEntity
  8
0
100
AcDbCircle
 62
7
  6
CONTINUOUS
 10
4.4565546301
 20
4.1544080592
 40
0.0767918872
100
AcDbArc
 50
83.3394367042
 51
84.64701622
  0
ARC
  5
4F4
100
AcDbEntity
  8
0
100
AcDbCircle
 62
7
  6
CONTINUOUS
 10
4.3633773292
 20
3.2478300433
 40
0.045
100
AcDbArc
 50
272.7364182991
 51
360.0
  0
ARC
  5
4F5
100
AcDbEntity
  8
0
100
AcDbCircle
 62
7
  6
CONTINUOUS
 10
4.4461142896
 20
4.2653300433
 40
0.02
100
AcDbArc
 50
186.7268799556
 51
239.6073588641
  0
ARC
  5
4F6
100
AcDbEntity
  8
0
100
AcDbCircle
 62
7
  6
CONTINUOUS
 10
4.4658773292
 20
4.2130030267
 40
0.02
100
AcDbArc
 50
180.0
 51
236.3159212954
  0
ARC
  5
4F7
100
AcDbEntity
  8
0
100
AcDbCircle
 62
7
  6
CONTINUOUS
 10
4.5530509886
 20
4.1178300433
 40
0.02
100
AcDbArc
 50
208.6603082854
 51
270.0
  0
ARC
  5
4F8
100
AcDbEntity
  8
0
100
AcDbCircle
 62
7
  6
CONTINUOUS
 10
4.5370652182
 20
3.3428300433
 40
0.015
100
AcDbArc
 50
90.0
 51
134.213258492
  0
ARC
  5
4F9
100
AcDbEntity
  8
0
100
AcDbCircle
 62
7
  6
CONTINUOUS
 10
4.4233773292
 20
3.2746435014
 40
0.015
100
AcDbArc
 50
107.6948410521
 51
180.0
  0
ARC
  5
4FA
100
AcDbEntity
  8
0
100
AcDbCircle
 62
7
  6
CONTINUOUS
 10
4.3508773292
 20
3.0924011111
 40
0.005
100
AcDbArc
 50
315.0
 51
360.0
  0
ARC
  5
4FB
100
AcDbEntity
  8
0
100
AcDbCircle
 62
7
  6
CONTINUOUS
 10
4.3383773292
 20
3.0657589754
 40
0.005
100
AcDbArc
 50
135.0
 51
180.0
  0
ARC
  5
4FC
100
AcDbEntity
  8
0
100
AcDbCircle
 62
7
  6
CONTINUOUS
 10
4.4457920532
 20
5.7566493921
 40
1.4935972065
100
AcDbArc
 50
269.760949968
 51
269.9691115187
  0
ARC
  5
4FD
100
AcDbEntity
  8
0
100
AcDbCircle
 62
7
  6
CONTINUOUS
 10
4.2411615145
 20
5.127416234
 40
0.8966073507
100
AcDbArc
 50
21.7155759256
 51
21.9033428551
  0
ARC
  5
4FE
100
AcDbEntity
  8
0
100
AcDbCircle
 62
7
  6
CONTINUOUS
 10
4.4402264369
 20
5.668281094
 40
0.6404038112
100
AcDbArc
 50
269.5368172034
 51
269.9008612975
  0
ARC
  5
4FF
100
AcDbEntity
  8
0
100
AcDbCircle
 62
7
  6
CONTINUOUS
 10
4.7181043677
 20
4.4842559354
 40
0.5877166176
100
AcDbArc
 50
99.2682972015
 51
99.8523083876
  0
ARC
  5
500
100
AcDbEntity
  8
0
100
AcDbCircle
 62
7
  6
CONTINUOUS
 10
4.7163148387
 20
4.5270932804
 40
0.5769420185
100
AcDbArc
 50
99.2628438438
 51
99.8577617453
  0
ARC
  5
501
100
AcDbEntity
  8
0
100
AcDbCircle
 62
7
  6
CONTINUOUS
 10
4.2184869287
 20
5.9393160614
 40
0.573
100
AcDbArc
 50
312.7311458337
 51
333.4089391877
  0
ARC
  5
502
100
AcDbEntity
  8
0
100
AcDbCircle
 62
7
  6
CONTINUOUS
 10
4.6903263517
 20
4.6371723212
 40
0.4322931339
100
AcDbArc
 50
100.8807990376
 51
101.5971561249
  0
ARC
  5
503
100
AcDbEntity
  8
0
100
AcDbCircle
 62
7
  6
CONTINUOUS
 10
4.6885261383
 20
4.6784439634
 40
0.4230567955
100
AcDbArc
 50
100.8729790409
 51
101.6049761216
  0
ARC
  5
504
100
AcDbEntity
  8
0
100
AcDbCircle
 62
7
  6
CONTINUOUS
 10
4.6885261383
 20
5.430003873
 40
0.4230567954
100
AcDbArc
 50
258.3950238783
 51
259.1270209591
  0
ARC
  5
505
100
AcDbEntity
  8
0
100
AcDbCircle
 62
7
  6
CONTINUOUS
 10
4.6628673924
 20
4.7647708822
 40
0.301767483
100
AcDbArc
 50
102.8829530431
 51
103.7927329737
  0
ARC
  5
506
100
AcDbEntity
  8
0
100
AcDbCircle
 62
7
  6
CONTINUOUS
 10
4.6611240146
 20
5.3041113942
 40
0.2942105761
100
AcDbArc
 50
256.195582755
 51
257.1287312281
  0
ARC
  5
507
100
AcDbEntity
  8
0
100
AcDbCircle
 62
7
  6
CONTINUOUS
 10
4.6611240146
 20
4.8043364423
 40
0.2942105761
100
AcDbArc
 50
102.8712687719
 51
103.8044172449
  0
ARC
  5
508
100
AcDbEntity
  8
0
100
AcDbCircle
 62
7
  6
CONTINUOUS
 10
4.3161317589
 20
5.3023262926
 40
0.25
100
AcDbArc
 50
303.6840787046
 51
331.3396917146
  0
ARC
  5
509
100
AcDbEntity
  8
0
100
AcDbCircle
 62
7
  6
CONTINUOUS
 10
4.6367792392
 20
4.8656907792
 40
0.1975221615
100
AcDbArc
 50
105.4640834524
 51
106.6699921472
  0
ARC
  5
50A
100
AcDbEntity
  8
0
100
AcDbCircle
 62
7
  6
CONTINUOUS
 10
4.6351609277
 20
5.2049259052
 40
0.1916751888
100
AcDbArc
 50
253.3116142683
 51
254.5543101321
  0
ARC
  5
50B
100
AcDbEntity
  8
0
100
AcDbCircle
 62
7
  6
CONTINUOUS
 10
4.6351609277
 20
4.9035219313
 40
0.1916751887
100
AcDbArc
 50
105.4456898678
 51
106.6883857317
  0
ARC
  5
50C
100
AcDbEntity
  8
0
100
AcDbCircle
 62
7
  6
CONTINUOUS
 10
4.6130986041
 20
4.9403030516
 40
0.1192310158
100
AcDbArc
 50
108.9505926151
 51
110.6373594988
  0
ARC
  5
50D
100
AcDbEntity
  8
0
100
AcDbCircle
 62
7
  6
CONTINUOUS
 10
4.6116707031
 20
5.1319650784
 40
0.1150149017
100
AcDbArc
 50
249.3317221424
 51
251.0803257437
  0
ARC
  5
50E
100
AcDbEntity
  8
0
100
AcDbCircle
 62
7
  6
CONTINUOUS
 10
4.6116707031
 20
4.9764827581
 40
0.1150149016
100
AcDbArc
 50
108.9196742562
 51
110.6682778577
  0
ARC
  5
50F
100
AcDbEntity
  8
0
100
AcDbCircle
 62
7
  6
CONTINUOUS
 10
4.6375730215
 20
5.0753380978
 40
0.0514957483
100
AcDbArc
 50
244.1648641078
 51
245.0280188556
  0
ARC
  5
510
100
AcDbEntity
  8
0
100
AcDbCircle
 62
7
  6
CONTINUOUS
 10
4.7024750144
 20
5.4826276205
 40
0.0333299995
100
AcDbArc
 50
196.1243145699
 51
196.5208767131
  0
ARC
  5
511
100
AcDbEntity
  8
0
100
AcDbCircle
 62
7
  6
CONTINUOUS
 10
4.7296273292
 20
5.9078300433
 40
0.025
100
AcDbArc
 50
148.6715823482
 51
180.0
  0
ARC
  5
512
100
AcDbEntity
  8
0
100
AcDbCircle
 62
7
  6
CONTINUOUS
 10
4.7103834277
 20
5.6908300433
 40
0.022
100
AcDbArc
 50
338.6763137365
 51
90.0
  0
ARC
  5
513
100
AcDbEntity
  8
0
100
AcDbCircle
 62
7
  6
CONTINUOUS
 10
4.6773860217
 20
5.4543579922
 40
0.02000617
100
AcDbArc
 50
110.0501911977
 51
158.5469646127
  0
ARC
  5
514
100
AcDbEntity
  8
0
100
AcDbCircle
 62
7
  6
CONTINUOUS
 10
4.6774064896
 20
5.4542721739
 40
0.0200060209
100
AcDbArc
 50
110.0226212008
 51
158.5347388827
  0
ARC
  5
515
100
AcDbEntity
  8
0
100
AcDbCircle
 62
7
  6
CONTINUOUS
 10
4.6773322113
 20
5.454583731
 40
0.0200058454
100
AcDbArc
 50
110.1197872382
 51
158.5851243835
  0
ARC
  5
516
100
AcDbEntity
  8
0
100
AcDbCircle
 62
7
  6
CONTINUOUS
 10
4.6774282403
 20
5.4541428911
 40
0.0200020332
100
AcDbArc
 50
109.9554899025
 51
158.5024637923
  0
ARC
  5
517
100
AcDbEntity
  8
0
100
AcDbCircle
 62
7
  6
CONTINUOUS
 10
4.6208724556
 20
5.5037303779
 40
0.02
100
AcDbArc
 50
132.7311458337
 51
162.8767980978
  0
ARC
  5
518
100
AcDbEntity
  8
0
100
AcDbCircle
 62
7
  6
CONTINUOUS
 10
4.7049697319
 20
6.1452500208
 40
0.02
100
AcDbArc
 50
114.6077151435
 51
156.4443209859
  0
ARC
  5
519
100
AcDbEntity
  8
0
100
AcDbCircle
 62
7
  6
CONTINUOUS
 10
4.4458238636
 20
5.0253300433
 40
0.02
100
AcDbArc
 50
119.9115596987
 51
172.3964372772
  0
ARC
  5
51A
100
AcDbEntity
  8
0
100
AcDbCircle
 62
7
  6
CONTINUOUS
 10
4.5530509886
 20
5.1728300433
 40
0.02
100
AcDbArc
 50
90.0
 51
151.3396917146
  0
ARC
  5
51B
100
AcDbEntity
  8
0
100
AcDbCircle
 62
7
  6
CONTINUOUS
 10
4.4658773292
 20
5.0776570598
 40
0.02
100
AcDbArc
 50
123.6840787046
 51
180.0
  0
ARC
  5
51C
100
AcDbEntity
  8
0
100
AcDbCircle
 62
7
  6
CONTINUOUS
 10
4.7513394808
 20
5.7452216997
 40
0.0193961228
100
AcDbArc
 50
15.4508127645
 51
16.655002548
  0
ARC
  5
51D
100
AcDbEntity
  8
0
100
AcDbCircle
 62
7
  6
CONTINUOUS
 10
4.7058773292
 20
5.8928300433
 40
0.01
100
AcDbArc
 50
95.4545454545
 51
180.0
  0
ARC
  5
51E
100
AcDbEntity
  8
0
100
AcDbCircle
 62
7
  6
CONTINUOUS
 10
4.7058773292
 20
5.7228300433
 40
0.01
100
AcDbArc
 50
180.0
 51
270.0
  0
ARC
  5
51F
100
AcDbEntity
  8
0
100
AcDbCircle
 62
7
  6
CONTINUOUS
 10
4.6562185167
 20
5.4608958993
 40
0.0026627469
100
AcDbArc
 50
12.5109807505
 51
15.1767503477
  0
ARC
  5
520
100
AcDbEntity
  8
0
100
AcDbCircle
 62
7
  6
CONTINUOUS
 10
4.8658917619
 20
2.7630416174
 40
2.3487807062
100
AcDbArc
 50
89.5848109645
 51
89.8173979632
  0
ARC
  5
521
100
AcDbEntity
  8
0
100
AcDbCircle
 62
7
  6
CONTINUOUS
 10
4.8658628965
 20
2.7308293677
 40
2.3487807059
100
AcDbArc
 50
90.1826020368
 51
90.4151890355
  0
ARC
  5
522
100
AcDbEntity
  8
0
100
AcDbCircle
 62
7
  6
CONTINUOUS
 10
4.8658989805
 20
2.7322131027
 40
2.3473969548
100
AcDbArc
 50
89.5847424113
 51
89.8174665164
  0
ARC
  5
523
100
AcDbEntity
  8
0
100
AcDbCircle
 62
7
  6
CONTINUOUS
 10
4.8658556779
 20
2.7644253531
 40
2.3473969545
100
AcDbArc
 50
90.1825334836
 51
90.4152575887
  0
ARC
  5
524
100
AcDbEntity
  8
0
100
AcDbCircle
 62
7
  6
CONTINUOUS
 10
4.8654126071
 20
2.7718769072
 40
2.3077305529
100
AcDbArc
 50
90.7826837864
 51
91.0179744341
  0
ARC
  5
525
100
AcDbEntity
  8
0
100
AcDbCircle
 62
7
  6
CONTINUOUS
 10
4.8663420513
 20
2.8040891579
 40
2.3077305522
100
AcDbArc
 50
88.9820255659
 51
89.2173162136
  0
ARC
  5
526
100
AcDbEntity
  8
0
100
AcDbCircle
 62
7
  6
CONTINUOUS
 10
4.8664063532
 20
2.7759686585
 40
2.303638305
100
AcDbArc
 50
88.9818165771
 51
89.2175252024
  0
ARC
  5
527
100
AcDbEntity
  8
0
100
AcDbCircle
 62
7
  6
CONTINUOUS
 10
4.8653483052
 20
2.8081809088
 40
2.3036383048
100
AcDbArc
 50
90.7824747976
 51
91.0181834229
  0
ARC
  5
528
100
AcDbEntity
  8
0
100
AcDbCircle
 62
7
  6
CONTINUOUS
 10
4.8680665928
 20
2.8858071541
 40
2.225994042
100
AcDbArc
 50
88.3666484289
 51
88.6076158482
  0
ARC
  5
529
100
AcDbEntity
  8
0
100
AcDbCircle
 62
7
  6
CONTINUOUS
 10
4.8636880655
 20
2.8535949044
 40
2.2259940416
100
AcDbArc
 50
91.3923841518
 51
91.6333515711
  0
ARC
  5
52A
100
AcDbEntity
  8
0
100
AcDbCircle
 62
7
  6
CONTINUOUS
 10
4.863513106
 20
2.8924317341
 40
2.2193671667
100
AcDbArc
 50
91.3920243954
 51
91.6337113276
  0
ARC
  5
52B
100
AcDbEntity
  8
0
100
AcDbCircle
 62
7
  6
CONTINUOUS
 10
4.8682415524
 20
2.8602194845
 40
2.2193671663
100
AcDbArc
 50
88.3662886724
 51
88.6079756047
  0
ARC
  5
52C
100
AcDbEntity
  8
0
100
AcDbCircle
 62
7
  6
CONTINUOUS
 10
4.8599076553
 20
2.9724964366
 40
2.1070319271
100
AcDbArc
 50
92.0195747005
 51
92.2694772573
  0
ARC
  5
52D
100
AcDbEntity
  8
0
100
AcDbCircle
 62
7
  6
CONTINUOUS
 10
4.8718470031
 20
3.0047086867
 40
2.107031927
100
AcDbArc
 50
87.7305227427
 51
87.9804252995
  0
ARC
  5
52E
100
AcDbEntity
  8
0
100
AcDbCircle
 62
7
  6
CONTINUOUS
 10
4.8595752852
 20
3.0135845452
 40
2.0981498688
100
AcDbArc
 50
92.0190457458
 51
92.2700062121
  0
ARC
  5
52F
100
AcDbEntity
  8
0
100
AcDbCircle
 62
7
  6
CONTINUOUS
 10
4.8721793732
 20
2.981372296
 40
2.098149868
100
AcDbArc
 50
87.7299937879
 51
87.9809542543
  0
ARC
  5
530
100
AcDbEntity
  8
0
100
AcDbCircle
 62
7
  6
CONTINUOUS
 10
4.87833787
 20
3.1557670786
 40
1.9558334509
100
AcDbArc
 50
87.0644156173
 51
87.326980702
  0
ARC
  5
531
100
AcDbEntity
  8
0
100
AcDbCircle
 62
7
  6
CONTINUOUS
 10
4.8534167883
 20
3.1235548291
 40
1.9558334503
100
AcDbArc
 50
92.6730192979
 51
92.9355843828
  0
ARC
  5
532
100
AcDbEntity
  8
0
100
AcDbCircle
 62
7
  6
CONTINUOUS
 10
4.8788646505
 20
3.1343090897
 40
1.9450663241
100
AcDbArc
 50
87.0636888872
 51
87.3277074321
  0
ARC
  5
533
100
AcDbEntity
  8
0
100
AcDbCircle
 62
7
  6
CONTINUOUS
 10
4.8528900079
 20
3.16652134
 40
1.9450663239
100
AcDbArc
 50
92.6722925679
 51
92.9363111129
  0
ARC
  5
534
100
AcDbEntity
  8
0
100
AcDbCircle
 62
7
  6
CONTINUOUS
 10
4.8880252568
 20
3.332684155
 40
1.7786504357
100
AcDbArc
 50
86.3574484051
 51
86.6371100244
  0
ARC
  5
535
100
AcDbEntity
  8
0
100
AcDbCircle
 62
7
  6
CONTINUOUS
 10
4.8437294016
 20
3.3004719051
 40
1.7786504357
100
AcDbArc
 50
93.3628899756
 51
93.642551595
  0
ARC
  5
536
100
AcDbEntity
  8
0
100
AcDbCircle
 62
7
  6
CONTINUOUS
 10
4.8429833498
 20
3.3448724956
 40
1.7664393201
100
AcDbArc
 50
93.3619233454
 51
93.6435182252
  0
ARC
  5
537
100
AcDbEntity
  8
0
100
AcDbCircle
 62
7
  6
CONTINUOUS
 10
4.8887713086
 20
3.3126602457
 40
1.7664393199
100
AcDbArc
 50
86.3564817748
 51
86.6380766546
  0
ARC
  5
538
100
AcDbEntity
  8
0
100
AcDbCircle
 62
7
  6
CONTINUOUS
 10
4.9011946333
 20
3.5282256439
 40
1.5826648178
100
AcDbArc
 50
85.5963270416
 51
85.8985510581
  0
ARC
  5
539
100
AcDbEntity
  8
0
100
AcDbCircle
 62
7
  6
CONTINUOUS
 10
4.8305600251
 20
3.496013394
 40
1.5826648178
100
AcDbArc
 50
94.1014489419
 51
94.4036729584
  0
ARC
  5
53A
100
AcDbEntity
  8
0
100
AcDbCircle
 62
7
  6
CONTINUOUS
 10
4.9021709718
 20
3.5091436736
 40
1.5694983352
100
AcDbArc
 50
85.5950593638
 51
85.899818736
  0
ARC
  5
53B
100
AcDbEntity
  8
0
100
AcDbCircle
 62
7
  6
CONTINUOUS
 10
4.8295836866
 20
3.5413559235
 40
1.5694983353
100
AcDbArc
 50
94.1001812641
 51
94.4049406362
  0
ARC
  5
53C
100
AcDbEntity
  8
0
100
AcDbCircle
 62
7
  6
CONTINUOUS
 10
4.9179100409
 20
3.7346052711
 40
1.3756079184
100
AcDbArc
 50
84.7642505026
 51
85.0960008683
  0
ARC
  5
53D
100
AcDbEntity
  8
0
100
AcDbCircle
 62
7
  6
CONTINUOUS
 10
4.8138446175
 20
3.702393021
 40
1.3756079184
100
AcDbArc
 50
94.9039991317
 51
95.2357494974
  0
ARC
  5
53E
100
AcDbEntity
  8
0
100
AcDbCircle
 62
7
  6
CONTINUOUS
 10
4.8126417533
 20
3.7481636095
 40
1.3619963845
100
AcDbArc
 50
94.9023414019
 51
95.2374072272
  0
ARC
  5
53F
100
AcDbEntity
  8
0
100
AcDbCircle
 62
7
  6
CONTINUOUS
 10
4.9191129051
 20
3.7159513599
 40
1.3619963841
100
AcDbArc
 50
84.7625927727
 51
85.0976585982
  0
ARC
  5
540
100
AcDbEntity
  8
0
100
AcDbCircle
 62
7
  6
CONTINUOUS
 10
4.7937489867
 20
3.9116841654
 40
1.1653524037
100
AcDbArc
 50
95.7902679506
 51
96.1607023024
  0
ARC
  5
541
100
AcDbEntity
  8
0
100
AcDbCircle
 62
7
  6
CONTINUOUS
 10
4.9380056717
 20
3.9438964157
 40
1.1653524034
100
AcDbArc
 50
83.8392976976
 51
84.2097320495
  0
ARC
  5
542
100
AcDbEntity
  8
0
100
AcDbCircle
 62
7
  6
CONTINUOUS
 10
4.7923382358
 20
3.9573742842
 40
1.1518009749
100
AcDbArc
 50
95.7880887839
 51
96.162881469
  0
ARC
  5
543
100
AcDbEntity
  8
0
100
AcDbCircle
 62
7
  6
CONTINUOUS
 10
4.9394164226
 20
3.9251620343
 40
1.1518009747
100
AcDbArc
 50
83.837118531
 51
84.2119112161
  0
ARC
  5
544
100
AcDbEntity
  8
0
100
AcDbCircle
 62
7
  6
CONTINUOUS
 10
4.9610903585
 20
4.1484486916
 40
0.9594993804
100
AcDbArc
 50
82.7919508577
 51
83.2134983682
  0
ARC
  5
545
100
AcDbEntity
  8
0
100
AcDbCircle
 62
7
  6
CONTINUOUS
 10
4.7706642999
 20
4.1162364416
 40
0.9594993804
100
AcDbArc
 50
96.7865016318
 51
97.2080491424
  0
ARC
  5
546
100
AcDbEntity
  8
0
100
AcDbCircle
 62
7
  6
CONTINUOUS
 10
4.769078444
 20
4.1613695312
 40
0.9464816728
100
AcDbArc
 50
96.783602681
 51
97.2109480931
  0
ARC
  5
547
100
AcDbEntity
  8
0
100
AcDbCircle
 62
7
  6
CONTINUOUS
 10
4.9626762144
 20
4.1291572812
 40
0.9464816728
100
AcDbArc
 50
82.7890519069
 51
83.216397319
  0
ARC
  5
548
100
AcDbEntity
  8
0
100
AcDbCircle
 62
7
  6
CONTINUOUS
 10
4.9865647559
 20
4.3412865749
 40
0.7649833306
100
AcDbArc
 50
81.5811439689
 51
82.0712417445
  0
ARC
  5
549
100
AcDbEntity
  8
0
100
AcDbCircle
 62
7
  6
CONTINUOUS
 10
4.9882803252
 20
4.3210182263
 40
0.7529169619
100
AcDbArc
 50
81.5772167514
 51
82.075168962
  0
ARC
  5
54A
100
AcDbEntity
  8
0
100
AcDbCircle
 62
7
  6
CONTINUOUS
 10
5.1946894402
 20
3.3428300433
 40
0.015
100
AcDbArc
 50
45.786741508
 51
90.0
  0
ARC
  5
54B
100
AcDbEntity
  8
0
100
AcDbCircle
 62
7
  6
CONTINUOUS
 10
5.3083773292
 20
3.2746435014
 40
0.015
100
AcDbArc
 50
0.0
 51
72.3051589479
  0
ARC
  5
54C
100
AcDbEntity
  8
0
100
AcDbCircle
 62
7
  6
CONTINUOUS
 10
5.2832568892
 20
4.1248556571
 40
0.123383428
100
AcDbArc
 50
92.7446777259
 51
93.5233149182
  0
ARC
  5
54D
100
AcDbEntity
  8
0
100
AcDbCircle
 62
7
  6
CONTINUOUS
 10
5.2749112063
 20
4.1571544738
 40
0.0740305122
100
AcDbArc
 50
95.3287238365
 51
96.6851251231
  0
ARC
  5
54E
100
AcDbEntity
  8
0
100
AcDbCircle
 62
7
  6
CONTINUOUS
 10
5.2856403686
 20
4.2653300433
 40
0.02
100
AcDbArc
 50
300.3926390056
 51
353.2731200487
  0
ARC
  5
54F
100
AcDbEntity
  8
0
100
AcDbCircle
 62
7
  6
CONTINUOUS
 10
5.2658773292
 20
4.2130030267
 40
0.02
100
AcDbArc
 50
303.6840787046
 51
360.0
  0
ARC
  5
550
100
AcDbEntity
  8
0
100
AcDbCircle
 62
7
  6
CONTINUOUS
 10
5.1787036698
 20
4.1178300433
 40
0.02
100
AcDbArc
 50
270.0
 51
331.3396917146
  0
ARC
  5
551
100
AcDbEntity
  8
0
100
AcDbCircle
 62
7
  6
CONTINUOUS
 10
5.2659429789
 20
4.2337517705
 40
0.0030900247
100
AcDbArc
 50
262.2030193795
 51
276.5059877
  0
ARC
  5
552
100
AcDbEntity
  8
0
100
AcDbCircle
 62
7
  6
CONTINUOUS
 10
5.2754929501
 20
4.2496614884
 40
0.0016656574
100
AcDbArc
 50
262.5167506901
 51
276.2466881428
  0
ARC
  5
553
100
AcDbEntity
  8
0
100
AcDbCircle
 62
7
  6
CONTINUOUS
 10
5.0136502907
 20
4.5164681855
 40
0.5877166176
100
AcDbArc
 50
80.1476916124
 51
80.7317027985
  0
ARC
  5
554
100
AcDbEntity
  8
0
100
AcDbCircle
 62
7
  6
CONTINUOUS
 10
5.0154398197
 20
4.4948810305
 40
0.5769420185
100
AcDbArc
 50
80.1422382546
 51
80.7371561562
  0
ARC
  5
555
100
AcDbEntity
  8
0
100
AcDbCircle
 62
7
  6
CONTINUOUS
 10
4.865726824
 20
4.9425234434
 40
0.5654102014
100
AcDbArc
 50
69.7744671603
 51
89.9847486311
  0
ARC
  5
556
100
AcDbEntity
  8
0
100
AcDbCircle
 62
7
  6
CONTINUOUS
 10
4.8660278343
 20
4.9425234434
 40
0.5654102014
100
AcDbArc
 50
90.0152513674
 51
110.2255328383
  0
ARC
  5
557
100
AcDbEntity
  8
0
100
AcDbCircle
 62
7
  6
CONTINUOUS
 10
5.0414283067
 20
4.6693845712
 40
0.4322931339
100
AcDbArc
 50
78.4028438751
 51
79.1192009623
  0
ARC
  5
558
100
AcDbEntity
  8
0
100
AcDbCircle
 62
7
  6
CONTINUOUS
 10
5.0432285201
 20
4.6462317133
 40
0.4230567955
100
AcDbArc
 50
78.3950238784
 51
79.1270209591
  0
ARC
  5
559
100
AcDbEntity
  8
0
100
AcDbCircle
 62
7
  6
CONTINUOUS
 10
4.8658773292
 20
5.1203580487
 40
0.3062
100
AcDbArc
 50
13.6907851686
 51
18.1685823975
  0
ARC
  5
55A
100
AcDbEntity
  8
0
100
AcDbCircle
 62
7
  6
CONTINUOUS
 10
4.8658773292
 20
5.1203580487
 40
0.3062
100
AcDbArc
 50
161.8314176025
 51
166.3092148314
  0
ARC
  5
55B
100
AcDbEntity
  8
0
100
AcDbCircle
 62
7
  6
CONTINUOUS
 10
4.9149216829
 20
4.9786571559
 40
0.2009558724
100
AcDbArc
 50
335.5447104209
 51
359.9976814389
  0
ARC
  5
55C
100
AcDbEntity
  8
0
100
AcDbCircle
 62
7
  6
CONTINUOUS
 10
4.8168329753
 20
4.9786571564
 40
0.2009558723
100
AcDbArc
 50
180.0023187189
 51
204.455289751
  0
ARC
  5
55D
100
AcDbEntity
  8
0
100
AcDbCircle
 62
7
  6
CONTINUOUS
 10
4.8508071754
 20
6.0373082327
 40
1.8116622467
100
AcDbArc
 50
268.6777393849
 51
269.3838534455
  0
ARC
  5
55E
100
AcDbEntity
  8
0
100
AcDbCircle
 62
7
  6
CONTINUOUS
 10
4.880953898
 20
6.0369395411
 40
1.8112935085
100
AcDbArc
 50
270.6160686336
 51
271.3223384592
  0
ARC
  5
55F
100
AcDbEntity
  8
0
100
AcDbCircle
 62
7
  6
CONTINUOUS
 10
5.0414283067
 20
5.4390632652
 40
0.4322931339
100
AcDbArc
 50
280.8807990376
 51
281.5971561249
  0
ARC
  5
560
100
AcDbEntity
  8
0
100
AcDbCircle
 62
7
  6
CONTINUOUS
 10
4.889506386
 20
6.068400631
 40
0.2207000147
100
AcDbArc
 50
199.9560960516
 51
203.1414378222
  0
ARC
  5
561
100
AcDbEntity
  8
0
100
AcDbCircle
 62
7
  6
CONTINUOUS
 10
4.8421421618
 20
6.0683937815
 40
0.2206383802
100
AcDbArc
 50
336.8221024063
 51
340.0766429091
  0
ARC
  5
562
100
AcDbEntity
  8
0
100
AcDbCircle
 62
7
  6
CONTINUOUS
 10
4.8840807073
 20
6.0719469713
 40
0.2046358435
100
AcDbArc
 50
156.4715340503
 51
185.178665023
  0
ARC
  5
563
100
AcDbEntity
  8
0
100
AcDbCircle
 62
7
  6
CONTINUOUS
 10
5.0260782294
 20
5.4835651503
 40
0.0366658486
100
AcDbArc
 50
343.4971630282
 51
343.8576459307
  0
ARC
  5
564
100
AcDbEntity
  8
0
100
AcDbCircle
 62
7
  6
CONTINUOUS
 10
5.0021273292
 20
5.9078300433
 40
0.025
100
AcDbArc
 50
0.0
 51
31.6524195695
  0
ARC
  5
565
100
AcDbEntity
  8
0
100
AcDbCircle
 62
7
  6
CONTINUOUS
 10
5.0213712307
 20
5.6908300433
 40
0.022
100
AcDbArc
 50
90.0
 51
201.3236862635
  0
ARC
  5
566
100
AcDbEntity
  8
0
100
AcDbCircle
 62
7
  6
CONTINUOUS
 10
5.0265929173
 20
6.145337634
 40
0.02
100
AcDbArc
 50
23.5628660429
 51
65.4197565766
  0
ARC
  5
567
100
AcDbEntity
  8
0
100
AcDbCircle
 62
7
  6
CONTINUOUS
 10
4.9808045956
 20
5.7451247958
 40
0.0197800097
100
AcDbArc
 50
163.3217580359
 51
164.6467278177
  0
ARC
  5
568
100
AcDbEntity
  8
0
100
AcDbCircle
 62
7
  6
CONTINUOUS
 10
5.0258773292
 20
5.8928300433
 40
0.01
100
AcDbArc
 50
0.0
 51
84.5454545455
  0
ARC
  5
569
100
AcDbEntity
  8
0
100
AcDbCircle
 62
7
  6
CONTINUOUS
 10
5.0258773292
 20
5.7228300433
 40
0.01
100
AcDbArc
 50
270.0
 51
360.0
  0
ARC
  5
56A
100
AcDbEntity
  8
0
100
AcDbCircle
 62
7
  6
CONTINUOUS
 10
5.068887266
 20
4.7969831323
 40
0.301767483
100
AcDbArc
 50
76.2072670263
 51
77.1170469569
  0
ARC
  5
56B
100
AcDbEntity
  8
0
100
AcDbCircle
 62
7
  6
CONTINUOUS
 10
5.068887266
 20
5.3114647042
 40
0.301767483
100
AcDbArc
 50
282.8829530431
 51
283.7927329738
  0
ARC
  5
56C
100
AcDbEntity
  8
0
100
AcDbCircle
 62
7
  6
CONTINUOUS
 10
5.0706306438
 20
4.7721241923
 40
0.2942105761
100
AcDbArc
 50
76.195582755
 51
77.1287312281
  0
ARC
  5
56D
100
AcDbEntity
  8
0
100
AcDbCircle
 62
7
  6
CONTINUOUS
 10
5.0949754192
 20
4.8979030293
 40
0.1975221615
100
AcDbArc
 50
73.3300078528
 51
74.5359165476
  0
ARC
  5
56E
100
AcDbEntity
  8
0
100
AcDbCircle
 62
7
  6
CONTINUOUS
 10
5.0949754192
 20
5.2105448072
 40
0.1975221615
100
AcDbArc
 50
285.4640834524
 51
286.6699921472
  0
ARC
  5
56F
100
AcDbEntity
  8
0
100
AcDbCircle
 62
7
  6
CONTINUOUS
 10
5.0965937307
 20
4.8713096813
 40
0.1916751887
100
AcDbArc
 50
73.3116142683
 51
74.5543101322
  0
ARC
  5
570
100
AcDbEntity
  8
0
100
AcDbCircle
 62
7
  6
CONTINUOUS
 10
5.1186560543
 20
4.9725153016
 40
0.1192310158
100
AcDbArc
 50
69.3626405011
 51
71.049407385
  0
ARC
  5
571
100
AcDbEntity
  8
0
100
AcDbCircle
 62
7
  6
CONTINUOUS
 10
5.1186560543
 20
5.1359325348
 40
0.1192310158
100
AcDbArc
 50
288.950592615
 51
290.6373594989
  0
ARC
  5
572
100
AcDbEntity
  8
0
100
AcDbCircle
 62
7
  6
CONTINUOUS
 10
5.1200839553
 20
4.944270508
 40
0.1150149017
100
AcDbArc
 50
69.3317221424
 51
71.0803257437
  0
ARC
  5
573
100
AcDbEntity
  8
0
100
AcDbCircle
 62
7
  6
CONTINUOUS
 10
5.0938622371
 20
5.0760106342
 40
0.0522402551
100
AcDbArc
 50
294.9779449596
 51
295.8293551659
  0
ARC
  5
574
100
AcDbEntity
  8
0
100
AcDbCircle
 62
7
  6
CONTINUOUS
 10
5.1927191287
 20
5.0746849721
 40
0.0461122066
100
AcDbArc
 50
246.3113556176
 51
247.8998317344
  0
ARC
  5
575
100
AcDbEntity
  8
0
100
AcDbCircle
 62
7
  6
CONTINUOUS
 10
5.2859307948
 20
5.0253300433
 40
0.02
100
AcDbArc
 50
7.6035627227
 51
60.0884387663
  0
ARC
  5
576
100
AcDbEntity
  8
0
100
AcDbCircle
 62
7
  6
CONTINUOUS
 10
5.1787036698
 20
5.1728300433
 40
0.02
100
AcDbArc
 50
28.6603082854
 51
90.0
  0
ARC
  5
577
100
AcDbEntity
  8
0
100
AcDbCircle
 62
7
  6
CONTINUOUS
 10
5.2658773292
 20
5.0776570598
 40
0.02
100
AcDbArc
 50
0.0
 51
56.3159212954
  0
ARC
  5
578
100
AcDbEntity
  8
0
100
AcDbCircle
 62
7
  6
CONTINUOUS
 10
5.2859715551
 20
5.7528497823
 40
1.4897975924
100
AcDbArc
 50
270.0306230587
 51
270.2393154864
  0
ARC
  5
579
100
AcDbEntity
  8
0
100
AcDbCircle
 62
7
  6
CONTINUOUS
 10
5.1884888514
 20
5.8865756221
 40
0.8412906044
100
AcDbArc
 50
270.0124365078
 51
270.3579661889
  0
ARC
  5
57A
100
AcDbEntity
  8
0
100
AcDbCircle
 62
7
  6
CONTINUOUS
 10
5.2917923567
 20
5.6144552909
 40
0.5865776566
100
AcDbArc
 50
270.0824357281
 51
270.4798857434
  0
ARC
  5
57B
100
AcDbEntity
  8
0
100
AcDbCircle
 62
7
  6
CONTINUOUS
 10
5.0543686353
 20
5.454357987
 40
0.0200061741
100
AcDbArc
 50
21.4530479417
 51
69.9498103141
  0
ARC
  5
57C
100
AcDbEntity
  8
0
100
AcDbCircle
 62
7
  6
CONTINUOUS
 10
5.0543481739
 20
5.4542721716
 40
0.0200060172
100
AcDbArc
 50
21.4652727585
 51
69.9773949924
  0
ARC
  5
57D
100
AcDbEntity
  8
0
100
AcDbCircle
 62
7
  6
CONTINUOUS
 10
5.0544225851
 20
5.4545836871
 40
0.0200058365
100
AcDbArc
 50
21.4157930391
 51
69.8806272826
  0
ARC
  5
57E
100
AcDbEntity
  8
0
100
AcDbCircle
 62
7
  6
CONTINUOUS
 10
5.0543262618
 20
5.4541429402
 40
0.0200020306
100
AcDbArc
 50
21.497242144
 51
70.0440413712
  0
ARC
  5
57F
100
AcDbEntity
  8
0
100
AcDbCircle
 62
7
  6
CONTINUOUS
 10
5.1108822027
 20
5.5037303779
 40
0.02
100
AcDbArc
 50
17.1232019022
 51
47.2688541663
  0
ARC
  5
580
100
AcDbEntity
  8
0
100
AcDbCircle
 62
7
  6
CONTINUOUS
 10
5.0754859709
 20
5.4609082631
 40
0.0026110894
100
AcDbArc
 50
164.7968750895
 51
167.5153938061
  0
ARC
  5
581
100
AcDbEntity
  8
0
100
AcDbCircle
 62
7
  6
CONTINUOUS
 10
5.063311663
 20
5.4722355085
 40
0.0022720167
100
AcDbArc
 50
158.4715147352
 51
161.8224237504
  0
ARC
  5
582
100
AcDbEntity
  8
0
100
AcDbCircle
 62
7
  6
CONTINUOUS
 10
-49.4739306837
 20
25.4740630936
 40
57.8987784522
100
AcDbArc
 50
340.1784940556
 51
340.3261644944
  0
ARC
  5
583
100
AcDbEntity
  8
0
100
AcDbCircle
 62
7
  6
CONTINUOUS
 10
4.8644200403
 20
11.0164389318
 40
6.7709859661
100
AcDbArc
 50
269.709809954
 51
270.0123321191
  0
ARC
  5
584
100
AcDbEntity
  8
0
100
AcDbCircle
 62
7
  6
CONTINUOUS
 10
4.8673346872
 20
11.0164048516
 40
6.7709518859
100
AcDbArc
 50
269.9876684454
 51
270.2901908654
  0
ARC
  5
585
100
AcDbEntity
  8
0
100
AcDbCircle
 62
7
  6
CONTINUOUS
 10
4.8506032157
 20
8.1091449443
 40
3.863658648
100
AcDbArc
 50
269.3572696573
 51
269.6963524939
  0
ARC
  5
586
100
AcDbEntity
  8
0
100
AcDbCircle
 62
7
  6
CONTINUOUS
 10
4.8836203955
 20
7.8101563569
 40
3.564661288
100
AcDbArc
 50
270.2894323614
 51
270.6569620259
  0
ARC
  5
587
100
AcDbEntity
  8
0
100
AcDbCircle
 62
7
  6
CONTINUOUS
 10
4.8674622568
 20
7.3670913063
 40
3.1415147838
100
AcDbArc
 50
269.9710936752
 51
270.6012733543
  0
ARC
  5
588
100
AcDbEntity
  8
0
100
AcDbCircle
 62
7
  6
CONTINUOUS
 10
4.8642923961
 20
7.3670513656
 40
3.141474843
100
AcDbArc
 50
269.3987188573
 51
270.0289067924
  0
ARC
  5
589
100
AcDbEntity
  8
0
100
AcDbCircle
 62
7
  6
CONTINUOUS
 10
6.7426197751
 20
4.92940812
 40
2.1562504914
100
AcDbArc
 50
177.5922526971
 51
188.9322558441
  0
ARC
  5
58A
100
AcDbEntity
  8
0
100
AcDbCircle
 62
7
  6
CONTINUOUS
 10
5.7566046019
 20
5.1538300433
 40
1.2084097577
100
AcDbArc
 50
162.8767980978
 51
176.9227238952
  0
ARC
  5
58B
100
AcDbEntity
  8
0
100
AcDbCircle
 62
7
  6
CONTINUOUS
 10
5.6756572388
 20
5.0695711651
 40
1.0898681868
100
AcDbArc
 50
158.913823803
 51
167.1889932202
  0
ARC
  5
58C
100
AcDbEntity
  8
0
100
AcDbCircle
 62
7
  6
CONTINUOUS
 10
5.6741572492
 20
5.0691311307
 40
1.0885061519
100
AcDbArc
 50
158.8727551652
 51
162.9963682627
  0
ARC
  5
58D
100
AcDbEntity
  8
0
100
AcDbCircle
 62
7
  6
CONTINUOUS
 10
5.6721935823
 20
5.0697028605
 40
1.0864611324
100
AcDbArc
 50
162.9949178976
 51
167.1552601996
  0
ARC
  5
58E
100
AcDbEntity
  8
0
100
AcDbCircle
 62
7
  6
CONTINUOUS
 10
5.6619397253
 20
5.071320125
 40
1.0760441605
100
AcDbArc
 50
177.4055004006
 51
179.0927718697
  0
ARC
  5
58F
100
AcDbEntity
  8
0
100
AcDbCircle
 62
7
  6
CONTINUOUS
 10
5.4905931892
 20
5.1274162159
 40
0.8966073996
100
AcDbArc
 50
158.0966571503
 51
158.2844238429
  0
ARC
  5
590
100
AcDbEntity
  8
0
100
AcDbCircle
 62
7
  6
CONTINUOUS
 10
5.5132677296
 20
5.9393160614
 40
0.573
100
AcDbArc
 50
206.5910608123
 51
227.2688541663
  0
ARC
  5
591
100
AcDbEntity
  8
0
100
AcDbCircle
 62
7
  6
CONTINUOUS
 10
5.3962180935
 20
3.5499705798
 40
0.274
100
AcDbArc
 50
225.786741508
 51
252.3051589479
  0
ARC
  5
592
100
AcDbEntity
  8
0
100
AcDbCircle
 62
7
  6
CONTINUOUS
 10
5.4156228995
 20
5.3023262926
 40
0.25
100
AcDbArc
 50
208.6603082854
 51
236.3159212954
  0
ARC
  5
593
100
AcDbEntity
  8
0
100
AcDbCircle
 62
7
  6
CONTINUOUS
 10
5.4156228995
 20
3.9883337939
 40
0.25
100
AcDbArc
 50
123.6840787046
 51
151.3396917146
  0
ARC
  5
594
100
AcDbEntity
  8
0
100
AcDbCircle
 62
7
  6
CONTINUOUS
 10
5.3683773292
 20
3.2478300433
 40
0.045
100
AcDbArc
 50
180.0
 51
267.2635817009
  0
ARC
  5
595
100
AcDbEntity
  8
0
100
AcDbCircle
 62
7
  6
CONTINUOUS
 10
5.3808773292
 20
3.0924011111
 40
0.005
100
AcDbArc
 50
180.0
 51
225.0
  0
ARC
  5
596
100
AcDbEntity
  8
0
100
AcDbCircle
 62
7
  6
CONTINUOUS
 10
5.3933773292
 20
3.0657589754
 40
0.005
100
AcDbArc
 50
0.0
 51
45.0
  0
ARC
  5
597
100
AcDbEntity
  8
0
100
AcDbCircle
 62
7
  6
CONTINUOUS
 10
60.1477831481
 20
25.859821304
 40
58.9159377378
100
AcDbArc
 50
199.7184626962
 51
199.8619109682
  0
SPLINE
  5
598
100
AcDbEntity
  8
0
100
AcDbSpline
 62
7
  6
CONTINUOUS
 70
0
 71
3
 72
32
 73
28
 74
0
 42
0.0000001
 43
0.0000001
 44
0.0000000001
 40
0.0
 40
0.0
 40
0.0
 40
0.0
 40
0.2291747754
 40
0.3362005995
 40
0.4374074079
 40
0.5321266528
 40
0.6196192613
 40
0.699152015
 40
0.7701707208
 40
0.8320834073
 40
0.8842045767
 40
0.906357505
 40
0.925768681
 40
0.9423317104
 40
0.9559901268
 40
0.9667780704
 40
0.9747363943
 40
0.9799032186
 40
0.9814510281
 40
0.9823140779
 40
0.9824973766
 40
0.9829933356
 40
0.9841625724
 40
0.986001932
 40
0.9885082614
 40
0.991678572
 40
1.0
 40
1.0
 40
1.0
 40
1.0
 10
4.6158773292
 20
5.0282063317
 30
0.0
 10
4.6158773292
 20
5.0284201776
 30
0.0
 10
4.6158581793
 20
5.0287343156
 30
0.0
 10
4.6157978808
 20
5.0291381182
 30
0.0
 10
4.6157408864
 20
5.0294151563
 30
0.0
 10
4.6156738714
 20
5.0296711084
 30
0.0
 10
4.6155996203
 20
5.0299039102
 30
0.0
 10
4.615520753
 20
5.0301116703
 30
0.0
 10
4.6154410415
 20
5.03029328
 30
0.0
 10
4.6153642205
 20
5.0304479904
 30
0.0
 10
4.6153027463
 20
5.030559258
 30
0.0
 10
4.6152580265
 20
5.0306343772
 30
0.0
 10
4.6152293637
 20
5.0306804317
 30
0.0
 10
4.6152041659
 20
5.0307192827
 30
0.0
 10
4.6151827334
 20
5.0307510158
 30
0.0
 10
4.6151654089
 20
5.0307757217
 30
0.0
 10
4.615152081
 20
5.0307938112
 30
0.0
 10
4.6151440387
 20
5.0308045349
 30
0.0
 10
4.6151393216
 20
5.0308102445
 30
0.0
 10
4.6151381076
 20
5.0308119114
 30
0.0
 10
4.6151367527
 20
5.0308132359
 30
0.0
 10
4.6151388208
 20
5.0308106772
 30
0.0
 10
4.6151401263
 20
5.0308090329
 30
0.0
 10
4.6151438269
 20
5.0308046183
 30
0.0
 10
4.6151482293
 20
5.0307994966
 30
0.0
 10
4.6151569416
 20
5.0307895848
 30
0.0
 10
4.6151641249
 20
5.0307817064
 30
0.0
 10
4.6151694057
 20
5.0307760138
 30
0.0
  0
SPLINE
  5
599
100
AcDbEntity
  8
0
100
AcDbSpline
 62
7
  6
CONTINUOUS
 70
0
 71
3
 72
41
 73
37
 74
0
 42
0.0000001
 43
0.0000001
 44
0.0000000001
 40
0.0
 40
0.0
 40
0.0
 40
0.0
 40
0.0062046473
 40
0.0122564402
 40
0.018274508
 40
0.0243475531
 40
0.0274275176
 40
0.0305458233
 40
0.0369281512
 40
0.0435550403
 40
0.0504774088
 40
0.057729401
 40
0.0653370163
 40
0.0733232314
 40
0.08170375
 40
0.090489884
 40
0.099691742
 40
0.119365282
 40
0.1407525848
 40
0.1638573096
 40
0.1886664096
 40
0.2151531626
 40
0.243280685
 40
0.2730040075
 40
0.3042708597
 40
0.3370229108
 40
0.3711967204
 40
0.4067239687
 40
0.4435320466
 40
0.4815446712
 40
0.5608602828
 40
0.6439968405
 40
0.7302385134
 40
0.8188372382
 40
0.9090198026
 40
1.0
 40
1.0
 40
1.0
 40
1.0
 10
4.6339056614
 20
4.8954647074
 30
0.0
 10
4.6341090061
 20
4.8950175032
 30
0.0
 10
4.6345732781
 20
4.8941611927
 30
0.0
 10
4.6354229644
 20
4.8929862541
 30
0.0
 10
4.6363838462
 20
4.8919153869
 30
0.0
 10
4.6372655417
 20
4.8910974069
 30
0.0
 10
4.6380146
 20
4.89047836
 30
0.0
 10
4.638803931
 20
4.8898704839
 30
0.0
 10
4.6398532837
 20
4.8891413641
 30
0.0
 10
4.6411982072
 20
4.8883145057
 30
0.0
 10
4.6426402645
 20
4.8875178274
 30
0.0
 10
4.6441827936
 20
4.8867455723
 30
0.0
 10
4.645828467
 20
4.8859939499
 30
0.0
 10
4.6475789499
 20
4.8852590824
 30
0.0
 10
4.6494358879
 20
4.8845387793
 30
0.0
 10
4.6514004721
 20
4.8838316694
 30
0.0
 10
4.6542278044
 20
4.8828833994
 30
0.0
 10
4.6580381135
 20
4.8817315654
 30
0.0
 10
4.662946719
 20
4.8804188312
 30
0.0
 10
4.6682845595
 20
4.8791454405
 30
0.0
 10
4.6740451628
 20
4.8779116247
 30
0.0
 10
4.6802198128
 20
4.8767185216
 30
0.0
 10
4.6867977898
 20
4.8755676767
 30
0.0
 10
4.6937667708
 20
4.8744609214
 30
0.0
 10
4.701113024
 20
4.8734002131
 30
0.0
 10
4.7088215732
 20
4.8723875498
 30
0.0
 10
4.7168763402
 20
4.8714249422
 30
0.0
 10
4.7252602415
 20
4.8705143597
 30
0.0
 10
4.7339552813
 20
4.8696576742
 30
0.0
 10
4.7461112831
 20
4.8685744156
 30
0.0
 10
4.7619389417
 20
4.8673757881
 30
0.0
 10
4.7815951305
 20
4.8661970595
 30
0.0
 10
4.8020005116
 20
4.8652690902
 30
0.0
 10
4.8229741457
 20
4.8646002016
 30
0.0
 10
4.8443297446
 20
4.8641964274
 30
0.0
 10
4.8586738049
 20
4.864106562
 30
0.0
 10
4.8658773292
 20
4.864106562
 30
0.0
  0
SPLINE
  5
59A
100
AcDbEntity
  8
0
100
AcDbSpline
 62
7
  6
CONTINUOUS
 70
0
 71
3
 72
41
 73
37
 74
0
 42
0.0000001
 43
0.0000001
 44
0.0000000001
 40
0.0
 40
0.0
 40
0.0
 40
0.0
 40
0.0909802008
 40
0.181162768
 40
0.2697614954
 40
0.3560031701
 40
0.439139729
 40
0.5184553412
 40
0.5564679657
 40
0.5932760435
 40
0.6288032913
 40
0.6629771002
 40
0.6957291505
 40
0.7269960017
 40
0.7567193228
 40
0.7848468438
 40
0.811333595
 40
0.836142693
 40
0.8592474158
 40
0.8806347157
 40
0.9003082534
 40
0.9095101088
 40
0.9182962441
 40
0.9266767627
 40
0.9346629707
 40
0.9422705889
 40
0.9495225868
 40
0.9564449452
 40
0.9630718289
 40
0.9694541702
 40
0.9725724882
 40
0.975652464
 40
0.9817255129
 40
0.9877435447
 40
0.9937952788
 40
1.0
 40
1.0
 40
1.0
 40
1.0
 10
4.8658773292
 20
4.864106562
 30
0.0
 10
4.8730808538
 20
4.864106562
 30
0.0
 10
4.8874249145
 20
4.8641964274
 30
0.0
 10
4.9087805142
 20
4.8646002017
 30
0.0
 10
4.929754149
 20
4.8652690902
 30
0.0
 10
4.9501595305
 20
4.8661970596
 30
0.0
 10
4.9698157196
 20
4.8673757883
 30
0.0
 10
4.9856433784
 20
4.8685744159
 30
0.0
 10
4.9977993803
 20
4.8696576745
 30
0.0
 10
5.0064944199
 20
4.87051436
 30
0.0
 10
5.0148783212
 20
4.8714249425
 30
0.0
 10
5.022933088
 20
4.8723875501
 30
0.0
 10
5.0306416371
 20
4.8734002135
 30
0.0
 10
5.03798789
 20
4.8744609217
 30
0.0
 10
5.0449568707
 20
4.875567677
 30
0.0
 10
5.0515348474
 20
4.876718522
 30
0.0
 10
5.057709497
 20
4.877911625
 30
0.0
 10
5.0634700998
 20
4.8791454407
 30
0.0
 10
5.0688079398
 20
4.8804188314
 30
0.0
 10
5.0737165448
 20
4.8817315653
 30
0.0
 10
5.0775268533
 20
4.8828833992
 30
0.0
 10
5.0803541853
 20
4.8838316688
 30
0.0
 10
5.0823187693
 20
4.8845387793
 30
0.0
 10
5.0841757066
 20
4.8852590826
 30
0.0
 10
5.0859261901
 20
4.8859939481
 30
0.0
 10
5.0875718631
 20
4.8867455718
 30
0.0
 10
5.089114391
 20
4.8875178287
 30
0.0
 10
5.0905564504
 20
4.8883145017
 30
0.0
 10
5.0919013737
 20
4.8891413603
 30
0.0
 10
5.0929507259
 20
4.8898704837
 30
0.0
 10
5.0937400595
 20
4.8904783611
 30
0.0
 10
5.0944891199
 20
4.891097409
 30
0.0
 10
5.0953708119
 20
4.8919153902
 30
0.0
 10
5.0963316909
 20
4.8929862499
 30
0.0
 10
5.0971813802
 20
4.8941611845
 30
0.0
 10
5.0976456499
 20
4.8950174979
 30
0.0
 10
5.097848997
 20
4.8954647074
 30
0.0
  0
LINE
  5
59B
100
AcDbEntity
  8
0
100
AcDbLine
 62
7
  6
CONTINUOUS
 10
5.1653145106
 20
5.0822011003
 11
5.1679045632
 21
5.08098174
  0
LINE
  5
59C
100
AcDbEntity
  8
0
100
AcDbLine
 62
7
  6
CONTINUOUS
 10
5.1714062436
 20
5.0790451383
 11
5.1732677724
 21
5.0778025551
  0
LINE
  5
59D
100
AcDbEntity
  8
0
100
AcDbLine
 62
7
  6
CONTINUOUS
 10
5.1756142894
 20
5.0758354448
 11
5.1767358173
 21
5.0745772997
  0
LINE
  5
59E
100
AcDbEntity
  8
0
100
AcDbLine
 62
7
  6
CONTINUOUS
 10
5.1779127037
 20
5.0725918086
 11
5.1782873162
 21
5.0713258585
  0
LINE
  5
59F
100
AcDbEntity
  8
0
100
AcDbLine
 62
7
  6
CONTINUOUS
 10
5.1779127037
 20
5.0358560278
 11
5.1782873162
 21
5.0371219779
  0
LINE
  5
5A0
100
AcDbEntity
  8
0
100
AcDbLine
 62
7
  6
CONTINUOUS
 10
5.1756142894
 20
5.0326123917
 11
5.1767358173
 21
5.0338705368
  0
LINE
  5
5A1
100
AcDbEntity
  8
0
100
AcDbLine
 62
7
  6
CONTINUOUS
 10
5.1714062436
 20
5.0294026982
 11
5.1732677724
 21
5.0306452814
  0
LINE
  5
5A2
100
AcDbEntity
  8
0
100
AcDbLine
 62
7
  6
CONTINUOUS
 10
5.1653145106
 20
5.0262467361
 11
5.1679045632
 21
5.0274660965
  0
LINE
  5
5A3
100
AcDbEntity
  8
0
100
AcDbLine
 62
7
  6
CONTINUOUS
 10
4.5638500952
 20
5.0274660965
 11
4.5664401478
 21
5.0262467361
  0
LINE
  5
5A4
100
AcDbEntity
  8
0
100
AcDbLine
 62
7
  6
CONTINUOUS
 10
4.558486886
 20
5.0306452814
 11
4.5603484147
 21
5.0294026982
  0
LINE
  5
5A5
100
AcDbEntity
  8
0
100
AcDbLine
 62
7
  6
CONTINUOUS
 10
4.5550188411
 20
5.0338705368
 11
4.556140369
 21
5.0326123917
  0
LINE
  5
5A6
100
AcDbEntity
  8
0
100
AcDbLine
 62
7
  6
CONTINUOUS
 10
4.5534673422
 20
5.0371219779
 11
4.5538419547
 21
5.0358560278
  0
LINE
  5
5A7
100
AcDbEntity
  8
0
100
AcDbLine
 62
7
  6
CONTINUOUS
 10
4.5534673422
 20
5.0713258585
 11
4.5538419547
 21
5.0725918086
  0
LINE
  5
5A8
100
AcDbEntity
  8
0
100
AcDbLine
 62
7
  6
CONTINUOUS
 10
4.5550188411
 20
5.0745772997
 11
4.556140369
 21
5.0758354448
  0
LINE
  5
5A9
100
AcDbEntity
  8
0
100
AcDbLine
 62
7
  6
CONTINUOUS
 10
4.558486886
 20
5.0778025551
 11
4.5603484147
 21
5.0790451383
  0
LINE
  5
5AA
100
AcDbEntity
  8
0
100
AcDbLine
 62
7
  6
CONTINUOUS
 10
4.5638500952
 20
5.08098174
 11
4.5664401478
 21
5.0822011003
  0
SPLINE
  5
5AB
100
AcDbEntity
  8
0
100
AcDbSpline
 62
7
  6
CONTINUOUS
 70
0
 71
3
 72
16
 73
12
 74
0
 42
0.0000001
 43
0.0000001
 44
0.0000000001
 40
0.0
 40
0.0
 40
0.0
 40
0.0
 40
0.1483122977
 40
0.2898792897
 40
0.3581882194
 40
0.4248533724
 40
0.5532374863
 40
0.6749729346
 40
0.7900012629
 40
0.8983214957
 40
1.0
 40
1.0
 40
1.0
 40
1.0
 10
5.2441877708
 20
5.0453300432
 30
0.0
 10
5.2461174036
 20
5.0453301743
 30
0.0
 10
5.2498893238
 20
5.0452306657
 30
0.0
 10
5.2545399238
 20
5.0449202626
 30
0.0
 10
5.2581247851
 20
5.0446129614
 30
0.0
 10
5.2615358022
 20
5.0442876419
 30
0.0
 10
5.2656349406
 20
5.0438580112
 30
0.0
 10
5.2703604733
 20
5.0433688221
 30
0.0
 10
5.2748325327
 20
5.0429666453
 30
0.0
 10
5.2790540163
 20
5.0427068855
 30
0.0
 10
5.2817864022
 20
5.0426400834
 30
0.0
 10
5.2831093011
 20
5.0426402914
 30
0.0
  0
SPLINE
  5
5AC
100
AcDbEntity
  8
0
100
AcDbSpline
 62
7
  6
CONTINUOUS
 70
0
 71
3
 72
15
 73
11
 74
0
 42
0.0000001
 43
0.0000001
 44
0.0000000001
 40
0.0
 40
0.0
 40
0.0
 40
0.0
 40
0.1261097403
 40
0.2520317124
 40
0.3776653729
 40
0.502957295
 40
0.6278545755
 40
0.7523248576
 40
0.876374422
 40
1.0
 40
1.0
 40
1.0
 40
1.0
 10
5.2926363098
 20
5.0278782415
 30
0.0
 10
5.2925418033
 20
5.0286365157
 30
0.0
 10
5.2922681932
 20
5.0301427593
 30
0.0
 10
5.2916093801
 20
5.032339032
 30
0.0
 10
5.2907106729
 20
5.0344434865
 30
0.0
 10
5.2895840709
 20
5.0364280928
 30
0.0
 10
5.2882441961
 20
5.0382667639
 30
0.0
 10
5.2867086396
 20
5.0399354233
 30
0.0
 10
5.2849978101
 20
5.0414116957
 30
0.0
 10
5.2837526389
 20
5.0422565596
 30
0.0
 10
5.2831093011
 20
5.0426402914
 30
0.0
  0
LINE
  5
5AD
100
AcDbEntity
  8
0
100
AcDbLine
 62
7
  6
CONTINUOUS
 10
5.283109301
 20
5.0426402913
 11
5.2870832858
 21
5.0426456178
  0
SPLINE
  5
5AE
100
AcDbEntity
  8
0
100
AcDbSpline
 62
7
  6
CONTINUOUS
 70
0
 71
3
 72
15
 73
11
 74
0
 42
0.0000001
 43
0.0000001
 44
0.0000000001
 40
0.0
 40
0.0
 40
0.0
 40
0.0
 40
0.125772712
 40
0.2514169798
 40
0.3768569836
 40
0.5020597048
 40
0.6269874898
 40
0.7516170624
 40
0.8759571739
 40
1.0
 40
1.0
 40
1.0
 40
1.0
 10
5.2967052309
 20
5.0278982085
 30
0.0
 10
5.2966091346
 20
5.0286561092
 30
0.0
 10
5.2963315805
 20
5.0301617074
 30
0.0
 10
5.2956648878
 20
5.0323564079
 30
0.0
 10
5.2947563756
 20
5.0344591111
 30
0.0
 10
5.2936181803
 20
5.0364418253
 30
0.0
 10
5.2922650802
 20
5.0382785141
 30
0.0
 10
5.2907148426
 20
5.0399451565
 30
0.0
 10
5.2889880658
 20
5.0414194399
 30
0.0
 10
5.2877321449
 20
5.0422626227
 30
0.0
 10
5.2870832858
 20
5.0426456178
 30
0.0
  0
SPLINE
  5
5AF
100
AcDbEntity
  8
0
100
AcDbSpline
 62
7
  6
CONTINUOUS
 70
0
 71
3
 72
15
 73
11
 74
0
 42
0.0000001
 43
0.0000001
 44
0.0000000001
 40
0.0
 40
0.0
 40
0.0
 40
0.0
 40
0.1257727119
 40
0.2514169798
 40
0.3768569835
 40
0.5020597048
 40
0.6269874897
 40
0.7516170624
 40
0.8759571739
 40
1.0
 40
1.0
 40
1.0
 40
1.0
 10
4.4350494282
 20
5.0278982084
 30
0.0
 10
4.4351455245
 20
5.0286561091
 30
0.0
 10
4.4354230786
 20
5.0301617072
 30
0.0
 10
4.4360897712
 20
5.0323564077
 30
0.0
 10
4.4369982834
 20
5.0344591109
 30
0.0
 10
4.4381364787
 20
5.0364418251
 30
0.0
 10
4.4394895787
 20
5.0382785138
 30
0.0
 10
4.4410398163
 20
5.0399451563
 30
0.0
 10
4.442766593
 20
5.0414194396
 30
0.0
 10
4.4440225139
 20
5.0422626225
 30
0.0
 10
4.444671373
 20
5.0426456175
 30
0.0
  0
LINE
  5
5B0
100
AcDbEntity
  8
0
100
AcDbLine
 62
7
  6
CONTINUOUS
 10
4.4446713725
 20
5.0426456178
 11
4.4486453574
 21
5.0426402913
  0
SPLINE
  5
5B1
100
AcDbEntity
  8
0
100
AcDbSpline
 62
7
  6
CONTINUOUS
 70
0
 71
3
 72
15
 73
11
 74
0
 42
0.0000001
 43
0.0000001
 44
0.0000000001
 40
0.0
 40
0.0
 40
0.0
 40
0.0
 40
0.1261097403
 40
0.2520317123
 40
0.3776653728
 40
0.502957295
 40
0.6278545755
 40
0.7523248576
 40
0.8763744219
 40
1.0
 40
1.0
 40
1.0
 40
1.0
 10
4.4391183489
 20
5.0278782414
 30
0.0
 10
4.4392128554
 20
5.0286365157
 30
0.0
 10
4.4394864654
 20
5.0301427593
 30
0.0
 10
4.4401452786
 20
5.0323390319
 30
0.0
 10
4.4410439858
 20
5.0344434864
 30
0.0
 10
4.4421705878
 20
5.0364280927
 30
0.0
 10
4.4435104625
 20
5.0382667638
 30
0.0
 10
4.445046019
 20
5.0399354232
 30
0.0
 10
4.4467568485
 20
5.0414116956
 30
0.0
 10
4.4480020196
 20
5.0422565595
 30
0.0
 10
4.4486453574
 20
5.0426402913
 30
0.0
  0
SPLINE
  5
5B2
100
AcDbEntity
  8
0
100
AcDbSpline
 62
7
  6
CONTINUOUS
 70
0
 71
3
 72
16
 73
12
 74
0
 42
0.0000001
 43
0.0000001
 44
0.0000000001
 40
0.0
 40
0.0
 40
0.0
 40
0.0
 40
0.1016944888
 40
0.2100247658
 40
0.325068724
 40
0.4468168354
 40
0.5751988887
 40
0.6418583478
 40
0.7101602288
 40
0.8517124394
 40
1.0
 40
1.0
 40
1.0
 40
1.0
 10
4.4486453573
 20
5.0426402914
 30
0.0
 10
4.4499663846
 20
5.0426399649
 30
0.0
 10
4.4526948215
 20
5.0427063754
 30
0.0
 10
4.4569102308
 20
5.0429654668
 30
0.0
 10
4.4613757713
 20
5.0433669091
 30
0.0
 10
4.466094224
 20
5.0438552911
 30
0.0
 10
4.4701869605
 20
5.0442844644
 30
0.0
 10
4.4735923873
 20
5.0446096439
 30
0.0
 10
4.4771712153
 20
5.044916933
 30
0.0
 10
4.48181384
 20
5.045227642
 30
0.0
 10
4.4855792418
 20
5.045328805
 30
0.0
 10
4.4875055201
 20
5.0453300214
 30
0.0
  0
SPLINE
  5
5B3
100
AcDbEntity
  8
0
100
AcDbSpline
 62
7
  6
CONTINUOUS
 70
0
 71
3
 72
21
 73
17
 74
0
 42
0.0000001
 43
0.0000001
 44
0.0000000001
 40
0.0
 40
0.0
 40
0.0
 40
0.0
 40
0.125961357
 40
0.251702205
 40
0.3145258577
 40
0.3772612132
 40
0.4399033495
 40
0.5024490151
 40
0.5648985892
 40
0.6272556011
 40
0.6895262274
 40
0.7517209273
 40
0.8138503396
 40
0.875926145
 40
0.9379802954
 40
1.0
 40
1.0
 40
1.0
 40
1.0
 10
4.5113572547
 20
5.027639874
 30
0.0
 10
4.5114946775
 20
5.0288420884
 30
0.0
 10
4.5119852635
 20
5.031225012
 30
0.0
 10
4.5131196991
 20
5.0340437474
 30
0.0
 10
4.5143156021
 20
5.0361440325
 30
0.0
 10
4.5153495627
 20
5.0376302555
 30
0.0
 10
4.5165119336
 20
5.0390147336
 30
0.0
 10
4.5177931652
 20
5.0402861741
 30
0.0
 10
4.5191826326
 20
5.0414340541
 30
0.0
 10
4.5206688933
 20
5.0424488517
 30
0.0
 10
4.5222396697
 20
5.0433221614
 30
0.0
 10
4.5238819627
 20
5.0440467798
 30
0.0
 10
4.5255821597
 20
5.0446166916
 30
0.0
 10
4.5273263724
 20
5.0450272202
 30
0.0
 10
4.5290998393
 20
5.0452748002
 30
0.0
 10
4.5302924812
 20
5.0453300432
 30
0.0
 10
4.5308882712
 20
5.0453300432
 30
0.0
  0
SPLINE
  5
5B4
100
AcDbEntity
  8
0
100
AcDbSpline
 62
7
  6
CONTINUOUS
 70
0
 71
3
 72
21
 73
17
 74
0
 42
0.0000001
 43
0.0000001
 44
0.0000000001
 40
0.0
 40
0.0
 40
0.0
 40
0.0
 40
0.1259585264
 40
0.2516971449
 40
0.314519997
 40
0.3772547854
 40
0.4398966019
 40
0.5024422012
 40
0.5648919608
 40
0.6272494002
 40
0.6895206784
 40
0.7517162297
 40
0.8138466615
 40
0.8759236173
 40
0.9379790097
 40
1.0
 40
1.0
 40
1.0
 40
1.0
 10
4.5116523546
 20
5.0276383313
 30
0.0
 10
4.5117896993
 20
5.0288406224
 30
0.0
 10
4.5122801657
 20
5.0312237174
 30
0.0
 10
4.5134145401
 20
5.0340426751
 30
0.0
 10
4.5146104448
 20
5.036143137
 30
0.0
 10
4.5156444336
 20
5.0376294931
 30
0.0
 10
4.5168068573
 20
5.0390140996
 30
0.0
 10
4.5180881644
 20
5.0402856616
 30
0.0
 10
4.5194777284
 20
5.0414336541
 30
0.0
 10
4.5209641048
 20
5.0424485532
 30
0.0
 10
4.5225350137
 20
5.0433219519
 30
0.0
 10
4.5241774534
 20
5.0440466452
 30
0.0
 10
4.5258778089
 20
5.0446166164
 30
0.0
 10
4.5276221888
 20
5.0450271882
 30
0.0
 10
4.529395829
 20
5.0452747943
 30
0.0
 10
4.5305885882
 20
5.0453300433
 30
0.0
 10
4.5311844371
 20
5.0453300433
 30
0.0
  0
SPLINE
  5
5B5
100
AcDbEntity
  8
0
100
AcDbSpline
 62
7
  6
CONTINUOUS
 70
0
 71
3
 72
21
 73
17
 74
0
 42
0.0000001
 43
0.0000001
 44
0.0000000001
 40
0.0
 40
0.0
 40
0.0
 40
0.0
 40
0.1259585264
 40
0.251697145
 40
0.3145199972
 40
0.3772547856
 40
0.4398966021
 40
0.5024422015
 40
0.5648919611
 40
0.6272494005
 40
0.6895206787
 40
0.75171623
 40
0.8138466617
 40
0.8759236175
 40
0.9379790098
 40
1.0
 40
1.0
 40
1.0
 40
1.0
 10
5.2201023045
 20
5.0276383314
 30
0.0
 10
5.2199649598
 20
5.0288406225
 30
0.0
 10
5.2194744935
 20
5.0312237177
 30
0.0
 10
5.2183401191
 20
5.0340426756
 30
0.0
 10
5.2171442144
 20
5.0361431376
 30
0.0
 10
5.2161102255
 20
5.0376294937
 30
0.0
 10
5.2149478018
 20
5.0390141004
 30
0.0
 10
5.2136664946
 20
5.0402856624
 30
0.0
 10
5.2122769305
 20
5.041433655
 30
0.0
 10
5.2107905541
 20
5.0424485542
 30
0.0
 10
5.2092196452
 20
5.0433219529
 30
0.0
 10
5.2075772053
 20
5.0440466462
 30
0.0
 10
5.2058768498
 20
5.0446166176
 30
0.0
 10
5.2041324698
 20
5.0450271894
 30
0.0
 10
5.2023588295
 20
5.0452747955
 30
0.0
 10
5.2011660702
 20
5.0453300444
 30
0.0
 10
5.2005702213
 20
5.0453300444
 30
0.0
  0
SPLINE
  5
5B6
100
AcDbEntity
  8
0
100
AcDbSpline
 62
7
  6
CONTINUOUS
 70
0
 71
3
 72
21
 73
17
 74
0
 42
0.0000001
 43
0.0000001
 44
0.0000000001
 40
0.0
 40
0.0
 40
0.0
 40
0.0
 40
0.125961357
 40
0.251702205
 40
0.3145258577
 40
0.3772612132
 40
0.4399033495
 40
0.5024490151
 40
0.5648985892
 40
0.6272556011
 40
0.6895262274
 40
0.7517209273
 40
0.8138503395
 40
0.875926145
 40
0.9379802954
 40
1.0
 40
1.0
 40
1.0
 40
1.0
 10
5.2203974038
 20
5.027639874
 30
0.0
 10
5.2202599811
 20
5.0288420884
 30
0.0
 10
5.219769395
 20
5.031225012
 30
0.0
 10
5.2186349594
 20
5.0340437475
 30
0.0
 10
5.2174390564
 20
5.0361440326
 30
0.0
 10
5.2164050958
 20
5.0376302556
 30
0.0
 10
5.2152427248
 20
5.0390147337
 30
0.0
 10
5.2139614932
 20
5.0402861742
 30
0.0
 10
5.2125720258
 20
5.0414340541
 30
0.0
 10
5.2110857651
 20
5.0424488517
 30
0.0
 10
5.2095149887
 20
5.0433221614
 30
0.0
 10
5.2078726957
 20
5.0440467799
 30
0.0
 10
5.2061724986
 20
5.0446166917
 30
0.0
 10
5.204428286
 20
5.0450272203
 30
0.0
 10
5.2026548191
 20
5.0452748002
 30
0.0
 10
5.2014621772
 20
5.0453300433
 30
0.0
 10
5.2008663871
 20
5.0453300433
 30
0.0
  0
LINE
  5
5B7
100
AcDbEntity
  8
0
100
AcDbLine
 62
7
  6
CONTINUOUS
 10
4.9017806064
 20
4.2457110367
 11
4.9016273753
 21
4.2455405506
  0
LINE
  5
5B8
100
AcDbEntity
  8
0
100
AcDbLine
 62
7
  6
CONTINUOUS
 10
4.8299739945
 20
4.2457093255
 11
4.8301266884
 21
4.2455398099
  0
SPLINE
  5
5B9
100
AcDbEntity
  8
0
100
AcDbSpline
 62
7
  6
CONTINUOUS
 70
0
 71
3
 72
15
 73
11
 74
0
 42
0.0000001
 43
0.0000001
 44
0.0000000001
 40
0.0
 40
0.0
 40
0.0
 40
0.0
 40
0.1192594421
 40
0.2399763118
 40
0.3623636831
 40
0.4865370234
 40
0.6125117558
 40
0.7402066073
 40
0.8694516598
 40
1.0
 40
1.0
 40
1.0
 40
1.0
 10
4.6125194028
 20
4.5946146047
 30
0.0
 10
4.6126497188
 20
4.59392515
 30
0.0
 10
4.6130022031
 20
4.5925532774
 30
0.0
 10
4.6137899975
 20
4.5905665894
 30
0.0
 10
4.6148288149
 20
4.5886657014
 30
0.0
 10
4.6161040791
 20
4.5868769045
 30
0.0
 10
4.6175981482
 20
4.5852243031
 30
0.0
 10
4.6192905569
 20
4.5837302084
 30
0.0
 10
4.6211578582
 20
4.5824148977
 30
0.0
 10
4.6224974399
 20
4.5816717974
 30
0.0
 10
4.6231876996
 20
4.5813349158
 30
0.0
  0
SPLINE
  5
5BA
100
AcDbEntity
  8
0
100
AcDbSpline
 62
7
  6
CONTINUOUS
 70
0
 71
3
 72
15
 73
11
 74
0
 42
0.0000001
 43
0.0000001
 44
0.0000000001
 40
0.0
 40
0.0
 40
0.0
 40
0.0
 40
0.1228218481
 40
0.2465088112
 40
0.3710063384
 40
0.496190522
 40
0.6218947441
 40
0.7479165491
 40
0.8740262067
 40
1.0
 40
1.0
 40
1.0
 40
1.0
 10
4.5279536775
 20
4.3340376829
 30
0.0
 10
4.5280945085
 20
4.3331676266
 30
0.0
 10
4.5284977157
 20
4.3314385918
 30
0.0
 10
4.5294484773
 20
4.3289436623
 30
0.0
 10
4.5307298814
 20
4.3265816121
 30
0.0
 10
4.5323181811
 20
4.3243963843
 30
0.0
 10
4.5341840202
 20
4.3224278137
 30
0.0
 10
4.5362932572
 20
4.3207119766
 30
0.0
 10
4.5386066009
 20
4.3192804189
 30
0.0
 10
4.540259919
 20
4.3185317505
 30
0.0
 10
4.5411058252
 20
4.3182129139
 30
0.0
  0
SPLINE
  5
5BB
100
AcDbEntity
  8
0
100
AcDbSpline
 62
7
  6
CONTINUOUS
 70
0
 71
3
 72
15
 73
11
 74
0
 42
0.0000001
 43
0.0000001
 44
0.0000000001
 40
0.0
 40
0.0
 40
0.0
 40
0.0
 40
0.1235464454
 40
0.2478005029
 40
0.3726668063
 40
0.4979913761
 40
0.6235918621
 40
0.7492655792
 40
0.8747985944
 40
1.0
 40
1.0
 40
1.0
 40
1.0
 10
4.5114020368
 20
4.3109716286
 30
0.0
 10
4.5115440945
 20
4.3100631943
 30
0.0
 10
4.5119574816
 20
4.3082586844
 30
0.0
 10
4.5129463333
 20
4.3056585594
 30
0.0
 10
4.5142864938
 20
4.3032052834
 30
0.0
 10
4.515951517
 20
4.3009476008
 30
0.0
 10
4.5179085934
 20
4.298929502
 30
0.0
 10
4.5201195294
 20
4.2971905434
 30
0.0
 10
4.5225403481
 20
4.2957649236
 30
0.0
 10
4.5242672743
 20
4.295040288
 30
0.0
 10
4.5251489945
 20
4.2947389504
 30
0.0
  0
LINE
  5
5BC
100
AcDbEntity
  8
0
100
AcDbLine
 62
7
  6
CONTINUOUS
 10
4.4724190244
 20
4.2512675019
 11
4.4564773289
 21
4.2480105503
  0
SPLINE
  5
5BD
100
AcDbEntity
  8
0
100
AcDbSpline
 62
7
  6
CONTINUOUS
 70
0
 71
3
 72
15
 73
11
 74
0
 42
0.0000001
 43
0.0000001
 44
0.0000000001
 40
0.0
 40
0.0
 40
0.0
 40
0.0
 40
0.1253755016
 40
0.2508316954
 40
0.3763015975
 40
0.5017554777
 40
0.6270359311
 40
0.7519062375
 40
0.8762066179
 40
1.0
 40
1.0
 40
1.0
 40
1.0
 10
4.4465042891
 20
4.2630513201
 30
0.0
 10
4.4465845914
 20
4.2622742063
 30
0.0
 10
4.4468532771
 20
4.2607288264
 30
0.0
 10
4.4475504262
 20
4.2584840383
 30
0.0
 10
4.4485129905
 20
4.2563393104
 30
0.0
 10
4.449714286
 20
4.2543205201
 30
0.0
 10
4.4511297883
 20
4.2524505886
 30
0.0
 10
4.4527380034
 20
4.2507534087
 30
0.0
 10
4.454518234
 20
4.2492518668
 30
0.0
 10
4.4558117359
 20
4.24839773
 30
0.0
 10
4.4564785961
 20
4.2480099868
 30
0.0
  0
LINE
  5
5BE
100
AcDbEntity
  8
0
100
AcDbLine
 62
7
  6
CONTINUOUS
 10
4.4564785961
 20
4.2480099868
 11
4.456080449
 21
4.2480057372
  0
SPLINE
  5
5BF
100
AcDbEntity
  8
0
100
AcDbSpline
 62
7
  6
CONTINUOUS
 70
0
 71
3
 72
15
 73
11
 74
0
 42
0.0000001
 43
0.0000001
 44
0.0000000001
 40
0.0
 40
0.0
 40
0.0
 40
0.0
 40
0.1256281344
 40
0.2515321458
 40
0.3774169163
 40
0.5030517256
 40
0.6281938512
 40
0.7526714491
 40
0.8765050486
 40
1.0
 40
1.0
 40
1.0
 40
1.0
 10
4.4465042891
 20
4.2630513201
 30
0.0
 10
4.4465720417
 20
4.2622803911
 30
0.0
 10
4.44681359
 20
4.2607444756
 30
0.0
 10
4.4474616367
 20
4.2585060137
 30
0.0
 10
4.4483703669
 20
4.2563601457
 30
0.0
 10
4.4495153714
 20
4.2543363645
 30
0.0
 10
4.4508748347
 20
4.252460688
 30
0.0
 10
4.4524298513
 20
4.2507584525
 30
0.0
 10
4.454162304
 20
4.2492525523
 30
0.0
 10
4.4554268378
 20
4.2483950282
 30
0.0
 10
4.456080449
 20
4.2480057372
 30
0.0
  0
SPLINE
  5
5C0
100
AcDbEntity
  8
0
100
AcDbSpline
 62
7
  6
CONTINUOUS
 70
0
 71
3
 72
15
 73
11
 74
0
 42
0.0000001
 43
0.0000001
 44
0.0000000001
 40
0.0
 40
0.0
 40
0.0
 40
0.0
 40
0.1261362298
 40
0.2520865737
 40
0.3777448584
 40
0.5030527941
 40
0.6279530361
 40
0.7524097061
 40
0.8764268868
 40
1.0
 40
1.0
 40
1.0
 40
1.0
 10
4.4449868465
 20
4.2630524027
 30
0.0
 10
4.4450717692
 20
4.2622879656
 30
0.0
 10
4.4453273417
 20
4.2607683494
 30
0.0
 10
4.4459627881
 20
4.2585495459
 30
0.0
 10
4.4468420305
 20
4.2564206924
 30
0.0
 10
4.4479531792
 20
4.2544105064
 30
0.0
 10
4.4492816339
 20
4.2525457489
 30
0.0
 10
4.4508097308
 20
4.2508511528
 30
0.0
 10
4.452516904
 20
4.2493497336
 30
0.0
 10
4.4537621248
 20
4.2484889114
 30
0.0
 10
4.4544060271
 20
4.2480975445
 30
0.0
  0
LINE
  5
5C1
100
AcDbEntity
  8
0
100
AcDbLine
 62
7
  6
CONTINUOUS
 10
4.4544060272
 20
4.2480975445
 11
4.4487888512
 21
4.2482134562
  0
SPLINE
  5
5C2
100
AcDbEntity
  8
0
100
AcDbSpline
 62
7
  6
CONTINUOUS
 70
0
 71
3
 72
15
 73
11
 74
0
 42
0.0000001
 43
0.0000001
 44
0.0000000001
 40
0.0
 40
0.0
 40
0.0
 40
0.0
 40
0.126132196
 40
0.2520795378
 40
0.3777368739
 40
0.5030457511
 40
0.6279485167
 40
0.7524083965
 40
0.876427627
 40
1.0
 40
1.0
 40
1.0
 40
1.0
 10
4.43956047
 20
4.2630651854
 30
0.0
 10
4.4396439073
 20
4.2623095026
 30
0.0
 10
4.4398945076
 20
4.2608071456
 30
0.0
 10
4.4405167167
 20
4.2586123175
 30
0.0
 10
4.4413772978
 20
4.2565045653
 30
0.0
 10
4.4424648798
 20
4.2545116704
 30
0.0
 10
4.4437654994
 20
4.2526595531
 30
0.0
 10
4.4452622595
 20
4.2509722155
 30
0.0
 10
4.4469354787
 20
4.2494720458
 30
0.0
 10
4.4481569107
 20
4.2486077226
 30
0.0
 10
4.4487888512
 20
4.2482134562
 30
0.0
  0
SPLINE
  5
5C3
100
AcDbEntity
  8
0
100
AcDbSpline
 62
7
  6
CONTINUOUS
 70
0
 71
3
 72
15
 73
11
 74
0
 42
0.0000001
 43
0.0000001
 44
0.0000000001
 40
0.0
 40
0.0
 40
0.0
 40
0.0
 40
0.1261321956
 40
0.252079537
 40
0.3777368728
 40
0.5030457499
 40
0.6279485155
 40
0.7524083955
 40
0.8764276265
 40
1.0
 40
1.0
 40
1.0
 40
1.0
 10
5.2921941769
 20
4.2630651867
 30
0.0
 10
5.2921107397
 20
4.2623095041
 30
0.0
 10
5.2918601396
 20
4.2608071475
 30
0.0
 10
5.2912379308
 20
4.2586123199
 30
0.0
 10
5.2903773501
 20
4.2565045682
 30
0.0
 10
5.2892897687
 20
4.2545116736
 30
0.0
 10
5.2879891497
 20
4.2526595567
 30
0.0
 10
5.2864923903
 20
4.2509722192
 30
0.0
 10
5.2848191718
 20
4.2494720495
 30
0.0
 10
5.2835977404
 20
4.2486077262
 30
0.0
 10
5.2829658002
 20
4.2482134596
 30
0.0
  0
LINE
  5
5C4
100
AcDbEntity
  8
0
100
AcDbLine
 62
7
  6
CONTINUOUS
 10
5.2829658066
 20
4.2482134562
 11
5.2773486312
 21
4.2480975445
  0
SPLINE
  5
5C5
100
AcDbEntity
  8
0
100
AcDbSpline
 62
7
  6
CONTINUOUS
 70
0
 71
3
 72
15
 73
11
 74
0
 42
0.0000001
 43
0.0000001
 44
0.0000000001
 40
0.0
 40
0.0
 40
0.0
 40
0.0
 40
0.1261362298
 40
0.2520865736
 40
0.3777448583
 40
0.5030527941
 40
0.6279530361
 40
0.7524097061
 40
0.8764268867
 40
1.0
 40
1.0
 40
1.0
 40
1.0
 10
5.2867678118
 20
4.2630524027
 30
0.0
 10
5.286682889
 20
4.2622879656
 30
0.0
 10
5.2864273166
 20
4.2607683494
 30
0.0
 10
5.2857918702
 20
4.2585495459
 30
0.0
 10
5.2849126278
 20
4.2564206924
 30
0.0
 10
5.283801479
 20
4.2544105064
 30
0.0
 10
5.2824730244
 20
4.2525457489
 30
0.0
 10
5.2809449275
 20
4.2508511529
 30
0.0
 10
5.2792377543
 20
4.2493497336
 30
0.0
 10
5.2779925335
 20
4.2484889114
 30
0.0
 10
5.2773486312
 20
4.2480975445
 30
0.0
  0
SPLINE
  5
5C6
100
AcDbEntity
  8
0
100
AcDbSpline
 62
7
  6
CONTINUOUS
 70
0
 71
3
 72
15
 73
11
 74
0
 42
0.0000001
 43
0.0000001
 44
0.0000000001
 40
0.0
 40
0.0
 40
0.0
 40
0.0
 40
0.1256281974
 40
0.2515322196
 40
0.3774169786
 40
0.5030517582
 40
0.628193843
 40
0.7526714081
 40
0.8765050034
 40
1.0
 40
1.0
 40
1.0
 40
1.0
 10
5.2852503652
 20
4.2630513204
 30
0.0
 10
5.2851826135
 20
4.2622803898
 30
0.0
 10
5.2849410662
 20
4.2607444714
 30
0.0
 10
5.2842930181
 20
4.2585060061
 30
0.0
 10
5.2833842856
 20
4.2563601357
 30
0.0
 10
5.2822392787
 20
4.2543363527
 30
0.0
 10
5.2808798134
 20
4.2524606745
 30
0.0
 10
5.2793247945
 20
4.2507584374
 30
0.0
 10
5.2775923388
 20
4.2492525356
 30
0.0
 10
5.2763278021
 20
4.2483950115
 30
0.0
 10
5.2756741893
 20
4.2480057206
 30
0.0
  0
SPLINE
  5
5C7
100
AcDbEntity
  8
0
100
AcDbSpline
 62
7
  6
CONTINUOUS
 70
0
 71
3
 72
15
 73
11
 74
0
 42
0.0000001
 43
0.0000001
 44
0.0000000001
 40
0.0
 40
0.0
 40
0.0
 40
0.0
 40
0.1253752655
 40
0.2508314153
 40
0.3763012461
 40
0.5017550656
 40
0.6270354758
 40
0.7519058065
 40
0.8762063276
 40
1.0
 40
1.0
 40
1.0
 40
1.0
 10
5.2852503652
 20
4.2630513204
 30
0.0
 10
5.2851700768
 20
4.2622742063
 30
0.0
 10
5.2849013998
 20
4.2607288241
 30
0.0
 10
5.2842042365
 20
4.2584840416
 30
0.0
 10
5.283241669
 20
4.2563393154
 30
0.0
 10
5.2820403665
 20
4.254320529
 30
0.0
 10
5.2806248577
 20
4.2524506016
 30
0.0
 10
5.2790166347
 20
4.2507534265
 30
0.0
 10
5.2772363946
 20
4.2492518898
 30
0.0
 10
5.2759428852
 20
4.2483977581
 30
0.0
 10
5.275276021
 20
4.2480100174
 30
0.0
  0
LINE
  5
5C8
100
AcDbEntity
  8
0
100
AcDbLine
 62
7
  6
CONTINUOUS
 10
5.2752773164
 20
4.2480105567
 11
5.2593356332
 21
4.2512675015
  0
SPLINE
  5
5C9
100
AcDbEntity
  8
0
100
AcDbSpline
 62
7
  6
CONTINUOUS
 70
0
 71
3
 72
15
 73
11
 74
0
 42
0.0000001
 43
0.0000001
 44
0.0000000001
 40
0.0
 40
0.0
 40
0.0
 40
0.0
 40
0.1235464448
 40
0.247800502
 40
0.3726668051
 40
0.4979913748
 40
0.6235918609
 40
0.7492655783
 40
0.8747985939
 40
1.0
 40
1.0
 40
1.0
 40
1.0
 10
5.2203526203
 20
4.3109716293
 30
0.0
 10
5.2202105627
 20
4.310063195
 30
0.0
 10
5.2197971757
 20
4.3082586849
 30
0.0
 10
5.2188083242
 20
4.3056585597
 30
0.0
 10
5.2174681638
 20
4.3032052835
 30
0.0
 10
5.2158031407
 20
4.3009476007
 30
0.0
 10
5.2138460643
 20
4.2989295016
 30
0.0
 10
5.2116351282
 20
4.2971905428
 30
0.0
 10
5.2092143094
 20
4.2957649228
 30
0.0
 10
5.2074873831
 20
4.2950402871
 30
0.0
 10
5.2066056629
 20
4.2947389495
 30
0.0
  0
SPLINE
  5
5CA
100
AcDbEntity
  8
0
100
AcDbSpline
 62
7
  6
CONTINUOUS
 70
0
 71
3
 72
15
 73
11
 74
0
 42
0.0000001
 43
0.0000001
 44
0.0000000001
 40
0.0
 40
0.0
 40
0.0
 40
0.0
 40
0.1228218567
 40
0.2465088275
 40
0.3710063606
 40
0.4961905475
 40
0.6218947696
 40
0.7479165705
 40
0.8740262196
 40
1.0
 40
1.0
 40
1.0
 40
1.0
 10
5.2038009954
 20
4.3340376842
 30
0.0
 10
5.2036601619
 20
4.3331676289
 30
0.0
 10
5.20325695
 20
4.3314385964
 30
0.0
 10
5.2023061821
 20
4.3289436712
 30
0.0
 10
5.2010247726
 20
4.326581626
 30
0.0
 10
5.1994364685
 20
4.3243964038
 30
0.0
 10
5.1975706259
 20
4.3224278391
 30
0.0
 10
5.1954613866
 20
4.3207120082
 30
0.0
 10
5.1931480415
 20
4.3192804566
 30
0.0
 10
5.1914947233
 20
4.3185317922
 30
0.0
 10
5.1906488171
 20
4.3182129576
 30
0.0
  0
SPLINE
  5
5CB
100
AcDbEntity
  8
0
100
AcDbSpline
 62
7
  6
CONTINUOUS
 70
0
 71
3
 72
15
 73
11
 74
0
 42
0.0000001
 43
0.0000001
 44
0.0000000001
 40
0.0
 40
0.0
 40
0.0
 40
0.0
 40
0.119259439
 40
0.2399763066
 40
0.362363677
 40
0.4865370179
 40
0.6125117519
 40
0.7402066055
 40
0.8694516597
 40
1.0
 40
1.0
 40
1.0
 40
1.0
 10
5.1192352911
 20
4.5946146007
 30
0.0
 10
5.1191049746
 20
4.5939251451
 30
0.0
 10
5.1187524889
 20
4.5925532707
 30
0.0
 10
5.1179646919
 20
4.5905665805
 30
0.0
 10
5.1169258712
 20
4.5886656906
 30
0.0
 10
5.1156506033
 20
4.5868768925
 30
0.0
 10
5.1141565301
 20
4.5852242904
 30
0.0
 10
5.112464117
 20
4.5837301957
 30
0.0
 10
5.1105968111
 20
4.5824148858
 30
0.0
 10
5.1092572263
 20
4.5816717864
 30
0.0
 10
5.108566965
 20
4.5813349055
 30
0.0
  0
SPLINE
  5
5CC
100
AcDbEntity
  8
0
100
AcDbSpline
 62
7
  6
CONTINUOUS
 70
0
 71
3
 72
15
 73
11
 74
0
 42
0.0000001
 43
0.0000001
 44
0.0000000001
 40
0.0
 40
0.0
 40
0.0
 40
0.0
 40
0.1239800317
 40
0.2482855816
 40
0.3729263693
 40
0.4978893027
 40
0.6231395382
 40
0.7486229708
 40
0.8742699558
 40
1.0
 40
1.0
 40
1.0
 40
1.0
 10
5.2870832836
 20
5.0426456148
 30
0.0
 10
5.2863430788
 20
5.0430823377
 30
0.0
 10
5.2849168814
 20
5.044056302
 30
0.0
 10
5.2829864882
 20
5.0457863613
 30
0.0
 10
5.2812934236
 20
5.0477587871
 30
0.0
 10
5.2798670593
 20
5.0499395263
 30
0.0
 10
5.2787315502
 20
5.0522913287
 30
0.0
 10
5.2779062563
 20
5.0547741424
 30
0.0
 10
5.2774052034
 20
5.0573450228
 30
0.0
 10
5.2772930203
 20
5.059089625
 30
0.0
 10
5.2772928614
 20
5.0599611921
 30
0.0
  0
SPLINE
  5
5CD
100
AcDbEntity
  8
0
100
AcDbSpline
 62
7
  6
CONTINUOUS
 70
0
 71
3
 72
15
 73
11
 74
0
 42
0.0000001
 43
0.0000001
 44
0.0000000001
 40
0.0
 40
0.0
 40
0.0
 40
0.0
 40
0.1235154139
 40
0.2475040126
 40
0.3719800919
 40
0.4969248177
 40
0.6222878617
 40
0.747991073
 40
0.8739338748
 40
1.0
 40
1.0
 40
1.0
 40
1.0
 10
5.283109301
 20
5.0426402913
 30
0.0
 10
5.2823762984
 20
5.0430774412
 30
0.0
 10
5.2809640223
 20
5.0440523523
 30
0.0
 10
5.2790538139
 20
5.0457825635
 30
0.0
 10
5.2773786703
 20
5.0477546992
 30
0.0
 10
5.2759675918
 20
5.0499347238
 30
0.0
 10
5.2748444077
 20
5.0522854357
 30
0.0
 10
5.274028211
 20
5.0547668497
 30
0.0
 10
5.2735328276
 20
5.057336123
 30
0.0
 10
5.2734220625
 20
5.0590794554
 30
0.0
 10
5.2734220087
 20
5.0599505395
 30
0.0
  0
SPLINE
  5
5CE
100
AcDbEntity
  8
0
100
AcDbSpline
 62
7
  6
CONTINUOUS
 70
0
 71
3
 72
22
 73
18
 74
0
 42
0.0000001
 43
0.0000001
 44
0.0000000001
 40
0.0
 40
0.0
 40
0.0
 40
0.0
 40
0.057733201
 40
0.1156720561
 40
0.1739803048
 40
0.2328379933
 40
0.2923829786
 40
0.3527263506
 40
0.413945001
 40
0.4760792542
 40
0.5391334436
 40
0.603076955
 40
0.6678467758
 40
0.7333518668
 40
0.7994762031
 40
0.8660784719
 40
1.0
 40
1.0
 40
1.0
 40
1.0
 10
5.24418777
 20
5.0453300433
 30
0.0
 10
5.2436250662
 20
5.0453300433
 30
0.0
 10
5.2424966052
 20
5.0453946471
 30
0.0
 10
5.2408222319
 20
5.0456839696
 30
0.0
 10
5.2391804248
 20
5.0461631221
 30
0.0
 10
5.2375874713
 20
5.0468270867
 30
0.0
 10
5.2360586528
 20
5.0476694426
 30
0.0
 10
5.2346087138
 20
5.0486818117
 30
0.0
 10
5.2332515254
 20
5.0498542699
 30
0.0
 10
5.2320000604
 20
5.0511754176
 30
0.0
 10
5.2308662594
 20
5.0526324646
 30
0.0
 10
5.2298608846
 20
5.0542113142
 30
0.0
 10
5.2289934629
 20
5.0558967789
 30
0.0
 10
5.2282722431
 20
5.0576725938
 30
0.0
 10
5.2277041084
 20
5.0595220171
 30
0.0
 10
5.2271569491
 20
5.062064902
 30
0.0
 10
5.2269918398
 20
5.0640247605
 30
0.0
 10
5.2269918409
 20
5.0653300433
 30
0.0
  0
SPLINE
  5
5CF
100
AcDbEntity
  8
0
100
AcDbSpline
 62
7
  6
CONTINUOUS
 70
0
 71
3
 72
22
 73
18
 74
0
 42
0.0000001
 43
0.0000001
 44
0.0000000001
 40
0.0
 40
0.0
 40
0.0
 40
0.0
 40
0.0577331575
 40
0.1156719761
 40
0.1739801957
 40
0.2328378631
 40
0.2923828352
 40
0.3527262017
 40
0.4139448536
 40
0.4760791148
 40
0.5391333172
 40
0.6030768458
 40
0.6678466862
 40
0.733351798
 40
0.799476155
 40
0.8660784431
 40
1.0
 40
1.0
 40
1.0
 40
1.0
 10
4.4875668884
 20
5.0453300433
 30
0.0
 10
4.4881295917
 20
5.0453300433
 30
0.0
 10
4.4892580518
 20
5.0453946472
 30
0.0
 10
4.4909324237
 20
5.0456839696
 30
0.0
 10
4.4925742296
 20
5.0461631221
 30
0.0
 10
4.4941671821
 20
5.0468270868
 30
0.0
 10
4.4956959999
 20
5.0476694427
 30
0.0
 10
4.4971459383
 20
5.0486818118
 30
0.0
 10
4.4985031263
 20
5.0498542699
 30
0.0
 10
4.4997545912
 20
5.0511754177
 30
0.0
 10
4.5008883923
 20
5.0526324647
 30
0.0
 10
4.5018937674
 20
5.0542113142
 30
0.0
 10
4.5027611897
 20
5.0558967789
 30
0.0
 10
4.5034824102
 20
5.0576725939
 30
0.0
 10
4.5040505459
 20
5.0595220171
 30
0.0
 10
4.5045977068
 20
5.0620649019
 30
0.0
 10
4.5047628176
 20
5.0640247604
 30
0.0
 10
4.5047628176
 20
5.0653300433
 30
0.0
  0
SPLINE
  5
5D0
100
AcDbEntity
  8
0
100
AcDbSpline
 62
7
  6
CONTINUOUS
 70
0
 71
3
 72
15
 73
11
 74
0
 42
0.0000001
 43
0.0000001
 44
0.0000000001
 40
0.0
 40
0.0
 40
0.0
 40
0.0
 40
0.123515415
 40
0.2475040075
 40
0.3719800765
 40
0.4969247904
 40
0.6222878251
 40
0.7479910344
 40
0.8739338469
 40
1.0
 40
1.0
 40
1.0
 40
1.0
 10
4.4486452697
 20
5.0426404474
 30
0.0
 10
4.4493782766
 20
5.0430775881
 30
0.0
 10
4.450790563
 20
5.0440524808
 30
0.0
 10
4.4527007917
 20
5.045782665
 30
0.0
 10
4.4543759605
 20
5.0477547752
 30
0.0
 10
4.4557870692
 20
5.0499347764
 30
0.0
 10
4.4569102884
 20
5.052285468
 30
0.0
 10
4.4577265249
 20
5.0547668657
 30
0.0
 10
4.4582219526
 20
5.0573361277
 30
0.0
 10
4.45833275
 20
5.0590794562
 30
0.0
 10
4.4583328205
 20
5.0599505395
 30
0.0
  0
SPLINE
  5
5D1
100
AcDbEntity
  8
0
100
AcDbSpline
 62
7
  6
CONTINUOUS
 70
0
 71
3
 72
15
 73
11
 74
0
 42
0.0000001
 43
0.0000001
 44
0.0000000001
 40
0.0
 40
0.0
 40
0.0
 40
0.0
 40
0.1239800316
 40
0.2482855821
 40
0.3729263705
 40
0.4978893046
 40
0.6231395405
 40
0.7486229729
 40
0.8742699572
 40
1.0
 40
1.0
 40
1.0
 40
1.0
 10
4.4446713724
 20
5.0426456178
 30
0.0
 10
4.4454115765
 20
5.043082341
 30
0.0
 10
4.4468377725
 20
5.0440563059
 30
0.0
 10
4.4487681636
 20
5.0457863657
 30
0.0
 10
4.4504612262
 20
5.0477587915
 30
0.0
 10
4.4518875888
 20
5.0499395303
 30
0.0
 10
4.4530230963
 20
5.0522913321
 30
0.0
 10
4.4538483889
 20
5.0547741449
 30
0.0
 10
4.4543494409
 20
5.0573450241
 30
0.0
 10
4.4544616236
 20
5.0590896254
 30
0.0
 10
4.4544617824
 20
5.0599611921
 30
0.0
  0
SPLINE
  5
5D2
100
AcDbEntity
  8
0
100
AcDbSpline
 62
7
  6
CONTINUOUS
 70
0
 71
3
 72
15
 73
11
 74
0
 42
0.0000001
 43
0.0000001
 44
0.0000000001
 40
0.0
 40
0.0
 40
0.0
 40
0.0
 40
0.1235819256
 40
0.2476295725
 40
0.3721483241
 40
0.497112779
 40
0.6224687238
 40
0.7481368833
 40
0.8740181584
 40
1.0
 40
1.0
 40
1.0
 40
1.0
 10
4.4487888634
 20
4.2482134644
 30
0.0
 10
4.4495012856
 20
4.2477702343
 30
0.0
 10
4.4508725535
 20
4.2467878877
 30
0.0
 10
4.4527248258
 20
4.2450596974
 30
0.0
 10
4.4543474934
 20
4.2431016569
 30
0.0
 10
4.4557134747
 20
4.2409463374
 30
0.0
 10
4.4568005272
 20
4.2386291862
 30
0.0
 10
4.4575908304
 20
4.236188197
 30
0.0
 10
4.4580714706
 20
4.2336639984
 30
0.0
 10
4.4581802079
 20
4.2319522119
 30
0.0
 10
4.4581812079
 20
4.2310968724
 30
0.0
  0
SPLINE
  5
5D3
100
AcDbEntity
  8
0
100
AcDbSpline
 62
7
  6
CONTINUOUS
 70
0
 71
3
 72
15
 73
11
 74
0
 42
0.0000001
 43
0.0000001
 44
0.0000000001
 40
0.0
 40
0.0
 40
0.0
 40
0.0
 40
0.1227899694
 40
0.2462284937
 40
0.3703638235
 40
0.4951970505
 40
0.6206828058
 40
0.746732961
 40
0.8732229209
 40
1.0
 40
1.0
 40
1.0
 40
1.0
 10
4.4544060209
 20
4.2480975334
 30
0.0
 10
4.4551185548
 20
4.247657898
 30
0.0
 10
4.4564900732
 20
4.246679444
 30
0.0
 10
4.4583396918
 20
4.2449499255
 30
0.0
 10
4.4599573601
 20
4.2429832309
 30
0.0
 10
4.4613154786
 20
4.2408128978
 30
0.0
 10
4.4623914845
 20
4.238475482
 30
0.0
 10
4.4631673921
 20
4.2360102149
 30
0.0
 10
4.4636302976
 20
4.2334590544
 30
0.0
 10
4.4637250322
 20
4.2317294562
 30
0.0
 10
4.4637186483
 20
4.2308650458
 30
0.0
  0
SPLINE
  5
5D4
100
AcDbEntity
  8
0
100
AcDbSpline
 62
7
  6
CONTINUOUS
 70
0
 71
3
 72
15
 73
11
 74
0
 42
0.0000001
 43
0.0000001
 44
0.0000000001
 40
0.0
 40
0.0
 40
0.0
 40
0.0
 40
0.1225305458
 40
0.245765909
 40
0.369771131
 40
0.494558043
 40
0.6200854274
 40
0.7462626774
 40
0.8729564877
 40
1.0
 40
1.0
 40
1.0
 40
1.0
 10
4.4560806962
 20
4.2480058518
 30
0.0
 10
4.4567996086
 20
4.2475694181
 30
0.0
 10
4.4581838841
 20
4.2465948758
 30
0.0
 10
4.4600506686
 20
4.2448648839
 30
0.0
 10
4.4616831453
 20
4.2428916866
 30
0.0
 10
4.4630529558
 20
4.2407095746
 30
0.0
 10
4.464136946
 20
4.2383559925
 30
0.0
 10
4.4649166883
 20
4.2358711754
 30
0.0
 10
4.4653790046
 20
4.2332981832
 30
0.0
 10
4.4654703112
 20
4.2315536045
 30
0.0
 10
4.4654614992
 20
4.2306816564
 30
0.0
  0
SPLINE
  5
5D5
100
AcDbEntity
  8
0
100
AcDbSpline
 62
7
  6
CONTINUOUS
 70
0
 71
3
 72
15
 73
11
 74
0
 42
0.0000001
 43
0.0000001
 44
0.0000000001
 40
0.0
 40
0.0
 40
0.0
 40
0.0
 40
0.1227634762
 40
0.2463396256
 40
0.3706994171
 40
0.4957616181
 40
0.6213989981
 40
0.7474472033
 40
0.8737156875
 40
1.0
 40
1.0
 40
1.0
 40
1.0
 10
4.4564835396
 20
4.2480107341
 30
0.0
 10
4.4572112783
 20
4.2475740823
 30
0.0
 10
4.458614866
 20
4.2465993532
 30
0.0
 10
4.4605157445
 20
4.2448703394
 30
0.0
 10
4.4621883578
 20
4.2428983487
 30
0.0
 10
4.4636036981
 20
4.2407175511
 30
0.0
 10
4.4647378187
 20
4.2383652809
 30
0.0
 10
4.4655713972
 20
4.2358816675
 30
0.0
 10
4.4660902583
 20
4.2333096876
 30
0.0
 10
4.466220535
 20
4.2315632443
 30
0.0
 10
4.4662310765
 20
4.2306902815
 30
0.0
  0
SPLINE
  5
5D6
100
AcDbEntity
  8
0
100
AcDbSpline
 62
7
  6
CONTINUOUS
 70
0
 71
3
 72
15
 73
11
 74
0
 42
0.0000001
 43
0.0000001
 44
0.0000000001
 40
0.0
 40
0.0
 40
0.0
 40
0.0
 40
0.1194457945
 40
0.2406126336
 40
0.3636485922
 40
0.4885067941
 40
0.6149765577
 40
0.742703337
 40
0.8712180164
 40
1.0
 40
1.0
 40
1.0
 40
1.0
 10
4.4724190145
 20
4.2512674516
 30
0.0
 10
4.4733188302
 20
4.250932668
 30
0.0
 10
4.4750782316
 20
4.2501052324
 30
0.0
 10
4.4774981692
 20
4.2484451058
 30
0.0
 10
4.4796614611
 20
4.2463979528
 30
0.0
 10
4.481515757
 20
4.2440139171
 30
0.0
 10
4.4830175376
 20
4.2413505967
 30
0.0
 10
4.4841313294
 20
4.2384717858
 30
0.0
 10
4.4848310305
 20
4.2354471316
 30
0.0
 10
4.485010449
 20
4.2333787244
 30
0.0
 10
4.4850271351
 20
4.2323437395
 30
0.0
  0
SPLINE
  5
5D7
100
AcDbEntity
  8
0
100
AcDbSpline
 62
7
  6
CONTINUOUS
 70
0
 71
3
 72
22
 73
18
 74
0
 42
0.0000001
 43
0.0000001
 44
0.0000000001
 40
0.0
 40
0.0
 40
0.0
 40
0.0
 40
0.0109513424
 40
0.0234531716
 40
0.0375407872
 40
0.0532300932
 40
0.089404783
 40
0.1318917296
 40
0.1804783566
 40
0.2348739877
 40
0.2947279891
 40
0.3596357791
 40
0.429147804
 40
0.5027766735
 40
0.660264188
 40
0.8276029855
 40
1.0
 40
1.0
 40
1.0
 40
1.0
 10
4.8072631006
 20
4.2457304075
 30
0.0
 10
4.8073024743
 20
4.2456698199
 30
0.0
 10
4.80737966
 20
4.2455354014
 30
0.0
 10
4.8074860531
 20
4.245311539
 30
0.0
 10
4.8075903837
 20
4.2450526709
 30
0.0
 10
4.8077332379
 20
4.2446414974
 30
0.0
 10
4.8079014301
 20
4.2440415639
 30
0.0
 10
4.8080840932
 20
4.2432218269
 30
0.0
 10
4.8082542968
 20
4.2422769986
 30
0.0
 10
4.8084106818
 20
4.241213894
 30
0.0
 10
4.8085519399
 20
4.2400401588
 30
0.0
 10
4.8086769511
 20
4.2387643519
 30
0.0
 10
4.80878475
 20
4.2373958001
 30
0.0
 10
4.8089071089
 20
4.2354159394
 30
0.0
 10
4.80900863
 20
4.2327884835
 30
0.0
 10
4.8090510265
 20
4.2295077592
 30
0.0
 10
4.8090270142
 20
4.2272660495
 30
0.0
 10
4.8090017923
 20
4.2261288446
 30
0.0
  0
SPLINE
  5
5D8
100
AcDbEntity
  8
0
100
AcDbSpline
 62
7
  6
CONTINUOUS
 70
0
 71
3
 72
23
 73
19
 74
0
 42
0.0000001
 43
0.0000001
 44
0.0000000001
 40
0.0
 40
0.0
 40
0.0
 40
0.0
 40
0.0082563968
 40
0.0183030766
 40
0.0301727331
 40
0.0438746533
 40
0.0594015947
 40
0.076738562
 40
0.1167422126
 40
0.1636254894
 40
0.2170497128
 40
0.2766154089
 40
0.3418657826
 40
0.412294768
 40
0.4873540834
 40
0.6489781331
 40
0.8216652522
 40
1.0
 40
1.0
 40
1.0
 40
1.0
 10
4.8301271935
 20
4.2455405261
 30
0.0
 10
4.8301536974
 20
4.2454926474
 30
0.0
 10
4.8302048214
 20
4.2453823097
 30
0.0
 10
4.8302734628
 20
4.2451943452
 30
0.0
 10
4.8303411723
 20
4.2449680587
 30
0.0
 10
4.8304077217
 20
4.2447038412
 30
0.0
 10
4.8304729733
 20
4.2444021213
 30
0.0
 10
4.8305623149
 20
4.2439274303
 30
0.0
 10
4.8306671453
 20
4.2432444318
 30
0.0
 10
4.8307806824
 20
4.2423212916
 30
0.0
 10
4.830885961
 20
4.2412667858
 30
0.0
 10
4.8309820629
 20
4.2400892387
 30
0.0
 10
4.8310681101
 20
4.2387979392
 30
0.0
 10
4.8311433793
 20
4.2374031186
 30
0.0
 10
4.8312306292
 20
4.2353693547
 30
0.0
 10
4.8313063776
 20
4.2326568584
 30
0.0
 10
4.8313456893
 20
4.2292590464
 30
0.0
 10
4.8313378506
 20
4.2269323164
 30
0.0
 10
4.8313253189
 20
4.2257503449
 30
0.0
  0
SPLINE
  5
5D9
100
AcDbEntity
  8
0
100
AcDbSpline
 62
7
  6
CONTINUOUS
 70
0
 71
3
 72
23
 73
19
 74
0
 42
0.0000001
 43
0.0000001
 44
0.0000000001
 40
0.0
 40
0.0
 40
0.0
 40
0.0
 40
0.0082500203
 40
0.0182904645
 40
0.0301541675
 40
0.0438505021
 40
0.0593722779
 40
0.0767045238
 40
0.1167001832
 40
0.1635774474
 40
0.2169976623
 40
0.276561336
 40
0.3418116109
 40
0.4122423428
 40
0.4873051451
 40
0.6489408396
 40
0.8216447694
 40
1.0
 40
1.0
 40
1.0
 40
1.0
 10
4.9016278765
 20
4.2455398034
 30
0.0
 10
4.9016013648
 20
4.2454919793
 30
0.0
 10
4.9015502271
 20
4.2453817432
 30
0.0
 10
4.9014815718
 20
4.2451939213
 30
0.0
 10
4.9014138477
 20
4.2449677697
 30
0.0
 10
4.9013472834
 20
4.2447036789
 30
0.0
 10
4.9012820167
 20
4.2444020771
 30
0.0
 10
4.9011926512
 20
4.2439275267
 30
0.0
 10
4.9010877931
 20
4.2432446799
 30
0.0
 10
4.9009742256
 20
4.2423216933
 30
0.0
 10
4.9008689165
 20
4.2412673044
 30
0.0
 10
4.9007727845
 20
4.240089838
 30
0.0
 10
4.900686708
 20
4.238798584
 30
0.0
 10
4.9006114106
 20
4.2374037751
 30
0.0
 10
4.9005241235
 20
4.2353699653
 30
0.0
 10
4.9004483349
 20
4.2326573442
 30
0.0
 10
4.9004089845
 20
4.2292593158
 30
0.0
 10
4.9004168034
 20
4.2269324122
 30
0.0
 10
4.9004293264
 20
4.2257503423
 30
0.0
  0
SPLINE
  5
5DA
100
AcDbEntity
  8
0
100
AcDbSpline
 62
7
  6
CONTINUOUS
 70
0
 71
3
 72
22
 73
18
 74
0
 42
0.0000001
 43
0.0000001
 44
0.0000000001
 40
0.0
 40
0.0
 40
0.0
 40
0.0
 40
0.010951532
 40
0.0234536625
 40
0.0375416412
 40
0.0532313366
 40
0.0894067907
 40
0.1318943758
 40
0.1804814549
 40
0.2348773279
 40
0.29473136
 40
0.3596389864
 40
0.4291506821
 40
0.5027790953
 40
0.6602655116
 40
0.8276033368
 40
1.0
 40
1.0
 40
1.0
 40
1.0
 10
4.924492393
 20
4.2457295112
 30
0.0
 10
4.9244530299
 20
4.2456689192
 30
0.0
 10
4.9243758645
 20
4.2455344941
 30
0.0
 10
4.9242694968
 20
4.2453106265
 30
0.0
 10
4.9241651881
 20
4.2450517564
 30
0.0
 10
4.9240223599
 20
4.2446405851
 30
0.0
 10
4.9238541904
 20
4.244040664
 30
0.0
 10
4.9236715413
 20
4.2432209523
 30
0.0
 10
4.9235013402
 20
4.2422761609
 30
0.0
 10
4.923344947
 20
4.2412131042
 30
0.0
 10
4.9232036706
 20
4.2400394269
 30
0.0
 10
4.9230786317
 20
4.2387636867
 30
0.0
 10
4.9229707963
 20
4.2373952093
 30
0.0
 10
4.9228483765
 20
4.2354154589
 30
0.0
 10
4.9227467606
 20
4.2327881479
 30
0.0
 10
4.9227042293
 20
4.2295075966
 30
0.0
 10
4.9227281399
 20
4.2272660007
 30
0.0
 10
4.9227533083
 20
4.2261288508
 30
0.0
  0
SPLINE
  5
5DB
100
AcDbEntity
  8
0
100
AcDbSpline
 62
7
  6
CONTINUOUS
 70
0
 71
3
 72
15
 73
11
 74
0
 42
0.0000001
 43
0.0000001
 44
0.0000000001
 40
0.0
 40
0.0
 40
0.0
 40
0.0
 40
0.1194459432
 40
0.240612696
 40
0.3636484874
 40
0.4885065509
 40
0.6149762654
 40
0.7427030954
 40
0.8712178924
 40
1.0
 40
1.0
 40
1.0
 40
1.0
 10
5.2593353846
 20
4.2512683343
 30
0.0
 10
5.2584354852
 20
4.2509335889
 30
0.0
 10
5.2566759142
 20
4.2501062052
 30
0.0
 10
5.2542557354
 20
4.2484460828
 30
0.0
 10
5.2520922305
 20
4.2463988683
 30
0.0
 10
5.250237762
 20
4.2440147134
 30
0.0
 10
5.2487358593
 20
4.2413512275
 30
0.0
 10
5.2476220042
 20
4.2384722179
 30
0.0
 10
5.2469223038
 20
4.2354473475
 30
0.0
 10
5.2467429302
 20
4.2333787945
 30
0.0
 10
5.2467262775
 20
4.2323437391
 30
0.0
  0
SPLINE
  5
5DC
100
AcDbEntity
  8
0
100
AcDbSpline
 62
7
  6
CONTINUOUS
 70
0
 71
3
 72
15
 73
11
 74
0
 42
0.0000001
 43
0.0000001
 44
0.0000000001
 40
0.0
 40
0.0
 40
0.0
 40
0.0
 40
0.1227553186
 40
0.2463210559
 40
0.3706705178
 40
0.495724993
 40
0.6213597426
 40
0.7474125333
 40
0.8736941066
 40
1.0
 40
1.0
 40
1.0
 40
1.0
 10
5.2752640832
 20
4.2480126746
 30
0.0
 10
5.2745364384
 20
4.2475760587
 30
0.0
 10
5.2731330843
 20
4.2466013556
 30
0.0
 10
5.2712327105
 20
4.2448722615
 30
0.0
 10
5.2695607984
 20
4.2429000907
 30
0.0
 10
5.2681463533
 20
4.2407190272
 30
0.0
 10
5.2670133043
 20
4.2383664219
 30
0.0
 10
5.2661809343
 20
4.2358824264
 30
0.0
 10
5.2656633638
 20
4.2333100427
 30
0.0
 10
5.2655339354
 20
4.2315633862
 30
0.0
 10
5.2655238057
 20
4.2306903132
 30
0.0
  0
SPLINE
  5
5DD
100
AcDbEntity
  8
0
100
AcDbSpline
 62
7
  6
CONTINUOUS
 70
0
 71
3
 72
15
 73
11
 74
0
 42
0.0000001
 43
0.0000001
 44
0.0000000001
 40
0.0
 40
0.0
 40
0.0
 40
0.0
 40
0.1225309448
 40
0.2457674226
 40
0.3697740866
 40
0.4945623257
 40
0.620090458
 40
0.7462674391
 40
0.8729596269
 40
1.0
 40
1.0
 40
1.0
 40
1.0
 10
5.2756751977
 20
4.248005823
 30
0.0
 10
5.2749562614
 20
4.2475693812
 30
0.0
 10
5.2735719291
 20
4.2465948268
 30
0.0
 10
5.2717050326
 20
4.2448648307
 30
0.0
 10
5.2700724076
 20
4.2428916369
 30
0.0
 10
5.268702414
 20
4.240709534
 30
0.0
 10
5.2676182095
 20
4.238355964
 30
0.0
 10
5.266838229
 20
4.2358711597
 30
0.0
 10
5.2663756606
 20
4.2332981788
 30
0.0
 10
5.2662841883
 20
4.2315535957
 30
0.0
 10
5.2662929199
 20
4.2306816455
 30
0.0
  0
SPLINE
  5
5DE
100
AcDbEntity
  8
0
100
AcDbSpline
 62
7
  6
CONTINUOUS
 70
0
 71
3
 72
15
 73
11
 74
0
 42
0.0000001
 43
0.0000001
 44
0.0000000001
 40
0.0
 40
0.0
 40
0.0
 40
0.0
 40
0.1227899705
 40
0.2462284957
 40
0.3703638262
 40
0.4951970537
 40
0.6206828091
 40
0.7467329638
 40
0.8732229227
 40
1.0
 40
1.0
 40
1.0
 40
1.0
 10
5.2773486314
 20
4.2480975443
 30
0.0
 10
5.2766360974
 20
4.2476579085
 30
0.0
 10
5.275264579
 20
4.2466794535
 30
0.0
 10
5.2734149606
 20
4.2449499335
 30
0.0
 10
5.2717972927
 20
4.2429832373
 30
0.0
 10
5.270439175
 20
4.2408129027
 30
0.0
 10
5.26936317
 20
4.2384754854
 30
0.0
 10
5.2685872636
 20
4.236010217
 30
0.0
 10
5.2681243596
 20
4.2334590553
 30
0.0
 10
5.2680296261
 20
4.2317294565
 30
0.0
 10
5.2680360106
 20
4.2308650458
 30
0.0
  0
SPLINE
  5
5DF
100
AcDbEntity
  8
0
100
AcDbSpline
 62
7
  6
CONTINUOUS
 70
0
 71
3
 72
15
 73
11
 74
0
 42
0.0000001
 43
0.0000001
 44
0.0000000001
 40
0.0
 40
0.0
 40
0.0
 40
0.0
 40
0.1235819231
 40
0.2476295729
 40
0.3721483298
 40
0.4971127902
 40
0.6224687386
 40
0.748136898
 40
0.8740181684
 40
1.0
 40
1.0
 40
1.0
 40
1.0
 10
5.2829658168
 20
4.2482134437
 30
0.0
 10
5.2822533954
 20
4.2477702139
 30
0.0
 10
5.2808821291
 20
4.2467878681
 30
0.0
 10
5.2790298587
 20
4.2450596797
 30
0.0
 10
5.2774071922
 20
4.2431016416
 30
0.0
 10
5.2760412112
 20
4.2409463249
 30
0.0
 10
5.2749541583
 20
4.2386291768
 30
0.0
 10
5.2741638539
 20
4.2361881908
 30
0.0
 10
5.2736832117
 20
4.2336639954
 30
0.0
 10
5.2735744725
 20
4.2319522109
 30
0.0
 10
5.2735734716
 20
4.2310968723
 30
0.0
  0
LINE
  5
5E0
100
AcDbEntity
  8
0
100
AcDbLine
 62
7
  6
CONTINUOUS
 10
5.2858773166
 20
4.23082681
 11
5.2735734722
 21
4.2310968723
  0
SPLINE
  5
5E1
100
AcDbEntity
  8
0
100
AcDbSpline
 62
7
  6
CONTINUOUS
 70
0
 71
3
 72
43
 73
39
 74
0
 42
0.0000001
 43
0.0000001
 44
0.0000000001
 40
0.0
 40
0.0
 40
0.0
 40
0.0
 40
0.0031903204
 40
0.0064850846
 40
0.0099791505
 40
0.0137518853
 40
0.0178660965
 40
0.0223694951
 40
0.0272976705
 40
0.0326770571
 40
0.0385268177
 40
0.0448609116
 40
0.0516894252
 40
0.0590190955
 40
0.0668544214
 40
0.0751980476
 40
0.0840508163
 40
0.0934125057
 40
0.1032817836
 40
0.1136562011
 40
0.1359069416
 40
0.1601322639
 40
0.1862896425
 40
0.2143286323
 40
0.2441917358
 40
0.275815417
 40
0.3091306471
 40
0.34406314
 40
0.3805339436
 40
0.4184598692
 40
0.4577536351
 40
0.498324194
 40
0.5400771842
 40
0.6267368946
 40
0.7169208792
 40
0.8097801363
 40
0.9044374283
 40
1.0
 40
1.0
 40
1.0
 40
1.0
 10
4.6158773447
 20
4.9786490239
 30
0.0
 10
4.6158773447
 20
4.9789217202
 30
0.0
 10
4.615929517
 20
4.9794773192
 30
0.0
 10
4.6161620909
 20
4.9803021946
 30
0.0
 10
4.6165471131
 20
4.9811226901
 30
0.0
 10
4.6170824267
 20
4.9819382441
 30
0.0
 10
4.6177667176
 20
4.9827493362
 30
0.0
 10
4.6185991687
 20
4.9835563788
 30
0.0
 10
4.6195792928
 20
4.9843595943
 30
0.0
 10
4.6207066998
 20
4.985158895
 30
0.0
 10
4.6219808801
 20
4.9859541096
 30
0.0
 10
4.6234012553
 20
4.9867449106
 30
0.0
 10
4.6249671358
 20
4.9875308715
 30
0.0
 10
4.6266776799
 20
4.9883116009
 30
0.0
 10
4.6285319583
 20
4.9890866326
 30
0.0
 10
4.6305289318
 20
4.9898554844
 30
0.0
 10
4.6326674425
 20
4.9906177259
 30
0.0
 10
4.634946252
 20
4.9913728668
 30
0.0
 10
4.6373640213
 20
4.9921204554
 30
0.0
 10
4.6408532599
 20
4.9931302783
 30
0.0
 10
4.6455543893
 20
4.9943634963
 30
0.0
 10
4.6516010298
 20
4.9957742782
 30
0.0
 10
4.6581631621
 20
4.9971447778
 30
0.0
 10
4.6652251041
 20
4.9984715813
 30
0.0
 10
4.6727700073
 20
4.9997513619
 30
0.0
 10
4.6807797905
 20
5.0009809368
 30
0.0
 10
4.689235238
 20
5.00215725
 30
0.0
 10
4.6981160312
 20
5.0032774098
 30
0.0
 10
4.7074008137
 20
5.0043386663
 30
0.0
 10
4.7170672529
 20
5.005338412
 30
0.0
 10
4.7270920847
 20
5.0062741969
 30
0.0
 10
4.7374511794
 20
5.0071437634
 30
0.0
 10
4.7518548175
 20
5.0082254118
 30
0.0
 10
4.7705041845
 20
5.0093897425
 30
0.0
 10
4.7935324394
 20
5.0104780188
 30
0.0
 10
4.8172569977
 20
5.0112631118
 30
0.0
 10
4.8414495405
 20
5.0117373104
 30
0.0
 10
4.8577090073
 20
5.0118428667
 30
0.0
 10
4.8658773292
 20
5.0118428667
 30
0.0
  0
SPLINE
  5
5E2
100
AcDbEntity
  8
0
100
AcDbSpline
 62
7
  6
CONTINUOUS
 70
0
 71
3
 72
22
 73
18
 74
0
 42
0.0000001
 43
0.0000001
 44
0.0000000001
 40
0.0
 40
0.0
 40
0.0
 40
0.0
 40
0.0307339513
 40
0.0630155436
 40
0.0981689534
 40
0.1372074339
 40
0.1808203405
 40
0.2294411202
 40
0.2833263935
 40
0.342601005
 40
0.4072898978
 40
0.4773354296
 40
0.632904139
 40
0.7180548711
 40
0.8078389182
 40
0.9019757538
 40
1.0
 40
1.0
 40
1.0
 40
1.0
 10
5.0349118335
 20
6.1635254028
 30
0.0
 10
5.03500782
 20
6.1634814868
 30
0.0
 10
5.0351943223
 20
6.1633670253
 30
0.0
 10
5.0354355471
 20
6.1631279423
 30
0.0
 10
5.0356406997
 20
6.1628228329
 30
0.0
 10
5.0358101192
 20
6.1624538933
 30
0.0
 10
5.0359443087
 20
6.1620224342
 30
0.0
 10
5.0360432415
 20
6.1615297107
 30
0.0
 10
5.036106863
 20
6.160977206
 30
0.0
 10
5.0361353171
 20
6.1603666622
 30
0.0
 10
5.0361286936
 20
6.1597000697
 30
0.0
 10
5.036071292
 20
6.1587043888
 30
0.0
 10
5.0359427074
 20
6.157643658
 30
0.0
 10
5.0357528438
 20
6.1565244645
 30
0.0
 10
5.0355728188
 20
6.1556179159
 30
0.0
 10
5.0353607273
 20
6.1546729867
 30
0.0
 10
5.0351968063
 20
6.1540335416
 30
0.0
 10
5.0351076504
 20
6.1537088971
 30
0.0
  0
SPLINE
  5
5E3
100
AcDbEntity
  8
0
100
AcDbSpline
 62
7
  6
CONTINUOUS
 70
0
 71
3
 72
32
 73
28
 74
0
 42
0.0000001
 43
0.0000001
 44
0.0000000001
 40
0.0
 40
0.0
 40
0.0
 40
0.0
 40
0.0010614928
 40
0.002408981
 40
0.0043357015
 40
0.0069437439
 40
0.0102709399
 40
0.0143333245
 40
0.0191380967
 40
0.0246882619
 40
0.037999024
 40
0.0541534529
 40
0.0730142147
 40
0.0944395868
 40
0.1182857779
 40
0.1444085573
 40
0.2029236591
 40
0.2688735769
 40
0.3411165599
 40
0.4183813474
 40
0.4993851136
 40
0.5829299957
 40
0.6678617963
 40
0.7530468904
 40
0.837419339
 40
0.9200633682
 40
1.0
 40
1.0
 40
1.0
 40
1.0
 10
5.0630823836
 20
5.4831175094
 30
0.0
 10
5.063079032
 20
5.4831185794
 30
0.0
 10
5.06307027
 20
5.4831178827
 30
0.0
 10
5.0630594255
 20
5.4831075978
 30
0.0
 10
5.0630492067
 20
5.4830910127
 30
0.0
 10
5.0630389003
 20
5.4830669671
 30
0.0
 10
5.0630284916
 20
5.4830355043
 30
0.0
 10
5.0630179652
 20
5.4829964594
 30
0.0
 10
5.0630073301
 20
5.4829498666
 30
0.0
 10
5.0629920759
 20
5.4828729169
 30
0.0
 10
5.0629732647
 20
5.4827583715
 30
0.0
 10
5.06295095
 20
5.4825997557
 30
0.0
 10
5.0629275769
 20
5.4824141485
 30
0.0
 10
5.0629028777
 20
5.4822030255
 30
0.0
 10
5.0628766004
 20
5.4819678571
 30
0.0
 10
5.0628375957
 20
5.4816104165
 30
0.0
 10
5.0627840238
 20
5.4811141878
 30
0.0
 10
5.0627118559
 20
5.4804662177
 30
0.0
 10
5.062627982
 20
5.4797570332
 30
0.0
 10
5.0625302427
 20
5.4789992777
 30
0.0
 10
5.0624164553
 20
5.4782058905
 30
0.0
 10
5.0622850953
 20
5.4773894588
 30
0.0
 10
5.0621347138
 20
5.4765622044
 30
0.0
 10
5.0619637636
 20
5.4757361236
 30
0.0
 10
5.0617706233
 20
5.4749226924
 30
0.0
 10
5.0615543972
 20
5.4741330863
 30
0.0
 10
5.0613909697
 20
5.4736193703
 30
0.0
 10
5.0613042448
 20
5.4733690223
 30
0.0
  0
SPLINE
  5
5E4
100
AcDbEntity
  8
0
100
AcDbSpline
 62
7
  6
CONTINUOUS
 70
0
 71
3
 72
32
 73
28
 74
0
 42
0.0000001
 43
0.0000001
 44
0.0000000001
 40
0.0
 40
0.0
 40
0.0
 40
0.0
 40
0.0321645227
 40
0.0601313145
 40
0.0839672648
 40
0.1037915772
 40
0.1198262018
 40
0.1265568514
 40
0.1325377179
 40
0.1427750017
 40
0.1475000895
 40
0.1522716867
 40
0.1627749265
 40
0.1755838875
 40
0.1912639636
 40
0.2100118976
 40
0.2318502044
 40
0.2567163752
 40
0.2844950831
 40
0.3150119851
 40
0.3834533239
 40
0.4603587544
 40
0.5439662647
 40
0.632481712
 40
0.7241210706
 40
0.8171068776
 40
1.0
 40
1.0
 40
1.0
 40
1.0
 10
5.0763319289
 20
5.4684915963
 30
0.0
 10
5.0763062433
 20
5.4685936305
 30
0.0
 10
5.0762551733
 20
5.4687836497
 30
0.0
 10
5.07617212
 20
5.469045579
 30
0.0
 10
5.0760879856
 20
5.4692644938
 30
0.0
 10
5.0760026818
 20
5.4694404278
 30
0.0
 10
5.0759265444
 20
5.4695579301
 30
0.0
 10
5.0758633954
 20
5.4696279665
 30
0.0
 10
5.0758063675
 20
5.4696768677
 30
0.0
 10
5.0757432192
 20
5.4697087196
 30
0.0
 10
5.0756784546
 20
5.4697157017
 30
0.0
 10
5.0756129839
 20
5.4697075225
 30
0.0
 10
5.075528376
 20
5.469666441
 30
0.0
 10
5.0754329178
 20
5.4695806146
 30
0.0
 10
5.0753366812
 20
5.4694590952
 30
0.0
 10
5.0752391109
 20
5.4693027401
 30
0.0
 10
5.0751398435
 20
5.4691128686
 30
0.0
 10
5.0750389224
 20
5.4688910048
 30
0.0
 10
5.0749364034
 20
5.4686389601
 30
0.0
 10
5.0747920986
 20
5.4682502476
 30
0.0
 10
5.0746115094
 20
5.4677038674
 30
0.0
 10
5.0743968916
 20
5.4669862649
 30
0.0
 10
5.0741780564
 20
5.4662015448
 30
0.0
 10
5.0739558916
 20
5.465367802
 30
0.0
 10
5.0737313422
 20
5.4645029692
 30
0.0
 10
5.0734315089
 20
5.4633387304
 30
0.0
 10
5.073204051
 20
5.4624653642
 30
0.0
 10
5.0730467968
 20
5.4618881155
 30
0.0
  0
SPLINE
  5
5E5
100
AcDbEntity
  8
0
100
AcDbSpline
 62
7
  6
CONTINUOUS
 70
0
 71
3
 72
43
 73
39
 74
0
 42
0.0000001
 43
0.0000001
 44
0.0000000001
 40
0.0
 40
0.0
 40
0.0
 40
0.0
 40
0.0031903204
 40
0.0064850846
 40
0.0099791505
 40
0.0137518853
 40
0.0178660965
 40
0.0223694951
 40
0.0272976705
 40
0.0326770571
 40
0.0385268177
 40
0.0448609116
 40
0.0516894252
 40
0.0590190955
 40
0.0668544214
 40
0.0751980476
 40
0.0840508163
 40
0.0934125057
 40
0.1032817836
 40
0.1136562011
 40
0.1359069416
 40
0.1601322639
 40
0.1862896425
 40
0.2143286323
 40
0.2441917358
 40
0.275815417
 40
0.3091306471
 40
0.34406314
 40
0.3805339436
 40
0.4184598692
 40
0.4577536351
 40
0.498324194
 40
0.5400771842
 40
0.6267368946
 40
0.7169208792
 40
0.8097801363
 40
0.9044374283
 40
1.0
 40
1.0
 40
1.0
 40
1.0
 10
5.1158773137
 20
4.9786490239
 30
0.0
 10
5.1158773137
 20
4.9789217202
 30
0.0
 10
5.1158251413
 20
4.9794773192
 30
0.0
 10
5.1155925674
 20
4.9803021946
 30
0.0
 10
5.1152075453
 20
4.9811226901
 30
0.0
 10
5.1146722317
 20
4.9819382441
 30
0.0
 10
5.1139879408
 20
4.9827493362
 30
0.0
 10
5.1131554897
 20
4.9835563788
 30
0.0
 10
5.1121753656
 20
4.9843595943
 30
0.0
 10
5.1110479586
 20
4.985158895
 30
0.0
 10
5.1097737783
 20
4.9859541096
 30
0.0
 10
5.1083534031
 20
4.9867449106
 30
0.0
 10
5.1067875226
 20
4.9875308715
 30
0.0
 10
5.1050769785
 20
4.9883116009
 30
0.0
 10
5.1032227001
 20
4.9890866326
 30
0.0
 10
5.1012257266
 20
4.9898554844
 30
0.0
 10
5.0990872159
 20
4.9906177259
 30
0.0
 10
5.0968084064
 20
4.9913728668
 30
0.0
 10
5.0943906371
 20
4.9921204554
 30
0.0
 10
5.0909013985
 20
4.9931302783
 30
0.0
 10
5.0862002691
 20
4.9943634963
 30
0.0
 10
5.0801536286
 20
4.9957742782
 30
0.0
 10
5.0735914963
 20
4.9971447778
 30
0.0
 10
5.0665295543
 20
4.9984715813
 30
0.0
 10
5.0589846511
 20
4.9997513619
 30
0.0
 10
5.0509748679
 20
5.0009809368
 30
0.0
 10
5.0425194204
 20
5.00215725
 30
0.0
 10
5.0336386272
 20
5.0032774098
 30
0.0
 10
5.0243538447
 20
5.0043386663
 30
0.0
 10
5.0146874055
 20
5.005338412
 30
0.0
 10
5.0046625736
 20
5.0062741969
 30
0.0
 10
4.994303479
 20
5.0071437634
 30
0.0
 10
4.9798998409
 20
5.0082254118
 30
0.0
 10
4.9612504739
 20
5.0093897425
 30
0.0
 10
4.938222219
 20
5.0104780188
 30
0.0
 10
4.9144976607
 20
5.0112631118
 30
0.0
 10
4.8903051179
 20
5.0117373104
 30
0.0
 10
4.8740456511
 20
5.0118428667
 30
0.0
 10
4.8658773292
 20
5.0118428667
 30
0.0
  0
LINE
  5
5E6
100
AcDbEntity
  8
0
100
AcDbLine
 62
7
  6
CONTINUOUS
 10
4.5538419547
 20
5.0403795586
 11
4.5534673422
 21
5.0391136085
  0
LINE
  5
5E7
100
AcDbEntity
  8
0
100
AcDbLine
 62
7
  6
CONTINUOUS
 10
4.5463454525
 20
5.0453048195
 11
4.5311936796
 21
5.0453300432
  0
LINE
  5
5E8
100
AcDbEntity
  8
0
100
AcDbLine
 62
7
  6
CONTINUOUS
 10
4.556140369
 20
5.0436231947
 11
4.5550188411
 21
5.0423650496
  0
SPLINE
  5
5E9
100
AcDbEntity
  8
0
100
AcDbSpline
 62
7
  6
CONTINUOUS
 70
0
 71
3
 72
15
 73
11
 74
0
 42
0.0000001
 43
0.0000001
 44
0.0000000001
 40
0.0
 40
0.0
 40
0.0
 40
0.0
 40
0.1240988558
 40
0.2482885525
 40
0.3726923446
 40
0.4973903492
 40
0.622446859
 40
0.7479003242
 40
0.8737563458
 40
1.0
 40
1.0
 40
1.0
 40
1.0
 10
4.9629432977
 20
5.7540338519
 30
0.0
 10
4.9626429724
 20
5.7532142279
 30
0.0
 10
4.9619282897
 20
5.7516135483
 30
0.0
 10
4.9605372498
 20
5.7493822648
 30
0.0
 10
4.9588515891
 20
5.7473582314
 30
0.0
 10
4.9569017856
 20
5.7455784417
 30
0.0
 10
4.954723075
 20
5.7440746908
 30
0.0
 10
4.952354575
 20
5.7428740124
 30
0.0
 10
4.9498395471
 20
5.7419979047
 30
0.0
 10
4.9480962742
 20
5.7416409706
 30
0.0
 10
4.9472164598
 20
5.7415206734
 30
0.0
  0
LINE
  5
5EA
100
AcDbEntity
  8
0
100
AcDbLine
 62
7
  6
CONTINUOUS
 10
4.5603484147
 20
5.0468328883
 11
4.558486886
 21
5.045590305
  0
LINE
  5
5EB
100
AcDbEntity
  8
0
100
AcDbLine
 62
7
  6
CONTINUOUS
 10
5.1158773137
 20
5.0282063317
 11
5.1154647002
 21
5.0301126563
  0
SPLINE
  5
5EC
100
AcDbEntity
  8
0
100
AcDbSpline
 62
7
  6
CONTINUOUS
 70
0
 71
3
 72
40
 73
36
 74
0
 42
0.0000001
 43
0.0000001
 44
0.0000000001
 40
0.0
 40
0.0
 40
0.0
 40
0.0
 40
0.0034781583
 40
0.0072380347
 40
0.0113316624
 40
0.0157986138
 40
0.0206687155
 40
0.0259642932
 40
0.0317016637
 40
0.0378928901
 40
0.0445467477
 40
0.0516691507
 40
0.0592641147
 40
0.0673340572
 40
0.0758797985
 40
0.0849012155
 40
0.1043650876
 40
0.1257082556
 40
0.1489019785
 40
0.1739093424
 40
0.2006862071
 40
0.2291822738
 40
0.259341937
 40
0.2911044933
 40
0.3244046462
 40
0.3591730642
 40
0.3953364378
 40
0.4328177863
 40
0.4715369286
 40
0.5523516697
 40
0.6370819902
 40
0.7249904707
 40
0.8153094234
 40
0.9072472023
 40
1.0
 40
1.0
 40
1.0
 40
1.0
 10
5.1154543577
 20
5.0301363793
 30
0.0
 10
5.1153358514
 20
5.0304065245
 30
0.0
 10
5.1150453508
 20
5.0309500546
 30
0.0
 10
5.1144852673
 20
5.0317336408
 30
0.0
 10
5.1137871405
 20
5.0325135625
 30
0.0
 10
5.1129517027
 20
5.0332898446
 30
0.0
 10
5.1119793139
 20
5.034062649
 30
0.0
 10
5.1108703573
 20
5.03483182
 30
0.0
 10
5.1096253138
 20
5.0355971809
 30
0.0
 10
5.1082447205
 20
5.0363584078
 30
0.0
 10
5.1067292144
 20
5.0371151167
 30
0.0
 10
5.1050795614
 20
5.0378669534
 30
0.0
 10
5.1032965988
 20
5.0386135009
 30
0.0
 10
5.1013812554
 20
5.039354322
 30
0.0
 10
5.0993345681
 20
5.0400890532
 30
0.0
 10
5.0963558257
 20
5.0410853572
 30
0.0
 10
5.0923084505
 20
5.0423049984
 30
0.0
 10
5.087062866
 20
5.0437036975
 30
0.0
 10
5.0813240698
 20
5.0450688122
 30
0.0
 10
5.0751047109
 20
5.0463971629
 30
0.0
 10
5.0684184649
 20
5.0476856373
 30
0.0
 10
5.0612801506
 20
5.0489312582
 30
0.0
 10
5.0537056156
 20
5.0501311374
 30
0.0
 10
5.0457117149
 20
5.0512825263
 30
0.0
 10
5.0373162588
 20
5.0523828017
 30
0.0
 10
5.0285379624
 20
5.0534294476
 30
0.0
 10
5.0193964079
 20
5.0544200807
 30
0.0
 10
5.0099119925
 20
5.0553524862
 30
0.0
 10
4.9966471422
 20
5.05653202
 30
0.0
 10
4.9793711358
 20
5.057837599
 30
0.0
 10
4.9579124476
 20
5.0591218349
 30
0.0
 10
4.9356322555
 20
5.0601330907
 30
0.0
 10
4.912729493
 20
5.0608621117
 30
0.0
 10
4.8894084875
 20
5.0613022195
 30
0.0
 10
4.8737440301
 20
5.0614001745
 30
0.0
 10
4.8658773292
 20
5.0614001745
 30
0.0
  0
LINE
  5
5ED
100
AcDbEntity
  8
0
100
AcDbLine
 62
7
  6
CONTINUOUS
 10
4.5664401478
 20
5.0499888503
 11
4.5638500952
 21
5.0487694899
  0
SPLINE
  5
5EE
100
AcDbEntity
  8
0
100
AcDbSpline
 62
7
  6
CONTINUOUS
 70
0
 71
3
 72
19
 73
15
 74
0
 42
0.0000001
 43
0.0000001
 44
0.0000000001
 40
0.0
 40
0.0
 40
0.0
 40
0.0
 40
0.0530770081
 40
0.1084739167
 40
0.1658110174
 40
0.224764668
 40
0.2850998427
 40
0.3466020644
 40
0.4091158501
 40
0.4724990839
 40
0.6014307186
 40
0.7326770844
 40
0.8657005081
 40
1.0
 40
1.0
 40
1.0
 40
1.0
 10
4.7700346184
 20
5.7503890406
 30
0.0
 10
4.7701621331
 20
5.7499281332
 30
0.0
 10
4.7703900812
 20
5.7489770115
 30
0.0
 10
4.7706619866
 20
5.7475075265
 30
0.0
 10
4.7708783447
 20
5.7459754315
 30
0.0
 10
4.7710455683
 20
5.7443925777
 30
0.0
 10
4.771167559
 20
5.7427680178
 30
0.0
 10
4.7712486777
 20
5.7411088371
 30
0.0
 10
4.771291125
 20
5.7394207652
 30
0.0
 10
4.7712994725
 20
5.7371246422
 30
0.0
 10
4.7712218579
 20
5.7342096323
 30
0.0
 10
4.770999335
 20
5.7306731607
 30
0.0
 10
4.7706443782
 20
5.7270988957
 30
0.0
 10
4.7703204853
 20
5.7247116072
 30
0.0
 10
4.770136941
 20
5.7235155767
 30
0.0
  0
SPLINE
  5
5EF
100
AcDbEntity
  8
0
100
AcDbSpline
 62
7
  6
CONTINUOUS
 70
0
 71
3
 72
15
 73
11
 74
0
 42
0.0000001
 43
0.0000001
 44
0.0000000001
 40
0.0
 40
0.0
 40
0.0
 40
0.0
 40
0.1198064379
 40
0.2402192687
 40
0.3618323274
 40
0.4851211739
 40
0.6104441775
 40
0.7380136714
 40
0.8678946268
 40
1.0
 40
1.0
 40
1.0
 40
1.0
 10
4.769961145
 20
5.7506589405
 30
0.0
 10
4.7701901235
 20
5.7499630925
 30
0.0
 10
4.770752183
 20
5.7485993882
 30
0.0
 10
4.7718870622
 20
5.7466916632
 30
0.0
 10
4.7732961101
 20
5.7449486923
 30
0.0
 10
4.7749560407
 20
5.7433989992
 30
0.0
 10
4.7768396352
 20
5.742067035
 30
0.0
 10
4.7789164109
 20
5.7409737301
 30
0.0
 10
4.781152474
 20
5.7401361886
 30
0.0
 10
4.7827141683
 20
5.739759726
 30
0.0
 10
4.7835091516
 20
5.7396166493
 30
0.0
  0
LINE
  5
5F0
100
AcDbEntity
  8
0
100
AcDbLine
 62
7
  6
CONTINUOUS
 10
5.1679045632
 20
5.0487694899
 11
5.1653145106
 21
5.0499888503
  0
LINE
  5
5F1
100
AcDbEntity
  8
0
100
AcDbLine
 62
7
  6
CONTINUOUS
 10
5.1732677724
 20
5.045590305
 11
5.1714062436
 21
5.0468328883
  0
SPLINE
  5
5F2
100
AcDbEntity
  8
0
100
AcDbSpline
 62
7
  6
CONTINUOUS
 70
0
 71
3
 72
22
 73
18
 74
0
 42
0.0000001
 43
0.0000001
 44
0.0000000001
 40
0.0
 40
0.0
 40
0.0
 40
0.0
 40
0.0306012203
 40
0.0627149116
 40
0.0977408085
 40
0.1366830174
 40
0.1802403717
 40
0.2288651723
 40
0.2828069559
 40
0.3421696944
 40
0.4069609057
 40
0.4771106394
 40
0.6328493737
 40
0.7180538187
 40
0.8078677639
 40
0.9020068019
 40
1.0
 40
1.0
 40
1.0
 40
1.0
 10
4.686636376
 20
6.1532430252
 30
0.0
 10
4.6866783561
 20
6.1533393077
 30
0.0
 10
4.6867889463
 20
6.1535268083
 30
0.0
 10
4.687023091
 20
6.1537705277
 30
0.0
 10
4.6873236607
 20
6.1539795215
 30
0.0
 10
4.6876888365
 20
6.1541541258
 30
0.0
 10
4.6881173089
 20
6.1542950144
 30
0.0
 10
4.68860789
 20
6.1544026154
 30
0.0
 10
4.689159206
 20
6.1544769976
 30
0.0
 10
4.689769507
 20
6.1545179839
 30
0.0
 10
4.6904366955
 20
6.1545254179
 30
0.0
 10
4.6914340593
 20
6.1544891754
 30
0.0
 10
4.6924977574
 20
6.1543826992
 30
0.0
 10
4.6936206305
 20
6.1542146467
 30
0.0
 10
4.694530086
 20
6.1540513673
 30
0.0
 10
4.6954779213
 20
6.1538554556
 30
0.0
 10
4.6961192855
 20
6.1537012435
 30
0.0
 10
4.6964448261
 20
6.1536166421
 30
0.0
  0
LINE
  5
5F3
100
AcDbEntity
  8
0
100
AcDbLine
 62
7
  6
CONTINUOUS
 10
5.1767358173
 20
5.0423650496
 11
5.1756142894
 21
5.0436231947
  0
LINE
  5
5F4
100
AcDbEntity
  8
0
100
AcDbLine
 62
7
  6
CONTINUOUS
 10
5.1782873162
 20
5.0391136085
 11
5.1779127037
 21
5.0403795586
  0
SPLINE
  5
5F5
100
AcDbEntity
  8
0
100
AcDbSpline
 62
7
  6
CONTINUOUS
 70
0
 71
3
 72
44
 73
40
 74
0
 42
0.0000001
 43
0.0000001
 44
0.0000000001
 40
0.0
 40
0.0
 40
0.0
 40
0.0
 40
0.0984266006
 40
0.1958479962
 40
0.2912734184
 40
0.3837312154
 40
0.4722832927
 40
0.5148135991
 40
0.5560360565
 40
0.5958475171
 40
0.6341488437
 40
0.670845294
 40
0.7058471016
 40
0.7390697057
 40
0.7704341252
 40
0.7998676849
 40
0.8273046739
 40
0.8526869588
 40
0.8759651652
 40
0.8868031277
 40
0.8971014381
 40
0.9068574509
 40
0.9160693047
 40
0.9247363957
 40
0.9328597561
 40
0.9404418907
 40
0.9474876487
 40
0.9540047008
 40
0.9600040193
 40
0.9655015042
 40
0.9705192341
 40
0.9750875084
 40
0.9792480996
 40
0.98305725
 40
0.9865890421
 40
0.9899369579
 40
0.9932106585
 40
0.9965274182
 40
1.0
 40
1.0
 40
1.0
 40
1.0
 10
4.8658773292
 20
4.9281804166
 30
0.0
 10
4.8737609138
 20
4.9281804166
 30
0.0
 10
4.8894477814
 20
4.9280747004
 30
0.0
 10
4.9127735081
 20
4.9275998524
 30
0.0
 10
4.9356125818
 20
4.9268141028
 30
0.0
 10
4.9577280261
 20
4.9257257979
 30
0.0
 10
4.9755957598
 20
4.9245615669
 30
0.0
 10
4.989354448
 20
4.9234803207
 30
0.0
 10
4.9992135079
 20
4.9226126428
 30
0.0
 10
5.0087263188
 20
4.9216796506
 30
0.0
 10
5.0178681972
 20
4.9206837811
 30
0.0
 10
5.0266154236
 20
4.9196276636
 30
0.0
 10
5.0349453208
 20
4.9185141037
 30
0.0
 10
5.0428363075
 20
4.9173460656
 30
0.0
 10
5.0502679573
 20
4.9161266617
 30
0.0
 10
5.0572210614
 20
4.9148591614
 30
0.0
 10
5.0636777362
 20
4.9135470141
 30
0.0
 10
5.0696213367
 20
4.9121937466
 30
0.0
 10
5.0742380063
 20
4.9110083821
 30
0.0
 10
5.0776602677
 20
4.9100364844
 30
0.0
 10
5.0800278235
 20
4.9093168562
 30
0.0
 10
5.0822564437
 20
4.908589583
 30
0.0
 10
5.0843447131
 20
4.9078551122
 30
0.0
 10
5.0862913174
 20
4.9071139196
 30
0.0
 10
5.0880950623
 20
4.9063665227
 30
0.0
 10
5.089754847
 20
4.9056133733
 30
0.0
 10
5.091269695
 20
4.9048549431
 30
0.0
 10
5.0926387714
 20
4.9040917096
 30
0.0
 10
5.0938613368
 20
4.9033240295
 30
0.0
 10
5.0949368122
 20
4.902552246
 30
0.0
 10
5.095864742
 20
4.901776562
 30
0.0
 10
5.0966446568
 20
4.9009968993
 30
0.0
 10
5.097276054
 20
4.900212997
 30
0.0
 10
5.0977579953
 20
4.8994243045
 30
0.0
 10
5.0980886784
 20
4.8986303785
 30
0.0
 10
5.0982656712
 20
4.8978318607
 30
0.0
 10
5.0982866475
 20
4.897031038
 30
0.0
 10
5.0981513355
 20
4.8962317532
 30
0.0
 10
5.0979641164
 20
4.895717904
 30
0.0
 10
5.0978489927
 20
4.8954647075
 30
0.0
  0
SPLINE
  5
5F6
100
AcDbEntity
  8
0
100
AcDbSpline
 62
7
  6
CONTINUOUS
 70
0
 71
3
 72
75
 73
71
 74
0
 42
0.0000001
 43
0.0000001
 44
0.0000000001
 40
0.0
 40
0.0
 40
0.0
 40
0.0
 40
0.0477812952
 40
0.0951099837
 40
0.1415397223
 40
0.1866317855
 40
0.22996172
 40
0.2711231808
 40
0.2907700987
 40
0.30973308
 40
0.3279685311
 40
0.3454348199
 40
0.3620924377
 40
0.3779043203
 40
0.3928359227
 40
0.4068554128
 40
0.4199341253
 40
0.4320468429
 40
0.4431722133
 40
0.4532936378
 40
0.4579745206
 40
0.4624009217
 40
0.4665727021
 40
0.470490411
 40
0.4741552498
 40
0.4775694773
 40
0.4807365739
 40
0.4836614456
 40
0.4863511178
 40
0.4888152517
 40
0.4910669342
 40
0.4931240304
 40
0.4950104302
 40
0.4967574493
 40
0.4984048326
 40
0.5
 40
0.5015951674
 40
0.5032425507
 40
0.5049895698
 40
0.5068759696
 40
0.5089330658
 40
0.5111847483
 40
0.5136488822
 40
0.5163385544
 40
0.5192634261
 40
0.5224305227
 40
0.5258447502
 40
0.529509589
 40
0.5334272979
 40
0.5375990784
 40
0.5420254794
 40
0.5467063622
 40
0.5568277867
 40
0.5679531571
 40
0.5800658747
 40
0.5931445873
 40
0.6071640773
 40
0.6220956797
 40
0.6379075623
 40
0.6545651801
 40
0.672031469
 40
0.69026692
 40
0.7092299013
 40
0.7288768192
 40
0.77003828
 40
0.8133682145
 40
0.8584602778
 40
0.9048900164
 40
0.9522187049
 40
1.0
 40
1.0
 40
1.0
 40
1.0
 10
4.8658773292
 20
4.9246523702
 30
0.0
 10
4.8733214105
 20
4.9246523702
 30
0.0
 10
4.8881392435
 20
4.9245561728
 30
0.0
 10
4.9101867898
 20
4.9241240207
 30
0.0
 10
4.9318078393
 20
4.9234085271
 30
0.0
 10
4.9527943843
 20
4.9224167839
 30
0.0
 10
4.9729443806
 20
4.9211585985
 30
0.0
 10
4.9891190461
 20
4.9198796653
 30
0.0
 10
5.0014933985
 20
4.9187246363
 30
0.0
 10
5.0103027834
 20
4.9178135131
 30
0.0
 10
5.0187643501
 20
4.9168463578
 30
0.0
 10
5.0268577453
 20
4.9158255167
 30
0.0
 10
5.0345635053
 20
4.9147534929
 30
0.0
 10
5.0418631189
 20
4.9136329386
 30
0.0
 10
5.0487390681
 20
4.912466632
 30
0.0
 10
5.05517488
 20
4.9112574635
 30
0.0
 10
5.0611551741
 20
4.9100084642
 30
0.0
 10
5.0666657709
 20
4.9087228136
 30
0.0
 10
5.0716935616
 20
4.9074037161
 30
0.0
 10
5.0755661776
 20
4.9062514391
 30
0.0
 10
5.0784100709
 20
4.9053091324
 30
0.0
 10
5.0803589751
 20
4.9046144659
 30
0.0
 10
5.0821788855
 20
4.9039137686
 30
0.0
 10
5.0838687633
 20
4.9032074684
 30
0.0
 10
5.0854276465
 20
4.9024959622
 30
0.0
 10
5.0868546821
 20
4.9017796678
 30
0.0
 10
5.0881491335
 20
4.9010590037
 30
0.0
 10
5.0893103398
 20
4.9003342902
 30
0.0
 10
5.0903377736
 20
4.8996058395
 30
0.0
 10
5.0912310183
 20
4.8988738678
 30
0.0
 10
5.0919896529
 20
4.8981383648
 30
0.0
 10
5.0926132537
 20
4.8973991807
 30
0.0
 10
5.0931011441
 20
4.8966559435
 30
0.0
 10
5.0934520005
 20
4.8959082369
 30
0.0
 10
5.0936639418
 20
4.8951562968
 30
0.0
 10
5.0937349285
 20
4.8944016007
 30
0.0
 10
5.0936639418
 20
4.8936469046
 30
0.0
 10
5.0934520005
 20
4.8928949645
 30
0.0
 10
5.0931011441
 20
4.8921472579
 30
0.0
 10
5.0926132537
 20
4.8914040208
 30
0.0
 10
5.0919896529
 20
4.8906648366
 30
0.0
 10
5.0912310183
 20
4.8899293336
 30
0.0
 10
5.0903377736
 20
4.8891973619
 30
0.0
 10
5.0893103398
 20
4.8884689112
 30
0.0
 10
5.0881491335
 20
4.8877441977
 30
0.0
 10
5.0868546821
 20
4.8870235336
 30
0.0
 10
5.0854276465
 20
4.8863072393
 30
0.0
 10
5.0838687633
 20
4.8855957331
 30
0.0
 10
5.0821788855
 20
4.8848894329
 30
0.0
 10
5.0803589751
 20
4.8841887355
 30
0.0
 10
5.0784100709
 20
4.883494069
 30
0.0
 10
5.0755661776
 20
4.8825517623
 30
0.0
 10
5.0716935616
 20
4.8813994853
 30
0.0
 10
5.0666657708
 20
4.8800803878
 30
0.0
 10
5.0611551741
 20
4.8787947372
 30
0.0
 10
5.05517488
 20
4.877545738
 30
0.0
 10
5.0487390681
 20
4.8763365694
 30
0.0
 10
5.0418631189
 20
4.8751702628
 30
0.0
 10
5.0345635052
 20
4.8740497086
 30
0.0
 10
5.0268577453
 20
4.8729776848
 30
0.0
 10
5.01876435
 20
4.8719568437
 30
0.0
 10
5.0103027834
 20
4.8709896883
 30
0.0
 10
5.0014933985
 20
4.8700785651
 30
0.0
 10
4.9891190461
 20
4.8689235362
 30
0.0
 10
4.9729443806
 20
4.8676446029
 30
0.0
 10
4.9527943843
 20
4.8663864176
 30
0.0
 10
4.9318078393
 20
4.8653946743
 30
0.0
 10
4.9101867897
 20
4.8646791808
 30
0.0
 10
4.8881392435
 20
4.8642470287
 30
0.0
 10
4.8733214105
 20
4.8641508312
 30
0.0
 10
4.8658773292
 20
4.8641508312
 30
0.0
  0
SPLINE
  5
5F7
100
AcDbEntity
  8
0
100
AcDbSpline
 62
7
  6
CONTINUOUS
 70
0
 71
3
 72
75
 73
71
 74
0
 42
0.0000001
 43
0.0000001
 44
0.0000000001
 40
0.0
 40
0.0
 40
0.0
 40
0.0
 40
0.0477812952
 40
0.0951099837
 40
0.1415397223
 40
0.1866317855
 40
0.22996172
 40
0.2711231808
 40
0.2907700987
 40
0.30973308
 40
0.3279685311
 40
0.3454348199
 40
0.3620924377
 40
0.3779043203
 40
0.3928359227
 40
0.4068554128
 40
0.4199341253
 40
0.4320468429
 40
0.4431722133
 40
0.4532936378
 40
0.4579745206
 40
0.4624009217
 40
0.4665727021
 40
0.470490411
 40
0.4741552498
 40
0.4775694773
 40
0.4807365739
 40
0.4836614456
 40
0.4863511178
 40
0.4888152517
 40
0.4910669342
 40
0.4931240304
 40
0.4950104302
 40
0.4967574493
 40
0.4984048326
 40
0.5
 40
0.5015951674
 40
0.5032425507
 40
0.5049895698
 40
0.5068759696
 40
0.5089330658
 40
0.5111847483
 40
0.5136488822
 40
0.5163385544
 40
0.5192634261
 40
0.5224305227
 40
0.5258447502
 40
0.529509589
 40
0.5334272979
 40
0.5375990784
 40
0.5420254794
 40
0.5467063622
 40
0.5568277867
 40
0.5679531571
 40
0.5800658747
 40
0.5931445873
 40
0.6071640773
 40
0.6220956797
 40
0.6379075623
 40
0.6545651801
 40
0.672031469
 40
0.69026692
 40
0.7092299013
 40
0.7288768192
 40
0.77003828
 40
0.8133682145
 40
0.8584602778
 40
0.9048900164
 40
0.9522187049
 40
1.0
 40
1.0
 40
1.0
 40
1.0
 10
4.8658773292
 20
4.8641508312
 30
0.0
 10
4.8584332479
 20
4.8641508312
 30
0.0
 10
4.8436154149
 20
4.8642470287
 30
0.0
 10
4.8215678686
 20
4.8646791808
 30
0.0
 10
4.7999468191
 20
4.8653946743
 30
0.0
 10
4.7789602741
 20
4.8663864176
 30
0.0
 10
4.7588102778
 20
4.8676446029
 30
0.0
 10
4.7426356122
 20
4.8689235362
 30
0.0
 10
4.7302612599
 20
4.8700785651
 30
0.0
 10
4.7214518749
 20
4.8709896883
 30
0.0
 10
4.7129903083
 20
4.8719568437
 30
0.0
 10
4.704896913
 20
4.8729776848
 30
0.0
 10
4.6971911531
 20
4.8740497086
 30
0.0
 10
4.6898915395
 20
4.8751702628
 30
0.0
 10
4.6830155903
 20
4.8763365694
 30
0.0
 10
4.6765797783
 20
4.877545738
 30
0.0
 10
4.6705994843
 20
4.8787947372
 30
0.0
 10
4.6650888875
 20
4.8800803878
 30
0.0
 10
4.6600610967
 20
4.8813994853
 30
0.0
 10
4.6561884808
 20
4.8825517623
 30
0.0
 10
4.6533445874
 20
4.8834940691
 30
0.0
 10
4.6513956833
 20
4.8841887355
 30
0.0
 10
4.6495757729
 20
4.8848894329
 30
0.0
 10
4.6478858951
 20
4.8855957331
 30
0.0
 10
4.6463270119
 20
4.8863072393
 30
0.0
 10
4.6448999762
 20
4.8870235336
 30
0.0
 10
4.6436055249
 20
4.8877441977
 30
0.0
 10
4.6424443186
 20
4.8884689112
 30
0.0
 10
4.6414168848
 20
4.8891973619
 30
0.0
 10
4.6405236401
 20
4.8899293336
 30
0.0
 10
4.6397650055
 20
4.8906648366
 30
0.0
 10
4.6391414047
 20
4.8914040208
 30
0.0
 10
4.6386535143
 20
4.8921472579
 30
0.0
 10
4.6383026579
 20
4.8928949645
 30
0.0
 10
4.6380907166
 20
4.8936469046
 30
0.0
 10
4.6380197299
 20
4.8944016007
 30
0.0
 10
4.6380907166
 20
4.8951562968
 30
0.0
 10
4.6383026579
 20
4.895908237
 30
0.0
 10
4.6386535143
 20
4.8966559435
 30
0.0
 10
4.6391414047
 20
4.8973991807
 30
0.0
 10
4.6397650055
 20
4.8981383648
 30
0.0
 10
4.6405236401
 20
4.8988738678
 30
0.0
 10
4.6414168848
 20
4.8996058396
 30
0.0
 10
4.6424443186
 20
4.9003342902
 30
0.0
 10
4.6436055249
 20
4.9010590037
 30
0.0
 10
4.6448999762
 20
4.9017796678
 30
0.0
 10
4.6463270119
 20
4.9024959622
 30
0.0
 10
4.6478858951
 20
4.9032074684
 30
0.0
 10
4.6495757729
 20
4.9039137686
 30
0.0
 10
4.6513956833
 20
4.9046144659
 30
0.0
 10
4.6533445874
 20
4.9053091324
 30
0.0
 10
4.6561884808
 20
4.9062514391
 30
0.0
 10
4.6600610968
 20
4.9074037161
 30
0.0
 10
4.6650888875
 20
4.9087228136
 30
0.0
 10
4.6705994843
 20
4.9100084642
 30
0.0
 10
4.6765797784
 20
4.9112574635
 30
0.0
 10
4.6830155903
 20
4.912466632
 30
0.0
 10
4.6898915395
 20
4.9136329386
 30
0.0
 10
4.6971911531
 20
4.9147534929
 30
0.0
 10
4.704896913
 20
4.9158255167
 30
0.0
 10
4.7129903083
 20
4.9168463578
 30
0.0
 10
4.721451875
 20
4.9178135131
 30
0.0
 10
4.7302612599
 20
4.9187246363
 30
0.0
 10
4.7426356123
 20
4.9198796653
 30
0.0
 10
4.7588102778
 20
4.9211585985
 30
0.0
 10
4.7789602741
 20
4.9224167839
 30
0.0
 10
4.7999468191
 20
4.9234085271
 30
0.0
 10
4.8215678686
 20
4.9241240207
 30
0.0
 10
4.8436154149
 20
4.9245561728
 30
0.0
 10
4.8584332479
 20
4.9246523702
 30
0.0
 10
4.8658773292
 20
4.9246523702
 30
0.0
  0
LINE
  5
5F8
100
AcDbEntity
  8
0
100
AcDbLine
 62
7
  6
CONTINUOUS
 10
5.2005471692
 20
5.0453300428
 11
5.193744939
 21
5.0453014369
  0
SPLINE
  5
5F9
100
AcDbEntity
  8
0
100
AcDbSpline
 62
7
  6
CONTINUOUS
 70
0
 71
3
 72
15
 73
11
 74
0
 42
0.0000001
 43
0.0000001
 44
0.0000000001
 40
0.0
 40
0.0
 40
0.0
 40
0.0
 40
0.1260564446
 40
0.2527385524
 40
0.3795254688
 40
0.5059619915
 40
0.6316571982
 40
0.7561872831
 40
0.8791154464
 40
1.0
 40
1.0
 40
1.0
 40
1.0
 10
5.0834072085
 20
4.8849660705
 30
0.0
 10
5.0843866006
 20
4.8727074309
 30
0.0
 10
5.0864484121
 20
4.8481369972
 30
0.0
 10
5.0898814894
 20
4.8112705417
 30
0.0
 10
5.0936910814
 20
4.7744036652
 30
0.0
 10
5.0978969592
 20
4.7376766958
 30
0.0
 10
5.1025109864
 20
4.7012205399
 30
0.0
 10
5.10756061
 20
4.6651674542
 30
0.0
 10
5.1130750862
 20
4.629657243
 30
0.0
 10
5.1171191462
 20
4.6062163454
 30
0.0
 10
5.119235254
 20
4.5946146045
 30
0.0
  0
SPLINE
  5
5FA
100
AcDbEntity
  8
0
100
AcDbSpline
 62
7
  6
CONTINUOUS
 70
0
 71
3
 72
23
 73
19
 74
0
 42
0.0000001
 43
0.0000001
 44
0.0000000001
 40
0.0
 40
0.0
 40
0.0
 40
0.0
 40
0.0724427833
 40
0.1439422953
 40
0.2144098999
 40
0.2837584624
 40
0.3519019022
 40
0.418756657
 40
0.4842386229
 40
0.5482650226
 40
0.6107563532
 40
0.6716359508
 40
0.7308345439
 40
0.7882928972
 40
0.843963297
 40
0.8978143493
 40
0.9498289049
 40
1.0
 40
1.0
 40
1.0
 40
1.0
 10
5.1192353058
 20
4.5946145995
 30
0.0
 10
5.1204287885
 20
4.5880708251
 30
0.0
 10
5.1228709451
 20
4.5750812429
 30
0.0
 10
5.1267368285
 20
4.5557768658
 30
0.0
 10
5.1307892082
 20
4.5368010975
 30
0.0
 10
5.1350344455
 20
4.5181833926
 30
0.0
 10
5.1394794359
 20
4.4999535327
 30
0.0
 10
5.1441307671
 20
4.4821418007
 30
0.0
 10
5.1489954038
 20
4.4647792552
 30
0.0
 10
5.1540803246
 20
4.4478977693
 30
0.0
 10
5.1593926321
 20
4.4315299556
 30
0.0
 10
5.1649407442
 20
4.4157092926
 30
0.0
 10
5.1707328855
 20
4.4004693986
 30
0.0
 10
5.1767767846
 20
4.3858434117
 30
0.0
 10
5.1830805337
 20
4.3718639979
 30
0.0
 10
5.1896510303
 20
4.358562564
 30
0.0
 10
5.1964945589
 20
4.3459710456
 30
0.0
 10
5.2013308412
 20
4.3379261631
 30
0.0
 10
5.2038009954
 20
4.3340376842
 30
0.0
  0
SPLINE
  5
5FB
100
AcDbEntity
  8
0
100
AcDbSpline
 62
7
  6
CONTINUOUS
 70
0
 71
3
 72
16
 73
12
 74
0
 42
0.0000001
 43
0.0000001
 44
0.0000000001
 40
0.0
 40
0.0
 40
0.0
 40
0.0
 40
0.1375891451
 40
0.2710863524
 40
0.4005436975
 40
0.5260974199
 40
0.648048
 40
0.7669692787
 40
0.8838079759
 40
0.9418818462
 40
1.0
 40
1.0
 40
1.0
 40
1.0
 10
5.2201023038
 20
5.0276383313
 30
0.0
 10
5.2180272813
 20
5.0276274827
 30
0.0
 10
5.2139391287
 20
5.027580507
 30
0.0
 10
5.2078986946
 20
5.0275133343
 30
0.0
 10
5.2020389871
 20
5.0275341716
 30
0.0
 10
5.1963557725
 20
5.027727113
 30
0.0
 10
5.1908447484
 20
5.0281742211
 30
0.0
 10
5.1855025773
 20
5.0289583906
 30
0.0
 10
5.1811798548
 20
5.0299653876
 30
0.0
 10
5.1778251867
 20
5.0310174767
 30
0.0
 10
5.176182574
 20
5.0316309575
 30
0.0
 10
5.1753704723
 20
5.0319607434
 30
0.0
  0
SPLINE
  5
5FC
100
AcDbEntity
  8
0
100
AcDbSpline
 62
7
  6
CONTINUOUS
 70
0
 71
3
 72
14
 73
10
 74
0
 42
0.0000001
 43
0.0000001
 44
0.0000000001
 40
0.0
 40
0.0
 40
0.0
 40
0.0
 40
0.2494533285
 40
0.374452925
 40
0.4995635626
 40
0.6247288069
 40
0.7498972263
 40
0.8750103978
 40
1.0
 40
1.0
 40
1.0
 40
1.0
 10
5.2203974038
 20
5.027639874
 30
0.0
 10
5.2259680751
 20
4.9700965932
 30
0.0
 10
5.2314504408
 20
4.8834098057
 30
0.0
 10
5.2334250383
 20
4.7676394373
 30
0.0
 10
5.2323350649
 20
4.6806602741
 30
0.0
 10
5.2287671403
 20
4.593711092
 30
0.0
 10
5.2228176295
 20
4.5068919591
 30
0.0
 10
5.2145829379
 20
4.4203020304
 30
0.0
 10
5.2076287618
 20
4.3627507516
 30
0.0
 10
5.2038009954
 20
4.3340376842
 30
0.0
  0
LINE
  5
5FD
100
AcDbEntity
  8
0
100
AcDbLine
 62
7
  6
CONTINUOUS
 10
5.2852500558
 20
4.2630513753
 11
5.286767812
 21
4.2630524027
  0
SPLINE
  5
5FE
100
AcDbEntity
  8
0
100
AcDbSpline
 62
7
  6
CONTINUOUS
 70
0
 71
3
 72
16
 73
12
 74
0
 42
0.0000001
 43
0.0000001
 44
0.0000000001
 40
0.0
 40
0.0
 40
0.0
 40
0.0
 40
0.1358457486
 40
0.2677299844
 40
0.3960001629
 40
0.5210641395
 40
0.6434022613
 40
0.7635676006
 40
0.8821916347
 40
0.9411543625
 40
1.0
 40
1.0
 40
1.0
 40
1.0
 10
5.2203526201
 20
4.3109716293
 30
0.0
 10
5.222695081
 20
4.3081058693
 30
0.0
 10
5.2274584557
 20
4.3025755572
 30
0.0
 10
5.2349558999
 20
4.2948081434
 30
0.0
 10
5.2426983903
 20
4.2877112665
 30
0.0
 10
5.2506894284
 20
4.2813022468
 30
0.0
 10
5.2589324993
 20
4.2755987371
 30
0.0
 10
5.2674306618
 20
4.2706204002
 30
0.0
 10
5.2747436498
 20
4.2670853204
 30
0.0
 10
5.2807087522
 20
4.2646490448
 30
0.0
 10
5.2837301245
 20
4.2635617539
 30
0.0
 10
5.2852500558
 20
4.2630513753
 30
0.0
  0
SPLINE
  5
5FF
100
AcDbEntity
  8
0
100
AcDbSpline
 62
7
  6
CONTINUOUS
 70
0
 71
3
 72
9
 73
5
 74
0
 42
0.0000001
 43
0.0000001
 44
0.0000000001
 40
0.0
 40
0.0
 40
0.0
 40
0.0
 40
0.5102125389
 40
1.0
 40
1.0
 40
1.0
 40
1.0
 10
5.2038009954
 20
4.3340376842
 30
0.0
 10
5.2063909888
 20
4.3299602553
 30
0.0
 10
5.2116750731
 20
4.3220980526
 30
0.0
 10
5.2174179117
 20
4.3145619186
 30
0.0
 10
5.2203526201
 20
4.3109716293
 30
0.0
  0
SPLINE
  5
600
100
AcDbEntity
  8
0
100
AcDbSpline
 62
7
  6
CONTINUOUS
 70
0
 71
3
 72
15
 73
11
 74
0
 42
0.0000001
 43
0.0000001
 44
0.0000000001
 40
0.0
 40
0.0
 40
0.0
 40
0.0
 40
0.1246698014
 40
0.2495293968
 40
0.3745521771
 40
0.499691169
 40
0.6248832385
 40
0.7500574161
 40
0.8751292435
 40
1.0
 40
1.0
 40
1.0
 40
1.0
 10
5.2926363096
 20
5.0278782415
 30
0.0
 10
5.2966095471
 20
4.9962614922
 30
0.0
 10
5.3033750238
 20
4.9328248818
 30
0.0
 10
5.3101187355
 20
4.8373092959
 30
0.0
 10
5.3136080904
 20
4.7414999054
 30
0.0
 10
5.3139841716
 20
4.6455447145
 30
0.0
 10
5.311387979
 20
4.5495866099
 30
0.0
 10
5.3059612741
 20
4.4537652834
 30
0.0
 10
5.2978460222
 20
4.3582184075
 30
0.0
 10
5.2907298765
 20
4.2947223189
 30
0.0
 10
5.286767812
 20
4.2630524027
 30
0.0
  0
SPLINE
  5
601
100
AcDbEntity
  8
0
100
AcDbSpline
 62
7
  6
CONTINUOUS
 70
0
 71
3
 72
15
 73
11
 74
0
 42
0.0000001
 43
0.0000001
 44
0.0000000001
 40
0.0
 40
0.0
 40
0.0
 40
0.0
 40
0.1246850652
 40
0.2495528144
 40
0.3745784898
 40
0.4997169026
 40
0.6249062328
 40
0.750075458
 40
0.8751397566
 40
1.0
 40
1.0
 40
1.0
 40
1.0
 10
5.296705231
 20
5.0278982085
 30
0.0
 10
5.3007382439
 20
4.9962850612
 30
0.0
 10
5.3076223666
 20
4.9328550963
 30
0.0
 10
5.3145412343
 20
4.8373451585
 30
0.0
 10
5.3182030455
 20
4.7415393922
 30
0.0
 10
5.3187491883
 20
4.6455849995
 30
0.0
 10
5.3163210052
 20
4.5496244891
 30
0.0
 10
5.3110604438
 20
4.4537976756
 30
0.0
 10
5.3031096423
 20
4.3582427578
 30
0.0
 10
5.2961021506
 20
4.2947391501
 30
0.0
 10
5.2921941879
 20
4.2630651854
 30
0.0
  0
SPLINE
  5
602
100
AcDbEntity
  8
0
100
AcDbSpline
 62
7
  6
CONTINUOUS
 70
0
 71
3
 72
9
 73
5
 74
0
 42
0.0000001
 43
0.0000001
 44
0.0000000001
 40
0.0
 40
0.0
 40
0.0
 40
0.0
 40
0.5108094211
 40
1.0
 40
1.0
 40
1.0
 40
1.0
 10
5.1906488171
 20
4.3182129575
 30
0.0
 10
5.1931405808
 20
4.3140694606
 30
0.0
 10
5.1982246294
 20
4.3060792536
 30
0.0
 10
5.2037693297
 20
4.2983989714
 30
0.0
 10
5.2066056625
 20
4.294738951
 30
0.0
  0
SPLINE
  5
603
100
AcDbEntity
  8
0
100
AcDbSpline
 62
7
  6
CONTINUOUS
 70
0
 71
3
 72
14
 73
10
 74
0
 42
0.0000001
 43
0.0000001
 44
0.0000000001
 40
0.0
 40
0.0
 40
0.0
 40
0.0
 40
0.1229683194
 40
0.2466889722
 40
0.3710795975
 40
0.4960545812
 40
0.6215262049
 40
0.7474057537
 40
1.0
 40
1.0
 40
1.0
 40
1.0
 10
5.2066056625
 20
4.294738951
 30
0.0
 10
5.1944677575
 20
4.2910278935
 30
0.0
 10
5.1699837652
 20
4.2840136766
 30
0.0
 10
5.1328123255
 20
4.2747463806
 30
0.0
 10
5.0951429578
 20
4.2667113991
 30
0.0
 10
5.0570461186
 20
4.2599222446
 30
0.0
 10
5.0185901862
 20
4.2543920916
 30
0.0
 10
4.9668788735
 20
4.2487093725
 30
0.0
 10
4.9278441382
 20
4.2463864501
 30
0.0
 10
4.9017806587
 20
4.2457093255
 30
0.0
  0
LINE
  5
604
100
AcDbEntity
  8
0
100
AcDbLine
 62
7
  6
CONTINUOUS
 10
4.8658773292
 20
4.2457012026
 11
4.9017806587
 21
4.2457093255
  0
SPLINE
  5
605
100
AcDbEntity
  8
0
100
AcDbSpline
 62
7
  6
CONTINUOUS
 70
0
 71
3
 72
17
 73
13
 74
0
 42
0.0000001
 43
0.0000001
 44
0.0000000001
 40
0.0
 40
0.0
 40
0.0
 40
0.0
 40
0.1258073892
 40
0.2523465296
 40
0.3157231403
 40
0.3790839647
 40
0.5055413564
 40
0.568537045
 40
0.6313067165
 40
0.755941278
 40
0.8789933753
 40
1.0
 40
1.0
 40
1.0
 40
1.0
 10
5.0702241128
 20
4.8808180164
 30
0.0
 10
5.0713402227
 20
4.8682015222
 30
0.0
 10
5.0736705033
 20
4.8429031308
 30
0.0
 10
5.076849526
 20
4.8112763679
 30
0.0
 10
5.0795751896
 20
4.7859235374
 30
0.0
 10
5.0824230957
 20
4.7605924453
 30
0.0
 10
5.0854572974
 20
4.7353211453
 30
0.0
 10
5.0886871096
 20
4.7101345381
 30
0.0
 10
5.0920341492
 20
4.6851483854
 30
0.0
 10
5.0964610831
 20
4.6542071023
 30
0.0
 10
5.1022129876
 20
4.6175357917
 30
0.0
 10
5.1063906603
 20
4.5933213986
 30
0.0
 10
5.1085669573
 20
4.5813349189
 30
0.0
  0
SPLINE
  5
606
100
AcDbEntity
  8
0
100
AcDbSpline
 62
7
  6
CONTINUOUS
 70
0
 71
3
 72
23
 73
19
 74
0
 42
0.0000001
 43
0.0000001
 44
0.0000000001
 40
0.0
 40
0.0
 40
0.0
 40
0.0
 40
0.0725506251
 40
0.1441588056
 40
0.2147345949
 40
0.2841889805
 40
0.3524326838
 40
0.4193783868
 40
0.4849386774
 40
0.5490275315
 40
0.6115621601
 40
0.6724624797
 40
0.7316539292
 40
0.7890659426
 40
0.8446381758
 40
0.8983310791
 40
0.9501215904
 40
1.0
 40
1.0
 40
1.0
 40
1.0
 10
5.1085669573
 20
4.5813349189
 30
0.0
 10
5.1097633221
 20
4.5747450986
 30
0.0
 10
5.1122042837
 20
4.5616625244
 30
0.0
 10
5.1160473488
 20
4.5422149091
 30
0.0
 10
5.1200562824
 20
4.5230926715
 30
0.0
 10
5.1242374886
 20
4.5043253718
 30
0.0
 10
5.1285968648
 20
4.485942806
 30
0.0
 10
5.1331398423
 20
4.4679752164
 30
0.0
 10
5.1378736717
 20
4.4504538314
 30
0.0
 10
5.1428067586
 20
4.4334108572
 30
0.0
 10
5.147947292
 20
4.4168790692
 30
0.0
 10
5.1533045966
 20
4.4008921051
 30
0.0
 10
5.1588876068
 20
4.3854843107
 30
0.0
 10
5.1647035675
 20
4.37068984
 30
0.0
 10
5.1707599543
 20
4.3565422684
 30
0.0
 10
5.177066181
 20
4.3430745082
 30
0.0
 10
5.1836316813
 20
4.33031931
 30
0.0
 10
5.1882757126
 20
4.3221588671
 30
0.0
 10
5.1906488171
 20
4.3182129575
 30
0.0
  0
SPLINE
  5
607
100
AcDbEntity
  8
0
100
AcDbSpline
 62
7
  6
CONTINUOUS
 70
0
 71
3
 72
27
 73
23
 74
0
 42
0.0000001
 43
0.0000001
 44
0.0000000001
 40
0.0
 40
0.0
 40
0.0
 40
0.0
 40
0.0176245538
 40
0.0363808364
 40
0.0562496522
 40
0.0772141022
 40
0.0992531679
 40
0.1223436083
 40
0.1715857519
 40
0.1976869073
 40
0.2247389968
 40
0.281590107
 40
0.3419177792
 40
0.4054856274
 40
0.4720567941
 40
0.5413779222
 40
0.613194661
 40
0.6872396539
 40
0.7632361223
 40
0.8408976538
 40
0.919922932
 40
1.0
 40
1.0
 40
1.0
 40
1.0
 10
5.2593356402
 20
4.2512674654
 30
0.0
 10
5.2573758055
 20
4.2514529137
 30
0.0
 10
5.2533273981
 20
4.2518055393
 30
0.0
 10
5.2470617842
 20
4.2522724004
 30
0.0
 10
5.240419082
 20
4.2526934107
 30
0.0
 10
5.2334063328
 20
4.2530668281
 30
0.0
 10
5.2260309471
 20
4.2533912865
 30
0.0
 10
5.2154965356
 20
4.2537645199
 30
0.0
 10
5.2045043295
 20
4.2540188566
 30
0.0
 10
5.1930680429
 20
4.254163017
 30
0.0
 10
5.1807811301
 20
4.2542340378
 30
0.0
 10
5.1646708284
 20
4.2541676946
 30
0.0
 10
5.1444842998
 20
4.2538504737
 30
0.0
 10
5.123216682
 20
4.2533041766
 30
0.0
 10
5.1009504313
 20
4.2525489951
 30
0.0
 10
5.0777686168
 20
4.2516224727
 30
0.0
 10
5.05375654
 20
4.2505718677
 30
0.0
 10
5.0290010026
 20
4.2494569589
 30
0.0
 10
5.0035918756
 20
4.2483439057
 30
0.0
 10
4.9776229502
 20
4.2473011629
 30
0.0
 10
4.9511927366
 20
4.2463954872
 30
0.0
 10
4.9334276298
 20
4.2459251953
 30
0.0
 10
4.9244854947
 20
4.2457295909
 30
0.0
  0
LINE
  5
608
100
AcDbEntity
  8
0
100
AcDbLine
 62
7
  6
CONTINUOUS
 10
4.9017806587
 20
4.2457093255
 11
4.9244854947
 21
4.2457295909
  0
SPLINE
  5
609
100
AcDbEntity
  8
0
100
AcDbSpline
 62
7
  6
CONTINUOUS
 70
0
 71
3
 72
14
 73
10
 74
0
 42
0.0000001
 43
0.0000001
 44
0.0000000001
 40
0.0
 40
0.0
 40
0.0
 40
0.0
 40
0.2641155945
 40
0.3917833726
 40
0.5169289716
 40
0.6399163225
 40
0.7611364911
 40
0.881014632
 40
1.0
 40
1.0
 40
1.0
 40
1.0
 10
5.2066056625
 20
4.294738951
 30
0.0
 10
5.2103277342
 20
4.2899380988
 30
0.0
 10
5.216196599
 20
4.2830716643
 30
0.0
 10
5.224650879
 20
4.2747051018
 30
0.0
 10
5.2311405383
 20
4.2689878443
 30
0.0
 10
5.2378492012
 20
4.2637673247
 30
0.0
 10
5.2447772599
 20
4.2590527441
 30
0.0
 10
5.251923322
 20
4.2548546677
 30
0.0
 10
5.25684483
 20
4.252401175
 30
0.0
 10
5.2593356402
 20
4.2512674654
 30
0.0
  0
SPLINE
  5
60A
100
AcDbEntity
  8
0
100
AcDbSpline
 62
7
  6
CONTINUOUS
 70
0
 71
3
 72
9
 73
5
 74
0
 42
0.0000001
 43
0.0000001
 44
0.0000000001
 40
0.0
 40
0.0
 40
0.0
 40
0.0
 40
0.5002313989
 40
1.0
 40
1.0
 40
1.0
 40
1.0
 10
5.0741384537
 20
5.4591603525
 30
0.0
 10
5.0787996014
 20
5.4474646624
 30
0.0
 10
5.0876195551
 20
5.4238817525
 30
0.0
 10
5.0952972842
 20
5.3998993091
 30
0.0
 10
5.0988120977
 20
5.3878217109
 30
0.0
  0
SPLINE
  5
60B
100
AcDbEntity
  8
0
100
AcDbSpline
 62
7
  6
CONTINUOUS
 70
0
 71
3
 72
46
 73
42
 74
0
 42
0.0000001
 43
0.0000001
 44
0.0000000001
 40
0.0
 40
0.0
 40
0.0
 40
0.0
 40
0.0012758067
 40
0.0020553009
 40
0.0029470067
 40
0.0039597478
 40
0.0050995266
 40
0.0063705083
 40
0.0077755503
 40
0.0109949969
 40
0.0147690914
 40
0.0191035655
 40
0.0240005197
 40
0.029460073
 40
0.035481202
 40
0.0420617034
 40
0.0491987375
 40
0.0651284021
 40
0.083237561
 40
0.1034887504
 40
0.1258410395
 40
0.1502472216
 40
0.1766525829
 40
0.2049938456
 40
0.2352015164
 40
0.2672010684
 40
0.3009133348
 40
0.3731550271
 40
0.4512794778
 40
0.5345787225
 40
0.5779267713
 40
0.6222708032
 40
0.667504576
 40
0.7135220514
 40
0.7602172525
 40
0.8074825724
 40
0.855207119
 40
0.9032779383
 40
0.9274085985
 40
0.9515837591
 40
1.0
 40
1.0
 40
1.0
 40
1.0
 10
5.072936623
 20
5.4614727214
 30
0.0
 10
5.0729004022
 20
5.461392238
 30
0.0
 10
5.0728073801
 20
5.4612785898
 30
0.0
 10
5.0726488167
 20
5.4611508456
 30
0.0
 10
5.0724917616
 20
5.4610508824
 30
0.0
 10
5.0723048145
 20
5.4609536218
 30
0.0
 10
5.0720876206
 20
5.4608587843
 30
0.0
 10
5.0718402
 20
5.4607664964
 30
0.0
 10
5.0714519663
 20
5.4606412053
 30
0.0
 10
5.0708892812
 20
5.4604946935
 30
0.0
 10
5.0701213758
 20
5.4603372203
 30
0.0
 10
5.0692332466
 20
5.4601921421
 30
0.0
 10
5.0682254694
 20
5.4600598312
 30
0.0
 10
5.0670986689
 20
5.4599407248
 30
0.0
 10
5.0658536138
 20
5.459835214
 30
0.0
 10
5.0644911385
 20
5.4597436454
 30
0.0
 10
5.0624429188
 20
5.4596367252
 30
0.0
 10
5.0595956377
 20
5.4595448891
 30
0.0
 10
5.0558400642
 20
5.4594977649
 30
0.0
 10
5.0516399379
 20
5.4595112586
 30
0.0
 10
5.0470048016
 20
5.459584698
 30
0.0
 10
5.0419450846
 20
5.4597162794
 30
0.0
 10
5.0364725663
 20
5.4599033123
 30
0.0
 10
5.0306003904
 20
5.4601422632
 30
0.0
 10
5.0243429273
 20
5.4604288198
 30
0.0
 10
5.0177155309
 20
5.4607580676
 30
0.0
 10
5.0081852361
 20
5.4612582917
 30
0.0
 10
4.9954703805
 20
5.4619610894
 30
0.0
 10
4.9793306757
 20
5.46285777
 30
0.0
 10
4.9651845222
 20
5.4636042942
 30
0.0
 10
4.9533694343
 20
5.4641763681
 30
0.0
 10
4.9441830076
 20
5.4645875708
 30
0.0
 10
4.9348102971
 20
5.4649648707
 30
0.0
 10
4.9252733239
 20
5.4653026724
 30
0.0
 10
4.9155943535
 20
5.4655986115
 30
0.0
 10
4.9057959957
 20
5.4658502311
 30
0.0
 10
4.8959013592
 20
5.4660548828
 30
0.0
 10
4.8876060245
 20
5.4661835986
 30
0.0
 10
4.8809392762
 20
5.4662604249
 30
0.0
 10
4.8742484531
 20
5.4663193205
 30
0.0
 10
4.8692266781
 20
5.4663396101
 30
0.0
 10
4.8658773194
 20
5.466339454
 30
0.0
  0
SPLINE
  5
60C
100
AcDbEntity
  8
0
100
AcDbSpline
 62
7
  6
CONTINUOUS
 70
0
 71
3
 72
31
 73
27
 74
0
 42
0.0000001
 43
0.0000001
 44
0.0000000001
 40
0.0
 40
0.0
 40
0.0
 40
0.0
 40
0.0798398664
 40
0.1586847045
 40
0.236229234
 40
0.312171698
 40
0.3862163021
 40
0.4224359556
 40
0.4580728042
 40
0.4930917573
 40
0.5274582051
 40
0.5940983332
 40
0.6263063294
 40
0.6577303296
 40
0.688339692
 40
0.7181045022
 40
0.7469959913
 40
0.7749863179
 40
0.8020488197
 40
0.8281577914
 40
0.8774177037
 40
0.9225836277
 40
0.9435793045
 40
0.9634919102
 40
0.9823045335
 40
1.0
 40
1.0
 40
1.0
 40
1.0
 10
4.8090017155
 20
4.2261288446
 30
0.0
 10
4.8003751865
 20
4.2263331252
 30
0.0
 10
4.783231569
 20
4.2268243165
 30
0.0
 10
4.7577177215
 20
4.2277720258
 30
0.0
 10
4.7326313768
 20
4.2288644223
 30
0.0
 10
4.7080679587
 20
4.2300335907
 30
0.0
 10
4.6879673729
 20
4.2310221981
 30
0.0
 10
4.6722170047
 20
4.2317829245
 30
0.0
 10
4.6606787932
 20
4.2323243849
 30
0.0
 10
4.6493396201
 20
4.2328341453
 30
0.0
 10
4.6346514531
 20
4.2334576979
 30
0.0
 10
4.620263961
 20
4.2340012009
 30
0.0
 10
4.6061911624
 20
4.2344394583
 30
0.0
 10
4.5960091853
 20
4.2347065359
 30
0.0
 10
4.5860899384
 20
4.2349145537
 30
0.0
 10
4.5764433457
 20
4.2350624072
 30
0.0
 10
4.5670790652
 20
4.2351482975
 30
0.0
 10
4.5580064785
 20
4.2351714447
 30
0.0
 10
4.5492346631
 20
4.2351339908
 30
0.0
 10
4.5381647098
 20
4.2350077964
 30
0.0
 10
4.5251402468
 20
4.2347161324
 30
0.0
 10
4.5126744556
 20
4.2342300791
 30
0.0
 10
4.5033847963
 20
4.233734371
 30
0.0
 10
4.4969431572
 20
4.2333246623
 30
0.0
 10
4.4908622199
 20
4.2328691035
 30
0.0
 10
4.4869314055
 20
4.2325247217
 30
0.0
 10
4.4850274943
 20
4.2323437395
 30
0.0
  0
LINE
  5
60D
100
AcDbEntity
  8
0
100
AcDbLine
 62
7
  6
CONTINUOUS
 10
4.4850274943
 20
4.2323437395
 11
4.4662308044
 21
4.2306902815
  0
LINE
  5
60E
100
AcDbEntity
  8
0
100
AcDbLine
 62
7
  6
CONTINUOUS
 10
4.4662308044
 20
4.2306902815
 11
4.4654614992
 21
4.2306816564
  0
LINE
  5
60F
100
AcDbEntity
  8
0
100
AcDbLine
 62
7
  6
CONTINUOUS
 10
4.4637186478
 20
4.2308650458
 11
4.4581811856
 21
4.2310968724
  0
SPLINE
  5
610
100
AcDbEntity
  8
0
100
AcDbSpline
 62
7
  6
CONTINUOUS
 70
0
 71
3
 72
47
 73
43
 74
0
 42
0.0000001
 43
0.0000001
 44
0.0000000001
 40
0.0
 40
0.0
 40
0.0
 40
0.0
 40
0.000774998
 40
0.0016082845
 40
0.0025191639
 40
0.0035224892
 40
0.0046294147
 40
0.0058482688
 40
0.0086442668
 40
0.0119467782
 40
0.0157770204
 40
0.0201484514
 40
0.0250680672
 40
0.0305393718
 40
0.0365640264
 40
0.0431422826
 40
0.0502734749
 40
0.0579562578
 40
0.066188254
 40
0.0842873662
 40
0.1045403793
 40
0.1269069341
 40
0.1513404019
 40
0.177785927
 40
0.2061789048
 40
0.2364483432
 40
0.2685185966
 40
0.3023096476
 40
0.3747115577
 40
0.4529546622
 40
0.5362797379
 40
0.6238593879
 40
0.6689774416
 40
0.7148490987
 40
0.7613728538
 40
0.8084414031
 40
0.8559466015
 40
0.9037805828
 40
0.9277876945
 40
0.9518366328
 40
0.9759120021
 40
1.0
 40
1.0
 40
1.0
 40
1.0
 10
5.061153033
 20
5.4729442939
 30
0.0
 10
5.0611371651
 20
5.4728962157
 30
0.0
 10
5.0610944993
 20
5.4727994765
 30
0.0
 10
5.0610036317
 20
5.4726615429
 30
0.0
 10
5.0608844922
 20
5.472526627
 30
0.0
 10
5.0607372347
 20
5.4723946775
 30
0.0
 10
5.0605618741
 20
5.4722655725
 30
0.0
 10
5.0602772688
 20
5.4720890999
 30
0.0
 10
5.0598464427
 20
5.4718793465
 30
0.0
 10
5.0592392304
 20
5.4716497129
 30
0.0
 10
5.05851928
 20
5.471432444
 30
0.0
 10
5.0576864518
 20
5.4712283006
 30
0.0
 10
5.0567408493
 20
5.4710377132
 30
0.0
 10
5.0556829207
 20
5.4708611607
 30
0.0
 10
5.054513212
 20
5.4706991264
 30
0.0
 10
5.0532323455
 20
5.4705520044
 30
0.0
 10
5.051840986
 20
5.4704201758
 30
0.0
 10
5.0503398608
 20
5.4703040128
 30
0.0
 10
5.048122017
 20
5.4701660645
 30
0.0
 10
5.0450810667
 20
5.4700396379
 30
0.0
 10
5.0411150732
 20
5.4699578014
 30
0.0
 10
5.0367345016
 20
5.4699402121
 30
0.0
 10
5.0319496129
 20
5.4699849344
 30
0.0
 10
5.0267719029
 20
5.4700892611
 30
0.0
 10
5.0212142298
 20
5.4702496809
 30
0.0
 10
5.0152906131
 20
5.4704620492
 30
0.0
 10
5.0090159341
 20
5.4707218436
 30
0.0
 10
4.9999929018
 20
5.4711349159
 30
0.0
 10
4.9879594611
 20
5.4717448088
 30
0.0
 10
4.9726959458
 20
5.4725509606
 30
0.0
 10
4.9564408802
 20
5.4733830993
 30
0.0
 10
4.9423433649
 20
5.4740325472
 30
0.0
 10
4.9306869322
 20
5.4744954222
 30
0.0
 10
4.9217089483
 20
5.474810539
 30
0.0
 10
4.912602256
 20
5.475088559
 30
0.0
 10
4.903387656
 20
5.4753258723
 30
0.0
 10
4.8940864146
 20
5.475519269
 30
0.0
 10
4.8862906718
 20
5.475641071
 30
0.0
 10
4.8800267916
 20
5.4757144305
 30
0.0
 10
4.8753147775
 20
5.475757329
 30
0.0
 10
4.8705973673
 20
5.4757851365
 30
0.0
 10
4.8674509501
 20
5.4757934407
 30
0.0
 10
4.8658773292
 20
5.4757933605
 30
0.0
  0
LINE
  5
611
100
AcDbEntity
  8
0
100
AcDbLine
 62
7
  6
CONTINUOUS
 10
5.2735734722
 20
4.2310968723
 11
5.2680360106
 21
4.2308650458
  0
SPLINE
  5
612
100
AcDbEntity
  8
0
100
AcDbSpline
 62
7
  6
CONTINUOUS
 70
0
 71
3
 72
15
 73
11
 74
0
 42
0.0000001
 43
0.0000001
 44
0.0000000001
 40
0.0
 40
0.0
 40
0.0
 40
0.0
 40
0.1208846551
 40
0.2438129201
 40
0.3683431029
 40
0.494038486
 40
0.620475076
 40
0.7472621362
 40
0.8739447559
 40
1.0
 40
1.0
 40
1.0
 40
1.0
 10
4.6125194047
 20
4.5946146046
 30
0.0
 10
4.6146355279
 20
4.6062164259
 30
0.0
 10
4.6186796113
 20
4.6296574871
 30
0.0
 10
4.6241941192
 20
4.665167945
 30
0.0
 10
4.6292437893
 20
4.7012212859
 30
0.0
 10
4.6338578145
 20
4.7376777019
 30
0.0
 10
4.638063715
 20
4.7744049338
 30
0.0
 10
4.6418733272
 20
4.811272107
 30
0.0
 10
4.6453063322
 20
4.8481387423
 30
0.0
 10
4.6473682923
 20
4.8727092473
 30
0.0
 10
4.6483476583
 20
4.8849678468
 30
0.0
  0
SPLINE
  5
613
100
AcDbEntity
  8
0
100
AcDbSpline
 62
7
  6
CONTINUOUS
 70
0
 71
3
 72
23
 73
19
 74
0
 42
0.0000001
 43
0.0000001
 44
0.0000000001
 40
0.0
 40
0.0
 40
0.0
 40
0.0
 40
0.0501712522
 40
0.1021858733
 40
0.1560368755
 40
0.2117071656
 40
0.269165413
 40
0.3283639327
 40
0.3892435063
 40
0.4517348563
 40
0.5157613054
 40
0.5812433366
 40
0.6480981568
 40
0.7162416476
 40
0.7855902348
 40
0.8560578272
 40
0.9275572919
 40
1.0
 40
1.0
 40
1.0
 40
1.0
 10
4.5279536611
 20
4.3340376811
 30
0.0
 10
4.5304238061
 20
4.3379261829
 30
0.0
 10
4.5352600764
 20
4.3459710958
 30
0.0
 10
4.5421036063
 20
4.3585626312
 30
0.0
 10
4.5486741113
 20
4.371864051
 30
0.0
 10
4.5549778696
 20
4.3858434338
 30
0.0
 10
4.5610217759
 20
4.4004693891
 30
0.0
 10
4.5668139226
 20
4.4157092611
 30
0.0
 10
4.5723620354
 20
4.4315299163
 30
0.0
 10
4.5776743409
 20
4.4478977349
 30
0.0
 10
4.5827592581
 20
4.4647792348
 30
0.0
 10
4.5876238906
 20
4.4821417986
 30
0.0
 10
4.5922752184
 20
4.4999535486
 30
0.0
 10
4.5967202066
 20
4.5181834224
 30
0.0
 10
4.6009654421
 20
4.5368011336
 30
0.0
 10
4.6050178198
 20
4.5557768989
 30
0.0
 10
4.6088837039
 20
4.5750812632
 30
0.0
 10
4.6113258658
 20
4.588070833
 30
0.0
 10
4.6125193528
 20
4.5946145995
 30
0.0
  0
SPLINE
  5
614
100
AcDbEntity
  8
0
100
AcDbSpline
 62
7
  6
CONTINUOUS
 70
0
 71
3
 72
14
 73
10
 74
0
 42
0.0000001
 43
0.0000001
 44
0.0000000001
 40
0.0
 40
0.0
 40
0.0
 40
0.0
 40
0.2494533286
 40
0.3744529251
 40
0.4995635627
 40
0.624728807
 40
0.7498972264
 40
0.8750103979
 40
1.0
 40
1.0
 40
1.0
 40
1.0
 10
4.5113572545
 20
5.027639874
 30
0.0
 10
4.5057865831
 20
4.9700965929
 30
0.0
 10
4.5003042172
 20
4.883409805
 30
0.0
 10
4.4983296194
 20
4.7676394361
 30
0.0
 10
4.4994195925
 20
4.6806602725
 30
0.0
 10
4.5029875168
 20
4.59371109
 30
0.0
 10
4.5089370274
 20
4.5068919567
 30
0.0
 10
4.5171717188
 20
4.4203020277
 30
0.0
 10
4.5241258947
 20
4.3627507486
 30
0.0
 10
4.5279536611
 20
4.3340376811
 30
0.0
  0
SPLINE
  5
615
100
AcDbEntity
  8
0
100
AcDbSpline
 62
7
  6
CONTINUOUS
 70
0
 71
3
 72
16
 73
12
 74
0
 42
0.0000001
 43
0.0000001
 44
0.0000000001
 40
0.0
 40
0.0
 40
0.0
 40
0.0
 40
0.0581178385
 40
0.1161911348
 40
0.2330288505
 40
0.3519500954
 40
0.4739011403
 40
0.5994553524
 40
0.7289130366
 40
0.8624105215
 40
1.0
 40
1.0
 40
1.0
 40
1.0
 10
4.5563839307
 20
5.031960374
 30
0.0
 10
4.5555718362
 20
5.0316306012
 30
0.0
 10
4.5539292358
 20
5.0310171641
 30
0.0
 10
4.5505745846
 20
5.0299652054
 30
0.0
 10
4.5462518783
 20
5.0289584055
 30
0.0
 10
4.5409097509
 20
5.0281743191
 30
0.0
 10
4.5353987609
 20
5.0277271731
 30
0.0
 10
4.5297155738
 20
5.0275341652
 30
0.0
 10
4.5238558955
 20
5.0275133119
 30
0.0
 10
4.5178154951
 20
5.0275804958
 30
0.0
 10
4.5137273657
 20
5.0276274812
 30
0.0
 10
4.5116523546
 20
5.0276383313
 30
0.0
  0
SPLINE
  5
616
100
AcDbEntity
  8
0
100
AcDbSpline
 62
7
  6
CONTINUOUS
 70
0
 71
3
 72
9
 73
5
 74
0
 42
0.0000001
 43
0.0000001
 44
0.0000000001
 40
0.0
 40
0.0
 40
0.0
 40
0.0
 40
0.4897874585
 40
1.0
 40
1.0
 40
1.0
 40
1.0
 10
4.5114020368
 20
4.3109716286
 30
0.0
 10
4.5143367452
 20
4.3145619175
 30
0.0
 10
4.5200795836
 20
4.3220980507
 30
0.0
 10
4.5253636677
 20
4.3299602526
 30
0.0
 10
4.5279536611
 20
4.3340376811
 30
0.0
  0
SPLINE
  5
617
100
AcDbEntity
  8
0
100
AcDbSpline
 62
7
  6
CONTINUOUS
 70
0
 71
3
 72
16
 73
12
 74
0
 42
0.0000001
 43
0.0000001
 44
0.0000000001
 40
0.0
 40
0.0
 40
0.0
 40
0.0
 40
0.0588456396
 40
0.1178083677
 40
0.2364323983
 40
0.356597735
 40
0.4789358582
 40
0.6039998394
 40
0.7322700213
 40
0.8641542553
 40
1.0
 40
1.0
 40
1.0
 40
1.0
 10
4.4465046006
 20
4.2630513753
 30
0.0
 10
4.4480245318
 20
4.2635617545
 30
0.0
 10
4.4510459039
 20
4.2646490459
 30
0.0
 10
4.4570110064
 20
4.2670853213
 30
0.0
 10
4.4643239949
 20
4.2706203995
 30
0.0
 10
4.4728221577
 20
4.2755987358
 30
0.0
 10
4.4810652285
 20
4.2813022457
 30
0.0
 10
4.4890562664
 20
4.2877112662
 30
0.0
 10
4.4967987566
 20
4.2948081435
 30
0.0
 10
4.504296201
 20
4.302575557
 30
0.0
 10
4.5090595759
 20
4.3081058688
 30
0.0
 10
4.5114020368
 20
4.3109716286
 30
0.0
  0
LINE
  5
618
100
AcDbEntity
  8
0
100
AcDbLine
 62
7
  6
CONTINUOUS
 10
4.4449868465
 20
4.2630524027
 11
4.4465046006
 21
4.2630513753
  0
SPLINE
  5
619
100
AcDbEntity
  8
0
100
AcDbSpline
 62
7
  6
CONTINUOUS
 70
0
 71
3
 72
15
 73
11
 74
0
 42
0.0000001
 43
0.0000001
 44
0.0000000001
 40
0.0
 40
0.0
 40
0.0
 40
0.0
 40
0.1246698014
 40
0.2495293968
 40
0.3745521771
 40
0.499691169
 40
0.6248832385
 40
0.7500574161
 40
0.8751292435
 40
1.0
 40
1.0
 40
1.0
 40
1.0
 10
4.4391183488
 20
5.0278782415
 30
0.0
 10
4.4351451113
 20
4.9962614922
 30
0.0
 10
4.4283796346
 20
4.9328248818
 30
0.0
 10
4.4216359229
 20
4.8373092959
 30
0.0
 10
4.418146568
 20
4.7414999054
 30
0.0
 10
4.4177704868
 20
4.6455447145
 30
0.0
 10
4.4203666794
 20
4.5495866099
 30
0.0
 10
4.4257933843
 20
4.4537652834
 30
0.0
 10
4.4339086363
 20
4.3582184075
 30
0.0
 10
4.4410247819
 20
4.2947223189
 30
0.0
 10
4.4449868465
 20
4.2630524027
 30
0.0
  0
SPLINE
  5
61A
100
AcDbEntity
  8
0
100
AcDbSpline
 62
7
  6
CONTINUOUS
 70
0
 71
3
 72
15
 73
11
 74
0
 42
0.0000001
 43
0.0000001
 44
0.0000000001
 40
0.0
 40
0.0
 40
0.0
 40
0.0
 40
0.1246850652
 40
0.2495528144
 40
0.3745784898
 40
0.4997169026
 40
0.6249062328
 40
0.750075458
 40
0.8751397566
 40
1.0
 40
1.0
 40
1.0
 40
1.0
 10
4.4350494271
 20
5.0278982086
 30
0.0
 10
4.4310164142
 20
4.9962850612
 30
0.0
 10
4.4241322916
 20
4.9328550964
 30
0.0
 10
4.4172134238
 20
4.8373451585
 30
0.0
 10
4.4135516126
 20
4.7415393922
 30
0.0
 10
4.4130054699
 20
4.6455849995
 30
0.0
 10
4.4154336529
 20
4.5496244892
 30
0.0
 10
4.4206942143
 20
4.4537976757
 30
0.0
 10
4.4286450158
 20
4.3582427579
 30
0.0
 10
4.4356525075
 20
4.2947391501
 30
0.0
 10
4.4395604702
 20
4.2630651855
 30
0.0
  0
LINE
  5
61B
100
AcDbEntity
  8
0
100
AcDbLine
 62
7
  6
CONTINUOUS
 10
4.8299739945
 20
4.2457093255
 11
4.8658773292
 21
4.2457012026
  0
SPLINE
  5
61C
100
AcDbEntity
  8
0
100
AcDbSpline
 62
7
  6
CONTINUOUS
 70
0
 71
3
 72
14
 73
10
 74
0
 42
0.0000001
 43
0.0000001
 44
0.0000000001
 40
0.0
 40
0.0
 40
0.0
 40
0.0
 40
0.1229683195
 40
0.2466889723
 40
0.3710795976
 40
0.4960545812
 40
0.6215262048
 40
0.7474057536
 40
1.0
 40
1.0
 40
1.0
 40
1.0
 10
4.5251489944
 20
4.2947389502
 30
0.0
 10
4.5372868992
 20
4.2910278928
 30
0.0
 10
4.5617708912
 20
4.284013676
 30
0.0
 10
4.5989423305
 20
4.2747463802
 30
0.0
 10
4.6366116978
 20
4.2667113988
 30
0.0
 10
4.6747085365
 20
4.2599222444
 30
0.0
 10
4.7131644684
 20
4.2543920915
 30
0.0
 10
4.7648757805
 20
4.2487093726
 30
0.0
 10
4.8039105152
 20
4.2463864501
 30
0.0
 10
4.8299739945
 20
4.2457093255
 30
0.0
  0
SPLINE
  5
61D
100
AcDbEntity
  8
0
100
AcDbSpline
 62
7
  6
CONTINUOUS
 70
0
 71
3
 72
9
 73
5
 74
0
 42
0.0000001
 43
0.0000001
 44
0.0000000001
 40
0.0
 40
0.0
 40
0.0
 40
0.0
 40
0.4891905764
 40
1.0
 40
1.0
 40
1.0
 40
1.0
 10
4.5251489944
 20
4.2947389502
 30
0.0
 10
4.5279853271
 20
4.2983989701
 30
0.0
 10
4.5335300273
 20
4.3060792515
 30
0.0
 10
4.5386140758
 20
4.3140694577
 30
0.0
 10
4.5411058394
 20
4.3182129543
 30
0.0
  0
SPLINE
  5
61E
100
AcDbEntity
  8
0
100
AcDbSpline
 62
7
  6
CONTINUOUS
 70
0
 71
3
 72
23
 73
19
 74
0
 42
0.0000001
 43
0.0000001
 44
0.0000000001
 40
0.0
 40
0.0
 40
0.0
 40
0.0
 40
0.0498784173
 40
0.1016688932
 40
0.1553617963
 40
0.2109340424
 40
0.2683460554
 40
0.3275374973
 40
0.3884378129
 40
0.450972444
 40
0.5150613068
 40
0.58062161
 40
0.6475673263
 40
0.7158110417
 40
0.7852654381
 40
0.8558412354
 40
0.9274494099
 40
1.0
 40
1.0
 40
1.0
 40
1.0
 10
4.5411058394
 20
4.3182129543
 30
0.0
 10
4.5434789258
 20
4.3221588755
 30
0.0
 10
4.5481229287
 20
4.3303193311
 30
0.0
 10
4.5546884147
 20
4.3430745333
 30
0.0
 10
4.5609946557
 20
4.356542284
 30
0.0
 10
4.5670510719
 20
4.3706898441
 30
0.0
 10
4.5728670602
 20
4.3854843044
 30
0.0
 10
4.5784500901
 20
4.4008920905
 30
0.0
 10
4.5838074007
 20
4.4168790516
 30
0.0
 10
4.5889479296
 20
4.4334108417
 30
0.0
 10
4.5938810039
 20
4.4504538218
 30
0.0
 10
4.5986148162
 20
4.4679752146
 30
0.0
 10
4.6031577757
 20
4.4859428122
 30
0.0
 10
4.6075171369
 20
4.5043253849
 30
0.0
 10
4.6116983352
 20
4.523092689
 30
0.0
 10
4.6157072725
 20
4.5422149269
 30
0.0
 10
4.6195503514
 20
4.5616625362
 30
0.0
 10
4.6219913281
 20
4.5747451036
 30
0.0
 10
4.6231877015
 20
4.581334919
 30
0.0
  0
SPLINE
  5
61F
100
AcDbEntity
  8
0
100
AcDbSpline
 62
7
  6
CONTINUOUS
 70
0
 71
3
 72
17
 73
13
 74
0
 42
0.0000001
 43
0.0000001
 44
0.0000000001
 40
0.0
 40
0.0
 40
0.0
 40
0.0
 40
0.1210067396
 40
0.2440589765
 40
0.3686936813
 40
0.4314634383
 40
0.4944592089
 40
0.6209164381
 40
0.6842772542
 40
0.7476544317
 40
0.874193973
 40
1.0
 40
1.0
 40
1.0
 40
1.0
 10
4.6231877015
 20
4.581334919
 30
0.0
 10
4.6253639984
 20
4.5933213934
 30
0.0
 10
4.6295416637
 20
4.6175357794
 30
0.0
 10
4.6352935688
 20
4.6542070785
 30
0.0
 10
4.6397205317
 20
4.6851483514
 30
0.0
 10
4.6430675591
 20
4.7101345023
 30
0.0
 10
4.6462973032
 20
4.7353210833
 30
0.0
 10
4.6493315437
 20
4.7605923339
 30
0.0
 10
4.6521795088
 20
4.7859234242
 30
0.0
 10
4.6549050827
 20
4.8112763265
 30
0.0
 10
4.6580840328
 20
4.8429030113
 30
0.0
 10
4.6604145575
 20
4.8682012484
 30
0.0
 10
4.6615305613
 20
4.8808175969
 30
0.0
  0
SPLINE
  5
620
100
AcDbEntity
  8
0
100
AcDbSpline
 62
7
  6
CONTINUOUS
 70
0
 71
3
 72
27
 73
23
 74
0
 42
0.0000001
 43
0.0000001
 44
0.0000000001
 40
0.0
 40
0.0
 40
0.0
 40
0.0
 40
0.080077109
 40
0.1591023805
 40
0.2367639156
 40
0.3127603603
 40
0.3868053873
 40
0.45862208
 40
0.5279432257
 40
0.5945143906
 40
0.6580821985
 40
0.718409899
 40
0.7752609666
 40
0.8023130677
 40
0.8284142439
 40
0.8776563801
 40
0.9007468208
 40
0.9227858898
 40
0.943750336
 40
0.9636191415
 40
0.9823754287
 40
1.0
 40
1.0
 40
1.0
 40
1.0
 10
4.8072687159
 20
4.2457295899
 30
0.0
 10
4.798326588
 20
4.2459251904
 30
0.0
 10
4.7805615019
 20
4.2463955139
 30
0.0
 10
4.7541313188
 20
4.2473011712
 30
0.0
 10
4.7281624315
 20
4.2483439257
 30
0.0
 10
4.7027533363
 20
4.2494569634
 30
0.0
 10
4.6779978368
 20
4.25057189
 30
0.0
 10
4.6539857907
 20
4.2516224759
 30
0.0
 10
4.6308040108
 20
4.252549005
 30
0.0
 10
4.6085377925
 20
4.2533041868
 30
0.0
 10
4.5872702043
 20
4.2538504692
 30
0.0
 10
4.5670837089
 20
4.254167703
 30
0.0
 10
4.5509734289
 20
4.2542340323
 30
0.0
 10
4.5386865337
 20
4.2541630143
 30
0.0
 10
4.5272502595
 20
4.2540188591
 30
0.0
 10
4.5162580666
 20
4.2537645186
 30
0.0
 10
4.5057236696
 20
4.2533912853
 30
0.0
 10
4.4983482937
 20
4.2530668277
 30
0.0
 10
4.4913355551
 20
4.2526934099
 30
0.0
 10
4.4846928631
 20
4.2522723967
 30
0.0
 10
4.4784272562
 20
4.2518055371
 30
0.0
 10
4.4743788515
 20
4.2514529139
 30
0.0
 10
4.4724190175
 20
4.2512674654
 30
0.0
  0
SPLINE
  5
621
100
AcDbEntity
  8
0
100
AcDbSpline
 62
7
  6
CONTINUOUS
 70
0
 71
3
 72
14
 73
10
 74
0
 42
0.0000001
 43
0.0000001
 44
0.0000000001
 40
0.0
 40
0.0
 40
0.0
 40
0.0
 40
0.1189853705
 40
0.2388635154
 40
0.3600836855
 40
0.4830710357
 40
0.6082166328
 40
0.7358844093
 40
1.0
 40
1.0
 40
1.0
 40
1.0
 10
4.4724190175
 20
4.2512674654
 30
0.0
 10
4.4749098277
 20
4.2524011751
 30
0.0
 10
4.4798313358
 20
4.2548546677
 30
0.0
 10
4.486977398
 20
4.259052744
 30
0.0
 10
4.4939054567
 20
4.2637673247
 30
0.0
 10
4.5006141192
 20
4.2689878444
 30
0.0
 10
4.507103778
 20
4.2747051021
 30
0.0
 10
4.5155580575
 20
4.2830716645
 30
0.0
 10
4.5214269225
 20
4.2899380984
 30
0.0
 10
4.5251489944
 20
4.2947389502
 30
0.0
  0
LINE
  5
622
100
AcDbEntity
  8
0
100
AcDbLine
 62
7
  6
CONTINUOUS
 10
4.8072687159
 20
4.2457295899
 11
4.8299739945
 21
4.2457093255
  0
SPLINE
  5
623
100
AcDbEntity
  8
0
100
AcDbSpline
 62
7
  6
CONTINUOUS
 70
0
 71
3
 72
9
 73
5
 74
0
 42
0.0000001
 43
0.0000001
 44
0.0000000001
 40
0.0
 40
0.0
 40
0.0
 40
0.0
 40
0.5002313939
 40
1.0
 40
1.0
 40
1.0
 40
1.0
 10
4.657616206
 20
5.4591603558
 30
0.0
 10
4.6529551685
 20
5.4474649423
 30
0.0
 10
4.6441354113
 20
5.4238825946
 30
0.0
 10
4.6364578214
 20
5.3999007322
 30
0.0
 10
4.6329430604
 20
5.3878234282
 30
0.0
  0
LINE
  5
624
100
AcDbEntity
  8
0
100
AcDbLine
 62
7
  6
CONTINUOUS
 10
5.2655237757
 20
4.2306903132
 11
5.2467271636
 21
4.2323437392
  0
SPLINE
  5
625
100
AcDbEntity
  8
0
100
AcDbSpline
 62
7
  6
CONTINUOUS
 70
0
 71
3
 72
46
 73
42
 74
0
 42
0.0000001
 43
0.0000001
 44
0.0000000001
 40
0.0
 40
0.0
 40
0.0
 40
0.0
 40
0.0484162443
 40
0.0725914066
 40
0.0967220685
 40
0.1447928916
 40
0.1925174415
 40
0.2397827647
 40
0.2864779687
 40
0.3324954458
 40
0.3777292214
 40
0.4220732573
 40
0.4654213083
 40
0.5487205546
 40
0.6268450084
 40
0.6990867034
 40
0.7327989738
 40
0.7647985258
 40
0.7950061901
 40
0.8233474522
 40
0.8497528275
 40
0.8741590186
 40
0.8965112941
 40
0.9167624536
 40
0.9348716166
 40
0.9508013118
 40
0.9579383568
 40
0.9645188641
 40
0.9705399941
 40
0.975999544
 40
0.9808964915
 40
0.9852309568
 40
0.9890050428
 40
0.9922244846
 40
0.9936295259
 40
0.9949005077
 40
0.9960402861
 40
0.9970530253
 40
0.9979447266
 40
0.9987242135
 40
1.0
 40
1.0
 40
1.0
 40
1.0
 10
4.8658773194
 20
5.466339454
 30
0.0
 10
4.8625279609
 20
5.4663396103
 30
0.0
 10
4.8575061863
 20
5.4663193208
 30
0.0
 10
4.8508153637
 20
5.466260425
 30
0.0
 10
4.8441486159
 20
5.4661835985
 30
0.0
 10
4.8358532817
 20
5.4660548824
 30
0.0
 10
4.825958646
 20
5.4658502308
 30
0.0
 10
4.8161602889
 20
5.4655986109
 30
0.0
 10
4.8064813194
 20
5.4653026713
 30
0.0
 10
4.796944347
 20
5.464964871
 30
0.0
 10
4.7875716373
 20
5.4645875712
 30
0.0
 10
4.7783852114
 20
5.4641763663
 30
0.0
 10
4.7665701246
 20
5.4636042927
 30
0.0
 10
4.7524239726
 20
5.4628577706
 30
0.0
 10
4.7362842697
 20
5.4619610892
 30
0.0
 10
4.7235694151
 20
5.4612582934
 30
0.0
 10
4.7140391214
 20
5.4607580665
 30
0.0
 10
4.7074117261
 20
5.4604288187
 30
0.0
 10
4.7011542642
 20
5.4601422669
 30
0.0
 10
4.6952820886
 20
5.4599033184
 30
0.0
 10
4.6898095699
 20
5.4597162771
 30
0.0
 10
4.684749853
 20
5.4595846903
 30
0.0
 10
4.6801147197
 20
5.459511256
 30
0.0
 10
4.6759145966
 20
5.4594977843
 30
0.0
 10
4.6721590235
 20
5.4595449079
 30
0.0
 10
4.6693117391
 20
5.4596367258
 30
0.0
 10
4.667263516
 20
5.4597436375
 30
0.0
 10
4.6659010394
 20
5.4598352026
 30
0.0
 10
4.6646559841
 20
5.4599407125
 30
0.0
 10
4.6635291846
 20
5.4600598209
 30
0.0
 10
4.6625214095
 20
5.4601921365
 30
0.0
 10
4.6616332832
 20
5.460337222
 30
0.0
 10
4.6608653815
 20
5.4604947053
 30
0.0
 10
4.6603026995
 20
5.4606412246
 30
0.0
 10
4.6599144673
 20
5.4607665189
 30
0.0
 10
4.659667047
 20
5.4608588071
 30
0.0
 10
4.6594498525
 20
5.4609536427
 30
0.0
 10
4.6592629041
 20
5.4610508996
 30
0.0
 10
4.6591058473
 20
5.4611508582
 30
0.0
 10
4.6589472817
 20
5.4612785959
 30
0.0
 10
4.658854257
 20
5.4613922399
 30
0.0
 10
4.6588180354
 20
5.4614727214
 30
0.0
  0
SPLINE
  5
626
100
AcDbEntity
  8
0
100
AcDbSpline
 62
7
  6
CONTINUOUS
 70
0
 71
3
 72
31
 73
27
 74
0
 42
0.0000001
 43
0.0000001
 44
0.0000000001
 40
0.0
 40
0.0
 40
0.0
 40
0.0
 40
0.0176954672
 40
0.0365080961
 40
0.0564207057
 40
0.0774163843
 40
0.1225823101
 40
0.1718422227
 40
0.197951194
 40
0.2250136949
 40
0.2530040203
 40
0.2818955077
 40
0.3116603158
 40
0.3422696759
 40
0.3736936734
 40
0.4059016677
 40
0.4725417912
 40
0.5069082352
 40
0.5419271862
 40
0.5775640337
 40
0.613783686
 40
0.6878282871
 40
0.7637707505
 40
0.8413152828
 40
0.9201601254
 40
1.0
 40
1.0
 40
1.0
 40
1.0
 10
5.2467271636
 20
4.2323437392
 30
0.0
 10
5.2448232544
 20
4.2325247202
 30
0.0
 10
5.2408924434
 20
4.2328690975
 30
0.0
 10
5.2348115117
 20
4.2333246534
 30
0.0
 10
5.2283698792
 20
4.2337343695
 30
0.0
 10
5.21908023
 20
4.2342300846
 30
0.0
 10
5.2066144519
 20
4.234716124
 30
0.0
 10
5.1935900036
 20
4.2350077891
 30
0.0
 10
5.1825200631
 20
4.2351340018
 30
0.0
 10
5.1737482578
 20
4.2351714543
 30
0.0
 10
5.1646756819
 20
4.2351482947
 30
0.0
 10
5.1553114126
 20
4.2350623981
 30
0.0
 10
5.1456648314
 20
4.2349145508
 30
0.0
 10
5.1357455959
 20
4.2347065596
 30
0.0
 10
5.1255636306
 20
4.2344394978
 30
0.0
 10
5.1114908508
 20
4.2340011796
 30
0.0
 10
5.097103376
 20
4.2334576888
 30
0.0
 10
5.0824152244
 20
4.2328341893
 30
0.0
 10
5.0710760655
 20
4.2323244158
 30
0.0
 10
5.0595378687
 20
4.2317829308
 30
0.0
 10
5.0437875203
 20
4.2310221754
 30
0.0
 10
5.0236869559
 20
4.2300336082
 30
0.0
 10
4.9991235638
 20
4.2288644827
 30
0.0
 10
4.9740372516
 20
4.2277719741
 30
0.0
 10
4.9485234275
 20
4.2268243624
 30
0.0
 10
4.9313798291
 20
4.2263331443
 30
0.0
 10
4.9227533093
 20
4.2261288508
 30
0.0
  0
SPLINE
  5
627
100
AcDbEntity
  8
0
100
AcDbSpline
 62
7
  6
CONTINUOUS
 70
0
 71
3
 72
32
 73
28
 74
0
 42
0.0000001
 43
0.0000001
 44
0.0000000001
 40
0.0
 40
0.0
 40
0.0
 40
0.0
 40
0.1828933676
 40
0.2758793164
 40
0.3675188152
 40
0.4560343944
 40
0.5396420883
 40
0.6165477593
 40
0.6849893708
 40
0.7155064142
 40
0.7432852631
 40
0.7681514832
 40
0.7899897146
 40
0.8087375286
 40
0.8244175153
 40
0.8372264732
 40
0.8477297916
 40
0.8525014141
 40
0.8572264762
 40
0.8674634488
 40
0.8734441034
 40
0.8801745514
 40
0.8962088464
 40
0.9160329468
 40
0.9398687822
 40
0.9678355184
 40
1.0
 40
1.0
 40
1.0
 40
1.0
 10
4.6587078615
 20
5.4618881155
 30
0.0
 10
4.6585506076
 20
5.4624653631
 30
0.0
 10
4.6583231498
 20
5.4633387276
 30
0.0
 10
4.6580233167
 20
5.4645029641
 30
0.0
 10
4.6577987676
 20
5.4653677954
 30
0.0
 10
4.6575766032
 20
5.4662015369
 30
0.0
 10
4.6573577686
 20
5.4669862563
 30
0.0
 10
4.6571431514
 20
5.4677038587
 30
0.0
 10
4.6569625626
 20
5.4682502394
 30
0.0
 10
4.6568182579
 20
5.4686389524
 30
0.0
 10
4.656715739
 20
5.4688909974
 30
0.0
 10
4.656614818
 20
5.4691128607
 30
0.0
 10
4.6565155506
 20
5.4693027309
 30
0.0
 10
4.6564179804
 20
5.4694590843
 30
0.0
 10
4.6563217439
 20
5.4695806023
 30
0.0
 10
4.6562262859
 20
5.4696664282
 30
0.0
 10
4.6561416789
 20
5.4697075106
 30
0.0
 10
4.6560762086
 20
5.4697156926
 30
0.0
 10
4.6560114449
 20
5.4697087146
 30
0.0
 10
4.6559482957
 20
5.4696768689
 30
0.0
 10
4.6558912677
 20
5.4696279716
 30
0.0
 10
4.6558281185
 20
5.469557939
 30
0.0
 10
4.6557519812
 20
5.4694404399
 30
0.0
 10
4.6556666776
 20
5.469264509
 30
0.0
 10
4.6555825434
 20
5.4690455962
 30
0.0
 10
4.6554994901
 20
5.4687836686
 30
0.0
 10
4.6554484201
 20
5.4685936504
 30
0.0
 10
4.6554227344
 20
5.4684916167
 30
0.0
  0
SPLINE
  5
628
100
AcDbEntity
  8
0
100
AcDbSpline
 62
7
  6
CONTINUOUS
 70
0
 71
3
 72
47
 73
43
 74
0
 42
0.0000001
 43
0.0000001
 44
0.0000000001
 40
0.0
 40
0.0
 40
0.0
 40
0.0
 40
0.0240880148
 40
0.0481633965
 40
0.0722123543
 40
0.0962194645
 40
0.144053433
 40
0.1915585836
 40
0.2386270816
 40
0.2851507863
 40
0.3310224051
 40
0.3761403924
 40
0.4637199287
 40
0.5470449375
 40
0.6252881174
 40
0.6976901026
 40
0.7314811854
 40
0.7635514676
 40
0.7938209249
 40
0.8222139297
 40
0.8486595011
 40
0.8730929877
 40
0.8954595482
 40
0.9157125449
 40
0.9338116823
 40
0.9420437161
 40
0.9497265352
 40
0.9568577579
 40
0.9634360366
 40
0.9694607014
 40
0.974932002
 40
0.9798515982
 40
0.9842229927
 40
0.9880531942
 40
0.99135568
 40
0.9941516793
 40
0.9953705448
 40
0.9964774847
 40
0.9974808239
 40
0.9983917131
 40
0.9992250036
 40
1.0
 40
1.0
 40
1.0
 40
1.0
 10
4.8658773292
 20
5.4757933606
 30
0.0
 10
4.8643037073
 20
5.4757934419
 30
0.0
 10
4.8611572883
 20
5.4757851332
 30
0.0
 10
4.8564398751
 20
5.4757573339
 30
0.0
 10
4.8517278593
 20
5.4757144218
 30
0.0
 10
4.8454639789
 20
5.4756410766
 30
0.0
 10
4.8376682406
 20
5.4755192669
 30
0.0
 10
4.8283670069
 20
5.4753258731
 30
0.0
 10
4.8191524171
 20
5.4750885589
 30
0.0
 10
4.8100457343
 20
5.4748105405
 30
0.0
 10
4.801067761
 20
5.4744954216
 30
0.0
 10
4.7894113429
 20
5.4740325531
 30
0.0
 10
4.7753138446
 20
5.473383101
 30
0.0
 10
4.7590587865
 20
5.4725509654
 30
0.0
 10
4.7437952665
 20
5.4717448112
 30
0.0
 10
4.7317618143
 20
5.4711349214
 30
0.0
 10
4.7227387738
 20
5.4707218436
 30
0.0
 10
4.7164640898
 20
5.4704620514
 30
0.0
 10
4.7105404685
 20
5.4702496831
 30
0.0
 10
4.7049827896
 20
5.4700892636
 30
0.0
 10
4.6998050739
 20
5.4699849333
 30
0.0
 10
4.6950201807
 20
5.4699402122
 30
0.0
 10
4.6906396088
 20
5.4699578029
 30
0.0
 10
4.6866736146
 20
5.4700396387
 30
0.0
 10
4.6836326616
 20
5.47016607
 30
0.0
 10
4.6814148112
 20
5.4703040141
 30
0.0
 10
4.679913679
 20
5.4704201742
 30
0.0
 10
4.6785223135
 20
5.4705520007
 30
0.0
 10
4.6772414428
 20
5.4706991213
 30
0.0
 10
4.6760717321
 20
5.4708611554
 30
0.0
 10
4.6750138046
 20
5.4710377086
 30
0.0
 10
4.6740682064
 20
5.4712282976
 30
0.0
 10
4.6732353856
 20
5.4714324445
 30
0.0
 10
4.6725154436
 20
5.4716497179
 30
0.0
 10
4.6719082372
 20
5.4718793548
 30
0.0
 10
4.6714774127
 20
5.4720891091
 30
0.0
 10
4.6711928044
 20
5.47226558
 30
0.0
 10
4.6710174395
 20
5.4723946836
 30
0.0
 10
4.6708701771
 20
5.4725266313
 30
0.0
 10
4.6707510327
 20
5.4726615453
 30
0.0
 10
4.6706601611
 20
5.4727994772
 30
0.0
 10
4.6706174936
 20
5.4728962159
 30
0.0
 10
4.6706016254
 20
5.4729442939
 30
0.0
  0
LINE
  5
629
100
AcDbEntity
  8
0
100
AcDbLine
 62
7
  6
CONTINUOUS
 10
4.6706016254
 20
5.4729442939
 11
4.6705565055
 21
5.4730692563
  0
SPLINE
  5
62A
100
AcDbEntity
  8
0
100
AcDbSpline
 62
7
  6
CONTINUOUS
 70
0
 71
3
 72
32
 73
28
 74
0
 42
0.0000001
 43
0.0000001
 44
0.0000000001
 40
0.0
 40
0.0
 40
0.0
 40
0.0
 40
0.0799361765
 40
0.1625806629
 40
0.2469528982
 40
0.3321373567
 40
0.4170692675
 40
0.5006141862
 40
0.5816171953
 40
0.6588818336
 40
0.7311262421
 40
0.7970765207
 40
0.8555897839
 40
0.881711599
 40
0.9055572715
 40
0.9269825949
 40
0.9458436753
 40
0.9619986858
 40
0.9753101865
 40
0.9808607343
 40
0.9856658531
 40
0.9897285392
 40
0.9930559828
 40
0.9956642091
 40
0.9975910377
 40
0.9989385472
 40
1.0
 40
1.0
 40
1.0
 40
1.0
 10
4.6704504136
 20
5.4733690223
 30
0.0
 10
4.670363689
 20
5.4736193692
 30
0.0
 10
4.6702002624
 20
5.4741330863
 30
0.0
 10
4.6699840381
 20
5.4749226932
 30
0.0
 10
4.6697908947
 20
5.4757361235
 30
0.0
 10
4.6696199421
 20
5.4765622025
 30
0.0
 10
4.6694695639
 20
5.477389457
 30
0.0
 10
4.6693382067
 20
5.4782058883
 30
0.0
 10
4.6692244132
 20
5.4789992728
 30
0.0
 10
4.6691266725
 20
5.4797570309
 30
0.0
 10
4.6690428078
 20
5.4804662229
 30
0.0
 10
4.6689706428
 20
5.4811141941
 30
0.0
 10
4.6689170648
 20
5.4816104147
 30
0.0
 10
4.668878054
 20
5.481967844
 30
0.0
 10
4.6688517743
 20
5.4822030073
 30
0.0
 10
4.6688270746
 20
5.4824141298
 30
0.0
 10
4.6688037025
 20
5.4825997401
 30
0.0
 10
4.6687813898
 20
5.4827583619
 30
0.0
 10
4.668762581
 20
5.4828729136
 30
0.0
 10
4.668747329
 20
5.4829498688
 30
0.0
 10
4.6687366953
 20
5.4829964654
 30
0.0
 10
4.6687261702
 20
5.4830355138
 30
0.0
 10
4.6687157627
 20
5.4830669797
 30
0.0
 10
4.6687054574
 20
5.4830910277
 30
0.0
 10
4.6686952395
 20
5.4831076146
 30
0.0
 10
4.668684396
 20
5.483117901
 30
0.0
 10
4.6686756339
 20
5.4831185982
 30
0.0
 10
4.6686722825
 20
5.4831175283
 30
0.0
  0
SPLINE
  5
62B
100
AcDbEntity
  8
0
100
AcDbSpline
 62
7
  6
CONTINUOUS
 70
0
 71
3
 72
44
 73
40
 74
0
 42
0.0000001
 43
0.0000001
 44
0.0000000001
 40
0.0
 40
0.0
 40
0.0
 40
0.0
 40
0.0034725818
 40
0.0067893415
 40
0.0100630421
 40
0.0134109579
 40
0.01694275
 40
0.0207519004
 40
0.0249124916
 40
0.0294807659
 40
0.0344984958
 40
0.0399959807
 40
0.0459952992
 40
0.0525123513
 40
0.0595581093
 40
0.0671402439
 40
0.0752636043
 40
0.0839306953
 40
0.0931425491
 40
0.1028985619
 40
0.1131968723
 40
0.1240348348
 40
0.1473130412
 40
0.1726953261
 40
0.2001323151
 40
0.2295658748
 40
0.2609302943
 40
0.2941528984
 40
0.329154706
 40
0.3658511563
 40
0.4041524829
 40
0.4439639435
 40
0.4851864009
 40
0.5277167073
 40
0.6162687846
 40
0.7087265816
 40
0.8041520039
 40
0.9015733994
 40
1.0
 40
1.0
 40
1.0
 40
1.0
 10
4.6339056657
 20
4.8954647075
 30
0.0
 10
4.6337905419
 20
4.895717904
 30
0.0
 10
4.6336033229
 20
4.8962317532
 30
0.0
 10
4.6334680109
 20
4.897031038
 30
0.0
 10
4.6334889871
 20
4.8978318607
 30
0.0
 10
4.6336659799
 20
4.8986303785
 30
0.0
 10
4.6339966631
 20
4.8994243045
 30
0.0
 10
4.6344786044
 20
4.900212997
 30
0.0
 10
4.6351100016
 20
4.9009968993
 30
0.0
 10
4.6358899164
 20
4.901776562
 30
0.0
 10
4.6368178461
 20
4.902552246
 30
0.0
 10
4.6378933216
 20
4.9033240295
 30
0.0
 10
4.639115887
 20
4.9040917096
 30
0.0
 10
4.6404849633
 20
4.9048549431
 30
0.0
 10
4.6419998114
 20
4.9056133733
 30
0.0
 10
4.643659596
 20
4.9063665227
 30
0.0
 10
4.6454633409
 20
4.9071139196
 30
0.0
 10
4.6474099452
 20
4.9078551122
 30
0.0
 10
4.6494982147
 20
4.908589583
 30
0.0
 10
4.6517268348
 20
4.9093168562
 30
0.0
 10
4.6540943907
 20
4.9100364844
 30
0.0
 10
4.6575166521
 20
4.9110083821
 30
0.0
 10
4.6621333217
 20
4.9121937466
 30
0.0
 10
4.6680769222
 20
4.9135470141
 30
0.0
 10
4.674533597
 20
4.9148591614
 30
0.0
 10
4.6814867011
 20
4.9161266617
 30
0.0
 10
4.6889183509
 20
4.9173460656
 30
0.0
 10
4.6968093375
 20
4.9185141037
 30
0.0
 10
4.7051392348
 20
4.9196276636
 30
0.0
 10
4.7138864611
 20
4.9206837811
 30
0.0
 10
4.7230283396
 20
4.9216796506
 30
0.0
 10
4.7325411505
 20
4.9226126428
 30
0.0
 10
4.7424002104
 20
4.9234803207
 30
0.0
 10
4.7561588986
 20
4.9245615669
 30
0.0
 10
4.7740266323
 20
4.9257257979
 30
0.0
 10
4.7961420766
 20
4.9268141028
 30
0.0
 10
4.8189811503
 20
4.9275998524
 30
0.0
 10
4.842306877
 20
4.9280747004
 30
0.0
 10
4.8579937446
 20
4.9281804166
 30
0.0
 10
4.8658773292
 20
4.9281804166
 30
0.0
  0
SPLINE
  5
62C
100
AcDbEntity
  8
0
100
AcDbSpline
 62
7
  6
CONTINUOUS
 70
0
 71
3
 72
21
 73
17
 74
0
 42
0.0000001
 43
0.0000001
 44
0.0000000001
 40
0.0
 40
0.0
 40
0.0
 40
0.0
 40
0.0823762081
 40
0.1622465915
 40
0.3144639174
 40
0.4565692298
 40
0.5237255967
 40
0.5882000209
 40
0.6499194897
 40
0.708809316
 40
0.7647978283
 40
0.8178288539
 40
0.8678690459
 40
0.9149010375
 40
0.9589324222
 40
1.0
 40
1.0
 40
1.0
 40
1.0
 10
5.2269918409
 20
5.0653300432
 30
0.0
 10
5.228276956
 20
5.0653302902
 30
0.0
 10
5.2308083475
 20
5.0652813987
 30
0.0
 10
5.2357076096
 20
5.0650139415
 30
0.0
 10
5.2415195396
 20
5.0644351815
 30
0.0
 10
5.2471020388
 20
5.0636296991
 30
0.0
 10
5.2513156354
 20
5.0629350353
 30
0.0
 10
5.2542876415
 20
5.0624194571
 30
0.0
 10
5.2571310064
 20
5.0619170758
 30
0.0
 10
5.2598450914
 20
5.0614438313
 30
0.0
 10
5.262429526
 20
5.0610163904
 30
0.0
 10
5.2648837417
 20
5.0606490748
 30
0.0
 10
5.267206383
 20
5.0603493673
 30
0.0
 10
5.2693966528
 20
5.0601259118
 30
0.0
 10
5.2714536314
 20
5.0599858138
 30
0.0
 10
5.2727813318
 20
5.0599505602
 30
0.0
 10
5.273422009
 20
5.0599505395
 30
0.0
  0
SPLINE
  5
62D
100
AcDbEntity
  8
0
100
AcDbSpline
 62
7
  6
CONTINUOUS
 70
0
 71
3
 72
53
 73
49
 74
0
 42
0.0000001
 43
0.0000001
 44
0.0000000001
 40
0.0
 40
0.0
 40
0.0
 40
0.0
 40
0.1063526484
 40
0.2113270018
 40
0.3135657269
 40
0.3632450345
 40
0.4117493484
 40
0.4589227557
 40
0.5046140772
 40
0.5486774677
 40
0.5909730046
 40
0.6313673457
 40
0.6697343637
 40
0.7059558082
 40
0.7399220711
 40
0.7715330848
 40
0.800699462
 40
0.8143416363
 40
0.8273448144
 40
0.8397016784
 40
0.8514057865
 40
0.8624522419
 40
0.8728372414
 40
0.882558872
 40
0.8916171403
 40
0.9000143872
 40
0.9077562985
 40
0.9148522258
 40
0.921317118
 40
0.9271729564
 40
0.9324517099
 40
0.9371994133
 40
0.9414810579
 40
0.945387036
 40
0.947237644
 40
0.9490416781
 40
0.950818251
 40
0.9525873732
 40
0.9543693064
 40
0.9561838832
 40
0.9599803199
 40
0.9641119487
 40
0.9686796665
 40
0.9737571094
 40
0.9793965616
 40
0.9856347163
 40
0.9924967394
 40
1.0
 40
1.0
 40
1.0
 40
1.0
 10
4.8658773292
 20
5.0726393898
 30
0.0
 10
4.8559408539
 20
5.0726393898
 30
0.0
 10
4.8361963282
 20
5.0724895967
 30
0.0
 10
4.8069066671
 20
5.0718170475
 30
0.0
 10
4.7829222974
 20
5.0708829627
 30
0.0
 10
4.7642219219
 20
5.0699120026
 30
0.0
 10
4.7506662173
 20
5.0690862336
 30
0.0
 10
4.7374905728
 20
5.0681587991
 30
0.0
 10
4.7247384275
 20
5.0671327779
 30
0.0
 10
4.7124518319
 20
5.0660116143
 30
0.0
 10
4.7006712876
 20
5.0647990704
 30
0.0
 10
4.6894356119
 20
5.0634992305
 30
0.0
 10
4.6787817986
 20
5.0621164903
 30
0.0
 10
4.6687449039
 20
5.0606555385
 30
0.0
 10
4.6593578791
 20
5.059121381
 30
0.0
 10
4.6506515779
 20
5.0575192319
 30
0.0
 10
4.6438436182
 20
5.0561024027
 30
0.0
 10
4.6387619843
 20
5.054932207
 30
0.0
 10
4.6352236713
 20
5.0540604753
 30
0.0
 10
4.6318755189
 20
5.0531757784
 30
0.0
 10
4.6287202568
 20
5.0522788032
 30
0.0
 10
4.625760442
 20
5.0513703598
 30
0.0
 10
4.6229984589
 20
5.0504511759
 30
0.0
 10
4.6204365083
 20
5.0495220474
 30
0.0
 10
4.6180765952
 20
5.0485837626
 30
0.0
 10
4.6159205356
 20
5.0476370568
 30
0.0
 10
4.613969901
 20
5.0466827438
 30
0.0
 10
4.6122260615
 20
5.0457214665
 30
0.0
 10
4.6106901022
 20
5.0447538866
 30
0.0
 10
4.6093628651
 20
5.0437804047
 30
0.0
 10
4.6082450244
 20
5.0428011297
 30
0.0
 10
4.6073371542
 20
5.0418155694
 30
0.0
 10
4.6066405289
 20
5.0408229777
 30
0.0
 10
4.6062309307
 20
5.0399731171
 30
0.0
 10
4.6060202588
 20
5.0392977662
 30
0.0
 10
4.6059190385
 20
5.0387995704
 30
0.0
 10
4.6058720016
 20
5.0383009982
 30
0.0
 10
4.6058791905
 20
5.0378023169
 30
0.0
 10
4.6059406279
 20
5.0373038028
 30
0.0
 10
4.6060969269
 20
5.0366298557
 30
0.0
 10
4.6064380587
 20
5.0357794498
 30
0.0
 10
4.6070565936
 20
5.0347838271
 30
0.0
 10
4.6078870558
 20
5.0337957284
 30
0.0
 10
4.6089278447
 20
5.0328142675
 30
0.0
 10
4.6101782172
 20
5.0318386482
 30
0.0
 10
4.6116375969
 20
5.0308688786
 30
0.0
 10
4.6133051466
 20
5.0299052203
 30
0.0
 10
4.6145011004
 20
5.0292947916
 30
0.0
 10
4.6151320433
 20
5.0289892619
 30
0.0
  0
SPLINE
  5
62E
100
AcDbEntity
  8
0
100
AcDbSpline
 62
7
  6
CONTINUOUS
 70
0
 71
3
 72
43
 73
39
 74
0
 42
0.0000001
 43
0.0000001
 44
0.0000000001
 40
0.0
 40
0.0
 40
0.0
 40
0.0
 40
0.0955625717
 40
0.1902198638
 40
0.2830791209
 40
0.3732631055
 40
0.459922816
 40
0.5016758062
 40
0.5422463652
 40
0.581540131
 40
0.6194660567
 40
0.6559368603
 40
0.6908693532
 40
0.7241845833
 40
0.7558082645
 40
0.7856713679
 40
0.8137103577
 40
0.8398677362
 40
0.8640930585
 40
0.886343799
 40
0.8967182164
 40
0.9065874943
 40
0.9159491838
 40
0.9248019525
 40
0.9331455786
 40
0.9409809045
 40
0.9483105749
 40
0.9551390884
 40
0.9614731823
 40
0.967322943
 40
0.9727023295
 40
0.977630505
 40
0.9821339035
 40
0.9862481148
 40
0.9900208495
 40
0.9935149154
 40
0.9968096796
 40
1.0
 40
1.0
 40
1.0
 40
1.0
 10
4.8658773292
 20
5.0614001745
 30
0.0
 10
4.8577090073
 20
5.0614001745
 30
0.0
 10
4.8414495405
 20
5.0612946182
 30
0.0
 10
4.8172569976
 20
5.0608204196
 30
0.0
 10
4.7935324394
 20
5.0600353266
 30
0.0
 10
4.7705041845
 20
5.0589470502
 30
0.0
 10
4.7518548174
 20
5.0577827195
 30
0.0
 10
4.7374511793
 20
5.0567010711
 30
0.0
 10
4.7270920847
 20
5.0558315046
 30
0.0
 10
4.7170672528
 20
5.0548957198
 30
0.0
 10
4.7074008136
 20
5.0538959741
 30
0.0
 10
4.6981160311
 20
5.0528347175
 30
0.0
 10
4.6892352379
 20
5.0517145577
 30
0.0
 10
4.6807797905
 20
5.0505382446
 30
0.0
 10
4.6727700072
 20
5.0493086697
 30
0.0
 10
4.665225104
 20
5.0480288891
 30
0.0
 10
4.6581631621
 20
5.0467020856
 30
0.0
 10
4.6516010297
 20
5.045331586
 30
0.0
 10
4.6455543893
 20
5.043920804
 30
0.0
 10
4.6408532599
 20
5.042687586
 30
0.0
 10
4.6373640213
 20
5.0416777631
 30
0.0
 10
4.634946252
 20
5.0409301746
 30
0.0
 10
4.6326674425
 20
5.0401750337
 30
0.0
 10
4.6305289317
 20
5.0394127922
 30
0.0
 10
4.6285319583
 20
5.0386439403
 30
0.0
 10
4.6266776799
 20
5.0378689087
 30
0.0
 10
4.6249671357
 20
5.0370881793
 30
0.0
 10
4.6234012553
 20
5.0363022183
 30
0.0
 10
4.6219808801
 20
5.0355114174
 30
0.0
 10
4.6207066998
 20
5.0347162027
 30
0.0
 10
4.6195792928
 20
5.0339169021
 30
0.0
 10
4.6185991687
 20
5.0331136866
 30
0.0
 10
4.6177667176
 20
5.0323066439
 30
0.0
 10
4.6170824267
 20
5.0314955518
 30
0.0
 10
4.6165471131
 20
5.0306799979
 30
0.0
 10
4.6161620909
 20
5.0298595023
 30
0.0
 10
4.615929517
 20
5.029034627
 30
0.0
 10
4.6158773447
 20
5.028479028
 30
0.0
 10
4.6158773447
 20
5.0282063317
 30
0.0
  0
SPLINE
  5
62F
100
AcDbEntity
  8
0
100
AcDbSpline
 62
7
  6
CONTINUOUS
 70
0
 71
3
 72
53
 73
49
 74
0
 42
0.0000001
 43
0.0000001
 44
0.0000000001
 40
0.0
 40
0.0
 40
0.0
 40
0.0
 40
0.0075031541
 40
0.0143650752
 40
0.0206031332
 40
0.0262424951
 40
0.0313198559
 40
0.0358875021
 40
0.0400190727
 40
0.0438154682
 40
0.0456300316
 40
0.0474119567
 40
0.0491810762
 40
0.0509576515
 40
0.052761693
 40
0.0546123128
 40
0.0585183262
 40
0.0628000177
 40
0.0675477757
 40
0.0728265884
 40
0.0786824883
 40
0.0851474428
 40
0.0922434323
 40
0.0999854047
 40
0.1083827112
 40
0.1174410373
 40
0.1271627233
 40
0.1375477757
 40
0.1485942815
 40
0.1602984371
 40
0.1726553459
 40
0.1856585658
 40
0.199300779
 40
0.2284672249
 40
0.2600782952
 40
0.2940446028
 40
0.3302660803
 40
0.3686331198
 40
0.4090274715
 40
0.4513230084
 40
0.4953863892
 40
0.5410776918
 40
0.5882510717
 40
0.6367553505
 40
0.6864346162
 40
0.7886732408
 40
0.8936474777
 40
1.0
 40
1.0
 40
1.0
 40
1.0
 10
5.1166229148
 20
5.0289894071
 30
0.0
 10
5.117253846
 20
5.0292949363
 30
0.0
 10
5.1184497767
 20
5.029905364
 30
0.0
 10
5.1201172916
 20
5.030869021
 30
0.0
 10
5.1215766374
 20
5.0318387892
 30
0.0
 10
5.1228269769
 20
5.032814407
 30
0.0
 10
5.1238677336
 20
5.0337958664
 30
0.0
 10
5.1246981645
 20
5.0347839638
 30
0.0
 10
5.1253166688
 20
5.0357795853
 30
0.0
 10
5.1256577747
 20
5.0366299891
 30
0.0
 10
5.1258140538
 20
5.037303934
 30
0.0
 10
5.1258754768
 20
5.037802447
 30
0.0
 10
5.1258826516
 20
5.0383011271
 30
0.0
 10
5.1258356009
 20
5.0387996981
 30
0.0
 10
5.125734367
 20
5.0392978925
 30
0.0
 10
5.1255236769
 20
5.0399732422
 30
0.0
 10
5.1251140566
 20
5.0408231004
 30
0.0
 10
5.1244174071
 20
5.0418156888
 30
0.0
 10
5.1235095139
 20
5.0428012459
 30
0.0
 10
5.1223916513
 20
5.0437805179
 30
0.0
 10
5.1210643933
 20
5.0447539969
 30
0.0
 10
5.1195284142
 20
5.0457215739
 30
0.0
 10
5.117784556
 20
5.0466828481
 30
0.0
 10
5.1158339038
 20
5.0476371581
 30
0.0
 10
5.1136778277
 20
5.0485838609
 30
0.0
 10
5.1113178993
 20
5.0495221425
 30
0.0
 10
5.1087559344
 20
5.0504512678
 30
0.0
 10
5.1059939384
 20
5.0513704485
 30
0.0
 10
5.1030341117
 20
5.0522788888
 30
0.0
 10
5.0998788389
 20
5.0531758607
 30
0.0
 10
5.0965306769
 20
5.0540605544
 30
0.0
 10
5.0929923555
 20
5.0549322828
 30
0.0
 10
5.0879107125
 20
5.0561024739
 30
0.0
 10
5.0811027444
 20
5.0575192974
 30
0.0
 10
5.0723964366
 20
5.0591214403
 30
0.0
 10
5.0630094096
 20
5.0606555916
 30
0.0
 10
5.0529725168
 20
5.0621165373
 30
0.0
 10
5.0423187095
 20
5.0634992716
 30
0.0
 10
5.0310830437
 20
5.064799106
 30
0.0
 10
5.0193025129
 20
5.0660116446
 30
0.0
 10
5.0070159343
 20
5.0671328032
 30
0.0
 10
4.9942638091
 20
5.0681588199
 30
0.0
 10
4.9810881876
 20
5.0690862501
 30
0.0
 10
4.9675325087
 20
5.0699120153
 30
0.0
 10
4.9488321719
 20
5.0708829709
 30
0.0
 10
4.9248478548
 20
5.0718170514
 30
0.0
 10
4.8955582605
 20
5.0724895974
 30
0.0
 10
4.8758137809
 20
5.0726393898
 30
0.0
 10
4.8658773292
 20
5.0726393898
 30
0.0
  0
SPLINE
  5
630
100
AcDbEntity
  8
0
100
AcDbSpline
 62
7
  6
CONTINUOUS
 70
0
 71
3
 72
23
 73
19
 74
0
 42
0.0000001
 43
0.0000001
 44
0.0000000001
 40
0.0
 40
0.0
 40
0.0
 40
0.0
 40
0.0410654128
 40
0.0850948227
 40
0.1321259867
 40
0.1821683874
 40
0.2352026692
 40
0.2911917072
 40
0.3500786174
 40
0.4117937134
 40
0.4762644165
 40
0.5434186838
 40
0.6131918992
 40
0.6855307895
 40
0.7603922332
 40
0.8377559267
 40
0.9176198684
 40
1.0
 40
1.0
 40
1.0
 40
1.0
 10
4.4583326493
 20
5.0599505395
 30
0.0
 10
4.4589733074
 20
5.0599503783
 30
0.0
 10
4.4603009858
 20
5.0599846007
 30
0.0
 10
4.4623580659
 20
5.0601229451
 30
0.0
 10
4.464548411
 20
5.0603462761
 30
0.0
 10
4.466870958
 20
5.0606477575
 30
0.0
 10
4.4693250303
 20
5.061016997
 30
0.0
 10
4.4719094411
 20
5.0614449931
 30
0.0
 10
4.4746235924
 20
5.0619175989
 30
0.0
 10
4.4774670276
 20
5.0624189844
 30
0.0
 10
4.4804390456
 20
5.0629339114
 30
0.0
 10
4.4835392801
 20
5.0634448466
 30
0.0
 10
4.4867673196
 20
5.0639338556
 30
0.0
 10
4.4901225718
 20
5.0643831599
 30
0.0
 10
4.4936047122
 20
5.0647716423
 30
0.0
 10
4.4972130113
 20
5.0650782128
 30
0.0
 10
4.5009462378
 20
5.0652808496
 30
0.0
 10
4.503477612
 20
5.0653297585
 30
0.0
 10
4.5047628176
 20
5.0653300432
 30
0.0
  0
LINE
  5
631
100
AcDbEntity
  8
0
100
AcDbLine
 62
7
  6
CONTINUOUS
 10
4.9516464679
 20
5.7228300433
 11
4.9616640381
 21
5.7235861346
  0
SPLINE
  5
632
100
AcDbEntity
  8
0
100
AcDbSpline
 62
7
  6
CONTINUOUS
 70
0
 71
3
 72
14
 73
10
 74
0
 42
0.0000001
 43
0.0000001
 44
0.0000000001
 40
0.0
 40
0.0
 40
0.0
 40
0.0
 40
0.1230975512
 40
0.2467686599
 40
0.3710184457
 40
0.4958599839
 40
0.6212588445
 40
0.7471509341
 40
1.0
 40
1.0
 40
1.0
 40
1.0
 10
4.9616640381
 20
5.7235861346
 30
0.0
 10
4.9627126945
 20
5.7261624416
 30
0.0
 10
4.9646924732
 20
5.7313777442
 30
0.0
 10
4.9673118624
 20
5.7393444085
 30
0.0
 10
4.9695915774
 20
5.7474558865
 30
0.0
 10
4.9715307914
 20
5.7556953202
 30
0.0
 10
4.9731330678
 20
5.7640447396
 30
0.0
 10
4.9748265362
 20
5.7753120324
 30
0.0
 10
4.9755971425
 20
5.7838466766
 30
0.0
 10
4.9758973318
 20
5.7895522466
 30
0.0
  0
SPLINE
  5
633
100
AcDbEntity
  8
0
100
AcDbSpline
 62
7
  6
CONTINUOUS
 70
0
 71
3
 72
15
 73
11
 74
0
 42
0.0000001
 43
0.0000001
 44
0.0000000001
 40
0.0
 40
0.0
 40
0.0
 40
0.0
 40
0.2528456868
 40
0.3787352778
 40
0.5041319556
 40
0.6289714292
 40
0.7532194156
 40
0.8151298877
 40
0.8768997906
 40
1.0
 40
1.0
 40
1.0
 40
1.0
 10
4.7558754113
 20
5.7894648454
 30
0.0
 10
4.7561777259
 20
5.7837652486
 30
0.0
 10
4.7569509662
 20
5.7752396895
 30
0.0
 10
4.7586467012
 20
5.7639845802
 30
0.0
 10
4.7602499232
 20
5.7556442414
 30
0.0
 10
4.7621894632
 20
5.7474138702
 30
0.0
 10
4.764091439
 20
5.7406536351
 30
0.0
 10
4.7657828677
 20
5.7353183112
 30
0.0
 10
4.7675828194
 20
5.7300460983
 30
0.0
 10
4.7690646221
 20
5.7261427696
 30
0.0
 10
4.7701125458
 20
5.7235691358
 30
0.0
  0
LINE
  5
634
100
AcDbEntity
  8
0
100
AcDbLine
 62
7
  6
CONTINUOUS
 10
4.7701125458
 20
5.7235691358
 11
4.7799873941
 21
5.7228300433
  0
SPLINE
  5
635
100
AcDbEntity
  8
0
100
AcDbSpline
 62
7
  6
CONTINUOUS
 70
0
 71
3
 72
16
 73
12
 74
0
 42
0.0000001
 43
0.0000001
 44
0.0000000001
 40
0.0
 40
0.0
 40
0.0
 40
0.0
 40
0.2501154903
 40
0.3751844595
 40
0.5002496191
 40
0.5627765197
 40
0.6252967263
 40
0.7503023694
 40
0.8127803378
 40
0.8752320004
 40
1.0
 40
1.0
 40
1.0
 40
1.0
 10
4.6983881155
 20
5.970906815
 30
0.0
 10
4.7054149131
 20
5.9517227409
 30
0.0
 10
4.7159852642
 20
5.9229566663
 30
0.0
 10
4.7301687957
 20
5.8846347198
 30
0.0
 10
4.7390806216
 20
5.8607005448
 30
0.0
 10
4.746244378
 20
5.8415674673
 30
0.0
 10
4.7534321506
 20
5.822448595
 30
0.0
 10
4.7606642817
 20
5.8033506788
 30
0.0
 10
4.7679534817
 20
5.7842805037
 30
0.0
 10
4.775280389
 20
5.7652455923
 30
0.0
 10
4.7808317476
 20
5.7509957288
 30
0.0
 10
4.7845635184
 20
5.7415119504
 30
0.0
  0
SPLINE
  5
636
100
AcDbEntity
  8
0
100
AcDbSpline
 62
7
  6
CONTINUOUS
 70
0
 71
3
 72
15
 73
11
 74
0
 42
0.0000001
 43
0.0000001
 44
0.0000000001
 40
0.0
 40
0.0
 40
0.0
 40
0.0
 40
0.1189825359
 40
0.2403565184
 40
0.3637831608
 40
0.4889342108
 40
0.6154758383
 40
0.7430652019
 40
0.8713563167
 40
1.0
 40
1.0
 40
1.0
 40
1.0
 10
4.6983881155
 20
5.970906815
 30
0.0
 10
4.7048702935
 20
5.9691566769
 30
0.0
 10
4.7180242389
 20
5.9658372339
 30
0.0
 10
4.7380833644
 20
5.961456156
 30
0.0
 10
4.7586171714
 20
5.957667259
 30
0.0
 10
4.7795520263
 20
5.954506886
 30
0.0
 10
4.8008126519
 20
5.9520072596
 30
0.0
 10
4.8223209346
 20
5.9501961751
 30
0.0
 10
4.8439958278
 20
5.9490946834
 30
0.0
 10
4.8584959771
 20
5.9488454991
 30
0.0
 10
4.8657554477
 20
5.9488429205
 30
0.0
  0
SPLINE
  5
637
100
AcDbEntity
  8
0
100
AcDbSpline
 62
7
  6
CONTINUOUS
 70
0
 71
3
 72
14
 73
10
 74
0
 42
0.0000001
 43
0.0000001
 44
0.0000000001
 40
0.0
 40
0.0
 40
0.0
 40
0.0
 40
0.2568854471
 40
0.3844745284
 40
0.511019223
 40
0.636177622
 40
0.75961583
 40
0.8810045011
 40
1.0
 40
1.0
 40
1.0
 40
1.0
 10
4.8657554477
 20
5.9488429205
 30
0.0
 10
4.8802513492
 20
5.9488381231
 30
0.0
 10
4.9019564544
 20
5.9495641256
 30
0.0
 10
4.9306962278
 20
5.9519660952
 30
0.0
 10
4.9519588786
 20
5.9544520101
 30
0.0
 10
4.9728963598
 20
5.9575990931
 30
0.0
 10
4.9934339926
 20
5.9613749931
 30
0.0
 10
5.0134975547
 20
5.9657436501
 30
0.0
 10
5.0266550127
 20
5.9690541679
 30
0.0
 10
5.0331388858
 20
5.9708001904
 30
0.0
  0
SPLINE
  5
638
100
AcDbEntity
  8
0
100
AcDbSpline
 62
7
  6
CONTINUOUS
 70
0
 71
3
 72
16
 73
12
 74
0
 42
0.0000001
 43
0.0000001
 44
0.0000000001
 40
0.0
 40
0.0
 40
0.0
 40
0.0
 40
0.2501165118
 40
0.375185642
 40
0.5002517416
 40
0.5627800408
 40
0.6253022164
 40
0.7503099175
 40
0.8127860684
 40
0.8752342434
 40
1.0
 40
1.0
 40
1.0
 40
1.0
 10
5.0331388858
 20
5.9708001904
 30
0.0
 10
5.0261325315
 20
5.9516259805
 30
0.0
 10
5.0155926865
 20
5.9228747659
 30
0.0
 10
5.0014506417
 20
5.8845722075
 30
0.0
 10
4.9925646606
 20
5.8606500367
 30
0.0
 10
4.9854210377
 20
5.8415265322
 30
0.0
 10
4.9782530527
 20
5.8224172385
 30
0.0
 10
4.9710412154
 20
5.8033289515
 30
0.0
 10
4.9637747443
 20
5.7842678955
 30
0.0
 10
4.9564720097
 20
5.7652418637
 30
0.0
 10
4.9509386336
 20
5.7509986487
 30
0.0
 10
4.9472175059
 20
5.7415196587
 30
0.0
  0
SPLINE
  5
639
100
AcDbEntity
  8
0
100
AcDbSpline
 62
7
  6
CONTINUOUS
 70
0
 71
3
 72
15
 73
11
 74
0
 42
0.0000001
 43
0.0000001
 44
0.0000000001
 40
0.0
 40
0.0
 40
0.0
 40
0.0
 40
0.1297295029
 40
0.2590552278
 40
0.3874849876
 40
0.5145470588
 40
0.639774729
 40
0.7627176379
 40
0.8829342466
 40
1.0
 40
1.0
 40
1.0
 40
1.0
 10
4.8640826635
 20
5.7389530102
 30
0.0
 10
4.8676799083
 20
5.7389476738
 30
0.0
 10
4.8748632963
 20
5.7389697688
 30
0.0
 10
4.885607132
 20
5.7391021283
 30
0.0
 10
4.8962754175
 20
5.7393281833
 30
0.0
 10
4.9068278137
 20
5.7396408352
 30
0.0
 10
4.9172254019
 20
5.7400297832
 30
0.0
 10
4.9274304091
 20
5.7404819368
 30
0.0
 10
4.9374065798
 20
5.7409814837
 30
0.0
 10
4.9439764651
 20
5.7413385373
 30
0.0
 10
4.9472175059
 20
5.7415196587
 30
0.0
  0
SPLINE
  5
63A
100
AcDbEntity
  8
0
100
AcDbSpline
 62
7
  6
CONTINUOUS
 70
0
 71
3
 72
15
 73
11
 74
0
 42
0.0000001
 43
0.0000001
 44
0.0000000001
 40
0.0
 40
0.0
 40
0.0
 40
0.0
 40
0.1172110034
 40
0.2374499738
 40
0.3603322711
 40
0.4854619155
 40
0.6124237678
 40
0.7407917788
 40
0.8701342081
 40
1.0
 40
1.0
 40
1.0
 40
1.0
 10
4.7845635184
 20
5.7415119504
 30
0.0
 10
4.7876675493
 20
5.7413389138
 30
0.0
 10
4.7939562719
 20
5.7409967096
 30
0.0
 10
4.803501548
 20
5.7405170132
 30
0.0
 10
4.813259121
 20
5.7400795582
 30
0.0
 10
4.8231975175
 20
5.7396982113
 30
0.0
 10
4.8332838886
 20
5.7393850912
 30
0.0
 10
4.8434841565
 20
5.7391496312
 30
0.0
 10
4.8537630626
 20
5.7389987337
 30
0.0
 10
4.8606381674
 20
5.7389582349
 30
0.0
 10
4.8640826635
 20
5.7389530102
 30
0.0
  0
SPLINE
  5
63B
100
AcDbEntity
  8
0
100
AcDbSpline
 62
7
  6
CONTINUOUS
 70
0
 71
3
 72
11
 73
7
 74
0
 42
0.0000001
 43
0.0000001
 44
0.0000000001
 40
0.0
 40
0.0
 40
0.0
 40
0.0
 40
0.2106307324
 40
0.4403971118
 40
0.7000475769
 40
1.0
 40
1.0
 40
1.0
 40
1.0
 10
4.9472153693
 20
5.7415207318
 30
0.0
 10
4.9473432322
 20
5.741431081
 30
0.0
 10
4.9475887017
 20
5.7412107042
 30
0.0
 10
4.9478908319
 20
5.7407842054
 30
0.0
 10
4.9481298055
 20
5.7402463739
 30
0.0
 10
4.9482304695
 20
5.7398416788
 30
0.0
 10
4.9482688049
 20
5.7396226243
 30
0.0
  0
SPLINE
  5
63C
100
AcDbEntity
  8
0
100
AcDbSpline
 62
7
  6
CONTINUOUS
 70
0
 71
3
 72
15
 73
11
 74
0
 42
0.0000001
 43
0.0000001
 44
0.0000000001
 40
0.0
 40
0.0
 40
0.0
 40
0.0
 40
0.132111914
 40
0.2619972673
 40
0.3895689114
 40
0.5148918341
 40
0.6381787061
 40
0.759788426
 40
0.8801973864
 40
1.0
 40
1.0
 40
1.0
 40
1.0
 10
4.9482688049
 20
5.7396226243
 30
0.0
 10
4.9490639867
 20
5.7397659396
 30
0.0
 10
4.9506260322
 20
5.7401429177
 30
0.0
 10
4.9528624748
 20
5.740981349
 30
0.0
 10
4.9549394355
 20
5.7420756286
 30
0.0
 10
4.9568229958
 20
5.7434086274
 30
0.0
 10
4.9584826538
 20
5.7449593858
 30
0.0
 10
4.9598911773
 20
5.7467034208
 30
0.0
 10
4.9610252712
 20
5.7486121728
 30
0.0
 10
4.9615866323
 20
5.7499765091
 30
0.0
 10
4.9618152202
 20
5.7506726496
 30
0.0
  0
SPLINE
  5
63D
100
AcDbEntity
  8
0
100
AcDbSpline
 62
7
  6
CONTINUOUS
 70
0
 71
3
 72
26
 73
22
 74
0
 42
0.0000001
 43
0.0000001
 44
0.0000000001
 40
0.0
 40
0.0
 40
0.0
 40
0.0
 40
0.019037944
 40
0.0393136128
 40
0.0608014015
 40
0.0834543364
 40
0.1072199905
 40
0.1320267304
 40
0.1845151357
 40
0.2404751864
 40
0.2994801312
 40
0.3611322193
 40
0.4251446297
 40
0.4912732177
 40
0.5593122737
 40
0.6290780245
 40
0.7004333704
 40
0.7733000627
 40
0.847594554
 40
0.9232021771
 40
1.0
 40
1.0
 40
1.0
 40
1.0
 10
4.9482686998
 20
5.7396229576
 30
0.0
 10
4.9482913051
 20
5.7394907768
 30
0.0
 10
4.9483524563
 20
5.7392201991
 30
0.0
 10
4.9484814541
 20
5.7388114347
 30
0.0
 10
4.9486472948
 20
5.7383887696
 30
0.0
 10
4.9488468586
 20
5.7379538451
 30
0.0
 10
4.9490771409
 20
5.7375079505
 30
0.0
 10
4.9494278939
 20
5.736888351
 30
0.0
 10
4.94993067
 20
5.736095043
 30
0.0
 10
4.9506109592
 20
5.7351310607
 30
0.0
 10
4.9513679144
 20
5.7341434559
 30
0.0
 10
4.9521917573
 20
5.7331365995
 30
0.0
 10
4.9530741163
 20
5.7321134443
 30
0.0
 10
4.954007498
 20
5.7310753259
 30
0.0
 10
4.9549869303
 20
5.7300244426
 30
0.0
 10
4.956008642
 20
5.728962915
 30
0.0
 10
4.9570690334
 20
5.7278916432
 30
0.0
 10
4.9581646608
 20
5.7268105367
 30
0.0
 10
4.959291996
 20
5.7257190227
 30
0.0
 10
4.9604510023
 20
5.7246205302
 30
0.0
 10
4.9612392771
 20
5.7238917366
 30
0.0
 10
4.9616390119
 20
5.7235272659
 30
0.0
  0
SPLINE
  5
63E
100
AcDbEntity
  8
0
100
AcDbSpline
 62
7
  6
CONTINUOUS
 70
0
 71
3
 72
20
 73
16
 74
0
 42
0.0000001
 43
0.0000001
 44
0.0000000001
 40
0.0
 40
0.0
 40
0.0
 40
0.0
 40
0.134266289
 40
0.200951801
 40
0.2672552825
 40
0.3331171274
 40
0.3984758423
 40
0.5273771775
 40
0.6532566436
 40
0.7147667711
 40
0.775116259
 40
0.8340848542
 40
0.8914349595
 40
0.9468628286
 40
1.0
 40
1.0
 40
1.0
 40
1.0
 10
4.9616390119
 20
5.7235272659
 30
0.0
 10
4.9614577571
 20
5.7247215319
 30
0.0
 10
4.9612137135
 20
5.7265133122
 30
0.0
 10
4.960952665
 20
5.7289035987
 30
0.0
 10
4.9607919862
 20
5.7306854634
 30
0.0
 10
4.9606648329
 20
5.7324580565
 30
0.0
 10
4.9605391191
 20
5.7347949924
 30
0.0
 10
4.9604609651
 20
5.7376747911
 30
0.0
 10
4.9604978628
 20
5.7405210929
 30
0.0
 10
4.9606058838
 20
5.7427474882
 30
0.0
 10
4.9607268767
 20
5.7443700415
 30
0.0
 10
4.9608927613
 20
5.7459510456
 30
0.0
 10
4.9611075099
 20
5.7474815863
 30
0.0
 10
4.9613775448
 20
5.7489501136
 30
0.0
 10
4.9616038814
 20
5.7499009629
 30
0.0
 10
4.9617305017
 20
5.7503619441
 30
0.0
  0
SPLINE
  5
63F
100
AcDbEntity
  8
0
100
AcDbSpline
 62
7
  6
CONTINUOUS
 70
0
 71
3
 72
15
 73
11
 74
0
 42
0.0000001
 43
0.0000001
 44
0.0000000001
 40
0.0
 40
0.0
 40
0.0
 40
0.0
 40
0.1186368649
 40
0.2397818502
 40
0.3631016544
 40
0.4882533762
 40
0.6148835559
 40
0.7426309274
 40
0.8711270709
 40
1.0
 40
1.0
 40
1.0
 40
1.0
 10
4.6964346423
 20
5.9895943188
 30
0.0
 10
4.7029765666
 20
5.987846203
 30
0.0
 10
4.7162571869
 20
5.9845282195
 30
0.0
 10
4.7365166184
 20
5.9801449413
 30
0.0
 10
4.7572729486
 20
5.9763500773
 30
0.0
 10
4.7784503511
 20
5.9731790762
 30
0.0
 10
4.7999709396
 20
5.9706704901
 30
0.0
 10
4.8217523072
 20
5.9688496109
 30
0.0
 10
4.8437097542
 20
5.9677446193
 30
0.0
 10
4.8584007484
 20
5.9674949355
 30
0.0
 10
4.8657564547
 20
5.9674921091
 30
0.0
  0
SPLINE
  5
640
100
AcDbEntity
  8
0
100
AcDbSpline
 62
7
  6
CONTINUOUS
 70
0
 71
3
 72
16
 73
12
 74
0
 42
0.0000001
 43
0.0000001
 44
0.0000000001
 40
0.0
 40
0.0
 40
0.0
 40
0.0
 40
0.1244596569
 40
0.2490678485
 40
0.3738187188
 40
0.4987275058
 40
0.623792424
 40
0.749019417
 40
0.8117050715
 40
0.8744368107
 40
1.0
 40
1.0
 40
1.0
 40
1.0
 10
4.6802832307
 20
6.0534764611
 30
0.0
 10
4.6805312472
 20
6.0507430907
 30
0.0
 10
4.681136561
 20
6.0452823594
 30
0.0
 10
4.6823680962
 20
6.0371293219
 30
0.0
 10
4.6839208125
 20
6.0290211298
 30
0.0
 10
4.6857902766
 20
6.0209697521
 30
0.0
 10
4.6879763904
 20
6.0129876273
 30
0.0
 10
4.6900600141
 20
6.0064058965
 30
0.0
 10
4.691877047
 20
6.0011855554
 30
0.0
 10
4.6937942678
 20
5.9959933418
 30
0.0
 10
4.6953465321
 20
5.9921404954
 30
0.0
 10
4.6964346423
 20
5.9895943188
 30
0.0
  0
SPLINE
  5
641
100
AcDbEntity
  8
0
100
AcDbSpline
 62
7
  6
CONTINUOUS
 70
0
 71
3
 72
24
 73
20
 74
0
 42
0.0000001
 43
0.0000001
 44
0.0000000001
 40
0.0
 40
0.0
 40
0.0
 40
0.0
 40
0.0631765999
 40
0.0947658137
 40
0.126350463
 40
0.1894959117
 40
0.2525988686
 40
0.3156415647
 40
0.3786062627
 40
0.4414753449
 40
0.5042307248
 40
0.5668543844
 40
0.6293282646
 40
0.6916345125
 40
0.7537548619
 40
0.815671138
 40
0.8773647416
 40
0.9388142088
 40
1.0
 40
1.0
 40
1.0
 40
1.0
 10
4.8721329396
 20
6.190641063
 30
0.0
 10
4.8683215306
 20
6.1907001142
 30
0.0
 10
4.8626027413
 20
6.1907124175
 30
0.0
 10
4.8549803548
 20
6.1905673755
 30
0.0
 10
4.8473627251
 20
6.1903111968
 30
0.0
 10
4.8378528855
 20
6.1897818807
 30
0.0
 10
4.8264704597
 20
6.1888240346
 30
0.0
 10
4.8151301217
 20
6.1875488983
 30
0.0
 10
4.8038441884
 20
6.1859567681
 30
0.0
 10
4.792624459
 20
6.1840516239
 30
0.0
 10
4.7814825025
 20
6.1818379284
 30
0.0
 10
4.7704297018
 20
6.1793204347
 30
0.0
 10
4.7594772253
 20
6.1765041533
 30
0.0
 10
4.748635814
 20
6.1733952
 30
0.0
 10
4.7379161306
 20
6.1699992313
 30
0.0
 10
4.7273294858
 20
6.1663199648
 30
0.0
 10
4.7168849328
 20
6.1623680354
 30
0.0
 10
4.7065886255
 20
6.1581600006
 30
0.0
 10
4.6998168495
 20
6.1551748378
 30
0.0
 10
4.6964604502
 20
6.1536374424
 30
0.0
  0
SPLINE
  5
642
100
AcDbEntity
  8
0
100
AcDbSpline
 62
7
  6
CONTINUOUS
 70
0
 71
3
 72
18
 73
14
 74
0
 42
0.0000001
 43
0.0000001
 44
0.0000000001
 40
0.0
 40
0.0
 40
0.0
 40
0.0
 40
0.1227111665
 40
0.2463265897
 40
0.3707197887
 40
0.4957651469
 40
0.5584983302
 40
0.6213474193
 40
0.6842969171
 40
0.7473315273
 40
0.8104356642
 40
0.8735940167
 40
1.0
 40
1.0
 40
1.0
 40
1.0
 10
5.0351197984
 20
6.153701456
 30
0.0
 10
5.028859415
 20
6.156565173
 30
0.0
 10
5.0161461789
 20
6.1619999918
 30
0.0
 10
4.9966233931
 20
6.1691954328
 30
0.0
 10
4.9766340603
 20
6.175426109
 30
0.0
 10
4.9596605661
 20
6.1797748776
 30
0.0
 10
4.9459137742
 20
6.1827349244
 30
0.0
 10
4.9355183534
 20
6.1846926468
 30
0.0
 10
4.9250587764
 20
6.1863813097
 30
0.0
 10
4.9145446351
 20
6.1877990669
 30
0.0
 10
4.9039854487
 20
6.1889446625
 30
0.0
 10
4.8898561988
 20
6.1900990724
 30
0.0
 10
4.8792236381
 20
6.1905303998
 30
0.0
 10
4.8721329396
 20
6.190641063
 30
0.0
  0
SPLINE
  5
643
100
AcDbEntity
  8
0
100
AcDbSpline
 62
7
  6
CONTINUOUS
 70
0
 71
3
 72
21
 73
17
 74
0
 42
0.0000001
 43
0.0000001
 44
0.0000000001
 40
0.0
 40
0.0
 40
0.0
 40
0.0
 40
0.1254429306
 40
0.1881061379
 40
0.250724943
 40
0.3133056832
 40
0.3758527597
 40
0.5008350896
 40
0.5632905433
 40
0.625721345
 40
0.6881306854
 40
0.7505224701
 40
0.812901846
 40
0.875273289
 40
0.9376386034
 40
1.0
 40
1.0
 40
1.0
 40
1.0
 10
5.0512161522
 20
6.0525857258
 30
0.0
 10
5.0516261106
 20
6.0568931636
 30
0.0
 10
5.0520377535
 20
6.0633741569
 30
0.0
 10
5.0521751057
 20
6.0720223024
 30
0.0
 10
5.0520720891
 20
6.0785026043
 30
0.0
 10
5.0517626379
 20
6.0849722984
 30
0.0
 10
5.051076022
 20
6.0935730831
 30
0.0
 10
5.0499816048
 20
6.1021330004
 30
0.0
 10
5.0484863949
 20
6.110622094
 30
0.0
 10
5.0471665976
 20
6.1169473899
 30
0.0
 10
5.0456490884
 20
6.1232258436
 30
0.0
 10
5.0439341746
 20
6.1294514676
 30
0.0
 10
5.0420242396
 20
6.1356186505
 30
0.0
 10
5.0399237093
 20
6.1417225779
 30
0.0
 10
5.037634463
 20
6.1477575661
 30
0.0
 10
5.035979693
 20
6.1517297771
 30
0.0
 10
5.0351197984
 20
6.153701456
 30
0.0
  0
SPLINE
  5
644
100
AcDbEntity
  8
0
100
AcDbSpline
 62
7
  6
CONTINUOUS
 70
0
 71
3
 72
16
 73
12
 74
0
 42
0.0000001
 43
0.0000001
 44
0.0000000001
 40
0.0
 40
0.0
 40
0.0
 40
0.0
 40
0.125556796
 40
0.1882847673
 40
0.2509680543
 40
0.3761949335
 40
0.5012610953
 40
0.6261712235
 40
0.7509252225
 40
0.8755369861
 40
1.0
 40
1.0
 40
1.0
 40
1.0
 10
5.0350941119
 20
5.9894948171
 30
0.0
 10
5.0361708456
 20
5.9920100583
 30
0.0
 10
5.0377092478
 20
5.9958151733
 30
0.0
 10
5.0396116143
 20
6.000942734
 30
0.0
 10
5.0414151467
 20
6.006098341
 30
0.0
 10
5.0434848402
 20
6.0125986888
 30
0.0
 10
5.0456626273
 20
6.0204814845
 30
0.0
 10
5.0475318096
 20
6.0284325309
 30
0.0
 10
5.049091428
 20
6.0364399873
 30
0.0
 10
5.0503380831
 20
6.0444921352
 30
0.0
 10
5.0509590079
 20
6.0498857602
 30
0.0
 10
5.0512161522
 20
6.0525857258
 30
0.0
  0
SPLINE
  5
645
100
AcDbEntity
  8
0
100
AcDbSpline
 62
7
  6
CONTINUOUS
 70
0
 71
3
 72
14
 73
10
 74
0
 42
0.0000001
 43
0.0000001
 44
0.0000000001
 40
0.0
 40
0.0
 40
0.0
 40
0.0
 40
0.1288621869
 40
0.2573518049
 40
0.5116948271
 40
0.636852642
 40
0.760182843
 40
0.8813426254
 40
1.0
 40
1.0
 40
1.0
 40
1.0
 10
4.8657564547
 20
5.9674921091
 30
0.0
 10
4.8731114543
 20
5.9674895949
 30
0.0
 10
4.8878017102
 20
5.9677288761
 30
0.0
 10
4.9169750671
 20
5.9691817217
 30
0.0
 10
4.9458522854
 20
5.9720498806
 30
0.0
 10
4.974242246
 20
5.9762810625
 30
0.0
 10
4.9950026312
 20
5.9800632947
 30
0.0
 10
5.0152678071
 20
5.9844313969
 30
0.0
 10
5.0285499826
 20
5.9877507582
 30
0.0
 10
5.0350941119
 20
5.9894948171
 30
0.0
  0
SPLINE
  5
646
100
AcDbEntity
  8
0
100
AcDbSpline
 62
7
  6
CONTINUOUS
 70
0
 71
3
 72
37
 73
33
 74
0
 42
0.0000001
 43
0.0000001
 44
0.0000000001
 40
0.0
 40
0.0
 40
0.0
 40
0.0
 40
0.0327387557
 40
0.0654743579
 40
0.0981987296
 40
0.1308993398
 40
0.1472363868
 40
0.1635624818
 40
0.1961780087
 40
0.2287387534
 40
0.2612370437
 40
0.2936648036
 40
0.3260136952
 40
0.3582748844
 40
0.3904393709
 40
0.4544422886
 40
0.5179515802
 40
0.5808982193
 40
0.6432129496
 40
0.6741113131
 40
0.704825212
 40
0.7353458678
 40
0.7656648772
 40
0.7957745368
 40
0.8256672344
 40
0.8553356066
 40
0.8700835252
 40
0.8847726842
 40
0.9139686698
 40
0.9429109592
 40
0.9715893317
 40
1.0
 40
1.0
 40
1.0
 40
1.0
 10
4.8658773292
 20
5.7216637676
 30
0.0
 10
4.8668130895
 20
5.7216887498
 30
0.0
 10
4.8686850208
 20
5.7217206143
 30
0.0
 10
4.8714928284
 20
5.7217300268
 30
0.0
 10
4.8742994989
 20
5.7217169664
 30
0.0
 10
4.8766372485
 20
5.721700626
 30
0.0
 10
4.8785061666
 20
5.7216921932
 30
0.0
 10
4.8803726697
 20
5.7216896663
 30
0.0
 10
4.8827030537
 20
5.7216966105
 30
0.0
 10
4.8854957785
 20
5.7217167087
 30
0.0
 10
4.8882830673
 20
5.7217442738
 30
0.0
 10
4.8910642626
 20
5.7217750756
 30
0.0
 10
4.8938386932
 20
5.7218045021
 30
0.0
 10
4.8966056026
 20
5.7218332655
 30
0.0
 10
4.9002775321
 20
5.721872275
 30
0.0
 10
4.9048428346
 20
5.7219255188
 30
0.0
 10
4.910288035
 20
5.7220037873
 30
0.0
 10
4.9156848346
 20
5.7220899629
 30
0.0
 10
4.9201492815
 20
5.7221633466
 30
0.0
 10
4.923692141
 20
5.7222266106
 30
0.0
 10
4.9263259936
 20
5.7222773906
 30
0.0
 10
4.9289431827
 20
5.7223329028
 30
0.0
 10
4.9315429742
 20
5.7223935759
 30
0.0
 10
4.9341248013
 20
5.7224544017
 30
0.0
 10
4.9366881209
 20
5.7225108849
 30
0.0
 10
4.9388124614
 20
5.7225506136
 30
0.0
 10
4.9405022726
 20
5.7225755031
 30
0.0
 10
4.9421786419
 20
5.7225953495
 30
0.0
 10
4.9442608757
 20
5.7226164319
 30
0.0
 10
4.9467429781
 20
5.7226520103
 30
0.0
 10
4.9492021389
 20
5.7227142392
 30
0.0
 10
4.9508331079
 20
5.7227847479
 30
0.0
 10
4.9516441855
 20
5.7228300433
 30
0.0
  0
SPLINE
  5
647
100
AcDbEntity
  8
0
100
AcDbSpline
 62
7
  6
CONTINUOUS
 70
0
 71
3
 72
37
 73
33
 74
0
 42
0.0000001
 43
0.0000001
 44
0.0000000001
 40
0.0
 40
0.0
 40
0.0
 40
0.0
 40
0.0327699847
 40
0.0655312946
 40
0.0982764176
 40
0.1309933639
 40
0.1473370875
 40
0.1636689461
 40
0.1962933968
 40
0.2288597807
 40
0.2613606512
 40
0.2937881598
 40
0.326134208
 40
0.3583902538
 40
0.3905476043
 40
0.4545315012
 40
0.5180174366
 40
0.5809386867
 40
0.6432282966
 40
0.6741149333
 40
0.7048180545
 40
0.7353291768
 40
0.7656401849
 40
0.7957436474
 40
0.8256322243
 40
0.8552988327
 40
0.8700468449
 40
0.8847367984
 40
0.9139366131
 40
0.9428859362
 40
0.9715748513
 40
1.0
 40
1.0
 40
1.0
 40
1.0
 10
4.8642126291
 20
5.7216642098
 30
0.0
 10
4.8632928555
 20
5.7216893149
 30
0.0
 10
4.8614530479
 20
5.721721704
 30
0.0
 10
4.8586936187
 20
5.7217324678
 30
0.0
 10
4.8559357127
 20
5.7217210583
 30
0.0
 10
4.853638818
 20
5.7217061263
 30
0.0
 10
4.8518027381
 20
5.7216987106
 30
0.0
 10
4.8499692405
 20
5.7216970821
 30
0.0
 10
4.8476802477
 20
5.7217049452
 30
0.0
 10
4.8449373336
 20
5.7217258909
 30
0.0
 10
4.8422000179
 20
5.7217541161
 30
0.0
 10
4.8394689248
 20
5.7217854585
 30
0.0
 10
4.8367446901
 20
5.7218153778
 30
0.0
 10
4.8340280337
 20
5.7218445732
 30
0.0
 10
4.8304231087
 20
5.7218840534
 30
0.0
 10
4.8259414104
 20
5.7219376463
 30
0.0
 10
4.8205961734
 20
5.7220158529
 30
0.0
 10
4.8152986349
 20
5.7221015575
 30
0.0
 10
4.8109163286
 20
5.7221742538
 30
0.0
 10
4.8074386028
 20
5.722236775
 30
0.0
 10
4.8048530774
 20
5.7222869009
 30
0.0
 10
4.802283811
 20
5.7223416534
 30
0.0
 10
4.7997315008
 20
5.7224014676
 30
0.0
 10
4.7971966783
 20
5.722461383
 30
0.0
 10
4.7946798527
 20
5.7225169456
 30
0.0
 10
4.7925939228
 20
5.7225559313
 30
0.0
 10
4.7909345596
 20
5.7225802658
 30
0.0
 10
4.7892882388
 20
5.7225995867
 30
0.0
 10
4.7872431656
 20
5.7226200185
 30
0.0
 10
4.7848051484
 20
5.7226547047
 30
0.0
 10
4.7823893631
 20
5.7227158108
 30
0.0
 10
4.7807870655
 20
5.7227853269
 30
0.0
 10
4.7799901974
 20
5.7228300433
 30
0.0
  0
SPLINE
  5
648
100
AcDbEntity
  8
0
100
AcDbSpline
 62
7
  6
CONTINUOUS
 70
0
 71
3
 72
11
 73
7
 74
0
 42
0.0000001
 43
0.0000001
 44
0.0000000001
 40
0.0
 40
0.0
 40
0.0
 40
0.0
 40
0.299960346
 40
0.5596380364
 40
0.789469263
 40
1.0
 40
1.0
 40
1.0
 40
1.0
 10
4.7835091516
 20
5.7396166493
 30
0.0
 10
4.7835470757
 20
5.7398353993
 30
0.0
 10
4.7836469138
 20
5.7402396387
 30
0.0
 10
4.7838857417
 20
5.7407765763
 30
0.0
 10
4.7841872885
 20
5.7412023094
 30
0.0
 10
4.7844318052
 20
5.7414228288
 30
0.0
 10
4.7845592255
 20
5.7415125211
 30
0.0
  0
SPLINE
  5
649
100
AcDbEntity
  8
0
100
AcDbSpline
 62
7
  6
CONTINUOUS
 70
0
 71
3
 72
15
 73
11
 74
0
 42
0.0000001
 43
0.0000001
 44
0.0000000001
 40
0.0
 40
0.0
 40
0.0
 40
0.0
 40
0.1262444248
 40
0.2521010085
 40
0.3775548272
 40
0.5026115567
 40
0.6273096076
 40
0.7517131792
 40
0.8759023718
 40
1.0
 40
1.0
 40
1.0
 40
1.0
 10
4.7845582967
 20
5.7415124851
 30
0.0
 10
4.7836794837
 20
5.7416324963
 30
0.0
 10
4.7819381637
 20
5.7419885919
 30
0.0
 10
4.7794257317
 20
5.742862687
 30
0.0
 10
4.7770593519
 20
5.7440606701
 30
0.0
 10
4.7748821479
 20
5.7455611397
 30
0.0
 10
4.7729331217
 20
5.7473371828
 30
0.0
 10
4.7712474131
 20
5.7493571437
 30
0.0
 10
4.769855435
 20
5.751584187
 30
0.0
 10
4.7691394994
 20
5.7531820361
 30
0.0
 10
4.7688383937
 20
5.7540002791
 30
0.0
  0
SPLINE
  5
64A
100
AcDbEntity
  8
0
100
AcDbSpline
 62
7
  6
CONTINUOUS
 70
0
 71
3
 72
22
 73
18
 74
0
 42
0.0000001
 43
0.0000001
 44
0.0000000001
 40
0.0
 40
0.0
 40
0.0
 40
0.0
 40
0.1524334183
 40
0.2267141436
 40
0.2995868931
 40
0.4407284177
 40
0.5748962776
 40
0.6389189742
 40
0.7005734403
 40
0.7595697847
 40
0.8155332916
 40
0.8680344983
 40
0.9165816866
 40
0.9392225639
 40
0.9607004426
 40
0.9809688633
 40
1.0
 40
1.0
 40
1.0
 40
1.0
 10
4.770136941
 20
5.7235155767
 30
0.0
 10
4.7709278638
 20
5.7242420894
 30
0.0
 10
4.7720935876
 20
5.7253342833
 30
0.0
 10
4.7736116792
 20
5.7268007805
 30
0.0
 10
4.7750578282
 20
5.7282270961
 30
0.0
 10
4.776773541
 20
5.7299807641
 30
0.0
 10
4.778391573
 20
5.7317415776
 30
0.0
 10
4.7795865999
 20
5.7331286574
 30
0.0
 10
4.7804101065
 20
5.7341362103
 30
0.0
 10
4.7811669894
 20
5.7351241705
 30
0.0
 10
4.7818477956
 20
5.7360882332
 30
0.0
 10
4.7824407609
 20
5.737022707
 30
0.0
 10
4.7828583026
 20
5.7377888056
 30
0.0
 10
4.7831295776
 20
5.7383829333
 30
0.0
 10
4.783295013
 20
5.7388056331
 30
0.0
 10
4.7834243479
 20
5.7392141966
 30
0.0
 10
4.7834861372
 20
5.7394845766
 30
0.0
 10
4.7835091574
 20
5.7396166677
 30
0.0
  0
SPLINE
  5
64B
100
AcDbEntity
  8
0
100
AcDbSpline
 62
7
  6
CONTINUOUS
 70
0
 71
3
 72
21
 73
17
 74
0
 42
0.0000001
 43
0.0000001
 44
0.0000000001
 40
0.0
 40
0.0
 40
0.0
 40
0.0
 40
0.1921765202
 40
0.3670283508
 40
0.4473121815
 40
0.5225524418
 40
0.5925760523
 40
0.6572668034
 40
0.7165642238
 40
0.7704860037
 40
0.819144897
 40
0.8627901264
 40
0.9018545518
 40
0.9370219465
 40
0.969293022
 40
1.0
 40
1.0
 40
1.0
 40
1.0
 10
4.6964448261
 20
6.1536166421
 30
0.0
 10
4.6962762851
 20
6.1542547933
 30
0.0
 10
4.6959800508
 20
6.1554805709
 30
0.0
 10
4.6956963378
 20
6.1569914104
 30
0.0
 10
4.6955420918
 20
6.1581157676
 30
0.0
 10
4.6954648127
 20
6.1588867475
 30
0.0
 10
4.6954228592
 20
6.1596068578
 30
0.0
 10
4.695416336
 20
6.1602734659
 30
0.0
 10
4.6954452799
 20
6.1608842074
 30
0.0
 10
4.6955095591
 20
6.1614369762
 30
0.0
 10
4.6956090409
 20
6.1619299612
 30
0.0
 10
4.6957435863
 20
6.1623616523
 30
0.0
 10
4.6959132204
 20
6.162730763
 30
0.0
 10
4.6961183984
 20
6.1630359648
 30
0.0
 10
4.6963594085
 20
6.1632751393
 30
0.0
 10
4.6965457316
 20
6.1633896515
 30
0.0
 10
4.696641612
 20
6.1634335774
 30
0.0
  0
SPLINE
  5
64C
100
AcDbEntity
  8
0
100
AcDbSpline
 62
7
  6
CONTINUOUS
 70
0
 71
3
 72
21
 73
17
 74
0
 42
0.0000001
 43
0.0000001
 44
0.0000000001
 40
0.0
 40
0.0
 40
0.0
 40
0.0
 40
0.1921517954
 40
0.3669860771
 40
0.4472629451
 40
0.5224978104
 40
0.5925177817
 40
0.6572061664
 40
0.716503055
 40
0.7704257814
 40
0.8190880194
 40
0.8627385085
 40
0.9018115218
 40
0.9369905278
 40
0.9692760609
 40
1.0
 40
1.0
 40
1.0
 40
1.0
 10
5.0351076504
 20
6.1537088971
 30
0.0
 10
5.0357490798
 20
6.1538659871
 30
0.0
 10
5.0369806775
 20
6.1541402101
 30
0.0
 10
5.038497242
 20
6.1543966904
 30
0.0
 10
5.0396248569
 20
6.1545306023
 30
0.0
 10
5.040397571
 20
6.1545939026
 30
0.0
 10
5.0411187648
 20
6.1546227656
 30
0.0
 10
5.0417858012
 20
6.1546171261
 30
0.0
 10
5.0423963106
 20
6.1545770009
 30
0.0
 10
5.0429481872
 20
6.1545025475
 30
0.0
 10
5.0434396218
 20
6.1543939535
 30
0.0
 10
5.043869101
 20
6.1542513609
 30
0.0
 10
5.0442353405
 20
6.1540747847
 30
0.0
 10
5.0445369801
 20
6.1538637712
 30
0.0
 10
5.0447719359
 20
6.1536181335
 30
0.0
 10
5.0448831441
 20
6.1534295251
 30
0.0
 10
5.0449253574
 20
6.1533327384
 30
0.0
  0
SPLINE
  5
64D
100
AcDbEntity
  8
0
100
AcDbSpline
 62
7
  6
CONTINUOUS
 70
0
 71
3
 72
20
 73
16
 74
0
 42
0.0000001
 43
0.0000001
 44
0.0000000001
 40
0.0
 40
0.0
 40
0.0
 40
0.0
 40
0.1614034502
 40
0.3171999586
 40
0.4642819763
 40
0.5336941492
 40
0.5999415297
 40
0.6627713325
 40
0.7219843123
 40
0.7774421387
 40
0.829082078
 40
0.876934875
 40
0.9211479541
 40
0.9620211682
 40
1.0
 40
1.0
 40
1.0
 40
1.0
 10
5.0350815154
 20
5.9894861285
 30
0.0
 10
5.0353069032
 20
5.9884630021
 30
0.0
 10
5.0356839043
 20
5.9864369697
 30
0.0
 10
5.0360284834
 20
5.9834407311
 30
0.0
 10
5.0361218219
 20
5.9810229748
 30
0.0
 10
5.0360698444
 20
5.9791878785
 30
0.0
 10
5.0359715343
 20
5.977902697
 30
0.0
 10
5.0358138028
 20
5.9766901022
 30
0.0
 10
5.0355976643
 20
5.9755576411
 30
0.0
 10
5.0353244233
 20
5.974512331
 30
0.0
 10
5.0349956314
 20
5.9735606067
 30
0.0
 10
5.0346132273
 20
5.9727082562
 30
0.0
 10
5.0341790181
 20
5.9719603926
 30
0.0
 10
5.0336952647
 20
5.9713220211
 30
0.0
 10
5.0333293535
 20
5.9709606871
 30
0.0
 10
5.0331399009
 20
5.9708029571
 30
0.0
  0
SPLINE
  5
64E
100
AcDbEntity
  8
0
100
AcDbSpline
 62
7
  6
CONTINUOUS
 70
0
 71
3
 72
25
 73
21
 74
0
 42
0.0000001
 43
0.0000001
 44
0.0000000001
 40
0.0
 40
0.0
 40
0.0
 40
0.0
 40
0.0104909414
 40
0.0213676638
 40
0.0330292014
 40
0.0457960788
 40
0.0598715616
 40
0.075361564
 40
0.1108341364
 40
0.1526157422
 40
0.2008767789
 40
0.2556061109
 40
0.3166827966
 40
0.3839101562
 40
0.4570376564
 40
0.619720419
 40
0.7085646918
 40
0.8018615562
 40
0.8991692932
 40
1.0
 40
1.0
 40
1.0
 40
1.0
 10
5.0449721459
 20
5.9815531357
 30
0.0
 10
5.0449871284
 20
5.9815962881
 30
0.0
 10
5.0450090683
 20
5.9816874038
 30
0.0
 10
5.0450160057
 20
5.9818317684
 30
0.0
 10
5.0449980577
 20
5.9819850274
 30
0.0
 10
5.0449562242
 20
5.9821477908
 30
0.0
 10
5.044891047
 20
5.982320531
 30
0.0
 10
5.0447670677
 20
5.9825754961
 30
0.0
 10
5.0445476382
 20
5.9829161126
 30
0.0
 10
5.0442029317
 20
5.9833410678
 30
0.0
 10
5.0437673747
 20
5.9837975042
 30
0.0
 10
5.0432426386
 20
5.9842827837
 30
0.0
 10
5.0426307453
 20
5.9847938321
 30
0.0
 10
5.0419347724
 20
5.9853279025
 30
0.0
 10
5.0408605612
 20
5.9860944877
 30
0.0
 10
5.0396729332
 20
5.9868625321
 30
0.0
 10
5.0383883861
 20
5.9876398628
 30
0.0
 10
5.0373357783
 20
5.9882504135
 30
0.0
 10
5.036225976
 20
5.9888658105
 30
0.0
 10
5.0354674144
 20
5.989276766
 30
0.0
 10
5.0350815154
 20
5.9894861285
 30
0.0
  0
SPLINE
  5
64F
100
AcDbEntity
  8
0
100
AcDbSpline
 62
7
  6
CONTINUOUS
 70
0
 71
3
 72
15
 73
11
 74
0
 42
0.0000001
 43
0.0000001
 44
0.0000000001
 40
0.0
 40
0.0
 40
0.0
 40
0.0
 40
0.1259815096
 40
0.2516424461
 40
0.3769844552
 40
0.50202549
 40
0.6267961623
 40
0.7513437996
 40
0.8757213031
 40
1.0
 40
1.0
 40
1.0
 40
1.0
 10
5.0331399009
 20
5.9708029571
 30
0.0
 10
5.0337972199
 20
5.9710182672
 30
0.0
 10
5.0350891958
 20
5.9715160507
 30
0.0
 10
5.0369350029
 20
5.9724606086
 30
0.0
 10
5.0386670525
 20
5.973591399
 30
0.0
 10
5.0402661219
 20
5.9748957735
 30
0.0
 10
5.0417145564
 20
5.9763595276
 30
0.0
 10
5.0429964188
 20
5.9779666078
 30
0.0
 10
5.0440974883
 20
5.9796990908
 30
0.0
 10
5.0447033735
 20
5.9809259657
 30
0.0
 10
5.0449721459
 20
5.9815531357
 30
0.0
  0
SPLINE
  5
650
100
AcDbEntity
  8
0
100
AcDbSpline
 62
7
  6
CONTINUOUS
 70
0
 71
3
 72
14
 73
10
 74
0
 42
0.0000001
 43
0.0000001
 44
0.0000000001
 40
0.0
 40
0.0
 40
0.0
 40
0.0
 40
0.1243400913
 40
0.2487593242
 40
0.3733258315
 40
0.4981314152
 40
0.6232242102
 40
0.7486234738
 40
1.0
 40
1.0
 40
1.0
 40
1.0
 10
4.686564513
 20
5.9816648383
 30
0.0
 10
4.6868329041
 20
5.9810375402
 30
0.0
 10
4.6874378526
 20
5.979810401
 30
0.0
 10
4.6885375479
 20
5.9780775629
 30
0.0
 10
4.6898181574
 20
5.9764702061
 30
0.0
 10
4.6912652083
 20
5.9750059679
 30
0.0
 10
4.6928634099
 20
5.9737005173
 30
0.0
 10
4.6951709932
 20
5.9721911304
 30
0.0
 10
4.6970761843
 20
5.971337376
 30
0.0
 10
4.6983873481
 20
5.970908895
 30
0.0
  0
SPLINE
  5
651
100
AcDbEntity
  8
0
100
AcDbSpline
 62
7
  6
CONTINUOUS
 70
0
 71
3
 72
23
 73
19
 74
0
 42
0.0000001
 43
0.0000001
 44
0.0000000001
 40
0.0
 40
0.0
 40
0.0
 40
0.0
 40
0.1980642637
 40
0.3802144197
 40
0.4642182884
 40
0.542967951
 40
0.6161088408
 40
0.6833286445
 40
0.7443708929
 40
0.7990360892
 40
0.8472132438
 40
0.8889011108
 40
0.9242728743
 40
0.9537889468
 40
0.9666472854
 40
0.9784611557
 40
0.9894768338
 40
1.0
 40
1.0
 40
1.0
 40
1.0
 10
4.6964483696
 20
5.9895927065
 30
0.0
 10
4.6956849889
 20
5.9891922779
 30
0.0
 10
4.6942311565
 20
5.9884011898
 30
0.0
 10
4.6924918314
 20
5.9873720301
 30
0.0
 10
4.6912263806
 20
5.9865643414
 30
0.0
 10
4.6903749331
 20
5.9859904499
 30
0.0
 10
4.6895995871
 20
5.9854349968
 30
0.0
 10
4.6889043307
 20
5.9849008496
 30
0.0
 10
4.6882926475
 20
5.9843908516
 30
0.0
 10
4.6877675598
 20
5.9839075839
 30
0.0
 10
4.6873315103
 20
5.9834535425
 30
0.0
 10
4.6869862725
 20
5.9830306688
 30
0.0
 10
4.6867331519
 20
5.9826407419
 30
0.0
 10
4.6865935418
 20
5.9823298982
 30
0.0
 10
4.6865361881
 20
5.9821005135
 30
0.0
 10
4.6865195001
 20
5.9819454985
 30
0.0
 10
4.6865273354
 20
5.9817998716
 30
0.0
 10
4.6865494671
 20
5.981708096
 30
0.0
 10
4.686564513
 20
5.9816648383
 30
0.0
  0
SPLINE
  5
652
100
AcDbEntity
  8
0
100
AcDbSpline
 62
7
  6
CONTINUOUS
 70
0
 71
3
 72
24
 73
20
 74
0
 42
0.0000001
 43
0.0000001
 44
0.0000000001
 40
0.0
 40
0.0
 40
0.0
 40
0.0
 40
0.0378952849
 40
0.0788632468
 40
0.1231010541
 40
0.1709767735
 40
0.2226385106
 40
0.2781007191
 40
0.3373060332
 40
0.4001191642
 40
0.4663431288
 40
0.5357333402
 40
0.6080028338
 40
0.6828240032
 40
0.7598228603
 40
0.8386189951
 40
0.8785788642
 40
0.9188425362
 40
1.0
 40
1.0
 40
1.0
 40
1.0
 10
4.6983873481
 20
5.970908895
 30
0.0
 10
4.6981990976
 20
5.9710672771
 30
0.0
 10
4.6978335085
 20
5.9714288665
 30
0.0
 10
4.6973480134
 20
5.972066435
 30
0.0
 10
4.6969134817
 20
5.9728153932
 30
0.0
 10
4.6965304278
 20
5.9736680675
 30
0.0
 10
4.6962008949
 20
5.9746200596
 30
0.0
 10
4.6959275156
 20
5.975665646
 30
0.0
 10
4.6957115826
 20
5.9767982041
 30
0.0
 10
4.6955543929
 20
5.9780107632
 30
0.0
 10
4.6954570746
 20
5.9792958109
 30
0.0
 10
4.6954196312
 20
5.9806453301
 30
0.0
 10
4.6954419079
 20
5.9820509437
 30
0.0
 10
4.6955232484
 20
5.9835038178
 30
0.0
 10
4.6956643184
 20
5.9849946641
 30
0.0
 10
4.6958309339
 20
5.9862548137
 30
0.0
 10
4.6959919384
 20
5.9872745726
 30
0.0
 10
4.6961725774
 20
5.9883065872
 30
0.0
 10
4.6963306931
 20
5.9890791454
 30
0.0
 10
4.6964483696
 20
5.9895927065
 30
0.0
  0
LINE
  5
653
100
AcDbEntity
  8
0
100
AcDbLine
 62
7
  6
CONTINUOUS
 10
4.8642106006
 20
5.7216402645
 11
4.8640800131
 21
5.7389538209
  0
ENDSEC
  0
SECTION
  2
OBJECTS
  0
DICTIONARY
  5
C
100
AcDbDictionary
280
0
281
1
  3
ACAD_GROUP
350
D
  3
ACAD_MLINESTYLE
350
17
  3
ACAD_LAYOUT
350
1A
  3
ACAD_PLOTSETTINGS
350
19
  3
ACAD_PLOTSTYLENAME
350
E
  0
DICTIONARY
  5
D
102
{ACAD_REACTORS
330
C
102
}
100
AcDbDictionary
280
0
281
1
  0
ACDBDICTIONARYWDFLT
  5
E
102
{ACAD_REACTORS
330
C
102
}
100
AcDbDictionary
281
1
  3
Normal
350
F
100
AcDbDictionaryWithDefault
340
F
  0
DICTIONARY
  5
17
102
{ACAD_REACTORS
330
C
102
}
100
AcDbDictionary
280
0
281
1
  3
Standard
350
18
  0
DICTIONARY
  5
19
102
{ACAD_REACTORS
330
C
102
}
100
AcDbDictionary
281
1
  0
DICTIONARY
  5
1A
102
{ACAD_REACTORS
330
C
102
}
100
AcDbDictionary
281
1
  3
Model
350
654
  3
Layout1
350
655
  0
ACDBPLACEHOLDER
  5
F
102
{ACAD_REACTORS
330
E
102
}
  0
MLINESTYLE
  5
18
102
{ACAD_REACTORS
330
17
102
}
100
AcDbMlineStyle
  2
STANDARD
 70
0
  3

 62
256
 51
90.0
 52
90.0
 71
2
 49
0.5
 62
256
  6
BYLAYER
 49
-0.5
 62
256
  6
BYLAYER
  0
LAYOUT
  5
654
102
{ACAD_REACTORS
330
1A
102
}
100
AcDbPlotSettings
  1

  2
none_device
  4
ANSI_A_(11.00_x_8.50_Inches)
  6

 40
0.0
 41
0.0
 42
0.0
 43
0.0
 44
279.4
 45
215.9
 46
0.0
 47
0.0
 48
0.0
 49
0.0
140
0.0
141
0.0
142
1.0
143
1.0
 70
1024
 72
0
 73
0
 74
0
  7

 75
0
147
1.0
148
0.0
149
0.0
100
AcDbLayout
  1
Model
 70
0
 71
0
 10
0.0
 20
0.0
 11
11.0
 21
8.5
 12
0.0
 22
0.0
 32
0.0
 14
0.0
 24
0.0
 34
0.0
 15
0.0
 25
0.0
 35
0.0
146
0.0
 13
0.0
 23
0.0
 33
0.0
 16
1.0
 26
0.0
 36
0.0
 17
0.0
 27
1.0
 37
0.0
 76
0
330
202
345
0
346
0
  0
LAYOUT
  5
655
102
{ACAD_REACTORS
330
1A
102
}
100
AcDbPlotSettings
  1

  2
none_device
  4
ANSI_A_(11.00_x_8.50_Inches)
  6

 40
0.0
 41
0.0
 42
0.0
 43
0.0
 44
279.4
 45
215.9
 46
0.0
 47
0.0
 48
0.0
 49
0.0
140
0.0
141
0.0
142
1.0
143
1.0
 70
0
 72
0
 73
0
 74
0
  7

 75
0
147
1.0
148
0.0
149
0.0
100
AcDbLayout
  1
Layout1
 70
0
 71
1
 10
0.0
 20
0.0
 11
11.0
 21
8.5
 12
0.0
 22
0.0
 32
0.0
 14
0.0
 24
0.0
 34
0.0
 15
0.0
 25
0.0
 35
0.0
146
0.0
 13
0.0
 23
0.0
 33
0.0
 16
1.0
 26
0.0
 36
0.0
 17
0.0
 27
1.0
 37
0.0
 76
0
330
203
345
0
346
0
  0
ENDSEC
  0
EOF
