999
DXF file: 1623_RIGHT.dxf
999
Pro/ENGINEER 2018400 by Parametric Technology Corporation
  0
SECTION
  2
HEADER
  9
$ACADVER
  1
AC1027
  9
$DWGCODEPAGE
  3
ANSI_1252
  9
$EXTMAX
 10
11.0
 20
8.5
 30
0.0
  9
$EXTMIN
 10
0.0
 20
0.0
 30
0.0
  9
$LIMMIN
 10
0.0
 20
0.0
  9
$LIMMAX
 10
11.0
 20
8.5
  9
$VIEWCTR
 10
5.5
 20
4.25
  9
$VIEWSIZE
 40
8.5
  9
$CLAYER
  8
0
  9
$LTSCALE
 40
0.605
  9
$CELTYPE
  6
BYLAYER
  9
$DIMSCALE
 40
1.0
  9
$DIMASZ
 40
0.1
  9
$DIMEXO
 40
0.0625
  9
$DIMDLI
 40
0.418
  9
$DIMEXE
 40
0.125
  9
$DIMCEN
 40
0.099
  9
$DIMLFAC
 40
1.0
  9
$DIMBLK
  1
_FILLED
  9
$DIMALT
 70
1
  9
$DIMALTD
 70
2
  9
$DIMALTTD
 70
2
  9
$DIMALTF
 40
25.4
  9
$DIMTXT
 40
0.08
  9
$DIMTOL
 70
1
  9
$DIMLIM
 70
0
  9
$DIMTFAC
 40
1.0
  9
$DIMTP
 40
0.001
  9
$DIMTM
 40
0.001
  9
$DIMGAP
 40
0.09
  9
$DIMDSEP
 70
46
  9
$AUNITS
 70
0
  9
$PDMODE
 70
3
  9
$PDSIZE
 40
0.3125
  9
$HANDSEED
  5
4B3
  9
$TILEMODE
 70
1
  9
$MEASUREMENT
 70
0
  9
$INSUNITS
 70
1
  0
ENDSEC
  0
SECTION
  2
CLASSES
  0
CLASS
  1
ACDBDICTIONARYWDFLT
  2
AcDbDictionaryWithDefault
  3
AutoCAD 2000
 90
0
 91
1
280
0
281
0
  0
CLASS
  1
ACDBPLACEHOLDER
  2
AcDbPlaceHolder
  3
AutoCAD 2000
 90
0
 91
1
280
0
281
0
  0
CLASS
  1
LAYOUT
  2
AcDbLayout
  3
AutoCAD 2000
 90
0
 91
0
280
0
281
0
  0
ENDSEC
  0
SECTION
  2
TABLES
  0
TABLE
  2
VPORT
  5
8
100
AcDbSymbolTable
 70
2
  0
VPORT
  5
1F4
100
AcDbSymbolTableRecord
100
AcDbViewportTableRecord
  2
*ACTIVE
 70
0
 10
0.0
 20
0.0
 11
1.0
 21
1.0
 12
5.5
 22
4.25
 13
0.0
 23
0.0
 14
1.0
 24
1.0
 15
0.0
 25
0.0
 16
0.0
 26
0.0
 36
1.0
 17
0.0
 27
0.0
 37
0.0
 40
8.5
 41
1.2941176471
 42
50.0
 43
0.0
 44
0.0
 50
0.0
 51
0.0
 71
0
 72
100
 73
1
 74
1
 75
0
 76
0
 77
0
 78
0
  0
ENDTAB
  0
TABLE
  2
LTYPE
  5
5
100
AcDbSymbolTable
 70
6
  0
LTYPE
  5
14
100
AcDbSymbolTableRecord
100
AcDbLinetypeTableRecord
  2
BYBLOCK
 70
0
  3

 72
65
 73
0
 40
0.0
  0
LTYPE
  5
15
100
AcDbSymbolTableRecord
100
AcDbLinetypeTableRecord
  2
BYLAYER
 70
0
  3

 72
65
 73
0
 40
0.0
  0
LTYPE
  5
16
100
AcDbSymbolTableRecord
100
AcDbLinetypeTableRecord
  2
CONTINUOUS
 70
64
  3
Solid line
 72
65
 73
0
 40
0.0
  0
LTYPE
  5
1F5
100
AcDbSymbolTableRecord
100
AcDbLinetypeTableRecord
  2
CENTER
 70
64
  3
____ _ ____ _ ____ _ ____ _ ____ _ ____ _ ____
 72
65
 73
4
 40
0.6
 49
0.375
 74
0
 49
-0.075
 74
0
 49
0.075
 74
0
 49
-0.075
 74
0
  0
LTYPE
  5
1F6
100
AcDbSymbolTableRecord
100
AcDbLinetypeTableRecord
  2
HIDDEN
 70
64
  3
- - - - - - - - - - - - - - - - - - - -
 72
65
 73
2
 40
0.2
 49
0.1
 74
0
 49
-0.1
 74
0
  0
LTYPE
  5
1F7
100
AcDbSymbolTableRecord
100
AcDbLinetypeTableRecord
  2
PHANTOM
 70
64
  3
_____ _ _ _____ _ _ _____ _ _ _____
 72
65
 73
6
 40
0.8
 49
0.45
 74
0
 49
-0.05
 74
0
 49
0.1
 74
0
 49
-0.05
 74
0
 49
0.1
 74
0
 49
-0.05
 74
0
  0
LTYPE
  5
1F8
100
AcDbSymbolTableRecord
100
AcDbLinetypeTableRecord
  2
DOT
 70
64
  3
. . . . . . . . . . . . . . . . . . . .
 72
65
 73
2
 40
0.2
 49
0.1
 74
0
 49
-0.1
 74
0
  0
LTYPE
  5
1F9
100
AcDbSymbolTableRecord
100
AcDbLinetypeTableRecord
  2
DASHED
 70
64
  3
- - - - - - - - - - - - - - - - - - - -
 72
65
 73
2
 40
0.2
 49
0.1
 74
0
 49
-0.1
 74
0
  0
ENDTAB
  0
TABLE
  2
LAYER
  5
2
100
AcDbSymbolTable
 70
36
  0
LAYER
  5
10
100
AcDbSymbolTableRecord
100
AcDbLayerTableRecord
  2
0
 70
0
 62
7
  6
CONTINUOUS
370
-3
390
F
  0
LAYER
  5
1FA
100
AcDbSymbolTableRecord
100
AcDbLayerTableRecord
  2
DEFAULT_1
 70
0
 62
7
  6
CENTER
370
-3
390
F
  0
LAYER
  5
1FB
100
AcDbSymbolTableRecord
100
AcDbLayerTableRecord
  2
DEFAULT_2
 70
0
 62
8
  6
HIDDEN
370
-3
390
F
  0
LAYER
  5
1FC
100
AcDbSymbolTableRecord
100
AcDbLayerTableRecord
  2
DEFAULT_3
 70
0
 62
7
  6
PHANTOM
370
-3
390
F
  0
LAYER
  5
1FD
100
AcDbSymbolTableRecord
100
AcDbLayerTableRecord
  2
DEFAULT_COORDINATE_SYSTEM
 70
0
 62
7
  6
CONTINUOUS
370
-3
390
F
  0
LAYER
  5
1FE
100
AcDbSymbolTableRecord
100
AcDbLayerTableRecord
  2
DEFAULT_DATUM_AXES
 70
0
 62
7
  6
CONTINUOUS
370
-3
390
F
  0
LAYER
  5
1FF
100
AcDbSymbolTableRecord
100
AcDbLayerTableRecord
  2
DEFAULT_DATUM_PLANES
 70
0
 62
7
  6
CONTINUOUS
370
-3
390
F
  0
ENDTAB
  0
TABLE
  2
STYLE
  5
3
100
AcDbSymbolTable
 70
1
  0
STYLE
  5
11
100
AcDbSymbolTableRecord
100
AcDbTextStyleTableRecord
  2
STANDARD
 70
0
 40
0.0
 41
0.8
 50
0.0
 71
0
 42
0.2
  3
txt
  4

  0
STYLE
  5
200
100
AcDbSymbolTableRecord
100
AcDbTextStyleTableRecord
  2
TEXTSTYLE_1
 70
0
 40
0.0
 41
0.8
 50
0.0
 71
0
 42
0.2
  3
gdt
  4

  0
ENDTAB
  0
TABLE
  2
VIEW
  5
6
100
AcDbSymbolTable
 70
0
  0
ENDTAB
  0
TABLE
  2
UCS
  5
7
100
AcDbSymbolTable
 70
0
  0
ENDTAB
  0
TABLE
  2
APPID
  5
9
100
AcDbSymbolTable
 70
1
  0
APPID
  5
201
100
AcDbSymbolTableRecord
100
AcDbRegAppTableRecord
  2
ACAD
 70
0
  0
ENDTAB
  0
TABLE
  2
BLOCK_RECORD
  5
1
100
AcDbSymbolTable
 70
0
  0
BLOCK_RECORD
  5
202
100
AcDbSymbolTableRecord
100
AcDbBlockTableRecord
  2
*Model_Space
  0
BLOCK_RECORD
  5
203
100
AcDbSymbolTableRecord
100
AcDbBlockTableRecord
  2
*Paper_Space
  0
BLOCK_RECORD
  5
204
100
AcDbSymbolTableRecord
100
AcDbBlockTableRecord
  2
_FILLED
  0
ENDTAB
  0
TABLE
  2
DIMSTYLE
  5
A
100
AcDbSymbolTable
 70
1
100
AcDbDimStyleTable
 71
0
  0
DIMSTYLE
105
205
100
AcDbSymbolTableRecord
100
AcDbDimStyleTableRecord
  2
STANDARD
 70
0
  3

  4

 40
1.0
 41
0.1
 42
0.0625
 43
0.38
 44
0.125
 45
0.0
 46
0.0
 47
0.001
 48
0.001
140
0.08
141
0.09
142
0.0
143
25.4
144
1.0
145
0.0
146
1.0
147
0.09
 71
1.0
 72
0.0
 73
1
 74
1
 75
0
 76
0
 77
0
 78
4
 79
1
170
1
171
2
172
0
173
0
174
0
175
0
176
0
177
0
178
0
270
2
179
3
271
3
272
3
273
2
274
2
275
0
280
0
281
0
282
0
283
1
284
4
285
0
286
0
287
3
288
0
340
11
278
46
341
204
342
204
343
204
344
204
  0
ENDTAB
  0
ENDSEC
  0
SECTION
  2
BLOCKS
  0
BLOCK
  5
20
100
AcDbEntity
  8
0
100
AcDbBlockBegin
  2
*Model_Space
 70
0
 10
0.0
 20
0.0
 30
0.0
  3
*Model_Space
  1

  0
ENDBLK
  5
21
100
AcDbEntity
  8
0
100
AcDbBlockEnd
  0
BLOCK
  5
1C
100
AcDbEntity
  8
0
100
AcDbBlockBegin
  2
*Paper_Space
 70
0
 10
0.0
 20
0.0
 30
0.0
  3
*Paper_Space
  1

  0
ENDBLK
  5
1D
100
AcDbEntity
  8
0
100
AcDbBlockEnd
  0
BLOCK
  5
206
100
AcDbEntity
  8
0
100
AcDbBlockBegin
  2
_FILLED
 70
64
 10
0.0
 20
0.0
  3
_FILLED
  1

  0
SOLID
  5
207
100
AcDbEntity
  8
0
  6
BYBLOCK
 62
0
100
AcDbTrace
 10
0.0
 20
0.0
 11
-1.0
 21
0.2
 12
-1.0
 22
-0.2
 13
-1.0
 23
-0.2
  0
ENDBLK
  5
208
100
AcDbEntity
  8
0
  6
BYBLOCK
 62
0
100
AcDbBlockEnd
  0
ENDSEC
  0
SECTION
  2
ENTITIES
  0
MTEXT
  5
209
100
AcDbEntity
  8
0
100
AcDbMText
 62
2
  6
CONTINUOUS
  7
STANDARD
 71
3
 72
1
 10
6.5415828694
 20
1.8817042669
 30
0.0
 11
1.0
 21
0.0
 31
0.0
 73
2
 44
0.9
  1
SCALE  .500
 40
0.08
 41
0.704
  0
LINE
  5
20A
100
AcDbEntity
  8
0
100
AcDbLine
 62
7
  6
CONTINUOUS
 10
0.0
 20
0.0
 11
0.0
 21
8.5
  0
LINE
  5
20B
100
AcDbEntity
  8
0
100
AcDbLine
 62
7
  6
CONTINUOUS
 10
0.0
 20
0.0
 11
11.0
 21
0.0
  0
LINE
  5
20C
100
AcDbEntity
  8
0
100
AcDbLine
 62
7
  6
CONTINUOUS
 10
0.0
 20
8.5
 11
11.0
 21
8.5
  0
LINE
  5
20D
100
AcDbEntity
  8
0
100
AcDbLine
 62
7
  6
CONTINUOUS
 10
11.0
 20
0.0
 11
11.0
 21
8.5
  0
LINE
  5
20E
100
AcDbEntity
  8
0
100
AcDbLine
 62
7
  6
CONTINUOUS
 10
3.0704629502
 20
5.1118103953
 11
3.0661477507
 21
5.0795981453
  0
LINE
  5
20F
100
AcDbEntity
  8
0
100
AcDbLine
 62
7
  6
CONTINUOUS
 10
3.070834246
 20
5.111760656
 11
3.0665190464
 21
5.0795484059
  0
LINE
  5
210
100
AcDbEntity
  8
0
100
AcDbLine
 62
7
  6
CONTINUOUS
 10
3.0720007125
 20
5.1116043944
 11
3.0676855129
 21
5.0793921444
  0
LINE
  5
211
100
AcDbEntity
  8
0
100
AcDbLine
 62
7
  6
CONTINUOUS
 10
3.0731123105
 20
5.1114554832
 11
3.068797111
 21
5.0792432331
  0
LINE
  5
212
100
AcDbEntity
  8
0
100
AcDbLine
 62
7
  6
CONTINUOUS
 10
3.0754380518
 20
5.1111439235
 11
3.0711228523
 21
5.0789316735
  0
LINE
  5
213
100
AcDbEntity
  8
0
100
AcDbLine
 62
7
  6
CONTINUOUS
 10
3.0772830989
 20
5.1108967583
 11
3.0729678993
 21
5.0786845083
  0
LINE
  5
214
100
AcDbEntity
  8
0
100
AcDbLine
 62
7
  6
CONTINUOUS
 10
3.080753776
 20
5.1104318214
 11
3.0764385764
 21
5.0782195714
  0
LINE
  5
215
100
AcDbEntity
  8
0
100
AcDbLine
 62
7
  6
CONTINUOUS
 10
3.0833208967
 20
5.1100879262
 11
3.0790056971
 21
5.0778756762
  0
LINE
  5
216
100
AcDbEntity
  8
0
100
AcDbLine
 62
7
  6
CONTINUOUS
 10
3.0879151118
 20
5.1094724785
 11
3.0835999122
 21
5.0772602285
  0
LINE
  5
217
100
AcDbEntity
  8
0
100
AcDbLine
 62
7
  6
CONTINUOUS
 10
3.0911884789
 20
5.1090339735
 11
3.0868732794
 21
5.0768217235
  0
LINE
  5
218
100
AcDbEntity
  8
0
100
AcDbLine
 62
7
  6
CONTINUOUS
 10
3.0968779071
 20
5.1082718095
 11
3.0925627076
 21
5.0760595595
  0
LINE
  5
219
100
AcDbEntity
  8
0
100
AcDbLine
 62
7
  6
CONTINUOUS
 10
3.1008373394
 20
5.1077413982
 11
3.0965221398
 21
5.0755291482
  0
LINE
  5
21A
100
AcDbEntity
  8
0
100
AcDbLine
 62
7
  6
CONTINUOUS
 10
3.1075869035
 20
5.1068372169
 11
3.1032717039
 21
5.0746249668
  0
LINE
  5
21B
100
AcDbEntity
  8
0
100
AcDbLine
 62
7
  6
CONTINUOUS
 10
3.1122079896
 20
5.1062181695
 11
3.10789279
 21
5.0740059194
  0
LINE
  5
21C
100
AcDbEntity
  8
0
100
AcDbLine
 62
7
  6
CONTINUOUS
 10
3.1199760763
 20
5.1051775454
 11
3.1156608767
 21
5.0729652953
  0
LINE
  5
21D
100
AcDbEntity
  8
0
100
AcDbLine
 62
7
  6
CONTINUOUS
 10
3.1252303257
 20
5.1044736785
 11
3.1209151261
 21
5.0722614285
  0
LINE
  5
21E
100
AcDbEntity
  8
0
100
AcDbLine
 62
7
  6
CONTINUOUS
 10
3.1200386471
 20
5.0118428667
 11
3.1266774157
 21
5.0614001745
  0
LINE
  5
21F
100
AcDbEntity
  8
0
100
AcDbLine
 62
7
  6
CONTINUOUS
 10
3.1339690421
 20
5.1033030274
 11
3.1296538425
 21
5.0710907774
  0
LINE
  5
220
100
AcDbEntity
  8
0
100
AcDbLine
 62
7
  6
CONTINUOUS
 10
3.1398240607
 20
5.1025186807
 11
3.1355088612
 21
5.0703064307
  0
LINE
  5
221
100
AcDbEntity
  8
0
100
AcDbLine
 62
7
  6
CONTINUOUS
 10
3.1494795298
 20
5.1012252201
 11
3.1451643302
 21
5.0690129701
  0
LINE
  5
222
100
AcDbEntity
  8
0
100
AcDbLine
 62
7
  6
CONTINUOUS
 10
3.1558992194
 20
5.1003652292
 11
3.1515840198
 21
5.0681529792
  0
LINE
  5
223
100
AcDbEntity
  8
0
100
AcDbLine
 62
7
  6
CONTINUOUS
 10
3.1664119119
 20
5.0989569337
 11
3.1620967123
 21
5.0667446837
  0
LINE
  5
224
100
AcDbEntity
  8
0
100
AcDbLine
 62
7
  6
CONTINUOUS
 10
3.1508671542
 20
5.3059883768
 11
3.1508692781
 21
5.3059943035
  0
LINE
  5
225
100
AcDbEntity
  8
0
100
AcDbLine
 62
7
  6
CONTINUOUS
 10
3.173356693
 20
5.0980266008
 11
3.1690414934
 21
5.0658143508
  0
LINE
  5
226
100
AcDbEntity
  8
0
100
AcDbLine
 62
7
  6
CONTINUOUS
 10
3.1838369784
 20
5.0966226466
 11
3.1795217788
 21
5.0644103966
  0
LINE
  5
227
100
AcDbEntity
  8
0
100
AcDbLine
 62
7
  6
CONTINUOUS
 10
3.1846617947
 20
5.096512153
 11
3.1803465952
 21
5.064299903
  0
LINE
  5
228
100
AcDbEntity
  8
0
100
AcDbLine
 62
7
  6
CONTINUOUS
 10
3.1920888504
 20
5.0955172139
 11
3.1877736509
 21
5.0633049639
  0
LINE
  5
229
100
AcDbEntity
  8
0
100
AcDbLine
 62
7
  6
CONTINUOUS
 10
3.2024721142
 20
5.0941262569
 11
3.1981569147
 21
5.0619140069
  0
LINE
  5
22A
100
AcDbEntity
  8
0
100
AcDbLine
 62
7
  6
CONTINUOUS
 10
3.2041166617
 20
5.093905951
 11
3.1998014621
 21
5.0616937009
  0
LINE
  5
22B
100
AcDbEntity
  8
0
100
AcDbLine
 62
7
  6
CONTINUOUS
 10
3.2119802017
 20
5.0928525398
 11
3.2076650021
 21
5.0606402897
  0
LINE
  5
22C
100
AcDbEntity
  8
0
100
AcDbLine
 62
7
  6
CONTINUOUS
 10
3.2222024277
 20
5.0914831556
 11
3.2178872281
 21
5.0592709056
  0
LINE
  5
22D
100
AcDbEntity
  8
0
100
AcDbLine
 62
7
  6
CONTINUOUS
 10
3.224656567
 20
5.0911543955
 11
3.2203413674
 21
5.0589421455
  0
LINE
  5
22E
100
AcDbEntity
  8
0
100
AcDbLine
 62
7
  6
CONTINUOUS
 10
3.23290811
 20
5.0900490069
 11
3.2285929105
 21
5.0578367569
  0
LINE
  5
22F
100
AcDbEntity
  8
0
100
AcDbLine
 62
7
  6
CONTINUOUS
 10
3.2429062748
 20
5.0887096383
 11
3.2385910752
 21
5.0564973883
  0
LINE
  5
230
100
AcDbEntity
  8
0
100
AcDbLine
 62
7
  6
CONTINUOUS
 10
3.2461548754
 20
5.0882744511
 11
3.2418396758
 21
5.056062201
  0
LINE
  5
231
100
AcDbEntity
  8
0
100
AcDbLine
 62
7
  6
CONTINUOUS
 10
3.2547435479
 20
5.0871239001
 11
3.2504283483
 21
5.0549116501
  0
LINE
  5
232
100
AcDbEntity
  8
0
100
AcDbLine
 62
7
  6
CONTINUOUS
 10
3.2644560094
 20
5.0858228047
 11
3.2601408098
 21
5.0536105547
  0
LINE
  5
233
100
AcDbEntity
  8
0
100
AcDbLine
 62
7
  6
CONTINUOUS
 10
3.2684790426
 20
5.0852838734
 11
3.264163843
 21
5.0530716233
  0
LINE
  5
234
100
AcDbEntity
  8
0
100
AcDbLine
 62
7
  6
CONTINUOUS
 10
3.2773518926
 20
5.0840952536
 11
3.273036693
 21
5.0518830035
  0
LINE
  5
235
100
AcDbEntity
  8
0
100
AcDbLine
 62
7
  6
CONTINUOUS
 10
3.2867187702
 20
5.0828404531
 11
3.2824035706
 21
5.0506282031
  0
LINE
  5
236
100
AcDbEntity
  8
0
100
AcDbLine
 62
7
  6
CONTINUOUS
 10
3.2914914327
 20
5.0822011003
 11
3.2871762331
 21
5.0499888503
  0
LINE
  5
237
100
AcDbEntity
  8
0
100
AcDbLine
 62
7
  6
CONTINUOUS
 10
3.3005937561
 20
5.08098174
 11
3.2962785565
 21
5.0487694899
  0
LINE
  5
238
100
AcDbEntity
  8
0
100
AcDbLine
 62
7
  6
CONTINUOUS
 10
3.3095573
 20
5.0797809707
 11
3.3052421004
 21
5.0475687206
  0
LINE
  5
239
100
AcDbEntity
  8
0
100
AcDbLine
 62
7
  6
CONTINUOUS
 10
3.3150501667
 20
5.0790451383
 11
3.3107349671
 21
5.0468328883
  0
LINE
  5
23A
100
AcDbEntity
  8
0
100
AcDbLine
 62
7
  6
CONTINUOUS
 10
3.3243258446
 20
5.0778025551
 11
3.320010645
 21
5.045590305
  0
LINE
  5
23B
100
AcDbEntity
  8
0
100
AcDbLine
 62
7
  6
CONTINUOUS
 10
5.6006069077
 20
3.0028300433
 11
6.6656069077
 21
3.0028300433
  0
LINE
  5
23C
100
AcDbEntity
  8
0
100
AcDbLine
 62
7
  6
CONTINUOUS
 10
3.3328307915
 20
5.0766632201
 11
3.3285155919
 21
5.0444509701
  0
LINE
  5
23D
100
AcDbEntity
  8
0
100
AcDbLine
 62
7
  6
CONTINUOUS
 10
3.3390099971
 20
5.0758354448
 11
3.3346947976
 21
5.0436231947
  0
LINE
  5
23E
100
AcDbEntity
  8
0
100
AcDbLine
 62
7
  6
CONTINUOUS
 10
3.3484018419
 20
5.0745772997
 11
3.3440866424
 21
5.0423650496
  0
LINE
  5
23F
100
AcDbEntity
  8
0
100
AcDbLine
 62
7
  6
CONTINUOUS
 10
3.356395756
 20
5.0735064234
 11
3.3520805565
 21
5.0412941734
  0
LINE
  5
240
100
AcDbEntity
  8
0
100
AcDbLine
 62
7
  6
CONTINUOUS
 10
3.3632232037
 20
5.0725918086
 11
3.3589080041
 21
5.0403795586
  0
LINE
  5
241
100
AcDbEntity
  8
0
100
AcDbLine
 62
7
  6
CONTINUOUS
 10
3.3726733115
 20
5.0713258585
 11
3.368358112
 21
5.0391136085
  0
LINE
  5
242
100
AcDbEntity
  8
0
100
AcDbLine
 62
7
  6
CONTINUOUS
 10
3.4325320313
 20
5.4616748989
 11
3.3757917081
 21
5.0381177932
  0
LINE
  5
243
100
AcDbEntity
  8
0
100
AcDbLine
 62
7
  6
CONTINUOUS
 10
3.3875405039
 20
5.069334228
 11
3.3832253043
 21
5.0371219779
  0
LINE
  5
244
100
AcDbEntity
  8
0
100
AcDbLine
 62
7
  6
CONTINUOUS
 10
3.3969906117
 20
5.0680682779
 11
3.3926754122
 21
5.0358560278
  0
LINE
  5
245
100
AcDbEntity
  8
0
100
AcDbLine
 62
7
  6
CONTINUOUS
 10
3.4038180594
 20
5.0671536631
 11
3.3995028598
 21
5.0349414131
  0
LINE
  5
246
100
AcDbEntity
  8
0
100
AcDbLine
 62
7
  6
CONTINUOUS
 10
3.4118119735
 20
5.0660827868
 11
3.4074967739
 21
5.0338705368
  0
LINE
  5
247
100
AcDbEntity
  8
0
100
AcDbLine
 62
7
  6
CONTINUOUS
 10
3.4212038183
 20
5.0648246417
 11
3.4168886187
 21
5.0326123917
  0
LINE
  5
248
100
AcDbEntity
  8
0
100
AcDbLine
 62
7
  6
CONTINUOUS
 10
3.4273830239
 20
5.0639968664
 11
3.4230678243
 21
5.0317846164
  0
LINE
  5
249
100
AcDbEntity
  8
0
100
AcDbLine
 62
7
  6
CONTINUOUS
 10
3.4358879708
 20
5.0628575314
 11
3.4315727712
 21
5.0306452814
  0
LINE
  5
24A
100
AcDbEntity
  8
0
100
AcDbLine
 62
7
  6
CONTINUOUS
 10
3.4451636487
 20
5.0616149482
 11
3.4408484491
 21
5.0294026982
  0
LINE
  5
24B
100
AcDbEntity
  8
0
100
AcDbLine
 62
7
  6
CONTINUOUS
 10
3.4506565155
 20
5.0608791158
 11
3.4463413159
 21
5.0286668658
  0
LINE
  5
24C
100
AcDbEntity
  8
0
100
AcDbLine
 62
7
  6
CONTINUOUS
 10
3.4596200593
 20
5.0596783465
 11
3.4553048598
 21
5.0274660965
  0
LINE
  5
24D
100
AcDbEntity
  8
0
100
AcDbLine
 62
7
  6
CONTINUOUS
 10
3.4687223827
 20
5.0584589862
 11
3.4644071831
 21
5.0262467361
  0
LINE
  5
24E
100
AcDbEntity
  8
0
100
AcDbLine
 62
7
  6
CONTINUOUS
 10
3.4734950452
 20
5.0578196334
 11
3.4691798457
 21
5.0256073833
  0
LINE
  5
24F
100
AcDbEntity
  8
0
100
AcDbLine
 62
7
  6
CONTINUOUS
 10
3.4828619228
 20
5.0565648329
 11
3.4785467233
 21
5.0243525829
  0
LINE
  5
250
100
AcDbEntity
  8
0
100
AcDbLine
 62
7
  6
CONTINUOUS
 10
6.6656069077
 20
3.0657589754
 11
5.6006069077
 21
3.0657589754
  0
LINE
  5
251
100
AcDbEntity
  8
0
100
AcDbLine
 62
7
  6
CONTINUOUS
 10
6.6641424416
 20
3.0692945093
 11
5.6020713738
 21
3.0692945093
  0
LINE
  5
252
100
AcDbEntity
  8
0
100
AcDbLine
 62
7
  6
CONTINUOUS
 10
5.6216424416
 20
3.0888655772
 11
6.6445713738
 21
3.0888655772
  0
LINE
  5
253
100
AcDbEntity
  8
0
100
AcDbLine
 62
7
  6
CONTINUOUS
 10
5.6231069077
 20
3.0924011111
 11
6.6431069077
 21
3.0924011111
  0
LINE
  5
254
100
AcDbEntity
  8
0
100
AcDbLine
 62
7
  6
CONTINUOUS
 10
6.6655688782
 20
3.1708300433
 11
5.6007077782
 21
3.1708300433
  0
LINE
  5
255
100
AcDbEntity
  8
0
100
AcDbLine
 62
7
  6
CONTINUOUS
 10
5.6006504354
 20
3.1708300433
 11
5.6006449372
 21
3.1708300433
  0
LINE
  5
256
100
AcDbEntity
  8
0
100
AcDbLine
 62
7
  6
CONTINUOUS
 10
3.4917347728
 20
5.0553762131
 11
3.4874195732
 21
5.0231639631
  0
LINE
  5
257
100
AcDbEntity
  8
0
100
AcDbLine
 62
7
  6
CONTINUOUS
 10
3.4957578061
 20
5.0548372818
 11
3.4914426065
 21
5.0226250317
  0
LINE
  5
258
100
AcDbEntity
  8
0
100
AcDbLine
 62
7
  6
CONTINUOUS
 10
3.5054702675
 20
5.0535361864
 11
3.5011550679
 21
5.0213239364
  0
LINE
  5
259
100
AcDbEntity
  8
0
100
AcDbLine
 62
7
  6
CONTINUOUS
 10
3.51405894
 20
5.0523856354
 11
3.5097437405
 21
5.0201733854
  0
LINE
  5
25A
100
AcDbEntity
  8
0
100
AcDbLine
 62
7
  6
CONTINUOUS
 10
3.5173075407
 20
5.0519504482
 11
3.5129923411
 21
5.0197381981
  0
LINE
  5
25B
100
AcDbEntity
  8
0
100
AcDbLine
 62
7
  6
CONTINUOUS
 10
3.5273057054
 20
5.0506110796
 11
3.5229905058
 21
5.0183988295
  0
LINE
  5
25C
100
AcDbEntity
  8
0
100
AcDbLine
 62
7
  6
CONTINUOUS
 10
3.5355572484
 20
5.049505691
 11
3.5312420488
 21
5.0172934409
  0
LINE
  5
25D
100
AcDbEntity
  8
0
100
AcDbLine
 62
7
  6
CONTINUOUS
 10
3.5380113877
 20
5.0491769309
 11
3.5336961882
 21
5.0169646809
  0
LINE
  5
25E
100
AcDbEntity
  8
0
100
AcDbLine
 62
7
  6
CONTINUOUS
 10
3.5482336137
 20
5.0478075467
 11
3.5439184141
 21
5.0155952967
  0
LINE
  5
25F
100
AcDbEntity
  8
0
100
AcDbLine
 62
7
  6
CONTINUOUS
 10
3.5560971537
 20
5.0467541355
 11
3.5517819542
 21
5.0145418855
  0
LINE
  5
260
100
AcDbEntity
  8
0
100
AcDbLine
 62
7
  6
CONTINUOUS
 10
3.5577417012
 20
5.0465338296
 11
3.5534265016
 21
5.0143215796
  0
LINE
  5
261
100
AcDbEntity
  8
0
100
AcDbLine
 62
7
  6
CONTINUOUS
 10
3.568124965
 20
5.0451428726
 11
3.5638097654
 21
5.0129306225
  0
LINE
  5
262
100
AcDbEntity
  8
0
100
AcDbLine
 62
7
  6
CONTINUOUS
 10
3.5755520207
 20
5.0441479335
 11
3.5712368211
 21
5.0119356834
  0
LINE
  5
263
100
AcDbEntity
  8
0
100
AcDbLine
 62
7
  6
CONTINUOUS
 10
3.576376837
 20
5.0440374399
 11
3.5720616375
 21
5.0118251898
  0
LINE
  5
264
100
AcDbEntity
  8
0
100
AcDbLine
 62
7
  6
CONTINUOUS
 10
3.5868571224
 20
5.0426334857
 11
3.5825419229
 21
5.0104212356
  0
LINE
  5
265
100
AcDbEntity
  8
0
100
AcDbLine
 62
7
  6
CONTINUOUS
 10
3.5938019035
 20
5.0417031528
 11
3.589486704
 21
5.0094909027
  0
LINE
  5
266
100
AcDbEntity
  8
0
100
AcDbLine
 62
7
  6
CONTINUOUS
 10
3.604314596
 20
5.0402948573
 11
3.5999993965
 21
5.0080826073
  0
LINE
  5
267
100
AcDbEntity
  8
0
100
AcDbLine
 62
7
  6
CONTINUOUS
 10
3.6107342857
 20
5.0394348664
 11
3.6064190861
 21
5.0072226164
  0
LINE
  5
268
100
AcDbEntity
  8
0
100
AcDbLine
 62
7
  6
CONTINUOUS
 10
3.6203897547
 20
5.0381414058
 11
3.6160745551
 21
5.0059291558
  0
LINE
  5
269
100
AcDbEntity
  8
0
100
AcDbLine
 62
7
  6
CONTINUOUS
 10
3.6262447733
 20
5.0373570591
 11
3.6219295737
 21
5.005144809
  0
LINE
  5
26A
100
AcDbEntity
  8
0
100
AcDbLine
 62
7
  6
CONTINUOUS
 10
3.6156117246
 20
4.9454551811
 11
3.6222504932
 21
4.9950124888
  0
LINE
  5
26B
100
AcDbEntity
  8
0
100
AcDbLine
 62
7
  6
CONTINUOUS
 10
3.6349834897
 20
5.036186408
 11
3.6306682901
 21
5.0039741579
  0
LINE
  5
26C
100
AcDbEntity
  8
0
100
AcDbLine
 62
7
  6
CONTINUOUS
 10
3.6402377392
 20
5.0354825411
 11
3.6359225396
 21
5.0032702911
  0
LINE
  5
26D
100
AcDbEntity
  8
0
100
AcDbLine
 62
7
  6
CONTINUOUS
 10
3.6480058258
 20
5.034441917
 11
3.6436906263
 21
5.002229667
  0
LINE
  5
26E
100
AcDbEntity
  8
0
100
AcDbLine
 62
7
  6
CONTINUOUS
 10
6.66556338
 20
3.2028300433
 11
6.6655688782
 21
3.2028300433
  0
LINE
  5
26F
100
AcDbEntity
  8
0
100
AcDbLine
 62
7
  6
CONTINUOUS
 10
5.6006449372
 20
3.2028300433
 11
6.6655060372
 21
3.2028300433
  0
LINE
  5
270
100
AcDbEntity
  8
0
100
AcDbLine
 62
7
  6
CONTINUOUS
 10
5.6756069077
 20
3.2478300433
 11
6.5906069077
 21
3.2478300433
  0
LINE
  5
271
100
AcDbEntity
  8
0
100
AcDbLine
 62
7
  6
CONTINUOUS
 10
6.5906069077
 20
3.2746435014
 11
5.6756069077
 21
3.2746435014
  0
LINE
  5
272
100
AcDbEntity
  8
0
100
AcDbLine
 62
7
  6
CONTINUOUS
 10
6.5801661169
 20
3.2889338342
 11
5.6860476985
 21
3.2889338342
  0
LINE
  5
273
100
AcDbEntity
  8
0
100
AcDbLine
 62
7
  6
CONTINUOUS
 10
3.6526269119
 20
5.0338228696
 11
3.6483117124
 21
5.0016106196
  0
LINE
  5
274
100
AcDbEntity
  8
0
100
AcDbLine
 62
7
  6
CONTINUOUS
 10
3.659376476
 20
5.0329186883
 11
3.6550612765
 21
5.0007064382
  0
LINE
  5
275
100
AcDbEntity
  8
0
100
AcDbLine
 62
7
  6
CONTINUOUS
 10
3.6633359083
 20
5.032388277
 11
3.6590207087
 21
5.000176027
  0
LINE
  5
276
100
AcDbEntity
  8
0
100
AcDbLine
 62
7
  6
CONTINUOUS
 10
3.6690253365
 20
5.031626113
 11
3.6647101369
 21
4.9994138629
  0
LINE
  5
277
100
AcDbEntity
  8
0
100
AcDbLine
 62
7
  6
CONTINUOUS
 10
3.6722987036
 20
5.031187608
 11
3.6679835041
 21
4.9989753579
  0
LINE
  5
278
100
AcDbEntity
  8
0
100
AcDbLine
 62
7
  6
CONTINUOUS
 10
3.6768929187
 20
5.0305721603
 11
3.6725777192
 21
4.9983599103
  0
LINE
  5
279
100
AcDbEntity
  8
0
100
AcDbLine
 62
7
  6
CONTINUOUS
 10
3.6794600394
 20
5.0302282651
 11
3.6751448399
 21
4.9980160151
  0
LINE
  5
27A
100
AcDbEntity
  8
0
100
AcDbLine
 62
7
  6
CONTINUOUS
 10
3.6829307165
 20
5.0297633282
 11
3.678615517
 21
4.9975510781
  0
LINE
  5
27B
100
AcDbEntity
  8
0
100
AcDbLine
 62
7
  6
CONTINUOUS
 10
3.6847757636
 20
5.029516163
 11
3.680460564
 21
4.997303913
  0
LINE
  5
27C
100
AcDbEntity
  8
0
100
AcDbLine
 62
7
  6
CONTINUOUS
 10
3.6871015049
 20
5.0292046033
 11
3.6827863053
 21
4.9969923533
  0
LINE
  5
27D
100
AcDbEntity
  8
0
100
AcDbLine
 62
7
  6
CONTINUOUS
 10
3.688213103
 20
5.0290556921
 11
3.6838979034
 21
4.996843442
  0
LINE
  5
27E
100
AcDbEntity
  8
0
100
AcDbLine
 62
7
  6
CONTINUOUS
 10
3.6893795694
 20
5.0288994305
 11
3.6850643699
 21
4.9966871805
  0
LINE
  5
27F
100
AcDbEntity
  8
0
100
AcDbLine
 62
7
  6
CONTINUOUS
 10
3.6897508652
 20
5.0288496912
 11
3.6854356656
 21
4.9966374412
  0
LINE
  5
280
100
AcDbEntity
  8
0
100
AcDbLine
 62
7
  6
CONTINUOUS
 10
6.4723789834
 20
3.3535812822
 11
5.793834832
 21
3.3535812822
  0
LINE
  5
281
100
AcDbEntity
  8
0
100
AcDbLine
 62
7
  6
CONTINUOUS
 10
6.4619190187
 20
3.3578300433
 11
5.8042947967
 21
3.3578300433
  0
LINE
  5
282
100
AcDbEntity
  8
0
100
AcDbLine
 62
7
  6
CONTINUOUS
 10
3.9227097718
 20
5.4831237956
 11
3.91865938
 21
5.4528882996
  0
LINE
  5
283
100
AcDbEntity
  8
0
100
AcDbLine
 62
7
  6
CONTINUOUS
 10
3.9164645702
 20
5.4365044
 11
3.8766224109
 21
5.1390892797
  0
LINE
  5
284
100
AcDbEntity
  8
0
100
AcDbLine
 62
7
  6
CONTINUOUS
 10
3.8745856047
 20
5.1238848594
 11
3.8716671177
 21
5.1020988374
  0
LINE
  5
285
100
AcDbEntity
  8
0
100
AcDbLine
 62
7
  6
CONTINUOUS
 10
3.5762299732
 20
5.0443751802
 11
3.5763438346
 21
5.0440418609
  0
LINE
  5
286
100
AcDbEntity
  8
0
100
AcDbLine
 62
7
  6
CONTINUOUS
 10
4.0495517455
 20
5.402270163
 11
4.007799929
 21
5.1094857269
  0
LINE
  5
287
100
AcDbEntity
  8
0
100
AcDbLine
 62
7
  6
CONTINUOUS
 10
4.0565396176
 20
5.4498166165
 11
4.0519420634
 21
5.4187794024
  0
LINE
  5
288
100
AcDbEntity
  8
0
100
AcDbLine
 62
7
  6
CONTINUOUS
 10
4.0613362751
 20
5.4483961537
 11
4.0567242416
 21
5.4173550647
  0
LINE
  5
289
100
AcDbEntity
  8
0
100
AcDbLine
 62
7
  6
CONTINUOUS
 10
5.8202805671
 20
4.0978300433
 11
6.4459332483
 21
4.0978300433
  0
LINE
  5
28A
100
AcDbEntity
  8
0
100
AcDbLine
 62
7
  6
CONTINUOUS
 10
5.8027309945
 20
4.1082377285
 11
6.4634828209
 21
4.1082377285
  0
LINE
  5
28B
100
AcDbEntity
  8
0
100
AcDbLine
 62
7
  6
CONTINUOUS
 10
5.6937023798
 20
4.2457012026
 11
5.6964778982
 21
4.2457093255
  0
LINE
  5
28C
100
AcDbEntity
  8
0
100
AcDbLine
 62
7
  6
CONTINUOUS
 10
5.7220146432
 20
4.1963608613
 11
6.5441991722
 21
4.1963608613
  0
LINE
  5
28D
100
AcDbEntity
  8
0
100
AcDbLine
 62
7
  6
CONTINUOUS
 10
5.7131069077
 20
4.2130030267
 11
6.5531069077
 21
4.2130030267
  0
LINE
  5
28E
100
AcDbEntity
  8
0
100
AcDbLine
 62
7
  6
CONTINUOUS
 10
6.5531069077
 20
4.2308269013
 11
6.1354946133
 21
4.2308270006
  0
LINE
  5
28F
100
AcDbEntity
  8
0
100
AcDbLine
 62
7
  6
CONTINUOUS
 10
6.1355501658
 20
4.2480784776
 11
6.5629884445
 21
4.2480784723
  0
LINE
  5
290
100
AcDbEntity
  8
0
100
AcDbLine
 62
7
  6
CONTINUOUS
 10
6.1356056348
 20
4.2629873012
 11
6.5727322972
 21
4.2629873089
  0
LINE
  5
291
100
AcDbEntity
  8
0
100
AcDbLine
 62
7
  6
CONTINUOUS
 10
6.1331069077
 20
5.2158300433
 11
6.4329745761
 21
5.349339731
  0
LWPOLYLINE
  5
292
100
AcDbEntity
  8
0
100
AcDbPolyline
 62
7
  6
CONTINUOUS
 90
34
 70
0
 10
4.8311029477
 20
5.9674922445
 10
4.8311076144
 20
5.9674028647
 10
4.8311720185
 20
5.9665536563
 10
4.8312725173
 20
5.9657079603
 10
4.8314089285
 20
5.9648673101
 10
4.8315810048
 20
5.96403323
 10
4.8317884342
 20
5.9632072326
 10
4.8320308403
 20
5.9623908155
 10
4.8323077838
 20
5.9615854593
 10
4.8326187622
 20
5.9607926241
 10
4.8329632118
 20
5.9600137476
 10
4.8333405078
 20
5.9592502421
 10
4.8337499661
 20
5.9585034922
 10
4.8341908443
 20
5.9577748517
 10
4.8346623427
 20
5.957065642
 10
4.8351636065
 20
5.9563771491
 10
4.8356937268
 20
5.9557106213
 10
4.836251742
 20
5.9550672672
 10
4.8368366403
 20
5.9544482536
 10
4.837447361
 20
5.9538547029
 10
4.8380827965
 20
5.9532876914
 10
4.8387417941
 20
5.9527482475
 10
4.8394231587
 20
5.9522373493
 10
4.8401256547
 20
5.951755923
 10
4.8408480076
 20
5.9513048419
 10
4.8415889076
 20
5.9508849236
 10
4.8423470109
 20
5.9504969292
 10
4.8431209421
 20
5.9501415626
 10
4.8439092976
 20
5.9498194676
 10
4.8447106479
 20
5.9495312281
 10
4.8455235385
 20
5.9492773665
 10
4.8463464949
 20
5.9490583429
 10
4.8471780253
 20
5.9488745536
 10
5.946963714
 20
5.7389318016
  0
LINE
  5
293
100
AcDbEntity
  8
0
100
AcDbLine
 62
7
  6
CONTINUOUS
 10
5.1314790253
 20
5.0780493776
 11
4.9875068371
 21
4.5946146045
  0
LINE
  5
294
100
AcDbEntity
  8
0
100
AcDbLine
 62
7
  6
CONTINUOUS
 10
5.1456069077
 20
5.1254884706
 11
5.1366448295
 21
5.0953952931
  0
LINE
  5
295
100
AcDbEntity
  8
0
100
AcDbLine
 62
7
  6
CONTINUOUS
 10
3.1307222955
 20
4.9246523702
 11
3.5823562631
 21
4.8641508312
  0
LINE
  5
296
100
AcDbEntity
  8
0
100
AcDbLine
 62
7
  6
CONTINUOUS
 10
3.1265943337
 20
4.9281804166
 11
3.5872672591
 21
4.8664680058
  0
LINE
  5
297
100
AcDbEntity
  8
0
100
AcDbLine
 62
7
  6
CONTINUOUS
 10
3.6156117246
 20
4.9454551811
 11
3.1200386471
 21
5.0118428667
  0
LINE
  5
298
100
AcDbEntity
  8
0
100
AcDbLine
 62
7
  6
CONTINUOUS
 10
3.6222504932
 20
4.9950124888
 11
3.1266774157
 21
5.0614001745
  0
LINE
  5
299
100
AcDbEntity
  8
0
100
AcDbLine
 62
7
  6
CONTINUOUS
 10
3.6854356656
 20
4.9966374412
 11
3.0661477507
 21
5.0795981453
  0
LINE
  5
29A
100
AcDbEntity
  8
0
100
AcDbLine
 62
7
  6
CONTINUOUS
 10
3.0704629502
 20
5.1118103953
 11
3.6897508652
 21
5.0288496912
  0
LINE
  5
29B
100
AcDbEntity
  8
0
100
AcDbLine
 62
7
  6
CONTINUOUS
 10
6.6445713738
 20
3.0888655772
 11
6.6641424416
 21
3.0692945093
  0
LINE
  5
29C
100
AcDbEntity
  8
0
100
AcDbLine
 62
7
  6
CONTINUOUS
 10
5.6935661161
 20
5.027639874
 11
5.6919779192
 21
5.0276383313
  0
LINE
  5
29D
100
AcDbEntity
  8
0
100
AcDbLine
 62
7
  6
CONTINUOUS
 10
6.0315818668
 20
5.0599505395
 11
6.0486246753
 21
5.0599611921
  0
LINE
  5
29E
100
AcDbEntity
  8
0
100
AcDbLine
 62
7
  6
CONTINUOUS
 10
6.5729845212
 20
5.0279764038
 11
6.1356065554
 21
5.0279763936
  0
LINE
  5
29F
100
AcDbEntity
  8
0
100
AcDbLine
 62
7
  6
CONTINUOUS
 10
6.5631336413
 20
5.0426659585
 11
6.1355509634
 21
5.0426659573
  0
LINE
  5
2A0
100
AcDbEntity
  8
0
100
AcDbLine
 62
7
  6
CONTINUOUS
 10
5.9084266665
 20
5.0453300433
 11
5.6853502044
 21
5.0453268666
  0
LINE
  5
2A1
100
AcDbEntity
  8
0
100
AcDbLine
 62
7
  6
CONTINUOUS
 10
6.1354941344
 20
5.0600018498
 11
6.5531069077
 21
5.0600018737
  0
LINE
  5
2A2
100
AcDbEntity
  8
0
100
AcDbLine
 62
7
  6
CONTINUOUS
 10
5.7131069077
 20
5.0776570598
 11
6.5531069077
 21
5.0776570598
  0
LINE
  5
2A3
100
AcDbEntity
  8
0
100
AcDbLine
 62
7
  6
CONTINUOUS
 10
5.7220146432
 20
5.0942992252
 11
6.5441991722
 21
5.0942992252
  0
LINE
  5
2A4
100
AcDbEntity
  8
0
100
AcDbLine
 62
7
  6
CONTINUOUS
 10
5.7131069077
 20
5.0653316848
 11
5.9186394057
 21
5.0653300432
  0
LINE
  5
2A5
100
AcDbEntity
  8
0
100
AcDbLine
 62
7
  6
CONTINUOUS
 10
5.6935659119
 20
5.027632844
 11
5.69197812
 21
5.0276452981
  0
LINE
  5
2A6
100
AcDbEntity
  8
0
100
AcDbLine
 62
7
  6
CONTINUOUS
 10
5.8027309945
 20
5.182422358
 11
6.4634828209
 21
5.182422358
  0
LINE
  5
2A7
100
AcDbEntity
  8
0
100
AcDbLine
 62
7
  6
CONTINUOUS
 10
5.8202805671
 20
5.1928300433
 11
6.4459332483
 21
5.1928300433
  0
LINE
  5
2A8
100
AcDbEntity
  8
0
100
AcDbLine
 62
7
  6
CONTINUOUS
 10
6.1331069077
 20
5.2158300433
 11
5.8170159909
 21
5.2158300433
  0
LINE
  5
2A9
100
AcDbEntity
  8
0
100
AcDbLine
 62
7
  6
CONTINUOUS
 10
3.9164650256
 20
5.436506544
 11
3.9149975773
 21
5.4368139151
  0
LINE
  5
2AA
100
AcDbEntity
  8
0
100
AcDbLine
 62
7
  6
CONTINUOUS
 10
3.9201440729
 20
5.4525729513
 11
3.9186592842
 21
5.4528879427
  0
LINE
  5
2AB
100
AcDbEntity
  8
0
100
AcDbLine
 62
7
  6
CONTINUOUS
 10
5.1380548245
 20
5.0949756242
 11
5.1366442976
 21
5.0953945955
  0
LINE
  5
2AC
100
AcDbEntity
  8
0
100
AcDbLine
 62
7
  6
CONTINUOUS
 10
4.0567242945
 20
5.4173552087
 11
4.0519419307
 21
5.4187790403
  0
LINE
  5
2AD
100
AcDbEntity
  8
0
100
AcDbLine
 62
7
  6
CONTINUOUS
 10
4.0613362751
 20
5.4483961537
 11
5.1456069077
 21
5.1254884706
  0
LINE
  5
2AE
100
AcDbEntity
  8
0
100
AcDbLine
 62
7
  6
CONTINUOUS
 10
4.0517336805
 20
5.401618845
 11
4.0469561816
 21
5.4030429548
  0
LINE
  5
2AF
100
AcDbEntity
  8
0
100
AcDbLine
 62
7
  6
CONTINUOUS
 10
5.1314790253
 20
5.0780493776
 11
5.1300419743
 21
5.0784792092
  0
LINE
  5
2B0
100
AcDbEntity
  8
0
100
AcDbLine
 62
7
  6
CONTINUOUS
 10
4.8865930038
 20
6.190641063
 11
4.8865687582
 21
6.1906965655
  0
LINE
  5
2B1
100
AcDbEntity
  8
0
100
AcDbLine
 62
7
  6
CONTINUOUS
 10
5.6006069077
 20
3.0657589754
 11
5.6006069077
 21
3.0028300433
  0
LINE
  5
2B2
100
AcDbEntity
  8
0
100
AcDbLine
 62
7
  6
CONTINUOUS
 10
5.6006449372
 20
3.1708300433
 11
5.6006449372
 21
3.2028300433
  0
LINE
  5
2B3
100
AcDbEntity
  8
0
100
AcDbLine
 62
7
  6
CONTINUOUS
 10
5.6007077782
 20
3.1708300433
 11
5.6007077782
 21
3.2028300433
  0
LINE
  5
2B4
100
AcDbEntity
  8
0
100
AcDbLine
 62
7
  6
CONTINUOUS
 10
5.6011075719
 20
3.1708300433
 11
5.6011075719
 21
3.2028300433
  0
LINE
  5
2B5
100
AcDbEntity
  8
0
100
AcDbLine
 62
7
  6
CONTINUOUS
 10
5.6012960329
 20
3.1708300433
 11
5.6012960329
 21
3.2028300433
  0
LINE
  5
2B6
100
AcDbEntity
  8
0
100
AcDbLine
 62
7
  6
CONTINUOUS
 10
5.6020952257
 20
3.1708300433
 11
5.6020952257
 21
3.2028300433
  0
LINE
  5
2B7
100
AcDbEntity
  8
0
100
AcDbLine
 62
7
  6
CONTINUOUS
 10
5.6024091207
 20
3.1708300433
 11
5.6024091207
 21
3.2028300433
  0
LINE
  5
2B8
100
AcDbEntity
  8
0
100
AcDbLine
 62
7
  6
CONTINUOUS
 10
5.6036069239
 20
3.1708300433
 11
5.6036069239
 21
3.2028300433
  0
LINE
  5
2B9
100
AcDbEntity
  8
0
100
AcDbLine
 62
7
  6
CONTINUOUS
 10
5.6040459431
 20
3.1708300433
 11
5.6040459431
 21
3.2028300433
  0
LINE
  5
2BA
100
AcDbEntity
  8
0
100
AcDbLine
 62
7
  6
CONTINUOUS
 10
5.6056411747
 20
3.1708300433
 11
5.6056411747
 21
3.2028300433
  0
LINE
  5
2BB
100
AcDbEntity
  8
0
100
AcDbLine
 62
7
  6
CONTINUOUS
 10
5.6062048848
 20
3.1708300433
 11
5.6062048848
 21
3.2028300433
  0
LINE
  5
2BC
100
AcDbEntity
  8
0
100
AcDbLine
 62
7
  6
CONTINUOUS
 10
5.6081959705
 20
3.1708300433
 11
5.6081959705
 21
3.2028300433
  0
LINE
  5
2BD
100
AcDbEntity
  8
0
100
AcDbLine
 62
7
  6
CONTINUOUS
 10
5.6088838152
 20
3.1708300433
 11
5.6088838152
 21
3.2028300433
  0
LINE
  5
2BE
100
AcDbEntity
  8
0
100
AcDbLine
 62
7
  6
CONTINUOUS
 10
5.61126879
 20
3.1708300433
 11
5.61126879
 21
3.2028300433
  0
LINE
  5
2BF
100
AcDbEntity
  8
0
100
AcDbLine
 62
7
  6
CONTINUOUS
 10
5.6120800905
 20
3.1708300433
 11
5.6120800905
 21
3.2028300433
  0
LINE
  5
2C0
100
AcDbEntity
  8
0
100
AcDbLine
 62
7
  6
CONTINUOUS
 10
5.6148566007
 20
3.1708300433
 11
5.6148566007
 21
3.2028300433
  0
LINE
  5
2C1
100
AcDbEntity
  8
0
100
AcDbLine
 62
7
  6
CONTINUOUS
 10
5.6157905564
 20
3.1708300433
 11
5.6157905564
 21
3.2028300433
  0
LINE
  5
2C2
100
AcDbEntity
  8
0
100
AcDbLine
 62
7
  6
CONTINUOUS
 10
5.6189558619
 20
3.1708300433
 11
5.6189558619
 21
3.2028300433
  0
LINE
  5
2C3
100
AcDbEntity
  8
0
100
AcDbLine
 62
7
  6
CONTINUOUS
 10
5.6200115511
 20
3.1708300433
 11
5.6200115511
 21
3.2028300433
  0
LINE
  5
2C4
100
AcDbEntity
  8
0
100
AcDbLine
 62
7
  6
CONTINUOUS
 10
5.6231069077
 20
3.1708300433
 11
5.6231069077
 21
3.0924011111
  0
LINE
  5
2C5
100
AcDbEntity
  8
0
100
AcDbLine
 62
7
  6
CONTINUOUS
 10
5.6235625281
 20
3.1708300433
 11
5.6235625281
 21
3.2028300433
  0
LINE
  5
2C6
100
AcDbEntity
  8
0
100
AcDbLine
 62
7
  6
CONTINUOUS
 10
5.6247389089
 20
3.1708300433
 11
5.6247389089
 21
3.2028300433
  0
LINE
  5
2C7
100
AcDbEntity
  8
0
100
AcDbLine
 62
7
  6
CONTINUOUS
 10
5.6286720531
 20
3.1708300433
 11
5.6286720531
 21
3.2028300433
  0
LINE
  5
2C8
100
AcDbEntity
  8
0
100
AcDbLine
 62
7
  6
CONTINUOUS
 10
5.6299679646
 20
3.1708300433
 11
5.6299679646
 21
3.2028300433
  0
LINE
  5
2C9
100
AcDbEntity
  8
0
100
AcDbLine
 62
7
  6
CONTINUOUS
 10
5.6342793944
 20
3.1708300433
 11
5.6342793944
 21
3.2028300433
  0
LINE
  5
2CA
100
AcDbEntity
  8
0
100
AcDbLine
 62
7
  6
CONTINUOUS
 10
5.6356935576
 20
3.1708300433
 11
5.6356935576
 21
3.2028300433
  0
LINE
  5
2CB
100
AcDbEntity
  8
0
100
AcDbLine
 62
7
  6
CONTINUOUS
 10
5.6403790182
 20
3.1708300433
 11
5.6403790182
 21
3.2028300433
  0
LINE
  5
2CC
100
AcDbEntity
  8
0
100
AcDbLine
 62
7
  6
CONTINUOUS
 10
5.6419100376
 20
3.1708300433
 11
5.6419100376
 21
3.2028300433
  0
LINE
  5
2CD
100
AcDbEntity
  8
0
100
AcDbLine
 62
7
  6
CONTINUOUS
 10
5.646964905
 20
3.1708300433
 11
5.646964905
 21
3.2028300433
  0
LINE
  5
2CE
100
AcDbEntity
  8
0
100
AcDbLine
 62
7
  6
CONTINUOUS
 10
5.6486112696
 20
3.1708300433
 11
5.6486112696
 21
3.2028300433
  0
LINE
  5
2CF
100
AcDbEntity
  8
0
100
AcDbLine
 62
7
  6
CONTINUOUS
 10
5.6540305552
 20
3.1708300433
 11
5.6540305552
 21
3.2028300433
  0
LINE
  5
2D0
100
AcDbEntity
  8
0
100
AcDbLine
 62
7
  6
CONTINUOUS
 10
5.6557906403
 20
3.1708300433
 11
5.6557906403
 21
3.2028300433
  0
LINE
  5
2D1
100
AcDbEntity
  8
0
100
AcDbLine
 62
7
  6
CONTINUOUS
 10
5.661568996
 20
3.1708300433
 11
5.661568996
 21
3.2028300433
  0
LINE
  5
2D2
100
AcDbEntity
  8
0
100
AcDbLine
 62
7
  6
CONTINUOUS
 10
5.6634410645
 20
3.1708300433
 11
5.6634410645
 21
3.2028300433
  0
LINE
  5
2D3
100
AcDbEntity
  8
0
100
AcDbLine
 62
7
  6
CONTINUOUS
 10
5.6695727877
 20
3.1708300433
 11
5.6695727877
 21
3.2028300433
  0
LINE
  5
2D4
100
AcDbEntity
  8
0
100
AcDbLine
 62
7
  6
CONTINUOUS
 10
5.6715549922
 20
3.1708300433
 11
5.6715549922
 21
3.2028300433
  0
LINE
  5
2D5
100
AcDbEntity
  8
0
100
AcDbLine
 62
7
  6
CONTINUOUS
 10
5.6756069077
 20
3.2746435014
 11
5.6756069077
 21
3.2478300433
  0
LINE
  5
2D6
100
AcDbEntity
  8
0
100
AcDbLine
 62
7
  6
CONTINUOUS
 10
5.6780340317
 20
3.1708300433
 11
5.6780340317
 21
3.2028300433
  0
LINE
  5
2D7
100
AcDbEntity
  8
0
100
AcDbLine
 62
7
  6
CONTINUOUS
 10
5.6801244159
 20
3.1708300433
 11
5.6801244159
 21
3.2028300433
  0
LINE
  5
2D8
100
AcDbEntity
  8
0
100
AcDbLine
 62
7
  6
CONTINUOUS
 10
5.6869443776
 20
3.1708300433
 11
5.6869443776
 21
3.2028300433
  0
LINE
  5
2D9
100
AcDbEntity
  8
0
100
AcDbLine
 62
7
  6
CONTINUOUS
 10
5.6891408787
 20
3.1708300433
 11
5.6891408787
 21
3.2028300433
  0
LINE
  5
2DA
100
AcDbEntity
  8
0
100
AcDbLine
 62
7
  6
CONTINUOUS
 10
5.6962950321
 20
3.1708300433
 11
5.6962950321
 21
3.2028300433
  0
LINE
  5
2DB
100
AcDbEntity
  8
0
100
AcDbLine
 62
7
  6
CONTINUOUS
 10
5.6985954823
 20
3.1708300433
 11
5.6985954823
 21
3.2028300433
  0
LINE
  5
2DC
100
AcDbEntity
  8
0
100
AcDbLine
 62
7
  6
CONTINUOUS
 10
5.7060767672
 20
3.1708300433
 11
5.7060767672
 21
3.2028300433
  0
LINE
  5
2DD
100
AcDbEntity
  8
0
100
AcDbLine
 62
7
  6
CONTINUOUS
 10
5.7084788962
 20
3.1708300433
 11
5.7084788962
 21
3.2028300433
  0
LINE
  5
2DE
100
AcDbEntity
  8
0
100
AcDbLine
 62
7
  6
CONTINUOUS
 10
5.7131069077
 20
4.2130030267
 11
5.7131069077
 21
4.2255762021
  0
LINE
  5
2DF
100
AcDbEntity
  8
0
100
AcDbLine
 62
7
  6
CONTINUOUS
 10
5.7131069077
 20
5.0653316848
 11
5.7131069077
 21
5.0776570598
  0
LINE
  5
2E0
100
AcDbEntity
  8
0
100
AcDbLine
 62
7
  6
CONTINUOUS
 10
5.7162799294
 20
3.1708300433
 11
5.7162799294
 21
3.2028300433
  0
LINE
  5
2E1
100
AcDbEntity
  8
0
100
AcDbLine
 62
7
  6
CONTINUOUS
 10
5.7187813668
 20
3.1708300433
 11
5.7187813668
 21
3.2028300433
  0
LINE
  5
2E2
100
AcDbEntity
  8
0
100
AcDbLine
 62
7
  6
CONTINUOUS
 10
5.7268944496
 20
3.1708300433
 11
5.7268944496
 21
3.2028300433
  0
LINE
  5
2E3
100
AcDbEntity
  8
0
100
AcDbLine
 62
7
  6
CONTINUOUS
 10
5.7294927266
 20
3.1708300433
 11
5.7294927266
 21
3.2028300433
  0
LINE
  5
2E4
100
AcDbEntity
  8
0
100
AcDbLine
 62
7
  6
CONTINUOUS
 10
5.7379098524
 20
3.1708300433
 11
5.7379098524
 21
3.2028300433
  0
LINE
  5
2E5
100
AcDbEntity
  8
0
100
AcDbLine
 62
7
  6
CONTINUOUS
 10
5.7406024048
 20
3.1708300433
 11
5.7406024048
 21
3.2028300433
  0
LINE
  5
2E6
100
AcDbEntity
  8
0
100
AcDbLine
 62
7
  6
CONTINUOUS
 10
5.749315267
 20
3.1708300433
 11
5.749315267
 21
3.2028300433
  0
LINE
  5
2E7
100
AcDbEntity
  8
0
100
AcDbLine
 62
7
  6
CONTINUOUS
 10
5.7520994377
 20
3.1708300433
 11
5.7520994377
 21
3.2028300433
  0
LINE
  5
2E8
100
AcDbEntity
  8
0
100
AcDbLine
 62
7
  6
CONTINUOUS
 10
5.7610994377
 20
3.1708300433
 11
5.7610994377
 21
3.2028300433
  0
LINE
  5
2E9
100
AcDbEntity
  8
0
100
AcDbLine
 62
7
  6
CONTINUOUS
 10
5.7639724789
 20
3.1708300433
 11
5.7639724789
 21
3.2028300433
  0
LINE
  5
2EA
100
AcDbEntity
  8
0
100
AcDbLine
 62
7
  6
CONTINUOUS
 10
5.7729680379
 20
3.2028300433
 11
5.7729680379
 21
3.1708300433
  0
LINE
  5
2EB
100
AcDbEntity
  8
0
100
AcDbLine
 62
7
  6
CONTINUOUS
 10
5.7732507347
 20
3.1708300433
 11
5.7732507347
 21
3.2028300433
  0
LINE
  5
2EC
100
AcDbEntity
  8
0
100
AcDbLine
 62
7
  6
CONTINUOUS
 10
5.7762098112
 20
3.1708300433
 11
5.7762098112
 21
3.2028300433
  0
LINE
  5
2ED
100
AcDbEntity
  8
0
100
AcDbLine
 62
7
  6
CONTINUOUS
 10
5.7851920517
 20
3.2028300433
 11
5.7851920517
 21
3.1708300433
  0
LINE
  5
2EE
100
AcDbEntity
  8
0
100
AcDbLine
 62
7
  6
CONTINUOUS
 10
5.7857571664
 20
3.1708300433
 11
5.7857571664
 21
3.2028300433
  0
LINE
  5
2EF
100
AcDbEntity
  8
0
100
AcDbLine
 62
7
  6
CONTINUOUS
 10
5.7887993579
 20
3.1708300433
 11
5.7887993579
 21
3.2028300433
  0
LINE
  5
2F0
100
AcDbEntity
  8
0
100
AcDbLine
 62
7
  6
CONTINUOUS
 10
5.7977594155
 20
3.2028300433
 11
5.7977594155
 21
3.1708300433
  0
LINE
  5
2F1
100
AcDbEntity
  8
0
100
AcDbLine
 62
7
  6
CONTINUOUS
 10
5.7986063904
 20
3.1708300433
 11
5.7986063904
 21
3.2028300433
  0
LINE
  5
2F2
100
AcDbEntity
  8
0
100
AcDbLine
 62
7
  6
CONTINUOUS
 10
5.8017286945
 20
3.1708300433
 11
5.8017286945
 21
3.2028300433
  0
LINE
  5
2F3
100
AcDbEntity
  8
0
100
AcDbLine
 62
7
  6
CONTINUOUS
 10
5.8106577268
 20
3.2028300433
 11
5.8106577268
 21
3.1708300433
  0
LINE
  5
2F4
100
AcDbEntity
  8
0
100
AcDbLine
 62
7
  6
CONTINUOUS
 10
5.8117857259
 20
3.1708300433
 11
5.8117857259
 21
3.2028300433
  0
LINE
  5
2F5
100
AcDbEntity
  8
0
100
AcDbLine
 62
7
  6
CONTINUOUS
 10
5.8149850614
 20
3.1708300433
 11
5.8149850614
 21
3.2028300433
  0
LINE
  5
2F6
100
AcDbEntity
  8
0
100
AcDbLine
 62
7
  6
CONTINUOUS
 10
5.8206069077
 20
4.0978300433
 11
5.8206069077
 21
3.3578300433
  0
LINE
  5
2F7
100
AcDbEntity
  8
0
100
AcDbLine
 62
7
  6
CONTINUOUS
 10
5.8238742565
 20
3.2028300433
 11
5.8238742565
 21
3.1708300433
  0
LINE
  5
2F8
100
AcDbEntity
  8
0
100
AcDbLine
 62
7
  6
CONTINUOUS
 10
5.8252821667
 20
3.1708300433
 11
5.8252821667
 21
3.2028300433
  0
LINE
  5
2F9
100
AcDbEntity
  8
0
100
AcDbLine
 62
7
  6
CONTINUOUS
 10
5.8285553762
 20
3.1708300433
 11
5.8285553762
 21
3.2028300433
  0
LINE
  5
2FA
100
AcDbEntity
  8
0
100
AcDbLine
 62
7
  6
CONTINUOUS
 10
5.8373959615
 20
3.2028300433
 11
5.8373959615
 21
3.1708300433
  0
LINE
  5
2FB
100
AcDbEntity
  8
0
100
AcDbLine
 62
7
  6
CONTINUOUS
 10
5.8390823933
 20
3.1708300433
 11
5.8390823933
 21
3.2028300433
  0
LINE
  5
2FC
100
AcDbEntity
  8
0
100
AcDbLine
 62
7
  6
CONTINUOUS
 10
5.8424262466
 20
3.1708300433
 11
5.8424262466
 21
3.2028300433
  0
LINE
  5
2FD
100
AcDbEntity
  8
0
100
AcDbLine
 62
7
  6
CONTINUOUS
 10
5.9468561963
 20
5.7389517653
 11
5.9468586358
 21
5.7389521541
  0
LINE
  5
2FE
100
AcDbEntity
  8
0
100
AcDbLine
 62
7
  6
CONTINUOUS
 10
3.432020575
 20
5.4731527405
 11
3.4305567357
 21
5.4730684789
  0
LINE
  5
2FF
100
AcDbEntity
  8
0
100
AcDbLine
 62
7
  6
CONTINUOUS
 10
3.43633702
 20
5.4618883576
 11
3.4310648838
 21
5.4615929999
  0
LINE
  5
300
100
AcDbEntity
  8
0
100
AcDbLine
 62
7
  6
CONTINUOUS
 10
3.436337471
 20
5.4618782188
 11
3.4325315586
 21
5.4616859415
  0
LINE
  5
301
100
AcDbEntity
  8
0
100
AcDbLine
 62
7
  6
CONTINUOUS
 10
3.432532236
 20
5.4616701167
 11
3.4310646772
 21
5.4615979642
  0
LINE
  5
302
100
AcDbEntity
  8
0
100
AcDbLine
 62
7
  6
CONTINUOUS
 10
6.3972252586
 20
5.5096189248
 11
5.8689885569
 21
5.5096189248
  0
LINE
  5
303
100
AcDbEntity
  8
0
100
AcDbLine
 62
7
  6
CONTINUOUS
 10
6.3916829626
 20
5.5184212947
 11
5.8745308528
 21
5.5184212947
  0
LINE
  5
304
100
AcDbEntity
  8
0
100
AcDbLine
 62
7
  6
CONTINUOUS
 10
4.9097023591
 20
6.1995284048
 11
4.909672259
 21
6.1995773372
  0
LINE
  5
305
100
AcDbEntity
  8
0
100
AcDbLine
 62
7
  6
CONTINUOUS
 10
5.8512094975
 20
3.2028300433
 11
5.8512094975
 21
3.1708300433
  0
LINE
  5
306
100
AcDbEntity
  8
0
100
AcDbLine
 62
7
  6
CONTINUOUS
 10
5.8531727866
 20
3.1708300433
 11
5.8531727866
 21
3.2028300433
  0
LINE
  5
307
100
AcDbEntity
  8
0
100
AcDbLine
 62
7
  6
CONTINUOUS
 10
5.8565839837
 20
3.1708300433
 11
5.8565839837
 21
3.2028300433
  0
LINE
  5
308
100
AcDbEntity
  8
0
100
AcDbLine
 62
7
  6
CONTINUOUS
 10
5.8653012322
 20
3.2028300433
 11
5.8653012322
 21
3.1708300433
  0
LINE
  5
309
100
AcDbEntity
  8
0
100
AcDbLine
 62
7
  6
CONTINUOUS
 10
5.8675394411
 20
3.1708300433
 11
5.8675394411
 21
3.2028300433
  0
LINE
  5
30A
100
AcDbEntity
  8
0
100
AcDbLine
 62
7
  6
CONTINUOUS
 10
5.8710146156
 20
3.1708300433
 11
5.8710146156
 21
3.2028300433
  0
LINE
  5
30B
100
AcDbEntity
  8
0
100
AcDbLine
 62
7
  6
CONTINUOUS
 10
5.8796572587
 20
3.2028300433
 11
5.8796572587
 21
3.1708300433
  0
LINE
  5
30C
100
AcDbEntity
  8
0
100
AcDbLine
 62
7
  6
CONTINUOUS
 10
5.8821681787
 20
3.1708300433
 11
5.8821681787
 21
3.2028300433
  0
LINE
  5
30D
100
AcDbEntity
  8
0
100
AcDbLine
 62
7
  6
CONTINUOUS
 10
5.8857039008
 20
3.1708300433
 11
5.8857039008
 21
3.2028300433
  0
LINE
  5
30E
100
AcDbEntity
  8
0
100
AcDbLine
 62
7
  6
CONTINUOUS
 10
5.8942634095
 20
3.2028300433
 11
5.8942634095
 21
3.1708300433
  0
LINE
  5
30F
100
AcDbEntity
  8
0
100
AcDbLine
 62
7
  6
CONTINUOUS
 10
5.8970445624
 20
3.1708300433
 11
5.8970445624
 21
3.2028300433
  0
LINE
  5
310
100
AcDbEntity
  8
0
100
AcDbLine
 62
7
  6
CONTINUOUS
 10
5.900637343
 20
3.1708300433
 11
5.900637343
 21
3.2028300433
  0
LINE
  5
311
100
AcDbEntity
  8
0
100
AcDbLine
 62
7
  6
CONTINUOUS
 10
5.90910527
 20
3.2028300433
 11
5.90910527
 21
3.1708300433
  0
LINE
  5
312
100
AcDbEntity
  8
0
100
AcDbLine
 62
7
  6
CONTINUOUS
 10
5.9121539112
 20
3.1708300433
 11
5.9121539112
 21
3.2028300433
  0
LINE
  5
313
100
AcDbEntity
  8
0
100
AcDbLine
 62
7
  6
CONTINUOUS
 10
5.9158002046
 20
3.1708300433
 11
5.9158002046
 21
3.2028300433
  0
LINE
  5
314
100
AcDbEntity
  8
0
100
AcDbLine
 62
7
  6
CONTINUOUS
 10
5.924168193
 20
3.2028300433
 11
5.924168193
 21
3.1708300433
  0
LINE
  5
315
100
AcDbEntity
  8
0
100
AcDbLine
 62
7
  6
CONTINUOUS
 10
5.927481314
 20
3.1708300433
 11
5.927481314
 21
3.2028300433
  0
LINE
  5
316
100
AcDbEntity
  8
0
100
AcDbLine
 62
7
  6
CONTINUOUS
 10
5.9311775217
 20
3.1708300433
 11
5.9311775217
 21
3.2028300433
  0
LINE
  5
317
100
AcDbEntity
  8
0
100
AcDbLine
 62
7
  6
CONTINUOUS
 10
5.9394373133
 20
3.2028300433
 11
5.9394373133
 21
3.1708300433
  0
LINE
  5
318
100
AcDbEntity
  8
0
100
AcDbLine
 62
7
  6
CONTINUOUS
 10
5.9430116443
 20
3.1708300433
 11
5.9430116443
 21
3.2028300433
  0
LINE
  5
319
100
AcDbEntity
  8
0
100
AcDbLine
 62
7
  6
CONTINUOUS
 10
5.9467541187
 20
3.1708300433
 11
5.9467541187
 21
3.2028300433
  0
LINE
  5
31A
100
AcDbEntity
  8
0
100
AcDbLine
 62
7
  6
CONTINUOUS
 10
5.9548975621
 20
3.2028300433
 11
5.9548975621
 21
3.1708300433
  0
LINE
  5
31B
100
AcDbEntity
  8
0
100
AcDbLine
 62
7
  6
CONTINUOUS
 10
5.9587295758
 20
3.1708300433
 11
5.9587295758
 21
3.2028300433
  0
LINE
  5
31C
100
AcDbEntity
  8
0
100
AcDbLine
 62
7
  6
CONTINUOUS
 10
5.9625146234
 20
3.1708300433
 11
5.9625146234
 21
3.2028300433
  0
LINE
  5
31D
100
AcDbEntity
  8
0
100
AcDbLine
 62
7
  6
CONTINUOUS
 10
5.9705336821
 20
3.2028300433
 11
5.9705336821
 21
3.1708300433
  0
LINE
  5
31E
100
AcDbEntity
  8
0
100
AcDbLine
 62
7
  6
CONTINUOUS
 10
5.9718569077
 20
5.9028300433
 11
5.9718569077
 21
5.9078300433
  0
LINE
  5
31F
100
AcDbEntity
  8
0
100
AcDbLine
 62
7
  6
CONTINUOUS
 10
5.9746195966
 20
3.1708300433
 11
5.9746195966
 21
3.2028300433
  0
LINE
  5
320
100
AcDbEntity
  8
0
100
AcDbLine
 62
7
  6
CONTINUOUS
 10
5.978443482
 20
3.1708300433
 11
5.978443482
 21
3.2028300433
  0
LINE
  5
321
100
AcDbEntity
  8
0
100
AcDbLine
 62
7
  6
CONTINUOUS
 10
5.9863302422
 20
3.2028300433
 11
5.9863302422
 21
3.1708300433
  0
LINE
  5
322
100
AcDbEntity
  8
0
100
AcDbLine
 62
7
  6
CONTINUOUS
 10
5.9906660252
 20
3.1708300433
 11
5.9906660252
 21
3.2028300433
  0
LINE
  5
323
100
AcDbEntity
  8
0
100
AcDbLine
 62
7
  6
CONTINUOUS
 10
5.9945249749
 20
3.1708300433
 11
5.9945249749
 21
3.2028300433
  0
LINE
  5
324
100
AcDbEntity
  8
0
100
AcDbLine
 62
7
  6
CONTINUOUS
 10
6.0022716531
 20
3.2028300433
 11
6.0022716531
 21
3.1708300433
  0
LINE
  5
325
100
AcDbEntity
  8
0
100
AcDbLine
 62
7
  6
CONTINUOUS
 10
6.0068530258
 20
3.1708300433
 11
6.0068530258
 21
3.2028300433
  0
LINE
  5
326
100
AcDbEntity
  8
0
100
AcDbLine
 62
7
  6
CONTINUOUS
 10
6.0107432313
 20
3.1708300433
 11
6.0107432313
 21
3.2028300433
  0
LINE
  5
327
100
AcDbEntity
  8
0
100
AcDbLine
 62
7
  6
CONTINUOUS
 10
5.9981069077
 20
5.6828300433
 11
6.2681069077
 21
5.6828300433
  0
LINE
  5
328
100
AcDbEntity
  8
0
100
AcDbLine
 62
7
  6
CONTINUOUS
 10
5.9731069077
 20
5.7128300433
 11
6.2931069077
 21
5.7128300433
  0
LINE
  5
329
100
AcDbEntity
  8
0
100
AcDbLine
 62
7
  6
CONTINUOUS
 10
5.9863293384
 20
5.7228300433
 11
6.3031069077
 21
5.7228300433
  0
LINE
  5
32A
100
AcDbEntity
  8
0
100
AcDbLine
 62
7
  6
CONTINUOUS
 10
6.0183421826
 20
3.2028300433
 11
6.0183421826
 21
3.1708300433
  0
LINE
  5
32B
100
AcDbEntity
  8
0
100
AcDbLine
 62
7
  6
CONTINUOUS
 10
6.0231646238
 20
3.1708300433
 11
6.0231646238
 21
3.2028300433
  0
LINE
  5
32C
100
AcDbEntity
  8
0
100
AcDbLine
 62
7
  6
CONTINUOUS
 10
6.0270822459
 20
3.1708300433
 11
6.0270822459
 21
3.2028300433
  0
LINE
  5
32D
100
AcDbEntity
  8
0
100
AcDbLine
 62
7
  6
CONTINUOUS
 10
6.0331069077
 20
5.9738300433
 11
6.0331069077
 21
5.9786247376
  0
LINE
  5
32E
100
AcDbEntity
  8
0
100
AcDbLine
 62
7
  6
CONTINUOUS
 10
6.0345259711
 20
3.2028300433
 11
6.0345259711
 21
3.1708300433
  0
LINE
  5
32F
100
AcDbEntity
  8
0
100
AcDbLine
 62
7
  6
CONTINUOUS
 10
6.0395847215
 20
3.1708300433
 11
6.0395847215
 21
3.2028300433
  0
LINE
  5
330
100
AcDbEntity
  8
0
100
AcDbLine
 62
7
  6
CONTINUOUS
 10
6.0435258941
 20
3.1708300433
 11
6.0435258941
 21
3.2028300433
  0
LINE
  5
331
100
AcDbEntity
  8
0
100
AcDbLine
 62
7
  6
CONTINUOUS
 10
6.050807047
 20
3.2028300433
 11
6.050807047
 21
3.1708300433
  0
LINE
  5
332
100
AcDbEntity
  8
0
100
AcDbLine
 62
7
  6
CONTINUOUS
 10
6.0560971143
 20
3.1708300433
 11
6.0560971143
 21
3.2028300433
  0
LINE
  5
333
100
AcDbEntity
  8
0
100
AcDbLine
 62
7
  6
CONTINUOUS
 10
6.0600579479
 20
3.1708300433
 11
6.0600579479
 21
3.2028300433
  0
LINE
  5
334
100
AcDbEntity
  8
0
100
AcDbLine
 62
7
  6
CONTINUOUS
 10
6.067169343
 20
3.2028300433
 11
6.067169343
 21
3.1708300433
  0
LINE
  5
335
100
AcDbEntity
  8
0
100
AcDbLine
 62
7
  6
CONTINUOUS
 10
6.0726855065
 20
3.1708300433
 11
6.0726855065
 21
3.2028300433
  0
LINE
  5
336
100
AcDbEntity
  8
0
100
AcDbLine
 62
7
  6
CONTINUOUS
 10
6.0766620922
 20
3.1708300433
 11
6.0766620922
 21
3.2028300433
  0
LINE
  5
337
100
AcDbEntity
  8
0
100
AcDbLine
 62
7
  6
CONTINUOUS
 10
6.0835967114
 20
3.2028300433
 11
6.0835967114
 21
3.1708300433
  0
LINE
  5
338
100
AcDbEntity
  8
0
100
AcDbLine
 62
7
  6
CONTINUOUS
 10
6.0893335273
 20
3.1708300433
 11
6.0893335273
 21
3.2028300433
  0
LINE
  5
339
100
AcDbEntity
  8
0
100
AcDbLine
 62
7
  6
CONTINUOUS
 10
6.0933219407
 20
3.1708300433
 11
6.0933219407
 21
3.2028300433
  0
LINE
  5
33A
100
AcDbEntity
  8
0
100
AcDbLine
 62
7
  6
CONTINUOUS
 10
6.1000729404
 20
3.2028300433
 11
6.1000729404
 21
3.1708300433
  0
LINE
  5
33B
100
AcDbEntity
  8
0
100
AcDbLine
 62
7
  6
CONTINUOUS
 10
6.1060247472
 20
3.1708300433
 11
6.1060247472
 21
3.2028300433
  0
LINE
  5
33C
100
AcDbEntity
  8
0
100
AcDbLine
 62
7
  6
CONTINUOUS
 10
6.1100210522
 20
3.1708300433
 11
6.1100210522
 21
3.2028300433
  0
LINE
  5
33D
100
AcDbEntity
  8
0
100
AcDbLine
 62
7
  6
CONTINUOUS
 10
6.1165817699
 20
3.2028300433
 11
6.1165817699
 21
3.1708300433
  0
LINE
  5
33E
100
AcDbEntity
  8
0
100
AcDbLine
 62
7
  6
CONTINUOUS
 10
6.1227426938
 20
3.1708300433
 11
6.1227426938
 21
3.2028300433
  0
LINE
  5
33F
100
AcDbEntity
  8
0
100
AcDbLine
 62
7
  6
CONTINUOUS
 10
6.1267429467
 20
3.1708300433
 11
6.1267429467
 21
3.2028300433
  0
LINE
  5
340
100
AcDbEntity
  8
0
100
AcDbLine
 62
7
  6
CONTINUOUS
 10
6.1331069077
 20
3.2028300433
 11
6.1331069077
 21
3.1708300433
  0
LINE
  5
341
100
AcDbEntity
  8
0
100
AcDbLine
 62
7
  6
CONTINUOUS
 10
6.1356070915
 20
5.027976352
 11
6.1356072426
 21
4.2629873509
  0
LINE
  5
342
100
AcDbEntity
  8
0
100
AcDbLine
 62
7
  6
CONTINUOUS
 10
6.1394708687
 20
3.1708300433
 11
6.1394708687
 21
3.2028300433
  0
LINE
  5
343
100
AcDbEntity
  8
0
100
AcDbLine
 62
7
  6
CONTINUOUS
 10
6.1434711216
 20
3.1708300433
 11
6.1434711216
 21
3.2028300433
  0
LINE
  5
344
100
AcDbEntity
  8
0
100
AcDbLine
 62
7
  6
CONTINUOUS
 10
6.1496320455
 20
3.2028300433
 11
6.1496320455
 21
3.1708300433
  0
LINE
  5
345
100
AcDbEntity
  8
0
100
AcDbLine
 62
7
  6
CONTINUOUS
 10
6.1561927632
 20
3.1708300433
 11
6.1561927632
 21
3.2028300433
  0
LINE
  5
346
100
AcDbEntity
  8
0
100
AcDbLine
 62
7
  6
CONTINUOUS
 10
6.1601890683
 20
3.1708300433
 11
6.1601890683
 21
3.2028300433
  0
LINE
  5
347
100
AcDbEntity
  8
0
100
AcDbLine
 62
7
  6
CONTINUOUS
 10
6.166140875
 20
3.2028300433
 11
6.166140875
 21
3.1708300433
  0
LINE
  5
348
100
AcDbEntity
  8
0
100
AcDbLine
 62
7
  6
CONTINUOUS
 10
6.0446387313
 20
5.0278982085
 11
6.0275894931
 21
4.2630651854
  0
LINE
  5
349
100
AcDbEntity
  8
0
100
AcDbLine
 62
7
  6
CONTINUOUS
 10
6.0267954075
 20
5.0278782415
 11
6.0063329189
 21
4.2630524027
  0
LINE
  5
34A
100
AcDbEntity
  8
0
100
AcDbLine
 62
7
  6
CONTINUOUS
 10
5.9737458705
 20
5.8928300764
 11
6.3031069077
 21
5.8928300433
  0
LINE
  5
34B
100
AcDbEntity
  8
0
100
AcDbLine
 62
7
  6
CONTINUOUS
 10
6.2943569077
 20
5.9028300433
 11
5.9718569077
 21
5.9028300433
  0
LINE
  5
34C
100
AcDbEntity
  8
0
100
AcDbLine
 62
7
  6
CONTINUOUS
 10
6.1728918747
 20
3.1708300433
 11
6.1728918747
 21
3.2028300433
  0
LINE
  5
34D
100
AcDbEntity
  8
0
100
AcDbLine
 62
7
  6
CONTINUOUS
 10
6.1768802881
 20
3.1708300433
 11
6.1768802881
 21
3.2028300433
  0
LINE
  5
34E
100
AcDbEntity
  8
0
100
AcDbLine
 62
7
  6
CONTINUOUS
 10
6.182617104
 20
3.2028300433
 11
6.182617104
 21
3.1708300433
  0
LINE
  5
34F
100
AcDbEntity
  8
0
100
AcDbLine
 62
7
  6
CONTINUOUS
 10
6.1895517232
 20
3.1708300433
 11
6.1895517232
 21
3.2028300433
  0
LINE
  5
350
100
AcDbEntity
  8
0
100
AcDbLine
 62
7
  6
CONTINUOUS
 10
6.1935283089
 20
3.1708300433
 11
6.1935283089
 21
3.2028300433
  0
LINE
  5
351
100
AcDbEntity
  8
0
100
AcDbLine
 62
7
  6
CONTINUOUS
 10
6.1990444724
 20
3.2028300433
 11
6.1990444724
 21
3.1708300433
  0
LINE
  5
352
100
AcDbEntity
  8
0
100
AcDbLine
 62
7
  6
CONTINUOUS
 10
6.2061558675
 20
3.1708300433
 11
6.2061558675
 21
3.2028300433
  0
LINE
  5
353
100
AcDbEntity
  8
0
100
AcDbLine
 62
7
  6
CONTINUOUS
 10
6.2101167011
 20
3.1708300433
 11
6.2101167011
 21
3.2028300433
  0
LINE
  5
354
100
AcDbEntity
  8
0
100
AcDbLine
 62
7
  6
CONTINUOUS
 10
6.2154067684
 20
3.2028300433
 11
6.2154067684
 21
3.1708300433
  0
LINE
  5
355
100
AcDbEntity
  8
0
100
AcDbLine
 62
7
  6
CONTINUOUS
 10
6.2226879213
 20
3.1708300433
 11
6.2226879213
 21
3.2028300433
  0
LINE
  5
356
100
AcDbEntity
  8
0
100
AcDbLine
 62
7
  6
CONTINUOUS
 10
6.2266290939
 20
3.1708300433
 11
6.2266290939
 21
3.2028300433
  0
LINE
  5
357
100
AcDbEntity
  8
0
100
AcDbLine
 62
7
  6
CONTINUOUS
 10
6.2316878443
 20
3.2028300433
 11
6.2316878443
 21
3.1708300433
  0
LINE
  5
358
100
AcDbEntity
  8
0
100
AcDbLine
 62
7
  6
CONTINUOUS
 10
6.2331069077
 20
5.9738300433
 11
6.2331069077
 21
5.9786247376
  0
LINE
  5
359
100
AcDbEntity
  8
0
100
AcDbLine
 62
7
  6
CONTINUOUS
 10
6.2391315695
 20
3.1708300433
 11
6.2391315695
 21
3.2028300433
  0
LINE
  5
35A
100
AcDbEntity
  8
0
100
AcDbLine
 62
7
  6
CONTINUOUS
 10
6.2430491916
 20
3.1708300433
 11
6.2430491916
 21
3.2028300433
  0
LINE
  5
35B
100
AcDbEntity
  8
0
100
AcDbLine
 62
7
  6
CONTINUOUS
 10
6.2478716328
 20
3.2028300433
 11
6.2478716328
 21
3.1708300433
  0
LINE
  5
35C
100
AcDbEntity
  8
0
100
AcDbLine
 62
7
  6
CONTINUOUS
 10
6.2554705841
 20
3.1708300433
 11
6.2554705841
 21
3.2028300433
  0
LINE
  5
35D
100
AcDbEntity
  8
0
100
AcDbLine
 62
7
  6
CONTINUOUS
 10
6.2593607896
 20
3.1708300433
 11
6.2593607896
 21
3.2028300433
  0
LINE
  5
35E
100
AcDbEntity
  8
0
100
AcDbLine
 62
7
  6
CONTINUOUS
 10
6.2639421623
 20
3.2028300433
 11
6.2639421623
 21
3.1708300433
  0
LINE
  5
35F
100
AcDbEntity
  8
0
100
AcDbLine
 62
7
  6
CONTINUOUS
 10
6.2716888406
 20
3.1708300433
 11
6.2716888406
 21
3.2028300433
  0
LINE
  5
360
100
AcDbEntity
  8
0
100
AcDbLine
 62
7
  6
CONTINUOUS
 10
6.2755477902
 20
3.1708300433
 11
6.2755477902
 21
3.2028300433
  0
LINE
  5
361
100
AcDbEntity
  8
0
100
AcDbLine
 62
7
  6
CONTINUOUS
 10
6.2798835732
 20
3.2028300433
 11
6.2798835732
 21
3.1708300433
  0
LINE
  5
362
100
AcDbEntity
  8
0
100
AcDbLine
 62
7
  6
CONTINUOUS
 10
6.2877703334
 20
3.1708300433
 11
6.2877703334
 21
3.2028300433
  0
LINE
  5
363
100
AcDbEntity
  8
0
100
AcDbLine
 62
7
  6
CONTINUOUS
 10
6.2915942188
 20
3.1708300433
 11
6.2915942188
 21
3.2028300433
  0
LINE
  5
364
100
AcDbEntity
  8
0
100
AcDbLine
 62
7
  6
CONTINUOUS
 10
6.2943569077
 20
5.9028300433
 11
6.2943569077
 21
5.9078300433
  0
LINE
  5
365
100
AcDbEntity
  8
0
100
AcDbLine
 62
7
  6
CONTINUOUS
 10
6.2956801333
 20
3.2028300433
 11
6.2956801333
 21
3.1708300433
  0
LINE
  5
366
100
AcDbEntity
  8
0
100
AcDbLine
 62
7
  6
CONTINUOUS
 10
6.3031069077
 20
5.7228300433
 11
6.3031069077
 21
5.8928300433
  0
LINE
  5
367
100
AcDbEntity
  8
0
100
AcDbLine
 62
7
  6
CONTINUOUS
 10
6.3036991921
 20
3.1708300433
 11
6.3036991921
 21
3.2028300433
  0
LINE
  5
368
100
AcDbEntity
  8
0
100
AcDbLine
 62
7
  6
CONTINUOUS
 10
6.3074842396
 20
3.1708300433
 11
6.3074842396
 21
3.2028300433
  0
LINE
  5
369
100
AcDbEntity
  8
0
100
AcDbLine
 62
7
  6
CONTINUOUS
 10
6.3113162533
 20
3.2028300433
 11
6.3113162533
 21
3.1708300433
  0
LINE
  5
36A
100
AcDbEntity
  8
0
100
AcDbLine
 62
7
  6
CONTINUOUS
 10
6.3194596967
 20
3.1708300433
 11
6.3194596967
 21
3.2028300433
  0
LINE
  5
36B
100
AcDbEntity
  8
0
100
AcDbLine
 62
7
  6
CONTINUOUS
 10
6.3232021711
 20
3.1708300433
 11
6.3232021711
 21
3.2028300433
  0
LINE
  5
36C
100
AcDbEntity
  8
0
100
AcDbLine
 62
7
  6
CONTINUOUS
 10
6.3267765021
 20
3.2028300433
 11
6.3267765021
 21
3.1708300433
  0
LINE
  5
36D
100
AcDbEntity
  8
0
100
AcDbLine
 62
7
  6
CONTINUOUS
 10
6.2943569077
 20
5.9078300433
 11
5.9718569077
 21
5.9078300433
  0
LINE
  5
36E
100
AcDbEntity
  8
0
100
AcDbLine
 62
7
  6
CONTINUOUS
 10
6.2813312364
 20
5.9297757821
 11
5.984882579
 21
5.9297757821
  0
LINE
  5
36F
100
AcDbEntity
  8
0
100
AcDbLine
 62
7
  6
CONTINUOUS
 10
6.0089754652
 20
5.9544123774
 11
6.2572383503
 21
5.9544123774
  0
LINE
  5
370
100
AcDbEntity
  8
0
100
AcDbLine
 62
7
  6
CONTINUOUS
 10
6.0228980204
 20
5.9638300433
 11
6.243315795
 21
5.9638300433
  0
LINE
  5
371
100
AcDbEntity
  8
0
100
AcDbLine
 62
7
  6
CONTINUOUS
 10
6.2331069077
 20
5.9738300433
 11
6.0331069077
 21
5.9738300433
  0
LINE
  5
372
100
AcDbEntity
  8
0
100
AcDbLine
 62
7
  6
CONTINUOUS
 10
6.0331069077
 20
5.9786247376
 11
6.2331069077
 21
5.9786247376
  0
LINE
  5
373
100
AcDbEntity
  8
0
100
AcDbLine
 62
7
  6
CONTINUOUS
 10
6.03836055
 20
5.9900268651
 11
6.2278532654
 21
5.9900268651
  0
LWPOLYLINE
  5
374
100
AcDbEntity
  8
0
100
AcDbPolyline
 62
7
  6
CONTINUOUS
 90
33
 70
0
 10
5.946963714
 20
5.7389318016
 10
5.9477535773
 20
5.738759954
 10
5.9485358688
 20
5.7385563245
 10
5.9493093115
 20
5.738321243
 10
5.9500726395
 20
5.7380550921
 10
5.9508246006
 20
5.7377583061
 10
5.9515639653
 20
5.7374313688
 10
5.9522895252
 20
5.7370748126
 10
5.9530000902
 20
5.7366892209
 10
5.9536944984
 20
5.7362752229
 10
5.954371615
 20
5.7358334942
 10
5.9550303299
 20
5.7353647577
 10
5.9556695663
 20
5.7348697789
 10
5.9562882793
 20
5.7343493661
 10
5.9568854546
 20
5.7338043721
 10
5.9574601161
 20
5.7332356873
 10
5.9580113249
 20
5.7326442408
 10
5.958538178
 20
5.7320310014
 10
5.9590398141
 20
5.7313969721
 10
5.9595154143
 20
5.7307431883
 10
5.9599642016
 20
5.7300707186
 10
5.9603854426
 20
5.7293806622
 10
5.9607784494
 20
5.7286741464
 10
5.9611425803
 20
5.7279523254
 10
5.9614772403
 20
5.7272163785
 10
5.9617818827
 20
5.7264675086
 10
5.9620560101
 20
5.7257069385
 10
5.9622991744
 20
5.7249359111
 10
5.9625109785
 20
5.7241556863
 10
5.9626910763
 20
5.7233675384
 10
5.9628391735
 20
5.7225727552
 10
5.962955028
 20
5.7217726355
 10
5.9629710769
 20
5.7216398032
  0
LINE
  5
375
100
AcDbEntity
  8
0
100
AcDbLine
 62
7
  6
CONTINUOUS
 10
6.3350362937
 20
3.1708300433
 11
6.3350362937
 21
3.2028300433
  0
LINE
  5
376
100
AcDbEntity
  8
0
100
AcDbLine
 62
7
  6
CONTINUOUS
 10
6.3387325015
 20
3.1708300433
 11
6.3387325015
 21
3.2028300433
  0
LINE
  5
377
100
AcDbEntity
  8
0
100
AcDbLine
 62
7
  6
CONTINUOUS
 10
6.3420456224
 20
3.2028300433
 11
6.3420456224
 21
3.1708300433
  0
LINE
  5
378
100
AcDbEntity
  8
0
100
AcDbLine
 62
7
  6
CONTINUOUS
 10
6.3504136108
 20
3.1708300433
 11
6.3504136108
 21
3.2028300433
  0
LINE
  5
379
100
AcDbEntity
  8
0
100
AcDbLine
 62
7
  6
CONTINUOUS
 10
6.3540599042
 20
3.1708300433
 11
6.3540599042
 21
3.2028300433
  0
LINE
  5
37A
100
AcDbEntity
  8
0
100
AcDbLine
 62
7
  6
CONTINUOUS
 10
6.3571085455
 20
3.2028300433
 11
6.3571085455
 21
3.1708300433
  0
LINE
  5
37B
100
AcDbEntity
  8
0
100
AcDbLine
 62
7
  6
CONTINUOUS
 10
6.3655764724
 20
3.1708300433
 11
6.3655764724
 21
3.2028300433
  0
LINE
  5
37C
100
AcDbEntity
  8
0
100
AcDbLine
 62
7
  6
CONTINUOUS
 10
6.369169253
 20
3.1708300433
 11
6.369169253
 21
3.2028300433
  0
LINE
  5
37D
100
AcDbEntity
  8
0
100
AcDbLine
 62
7
  6
CONTINUOUS
 10
6.3719504059
 20
3.2028300433
 11
6.3719504059
 21
3.1708300433
  0
LINE
  5
37E
100
AcDbEntity
  8
0
100
AcDbLine
 62
7
  6
CONTINUOUS
 10
6.3805099146
 20
3.1708300433
 11
6.3805099146
 21
3.2028300433
  0
LINE
  5
37F
100
AcDbEntity
  8
0
100
AcDbLine
 62
7
  6
CONTINUOUS
 10
6.3840456367
 20
3.1708300433
 11
6.3840456367
 21
3.2028300433
  0
LINE
  5
380
100
AcDbEntity
  8
0
100
AcDbLine
 62
7
  6
CONTINUOUS
 10
6.3865565567
 20
3.2028300433
 11
6.3865565567
 21
3.1708300433
  0
LINE
  5
381
100
AcDbEntity
  8
0
100
AcDbLine
 62
7
  6
CONTINUOUS
 10
6.3951991999
 20
3.1708300433
 11
6.3951991999
 21
3.2028300433
  0
LINE
  5
382
100
AcDbEntity
  8
0
100
AcDbLine
 62
7
  6
CONTINUOUS
 10
6.3986743743
 20
3.1708300433
 11
6.3986743743
 21
3.2028300433
  0
LINE
  5
383
100
AcDbEntity
  8
0
100
AcDbLine
 62
7
  6
CONTINUOUS
 10
6.4009125833
 20
3.2028300433
 11
6.4009125833
 21
3.1708300433
  0
LINE
  5
384
100
AcDbEntity
  8
0
100
AcDbLine
 62
7
  6
CONTINUOUS
 10
6.4096298317
 20
3.1708300433
 11
6.4096298317
 21
3.2028300433
  0
LINE
  5
385
100
AcDbEntity
  8
0
100
AcDbLine
 62
7
  6
CONTINUOUS
 10
6.4130410288
 20
3.1708300433
 11
6.4130410288
 21
3.2028300433
  0
LINE
  5
386
100
AcDbEntity
  8
0
100
AcDbLine
 62
7
  6
CONTINUOUS
 10
6.415004318
 20
3.2028300433
 11
6.415004318
 21
3.1708300433
  0
LINE
  5
387
100
AcDbEntity
  8
0
100
AcDbLine
 62
7
  6
CONTINUOUS
 10
6.4237875688
 20
3.1708300433
 11
6.4237875688
 21
3.2028300433
  0
LINE
  5
388
100
AcDbEntity
  8
0
100
AcDbLine
 62
7
  6
CONTINUOUS
 10
6.4271314221
 20
3.1708300433
 11
6.4271314221
 21
3.2028300433
  0
LINE
  5
389
100
AcDbEntity
  8
0
100
AcDbLine
 62
7
  6
CONTINUOUS
 10
6.4288178539
 20
3.2028300433
 11
6.4288178539
 21
3.1708300433
  0
LINE
  5
38A
100
AcDbEntity
  8
0
100
AcDbLine
 62
7
  6
CONTINUOUS
 10
6.4376584392
 20
3.1708300433
 11
6.4376584392
 21
3.2028300433
  0
LINE
  5
38B
100
AcDbEntity
  8
0
100
AcDbLine
 62
7
  6
CONTINUOUS
 10
6.4409316487
 20
3.1708300433
 11
6.4409316487
 21
3.2028300433
  0
LINE
  5
38C
100
AcDbEntity
  8
0
100
AcDbLine
 62
7
  6
CONTINUOUS
 10
6.4423395589
 20
3.2028300433
 11
6.4423395589
 21
3.1708300433
  0
LINE
  5
38D
100
AcDbEntity
  8
0
100
AcDbLine
 62
7
  6
CONTINUOUS
 10
6.4456069077
 20
4.0978300433
 11
6.4456069077
 21
3.3578300433
  0
LINE
  5
38E
100
AcDbEntity
  8
0
100
AcDbLine
 62
7
  6
CONTINUOUS
 10
6.451228754
 20
3.1708300433
 11
6.451228754
 21
3.2028300433
  0
LINE
  5
38F
100
AcDbEntity
  8
0
100
AcDbLine
 62
7
  6
CONTINUOUS
 10
6.4544280895
 20
3.1708300433
 11
6.4544280895
 21
3.2028300433
  0
LINE
  5
390
100
AcDbEntity
  8
0
100
AcDbLine
 62
7
  6
CONTINUOUS
 10
6.4555560886
 20
3.2028300433
 11
6.4555560886
 21
3.1708300433
  0
LINE
  5
391
100
AcDbEntity
  8
0
100
AcDbLine
 62
7
  6
CONTINUOUS
 10
6.4644851209
 20
3.1708300433
 11
6.4644851209
 21
3.2028300433
  0
LINE
  5
392
100
AcDbEntity
  8
0
100
AcDbLine
 62
7
  6
CONTINUOUS
 10
6.4676074251
 20
3.1708300433
 11
6.4676074251
 21
3.2028300433
  0
LINE
  5
393
100
AcDbEntity
  8
0
100
AcDbLine
 62
7
  6
CONTINUOUS
 10
6.4684543999
 20
3.2028300433
 11
6.4684543999
 21
3.1708300433
  0
LINE
  5
394
100
AcDbEntity
  8
0
100
AcDbLine
 62
7
  6
CONTINUOUS
 10
6.4774144576
 20
3.1708300433
 11
6.4774144576
 21
3.2028300433
  0
LINE
  5
395
100
AcDbEntity
  8
0
100
AcDbLine
 62
7
  6
CONTINUOUS
 10
6.480456649
 20
3.1708300433
 11
6.480456649
 21
3.2028300433
  0
LINE
  5
396
100
AcDbEntity
  8
0
100
AcDbLine
 62
7
  6
CONTINUOUS
 10
6.4810217637
 20
3.2028300433
 11
6.4810217637
 21
3.1708300433
  0
LINE
  5
397
100
AcDbEntity
  8
0
100
AcDbLine
 62
7
  6
CONTINUOUS
 10
6.4900040042
 20
3.1708300433
 11
6.4900040042
 21
3.2028300433
  0
LINE
  5
398
100
AcDbEntity
  8
0
100
AcDbLine
 62
7
  6
CONTINUOUS
 10
5.6216424416
 20
3.0888655772
 11
5.6020713738
 21
3.0692945093
  0
LWPOLYLINE
  5
399
100
AcDbEntity
  8
0
100
AcDbPolyline
 62
7
  6
CONTINUOUS
 90
32
 70
0
 10
4.9095278224
 20
6.1996189273
 10
4.9087058587
 20
6.1998476405
 10
4.9078748877
 20
6.2000410881
 10
4.9070364218
 20
6.2001989177
 10
4.9061919868
 20
6.2003208422
 10
4.9053431196
 20
6.2004066396
 10
4.904491365
 20
6.2004561538
 10
4.9036382731
 20
6.2004692946
 10
4.9027853966
 20
6.200446038
 10
4.9019342875
 20
6.2003864264
 10
4.9010864948
 20
6.2002905681
 10
4.9002435614
 20
6.2001586376
 10
4.8994070213
 20
6.1999908749
 10
4.8985783971
 20
6.1997875854
 10
4.8977591967
 20
6.1995491388
 10
4.896950911
 20
6.1992759692
 10
4.896155011
 20
6.1989685735
 10
4.8953729452
 20
6.1986275113
 10
4.8946061371
 20
6.1982534031
 10
4.8938559821
 20
6.1978469298
 10
4.8931238456
 20
6.1974088311
 10
4.8924110599
 20
6.1969399042
 10
4.8917189225
 20
6.1964410026
 10
4.891048693
 20
6.1959130341
 10
4.8904015912
 20
6.1953569597
 10
4.8897787948
 20
6.1947737913
 10
4.8891814373
 20
6.1941645902
 10
4.888610606
 20
6.1935304652
 10
4.8880673397
 20
6.1928725702
 10
4.8875526271
 20
6.1921921026
 10
4.8870674052
 20
6.1914903007
 10
4.8865730212
 20
6.1907023372
  0
LINE
  5
39A
100
AcDbEntity
  8
0
100
AcDbLine
 62
7
  6
CONTINUOUS
 10
5.9371966004
 20
5.8817188488
 11
4.9095278224
 21
6.1996189273
  0
LINE
  5
39B
100
AcDbEntity
  8
0
100
AcDbLine
 62
7
  6
CONTINUOUS
 10
6.4929630807
 20
3.1708300433
 11
6.4929630807
 21
3.2028300433
  0
LINE
  5
39C
100
AcDbEntity
  8
0
100
AcDbLine
 62
7
  6
CONTINUOUS
 10
6.4932457775
 20
3.2028300433
 11
6.4932457775
 21
3.1708300433
  0
LINE
  5
39D
100
AcDbEntity
  8
0
100
AcDbLine
 62
7
  6
CONTINUOUS
 10
6.5022413366
 20
3.1708300433
 11
6.5022413366
 21
3.2028300433
  0
LINE
  5
39E
100
AcDbEntity
  8
0
100
AcDbLine
 62
7
  6
CONTINUOUS
 10
6.5051143778
 20
3.1708300433
 11
6.5051143778
 21
3.2028300433
  0
LINE
  5
39F
100
AcDbEntity
  8
0
100
AcDbLine
 62
7
  6
CONTINUOUS
 10
6.5141143778
 20
3.1708300433
 11
6.5141143778
 21
3.2028300433
  0
LINE
  5
3A0
100
AcDbEntity
  8
0
100
AcDbLine
 62
7
  6
CONTINUOUS
 10
6.5168985484
 20
3.1708300433
 11
6.5168985484
 21
3.2028300433
  0
LINE
  5
3A1
100
AcDbEntity
  8
0
100
AcDbLine
 62
7
  6
CONTINUOUS
 10
6.5256114106
 20
3.1708300433
 11
6.5256114106
 21
3.2028300433
  0
LINE
  5
3A2
100
AcDbEntity
  8
0
100
AcDbLine
 62
7
  6
CONTINUOUS
 10
6.528303963
 20
3.1708300433
 11
6.528303963
 21
3.2028300433
  0
LINE
  5
3A3
100
AcDbEntity
  8
0
100
AcDbLine
 62
7
  6
CONTINUOUS
 10
6.5367210889
 20
3.1708300433
 11
6.5367210889
 21
3.2028300433
  0
LINE
  5
3A4
100
AcDbEntity
  8
0
100
AcDbLine
 62
7
  6
CONTINUOUS
 10
6.5393193658
 20
3.1708300433
 11
6.5393193658
 21
3.2028300433
  0
LINE
  5
3A5
100
AcDbEntity
  8
0
100
AcDbLine
 62
7
  6
CONTINUOUS
 10
6.5474324487
 20
3.1708300433
 11
6.5474324487
 21
3.2028300433
  0
LINE
  5
3A6
100
AcDbEntity
  8
0
100
AcDbLine
 62
7
  6
CONTINUOUS
 10
6.549933886
 20
3.1708300433
 11
6.549933886
 21
3.2028300433
  0
LINE
  5
3A7
100
AcDbEntity
  8
0
100
AcDbLine
 62
7
  6
CONTINUOUS
 10
6.5531069077
 20
4.2130030267
 11
6.5531069077
 21
4.2308269013
  0
LINE
  5
3A8
100
AcDbEntity
  8
0
100
AcDbLine
 62
7
  6
CONTINUOUS
 10
6.5531069077
 20
5.0600018737
 11
6.5531069077
 21
5.0776570598
  0
LINE
  5
3A9
100
AcDbEntity
  8
0
100
AcDbLine
 62
7
  6
CONTINUOUS
 10
6.5577349192
 20
3.1708300433
 11
6.5577349192
 21
3.2028300433
  0
LINE
  5
3AA
100
AcDbEntity
  8
0
100
AcDbLine
 62
7
  6
CONTINUOUS
 10
6.5601370482
 20
3.1708300433
 11
6.5601370482
 21
3.2028300433
  0
LINE
  5
3AB
100
AcDbEntity
  8
0
100
AcDbLine
 62
7
  6
CONTINUOUS
 10
6.5676183331
 20
3.1708300433
 11
6.5676183331
 21
3.2028300433
  0
LINE
  5
3AC
100
AcDbEntity
  8
0
100
AcDbLine
 62
7
  6
CONTINUOUS
 10
6.5699187833
 20
3.1708300433
 11
6.5699187833
 21
3.2028300433
  0
LINE
  5
3AD
100
AcDbEntity
  8
0
100
AcDbLine
 62
7
  6
CONTINUOUS
 10
6.5770729367
 20
3.1708300433
 11
6.5770729367
 21
3.2028300433
  0
LINE
  5
3AE
100
AcDbEntity
  8
0
100
AcDbLine
 62
7
  6
CONTINUOUS
 10
6.5792694378
 20
3.1708300433
 11
6.5792694378
 21
3.2028300433
  0
LINE
  5
3AF
100
AcDbEntity
  8
0
100
AcDbLine
 62
7
  6
CONTINUOUS
 10
6.5860893995
 20
3.1708300433
 11
6.5860893995
 21
3.2028300433
  0
LINE
  5
3B0
100
AcDbEntity
  8
0
100
AcDbLine
 62
7
  6
CONTINUOUS
 10
6.5881797837
 20
3.1708300433
 11
6.5881797837
 21
3.2028300433
  0
LINE
  5
3B1
100
AcDbEntity
  8
0
100
AcDbLine
 62
7
  6
CONTINUOUS
 10
6.5906069077
 20
3.2746435014
 11
6.5906069077
 21
3.2478300433
  0
LINE
  5
3B2
100
AcDbEntity
  8
0
100
AcDbLine
 62
7
  6
CONTINUOUS
 10
6.5946588232
 20
3.1708300433
 11
6.5946588232
 21
3.2028300433
  0
LINE
  5
3B3
100
AcDbEntity
  8
0
100
AcDbLine
 62
7
  6
CONTINUOUS
 10
6.5966410277
 20
3.1708300433
 11
6.5966410277
 21
3.2028300433
  0
LINE
  5
3B4
100
AcDbEntity
  8
0
100
AcDbLine
 62
7
  6
CONTINUOUS
 10
6.6027727509
 20
3.1708300433
 11
6.6027727509
 21
3.2028300433
  0
LINE
  5
3B5
100
AcDbEntity
  8
0
100
AcDbLine
 62
7
  6
CONTINUOUS
 10
6.6046448194
 20
3.1708300433
 11
6.6046448194
 21
3.2028300433
  0
LINE
  5
3B6
100
AcDbEntity
  8
0
100
AcDbLine
 62
7
  6
CONTINUOUS
 10
6.6104231751
 20
3.1708300433
 11
6.6104231751
 21
3.2028300433
  0
LINE
  5
3B7
100
AcDbEntity
  8
0
100
AcDbLine
 62
7
  6
CONTINUOUS
 10
6.6121832602
 20
3.1708300433
 11
6.6121832602
 21
3.2028300433
  0
LINE
  5
3B8
100
AcDbEntity
  8
0
100
AcDbLine
 62
7
  6
CONTINUOUS
 10
6.6176025458
 20
3.1708300433
 11
6.6176025458
 21
3.2028300433
  0
LINE
  5
3B9
100
AcDbEntity
  8
0
100
AcDbLine
 62
7
  6
CONTINUOUS
 10
6.6192489104
 20
3.1708300433
 11
6.6192489104
 21
3.2028300433
  0
LINE
  5
3BA
100
AcDbEntity
  8
0
100
AcDbLine
 62
7
  6
CONTINUOUS
 10
6.6243037778
 20
3.1708300433
 11
6.6243037778
 21
3.2028300433
  0
LINE
  5
3BB
100
AcDbEntity
  8
0
100
AcDbLine
 62
7
  6
CONTINUOUS
 10
6.6258347972
 20
3.1708300433
 11
6.6258347972
 21
3.2028300433
  0
LINE
  5
3BC
100
AcDbEntity
  8
0
100
AcDbLine
 62
7
  6
CONTINUOUS
 10
6.6305202578
 20
3.1708300433
 11
6.6305202578
 21
3.2028300433
  0
LINE
  5
3BD
100
AcDbEntity
  8
0
100
AcDbLine
 62
7
  6
CONTINUOUS
 10
6.631934421
 20
3.1708300433
 11
6.631934421
 21
3.2028300433
  0
LINE
  5
3BE
100
AcDbEntity
  8
0
100
AcDbLine
 62
7
  6
CONTINUOUS
 10
6.6362458509
 20
3.1708300433
 11
6.6362458509
 21
3.2028300433
  0
LINE
  5
3BF
100
AcDbEntity
  8
0
100
AcDbLine
 62
7
  6
CONTINUOUS
 10
6.6375417623
 20
3.1708300433
 11
6.6375417623
 21
3.2028300433
  0
LINE
  5
3C0
100
AcDbEntity
  8
0
100
AcDbLine
 62
7
  6
CONTINUOUS
 10
6.6414749065
 20
3.1708300433
 11
6.6414749065
 21
3.2028300433
  0
LINE
  5
3C1
100
AcDbEntity
  8
0
100
AcDbLine
 62
7
  6
CONTINUOUS
 10
6.6426512873
 20
3.1708300433
 11
6.6426512873
 21
3.2028300433
  0
LINE
  5
3C2
100
AcDbEntity
  8
0
100
AcDbLine
 62
7
  6
CONTINUOUS
 10
6.6431069077
 20
3.1708300433
 11
6.6431069077
 21
3.0924011111
  0
LINE
  5
3C3
100
AcDbEntity
  8
0
100
AcDbLine
 62
7
  6
CONTINUOUS
 10
6.6462022643
 20
3.1708300433
 11
6.6462022643
 21
3.2028300433
  0
LINE
  5
3C4
100
AcDbEntity
  8
0
100
AcDbLine
 62
7
  6
CONTINUOUS
 10
6.6472579535
 20
3.1708300433
 11
6.6472579535
 21
3.2028300433
  0
LINE
  5
3C5
100
AcDbEntity
  8
0
100
AcDbLine
 62
7
  6
CONTINUOUS
 10
6.650423259
 20
3.1708300433
 11
6.650423259
 21
3.2028300433
  0
LINE
  5
3C6
100
AcDbEntity
  8
0
100
AcDbLine
 62
7
  6
CONTINUOUS
 10
6.6513572147
 20
3.1708300433
 11
6.6513572147
 21
3.2028300433
  0
LINE
  5
3C7
100
AcDbEntity
  8
0
100
AcDbLine
 62
7
  6
CONTINUOUS
 10
6.6541337249
 20
3.1708300433
 11
6.6541337249
 21
3.2028300433
  0
LINE
  5
3C8
100
AcDbEntity
  8
0
100
AcDbLine
 62
7
  6
CONTINUOUS
 10
6.6549450254
 20
3.1708300433
 11
6.6549450254
 21
3.2028300433
  0
LINE
  5
3C9
100
AcDbEntity
  8
0
100
AcDbLine
 62
7
  6
CONTINUOUS
 10
6.6573300002
 20
3.1708300433
 11
6.6573300002
 21
3.2028300433
  0
LINE
  5
3CA
100
AcDbEntity
  8
0
100
AcDbLine
 62
7
  6
CONTINUOUS
 10
6.6580178449
 20
3.1708300433
 11
6.6580178449
 21
3.2028300433
  0
LINE
  5
3CB
100
AcDbEntity
  8
0
100
AcDbLine
 62
7
  6
CONTINUOUS
 10
6.6600089306
 20
3.1708300433
 11
6.6600089306
 21
3.2028300433
  0
LINE
  5
3CC
100
AcDbEntity
  8
0
100
AcDbLine
 62
7
  6
CONTINUOUS
 10
6.6605726407
 20
3.1708300433
 11
6.6605726407
 21
3.2028300433
  0
LINE
  5
3CD
100
AcDbEntity
  8
0
100
AcDbLine
 62
7
  6
CONTINUOUS
 10
6.6621678723
 20
3.1708300433
 11
6.6621678723
 21
3.2028300433
  0
LINE
  5
3CE
100
AcDbEntity
  8
0
100
AcDbLine
 62
7
  6
CONTINUOUS
 10
6.6626068915
 20
3.1708300433
 11
6.6626068915
 21
3.2028300433
  0
LINE
  5
3CF
100
AcDbEntity
  8
0
100
AcDbLine
 62
7
  6
CONTINUOUS
 10
6.6638046947
 20
3.1708300433
 11
6.6638046947
 21
3.2028300433
  0
LINE
  5
3D0
100
AcDbEntity
  8
0
100
AcDbLine
 62
7
  6
CONTINUOUS
 10
6.6641185897
 20
3.1708300433
 11
6.6641185897
 21
3.2028300433
  0
LINE
  5
3D1
100
AcDbEntity
  8
0
100
AcDbLine
 62
7
  6
CONTINUOUS
 10
6.6649177825
 20
3.1708300433
 11
6.6649177825
 21
3.2028300433
  0
LINE
  5
3D2
100
AcDbEntity
  8
0
100
AcDbLine
 62
7
  6
CONTINUOUS
 10
6.6651062435
 20
3.1708300433
 11
6.6651062435
 21
3.2028300433
  0
LINE
  5
3D3
100
AcDbEntity
  8
0
100
AcDbLine
 62
7
  6
CONTINUOUS
 10
6.6655060372
 20
3.1708300433
 11
6.6655060372
 21
3.2028300433
  0
LINE
  5
3D4
100
AcDbEntity
  8
0
100
AcDbLine
 62
7
  6
CONTINUOUS
 10
6.6655688782
 20
3.1708300433
 11
6.6655688782
 21
3.2028300433
  0
LINE
  5
3D5
100
AcDbEntity
  8
0
100
AcDbLine
 62
7
  6
CONTINUOUS
 10
6.6656069077
 20
3.0657589754
 11
6.6656069077
 21
3.0028300433
  0
ARC
  5
3D6
100
AcDbEntity
  8
0
100
AcDbCircle
 62
7
  6
CONTINUOUS
 10
3.5976265898
 20
3.8903683621
 40
1.625634597
100
AcDbArc
 50
95.7095153409
 51
102.7696514774
  0
ARC
  5
3D7
100
AcDbEntity
  8
0
100
AcDbCircle
 62
7
  6
CONTINUOUS
 10
3.5974656827
 20
3.8907564579
 40
1.6252438142
100
AcDbArc
 50
73.5926416974
 51
78.4560129229
  0
ARC
  5
3D8
100
AcDbEntity
  8
0
100
AcDbCircle
 62
7
  6
CONTINUOUS
 10
3.5975243461
 20
3.8909923453
 40
1.6250009624
100
AcDbArc
 50
73.4158915323
 51
73.592276577
  0
ARC
  5
3D9
100
AcDbEntity
  8
0
100
AcDbCircle
 62
7
  6
CONTINUOUS
 10
3.5975289752
 20
3.8909906427
 40
1.6250009133
100
AcDbArc
 50
78.4565469894
 51
87.1489939088
  0
ARC
  5
3DA
100
AcDbEntity
  8
0
100
AcDbCircle
 62
7
  6
CONTINUOUS
 10
3.597523298
 20
3.8910574439
 40
1.6249358967
100
AcDbArc
 50
87.148676821
 51
95.7083085169
  0
ARC
  5
3DB
100
AcDbEntity
  8
0
100
AcDbCircle
 62
7
  6
CONTINUOUS
 10
3.4628754389
 20
4.8877862826
 40
0.5746877937
100
AcDbArc
 50
93.1731012581
 51
93.3828189114
  0
ARC
  5
3DC
100
AcDbEntity
  8
0
100
AcDbCircle
 62
7
  6
CONTINUOUS
 10
3.58302014
 20
4.869106562
 40
0.005
100
AcDbArc
 50
262.37
 51
328.1490568906
  0
ARC
  5
3DD
100
AcDbEntity
  8
0
100
AcDbCircle
 62
7
  6
CONTINUOUS
 10
4.0652389028
 20
4.9782570268
 40
0.9713308052
100
AcDbArc
 50
149.8352341555
 51
160.2808099444
  0
ARC
  5
3DE
100
AcDbEntity
  8
0
100
AcDbCircle
 62
7
  6
CONTINUOUS
 10
4.0650716642
 20
4.9784937682
 40
0.9710940226
100
AcDbArc
 50
160.2910010005
 51
172.365473361
  0
ARC
  5
3DF
100
AcDbEntity
  8
0
100
AcDbCircle
 62
7
  6
CONTINUOUS
 10
3.460485826
 20
4.9345740006
 40
0.539326331
100
AcDbArc
 50
93.181176711
 51
93.4120351965
  0
ARC
  5
3E0
100
AcDbEntity
  8
0
100
AcDbCircle
 62
7
  6
CONTINUOUS
 10
3.4173824936
 20
4.9720102553
 40
0.2
100
AcDbArc
 50
328.149056891
 51
352.37
  0
ARC
  5
3E1
100
AcDbEntity
  8
0
100
AcDbCircle
 62
7
  6
CONTINUOUS
 10
3.3182678781
 20
4.9852877925
 40
0.2
100
AcDbArc
 50
172.37
 51
196.590943109
  0
ARC
  5
3E2
100
AcDbEntity
  8
0
100
AcDbCircle
 62
7
  6
CONTINUOUS
 10
3.2427328862
 20
5.456288567
 40
0.0200000001
100
AcDbArc
 50
102.7767811625
 51
149.831524038
  0
ARC
  5
3E3
100
AcDbEntity
  8
0
100
AcDbCircle
 62
7
  6
CONTINUOUS
 10
3.6321619548
 20
4.9936847351
 40
0.01
100
AcDbArc
 50
82.37
 51
172.37
  0
ARC
  5
3E4
100
AcDbEntity
  8
0
100
AcDbCircle
 62
7
  6
CONTINUOUS
 10
3.1167659541
 20
5.0627279282
 40
0.01
100
AcDbArc
 50
352.37
 51
82.37
  0
ARC
  5
3E5
100
AcDbEntity
  8
0
100
AcDbCircle
 62
7
  6
CONTINUOUS
 10
3.1313861723
 20
4.929608101
 40
0.005
100
AcDbArc
 50
196.5909431094
 51
262.37
  0
ARC
  5
3E6
100
AcDbEntity
  8
0
100
AcDbCircle
 62
7
  6
CONTINUOUS
 10
6.0275596789
 20
2.8315764146
 40
1.4166462985
100
AcDbArc
 50
90.7616540466
 51
91.0024905889
  0
ARC
  5
3E7
100
AcDbEntity
  8
0
100
AcDbCircle
 62
7
  6
CONTINUOUS
 10
6.0266456751
 20
2.9105074432
 40
1.3377101009
100
AcDbArc
 50
89.8583525796
 51
90.7674493467
  0
ARC
  5
3E8
100
AcDbEntity
  8
0
100
AcDbCircle
 62
7
  6
CONTINUOUS
 10
6.0297658514
 20
3.597089006
 40
0.6340251697
100
AcDbArc
 50
91.6062443107
 51
92.1164951991
  0
ARC
  5
3E9
100
AcDbEntity
  8
0
100
AcDbCircle
 62
7
  6
CONTINUOUS
 10
6.029029508
 20
3.6266141895
 40
0.6044909544
100
AcDbArc
 50
89.700263604
 51
91.6149221228
  0
ARC
  5
3EA
100
AcDbEntity
  8
0
100
AcDbCircle
 62
7
  6
CONTINUOUS
 10
5.6027661434
 20
3.5499705798
 40
0.274
100
AcDbArc
 50
287.6948410521
 51
314.213258492
  0
ARC
  5
3EB
100
AcDbEntity
  8
0
100
AcDbCircle
 62
7
  6
CONTINUOUS
 10
5.6306069077
 20
3.2478300433
 40
0.045
100
AcDbArc
 50
272.5
 51
360.0
  0
ARC
  5
3EC
100
AcDbEntity
  8
0
100
AcDbCircle
 62
7
  6
CONTINUOUS
 10
5.6906069077
 20
3.2746435014
 40
0.015
100
AcDbArc
 50
107.6948410519
 51
180.0
  0
ARC
  5
3ED
100
AcDbEntity
  8
0
100
AcDbCircle
 62
7
  6
CONTINUOUS
 10
5.8042947967
 20
3.3428300433
 40
0.015
100
AcDbArc
 50
90.0
 51
134.2132584916
  0
ARC
  5
3EE
100
AcDbEntity
  8
0
100
AcDbCircle
 62
7
  6
CONTINUOUS
 10
5.6056069077
 20
3.0657589754
 40
0.005
100
AcDbArc
 50
134.9999999974
 51
180.0
  0
ARC
  5
3EF
100
AcDbEntity
  8
0
100
AcDbCircle
 62
7
  6
CONTINUOUS
 10
5.6181069077
 20
3.0924011111
 40
0.005
100
AcDbArc
 50
314.999999997
 51
360.0
  0
ARC
  5
3F0
100
AcDbEntity
  8
0
100
AcDbCircle
 62
7
  6
CONTINUOUS
 10
5.5833613374
 20
3.9883337939
 40
0.25
100
AcDbArc
 50
28.6603082854
 51
56.3159212954
  0
ARC
  5
3F1
100
AcDbEntity
  8
0
100
AcDbCircle
 62
7
  6
CONTINUOUS
 10
5.6863056171
 20
4.4893737413
 40
0.2440880653
100
AcDbArc
 50
272.618577363
 51
273.455283564
  0
ARC
  5
3F2
100
AcDbEntity
  8
0
100
AcDbCircle
 62
7
  6
CONTINUOUS
 10
5.7051764261
 20
4.2942638434
 40
0.0691491322
100
AcDbArc
 50
277.7745113059
 51
279.8248117135
  0
ARC
  5
3F3
100
AcDbEntity
  8
0
100
AcDbCircle
 62
7
  6
CONTINUOUS
 10
6.0052568696
 20
4.260799316
 40
0.03013756
100
AcDbArc
 50
267.5057547893
 51
272.0794315968
  0
ARC
  5
3F4
100
AcDbEntity
  8
0
100
AcDbCircle
 62
7
  6
CONTINUOUS
 10
5.8202805671
 20
4.1178300433
 40
0.02
100
AcDbArc
 50
208.6603083011
 51
270.0
  0
ARC
  5
3F5
100
AcDbEntity
  8
0
100
AcDbCircle
 62
7
  6
CONTINUOUS
 10
5.7331069077
 20
4.2130030267
 40
0.02
100
AcDbArc
 50
180.0000000001
 51
236.3159212974
  0
ARC
  5
3F6
100
AcDbEntity
  8
0
100
AcDbCircle
 62
7
  6
CONTINUOUS
 10
5.6975377175
 20
4.2653300433
 40
0.02
100
AcDbArc
 50
258.9441152079
 51
263.6402913619
  0
ARC
  5
3F7
100
AcDbEntity
  8
0
100
AcDbCircle
 62
7
  6
CONTINUOUS
 10
5.6931069085
 20
4.2255761707
 40
0.02
100
AcDbArc
 50
0.0000900213
 51
83.6402814839
  0
ARC
  5
3F8
100
AcDbEntity
  8
0
100
AcDbCircle
 62
7
  6
CONTINUOUS
 10
5.7003191362
 20
4.2648710341
 40
0.0195411882
100
AcDbArc
 50
258.6644685424
 51
261.5784849881
  0
ARC
  5
3F9
100
AcDbEntity
  8
0
100
AcDbCircle
 62
7
  6
CONTINUOUS
 10
6.0022075897
 20
4.2642996734
 40
0.0163038066
100
AcDbArc
 50
267.6126648834
 51
271.9921342602
  0
ARC
  5
3FA
100
AcDbEntity
  8
0
100
AcDbCircle
 62
7
  6
CONTINUOUS
 10
6.6634476721
 20
3.5499705798
 40
0.274
100
AcDbArc
 50
225.786741508
 51
252.3051589479
  0
ARC
  5
3FB
100
AcDbEntity
  8
0
100
AcDbCircle
 62
7
  6
CONTINUOUS
 10
6.6356069077
 20
3.2478300433
 40
0.045
100
AcDbArc
 50
180.0
 51
267.5
  0
ARC
  5
3FC
100
AcDbEntity
  8
0
100
AcDbCircle
 62
7
  6
CONTINUOUS
 10
6.5756069077
 20
3.2746435014
 40
0.015
100
AcDbArc
 50
0.0
 51
72.3051589481
  0
ARC
  5
3FD
100
AcDbEntity
  8
0
100
AcDbCircle
 62
7
  6
CONTINUOUS
 10
6.4619190187
 20
3.3428300433
 40
0.015
100
AcDbArc
 50
45.7867415084
 51
90.0
  0
ARC
  5
3FE
100
AcDbEntity
  8
0
100
AcDbCircle
 62
7
  6
CONTINUOUS
 10
6.6606069077
 20
3.0657589754
 40
0.005
100
AcDbArc
 50
0.0
 51
45.0000000026
  0
ARC
  5
3FF
100
AcDbEntity
  8
0
100
AcDbCircle
 62
7
  6
CONTINUOUS
 10
6.6481069077
 20
3.0924011111
 40
0.005
100
AcDbArc
 50
180.0
 51
225.000000003
  0
ARC
  5
400
100
AcDbEntity
  8
0
100
AcDbCircle
 62
7
  6
CONTINUOUS
 10
6.682852478
 20
3.9883337939
 40
0.25
100
AcDbArc
 50
123.6840787046
 51
151.3396917146
  0
ARC
  5
401
100
AcDbEntity
  8
0
100
AcDbCircle
 62
7
  6
CONTINUOUS
 10
6.5731069077
 20
4.2308269013
 40
0.02
100
AcDbArc
 50
120.3926531496
 51
180.0
  0
ARC
  5
402
100
AcDbEntity
  8
0
100
AcDbCircle
 62
7
  6
CONTINUOUS
 10
6.5528699812
 20
4.2653300433
 40
0.02
100
AcDbArc
 50
300.3926531496
 51
353.2731170385
  0
ARC
  5
403
100
AcDbEntity
  8
0
100
AcDbCircle
 62
7
  6
CONTINUOUS
 10
6.4459332483
 20
4.1178300433
 40
0.02
100
AcDbArc
 50
270.0
 51
331.3396916989
  0
ARC
  5
404
100
AcDbEntity
  8
0
100
AcDbCircle
 62
7
  6
CONTINUOUS
 10
6.5331069077
 20
4.2130030267
 40
0.02
100
AcDbArc
 50
303.6840787026
 51
359.9999999999
  0
ARC
  5
405
100
AcDbEntity
  8
0
100
AcDbCircle
 62
7
  6
CONTINUOUS
 10
5.242379635
 20
5.1538300433
 40
1.2084097577
100
AcDbArc
 50
9.4403202359
 51
17.1232019022
  0
ARC
  5
406
100
AcDbEntity
  8
0
100
AcDbCircle
 62
7
  6
CONTINUOUS
 10
5.4857165073
 20
5.9393160614
 40
0.573
100
AcDbArc
 50
312.7311458337
 51
333.4089391877
  0
ARC
  5
407
100
AcDbEntity
  8
0
100
AcDbCircle
 62
7
  6
CONTINUOUS
 10
5.2281069077
 20
5.9873300433
 40
0.3975
100
AcDbArc
 50
149.2275806214
 51
182.8606200182
  0
ARC
  5
408
100
AcDbEntity
  8
0
100
AcDbCircle
 62
7
  6
CONTINUOUS
 10
6.1331069077
 20
5.1203580487
 40
0.3062
100
AcDbArc
 50
13.6907851686
 51
40.5502832732
  0
ARC
  5
409
100
AcDbEntity
  8
0
100
AcDbCircle
 62
7
  6
CONTINUOUS
 10
6.1331069077
 20
5.1203580487
 40
0.3062
100
AcDbArc
 50
161.8314176025
 51
166.3092148314
  0
ARC
  5
40A
100
AcDbEntity
  8
0
100
AcDbCircle
 62
7
  6
CONTINUOUS
 10
5.5833613374
 20
5.3023262926
 40
0.25
100
AcDbArc
 50
303.6840787046
 51
331.3396917146
  0
ARC
  5
40B
100
AcDbEntity
  8
0
100
AcDbCircle
 62
7
  6
CONTINUOUS
 10
6.1413470628
 20
5.8695443843
 40
0.1585
100
AcDbArc
 50
92.9800570575
 51
130.5232966534
  0
ARC
  5
40C
100
AcDbEntity
  8
0
100
AcDbCircle
 62
7
  6
CONTINUOUS
 10
6.1248667526
 20
5.8695443843
 40
0.1585
100
AcDbArc
 50
49.4767033466
 51
87.0199429425
  0
ARC
  5
40D
100
AcDbEntity
  8
0
100
AcDbCircle
 62
7
  6
CONTINUOUS
 10
5.9672077993
 20
5.9711593798
 40
0.045
100
AcDbArc
 50
293.1271466511
 51
338.1513791256
  0
ARC
  5
40E
100
AcDbEntity
  8
0
100
AcDbCircle
 62
7
  6
CONTINUOUS
 10
5.9968569077
 20
5.9078300433
 40
0.025
100
AcDbArc
 50
118.6183580713
 51
180.0
  0
ARC
  5
40F
100
AcDbEntity
  8
0
100
AcDbCircle
 62
7
  6
CONTINUOUS
 10
5.9776130062
 20
5.6908300433
 40
0.022
100
AcDbArc
 50
338.6763137365
 51
90.0
  0
ARC
  5
410
100
AcDbEntity
  8
0
100
AcDbCircle
 62
7
  6
CONTINUOUS
 10
5.8881020342
 20
5.5037303779
 40
0.02
100
AcDbArc
 50
132.7311458313
 51
162.8767980964
  0
ARC
  5
411
100
AcDbEntity
  8
0
100
AcDbCircle
 62
7
  6
CONTINUOUS
 10
5.7331069077
 20
5.0776570598
 40
0.02
100
AcDbArc
 50
123.6840787021
 51
180.0
  0
ARC
  5
412
100
AcDbEntity
  8
0
100
AcDbCircle
 62
7
  6
CONTINUOUS
 10
5.8202805671
 20
5.1728300433
 40
0.02
100
AcDbArc
 50
90.0
 51
151.3396916693
  0
ARC
  5
413
100
AcDbEntity
  8
0
100
AcDbCircle
 62
7
  6
CONTINUOUS
 10
5.6931069142
 20
5.0653316831
 40
0.0199999997
100
AcDbArc
 50
269.924738562
 51
0.0000048493
  0
ARC
  5
414
100
AcDbEntity
  8
0
100
AcDbCircle
 62
7
  6
CONTINUOUS
 10
5.9431071334
 20
5.9008253984
 40
0.0199999762
100
AcDbArc
 50
252.8100661934
 51
344.5431877849
  0
ARC
  5
415
100
AcDbEntity
  8
0
100
AcDbCircle
 62
7
  6
CONTINUOUS
 10
5.6956048957
 20
5.0651328095
 40
0.0198028005
100
AcDbArc
 50
272.5163800288
 51
275.0269892079
  0
ARC
  5
416
100
AcDbEntity
  8
0
100
AcDbCircle
 62
7
  6
CONTINUOUS
 10
5.6956065867
 20
5.0650913673
 40
0.019761324
100
AcDbArc
 50
270.0009307797
 51
272.5167573751
  0
ARC
  5
417
100
AcDbEntity
  8
0
100
AcDbCircle
 62
7
  6
CONTINUOUS
 10
6.0228980204
 20
5.9488300433
 40
0.015
100
AcDbArc
 50
90.0
 51
158.1513791256
  0
ARC
  5
418
100
AcDbEntity
  8
0
100
AcDbCircle
 62
7
  6
CONTINUOUS
 10
6.2181069077
 20
5.9786247376
 40
0.015
100
AcDbArc
 50
0.0
 51
49.4767033466
  0
ARC
  5
419
100
AcDbEntity
  8
0
100
AcDbCircle
 62
7
  6
CONTINUOUS
 10
6.0481069077
 20
5.9786247376
 40
0.015
100
AcDbArc
 50
130.5232966534
 51
180.0
  0
ARC
  5
41A
100
AcDbEntity
  8
0
100
AcDbCircle
 62
7
  6
CONTINUOUS
 10
6.0231069077
 20
5.9738300433
 40
0.01
100
AcDbArc
 50
272.7272727273
 51
360.0
  0
ARC
  5
41B
100
AcDbEntity
  8
0
100
AcDbCircle
 62
7
  6
CONTINUOUS
 10
5.9731069077
 20
5.7228300433
 40
0.01
100
AcDbArc
 50
186.6975096916
 51
270.0
  0
ARC
  5
41C
100
AcDbEntity
  8
0
100
AcDbCircle
 62
7
  6
CONTINUOUS
 10
5.9720225974
 20
5.892837713
 40
0.0099923303
100
AcDbArc
 50
90.0028714902
 51
164.5437782107
  0
ARC
  5
41D
100
AcDbEntity
  8
0
100
AcDbCircle
 62
7
  6
CONTINUOUS
 10
5.6896266764
 20
6.2515050187
 40
2.0058074728
100
AcDbArc
 50
270.1957051583
 51
270.3253170715
  0
ARC
  5
41E
100
AcDbEntity
  8
0
100
AcDbCircle
 62
7
  6
CONTINUOUS
 10
5.6956065853
 20
6.9722976127
 40
1.92696646
100
AcDbArc
 50
253.4159010129
 51
269.6950495037
  0
ARC
  5
41F
100
AcDbEntity
  8
0
100
AcDbCircle
 62
7
  6
CONTINUOUS
 10
5.6956075626
 20
6.9693837254
 40
1.9240536827
100
AcDbArc
 50
269.6945585703
 51
269.9247516453
  0
ARC
  5
420
100
AcDbEntity
  8
0
100
AcDbCircle
 62
7
  6
CONTINUOUS
 10
7.2413526846
 20
5.4817719123
 40
2.4075394817
100
AcDbArc
 50
166.4185246843
 51
168.0188329882
  0
ARC
  5
421
100
AcDbEntity
  8
0
100
AcDbCircle
 62
7
  6
CONTINUOUS
 10
6.8629744056
 20
5.5755018272
 40
2.0370576001
100
AcDbArc
 50
166.4554128223
 51
168.274033949
  0
ARC
  5
422
100
AcDbEntity
  8
0
100
AcDbCircle
 62
7
  6
CONTINUOUS
 10
7.0238341804
 20
5.1538300433
 40
1.2084097577
100
AcDbArc
 50
162.8767980978
 51
177.0590284492
  0
ARC
  5
423
100
AcDbEntity
  8
0
100
AcDbCircle
 62
7
  6
CONTINUOUS
 10
6.7804973082
 20
5.9393160614
 40
0.573
100
AcDbArc
 50
206.5910608123
 51
227.2688541663
  0
ARC
  5
424
100
AcDbEntity
  8
0
100
AcDbCircle
 62
7
  6
CONTINUOUS
 10
6.682852478
 20
5.3023262926
 40
0.25
100
AcDbArc
 50
208.6603082854
 51
236.3159212954
  0
ARC
  5
425
100
AcDbEntity
  8
0
100
AcDbCircle
 62
7
  6
CONTINUOUS
 10
6.2990060161
 20
5.9711593798
 40
0.045
100
AcDbArc
 50
201.8486208744
 51
246.8728533489
  0
ARC
  5
426
100
AcDbEntity
  8
0
100
AcDbCircle
 62
7
  6
CONTINUOUS
 10
6.2693569077
 20
5.9078300433
 40
0.025
100
AcDbArc
 50
0.0
 51
61.3816419287
  0
ARC
  5
427
100
AcDbEntity
  8
0
100
AcDbCircle
 62
7
  6
CONTINUOUS
 10
6.2886008092
 20
5.6908300433
 40
0.022
100
AcDbArc
 50
90.0
 51
201.3236862635
  0
ARC
  5
428
100
AcDbEntity
  8
0
100
AcDbCircle
 62
7
  6
CONTINUOUS
 10
6.5731069077
 20
5.0600018737
 40
0.02
100
AcDbArc
 50
180.0
 51
240.0883946631
  0
ARC
  5
429
100
AcDbEntity
  8
0
100
AcDbCircle
 62
7
  6
CONTINUOUS
 10
6.5531603749
 20
5.0253300433
 40
0.02
100
AcDbArc
 50
7.6035628136
 51
60.0883946631
  0
ARC
  5
42A
100
AcDbEntity
  8
0
100
AcDbCircle
 62
7
  6
CONTINUOUS
 10
6.3781117813
 20
5.5037303779
 40
0.02
100
AcDbArc
 50
17.1232019036
 51
47.2688541687
  0
ARC
  5
42B
100
AcDbEntity
  8
0
100
AcDbCircle
 62
7
  6
CONTINUOUS
 10
6.5331069077
 20
5.0776570598
 40
0.02
100
AcDbArc
 50
0.0
 51
56.3159212979
  0
ARC
  5
42C
100
AcDbEntity
  8
0
100
AcDbCircle
 62
7
  6
CONTINUOUS
 10
6.4459332483
 20
5.1728300433
 40
0.02
100
AcDbArc
 50
28.6603083307
 51
90.0
  0
ARC
  5
42D
100
AcDbEntity
  8
0
100
AcDbCircle
 62
7
  6
CONTINUOUS
 10
6.243315795
 20
5.9488300433
 40
0.015
100
AcDbArc
 50
21.8486208744
 51
90.0
  0
ARC
  5
42E
100
AcDbEntity
  8
0
100
AcDbCircle
 62
7
  6
CONTINUOUS
 10
6.2931069077
 20
5.8928300433
 40
0.01
100
AcDbArc
 50
0.0
 51
84.5454545455
  0
ARC
  5
42F
100
AcDbEntity
  8
0
100
AcDbCircle
 62
7
  6
CONTINUOUS
 10
6.2431069077
 20
5.9738300433
 40
0.01
100
AcDbArc
 50
180.0
 51
267.2727272727
  0
ARC
  5
430
100
AcDbEntity
  8
0
100
AcDbCircle
 62
7
  6
CONTINUOUS
 10
6.2931069077
 20
5.7228300433
 40
0.01
100
AcDbArc
 50
270.0
 51
360.0
  0
ARC
  5
431
100
AcDbEntity
  8
0
100
AcDbCircle
 62
7
  6
CONTINUOUS
 10
6.4319577188
 20
5.3516235877
 40
0.0025
100
AcDbArc
 50
294.0003938882
 51
9.4404192541
  0
ARC
  5
432
100
AcDbEntity
  8
0
100
AcDbCircle
 62
7
  6
CONTINUOUS
 10
6.3566120402
 20
6.4128546917
 40
0.6457647438
100
AcDbArc
 50
233.6377813551
 51
234.5820906897
  0
ARC
  5
433
100
AcDbEntity
  8
0
100
AcDbCircle
 62
7
  6
CONTINUOUS
 10
6.1366693581
 20
46.3784805839
 40
42.1304023027
100
AcDbArc
 50
269.8548692677
 51
269.9984770514
  0
ARC
  5
434
100
AcDbEntity
  8
0
100
AcDbCircle
 62
7
  6
CONTINUOUS
 10
6.136653244
 20
24.4082761897
 40
20.1774497391
100
AcDbArc
 50
269.703370567
 51
269.9967099582
  0
ARC
  5
435
100
AcDbEntity
  8
0
100
AcDbCircle
 62
7
  6
CONTINUOUS
 10
111.1701600102
 20
-9.0998191142
 40
108.7207257301
100
AcDbArc
 50
172.3030756651
 51
172.5108015102
  0
SPLINE
  5
436
100
AcDbEntity
  8
0
100
AcDbSpline
 62
7
  6
CONTINUOUS
 70
0
 71
3
 72
15
 73
11
 74
0
 42
0.0000001
 43
0.0000001
 44
0.0000000001
 40
0.0
 40
0.0
 40
0.0
 40
0.0
 40
0.1248371691
 40
0.2498860094
 40
0.3750445121
 40
0.5002250504
 40
0.625355789
 40
0.7503821918
 40
0.8752686193
 40
1.0
 40
1.0
 40
1.0
 40
1.0
 10
6.5727322972
 20
4.2629873089
 30
0.0
 10
6.5764706584
 20
4.2946821157
 30
0.0
 10
6.5831370269
 20
4.3582251873
 30
0.0
 10
6.5905707314
 20
4.4538280324
 30
0.0
 10
6.595308566
 20
4.5496920911
 30
0.0
 10
6.5972084098
 20
4.6456764854
 30
0.0
 10
6.5961281779
 20
4.7416412556
 30
0.0
 10
6.5919255406
 20
4.8374467711
 30
0.0
 10
6.584458337
 20
4.9329512254
 30
0.0
 10
6.577203808
 20
4.9963693122
 30
0.0
 10
6.5729845212
 20
5.0279764038
 30
0.0
  0
SPLINE
  5
437
100
AcDbEntity
  8
0
100
AcDbSpline
 62
7
  6
CONTINUOUS
 70
0
 71
3
 72
36
 73
32
 74
0
 42
0.0000001
 43
0.0000001
 44
0.0000000001
 40
0.0
 40
0.0
 40
0.0
 40
0.0
 40
0.0312477725
 40
0.0625038524
 40
0.0937642917
 40
0.1250231989
 40
0.1875203556
 40
0.2500169285
 40
0.3125106574
 40
0.3750060508
 40
0.4374893537
 40
0.4999787402
 40
0.562478744
 40
0.6249820793
 40
0.6562305733
 40
0.6874759731
 40
0.7187187662
 40
0.7499601514
 40
0.7812016739
 40
0.8124465896
 40
0.8436964983
 40
0.8593196678
 40
0.8749432184
 40
0.8905707002
 40
0.9061987862
 40
0.9218262228
 40
0.9374572481
 40
0.9530974848
 40
0.9687393087
 40
0.9843746687
 40
1.0
 40
1.0
 40
1.0
 40
1.0
 10
5.6937023798
 20
4.2457012026
 30
0.0
 10
5.6729848249
 20
4.2497490981
 30
0.0
 10
5.6316692043
 20
4.2585007573
 30
0.0
 10
5.5701270041
 20
4.2735320375
 30
0.0
 10
5.5090572084
 20
4.2904107804
 30
0.0
 10
5.4283421155
 20
4.3152977445
 30
0.0
 10
5.3288537566
 20
4.3507442236
 30
0.0
 10
5.2118600016
 20
4.3993927915
 30
0.0
 10
5.09724522
 20
4.4533816264
 30
0.0
 10
4.9848290147
 20
4.511762868
 30
0.0
 10
4.8743175475
 20
4.5736478959
 30
0.0
 10
4.7652929363
 20
4.6381063522
 30
0.0
 10
4.6572688481
 20
4.7042438996
 30
0.0
 10
4.5676628178
 20
4.7600353927
 30
0.0
 10
4.4959672104
 20
4.8046457152
 30
0.0
 10
4.4421208799
 20
4.8379690465
 30
0.0
 10
4.3881243508
 20
4.8710396406
 30
0.0
 10
4.3339443339
 20
4.9038035047
 30
0.0
 10
4.2795442866
 20
4.9362053442
 30
0.0
 10
4.2247255409
 20
4.9679060449
 30
0.0
 10
4.1785389556
 20
4.9934502961
 30
0.0
 10
4.1410570509
 20
5.0128877847
 30
0.0
 10
4.1126295744
 20
5.0268443951
 30
0.0
 10
4.0838428063
 20
5.0400545199
 30
0.0
 10
4.0546740233
 20
5.0524077271
 30
0.0
 10
4.0251085289
 20
5.06378886
 30
0.0
 10
3.9951361761
 20
5.0740806426
 30
0.0
 10
3.9647638451
 20
5.0831619139
 30
0.0
 10
3.9340319953
 20
5.0909562284
 30
0.0
 10
3.9029949754
 20
5.097381142
 30
0.0
 10
3.8821292859
 20
5.1006973102
 30
0.0
 10
3.8716671177
 20
5.1020988374
 30
0.0
  0
SPLINE
  5
438
100
AcDbEntity
  8
0
100
AcDbSpline
 62
7
  6
CONTINUOUS
 70
0
 71
3
 72
8
 73
4
 74
0
 42
0.0000001
 43
0.0000001
 44
0.0000000001
 40
0.0
 40
0.0
 40
0.0
 40
0.0
 40
1.0
 40
1.0
 40
1.0
 40
1.0
 10
3.8716671177
 20
5.1020988374
 30
0.0
 10
3.7973742261
 20
5.1120512205
 30
0.0
 10
3.6803298404
 20
5.1045889417
 30
0.0
 10
3.6576278311
 20
5.0331529393
 30
0.0
  0
SPLINE
  5
439
100
AcDbEntity
  8
0
100
AcDbSpline
 62
7
  6
CONTINUOUS
 70
0
 71
3
 72
29
 73
25
 74
0
 42
0.0000001
 43
0.0000001
 44
0.0000000001
 40
0.0
 40
0.0
 40
0.0
 40
0.0
 40
0.0978871755
 40
0.1925034759
 40
0.2834782388
 40
0.3704540555
 40
0.4123358592
 40
0.4530922819
 40
0.4926841165
 40
0.5310734808
 40
0.5682241685
 40
0.6041011261
 40
0.6386711566
 40
0.6719022884
 40
0.7037642764
 40
0.7342278059
 40
0.7632650738
 40
0.790849146
 40
0.8169546472
 40
0.8415568372
 40
0.8861550628
 40
0.9563017935
 40
0.9815273317
 40
1.0
 40
1.0
 40
1.0
 40
1.0
 10
5.9560379844
 20
4.2323437392
 30
0.0
 10
5.9482283523
 20
4.232688898
 30
0.0
 10
5.9328679071
 20
4.2333204661
 30
0.0
 10
5.9102426027
 20
4.2340994807
 30
0.0
 10
5.8884830979
 20
4.2346851014
 30
0.0
 10
5.8709298031
 20
4.2349990475
 30
0.0
 10
5.8573850384
 20
4.2351318532
 30
0.0
 10
5.8476237828
 20
4.2351711918
 30
0.0
 10
5.8381413688
 20
4.2351499645
 30
0.0
 10
5.8289472582
 20
4.2350660318
 30
0.0
 10
5.8200506267
 20
4.2349201188
 30
0.0
 10
5.8114602764
 20
4.2347140503
 30
0.0
 10
5.803184705
 20
4.2344489748
 30
0.0
 10
5.7952320779
 20
4.2341259195
 30
0.0
 10
5.7876101571
 20
4.2337488342
 30
0.0
 10
5.7803263365
 20
4.2333219163
 30
0.0
 10
5.7733875876
 20
4.2328514068
 30
0.0
 10
5.7668004924
 20
4.2323434703
 30
0.0
 10
5.7605713581
 20
4.2318038413
 30
0.0
 10
5.752995148
 20
4.2310745659
 30
0.0
 10
5.7419329053
 20
4.2298601185
 30
0.0
 10
5.730851746
 20
4.2283749179
 30
0.0
 10
5.7218706522
 20
4.2269603683
 30
0.0
 10
5.7184293377
 20
4.2263807076
 30
0.0
 10
5.7169757711
 20
4.2261288508
 30
0.0
  0
SPLINE
  5
43A
100
AcDbEntity
  8
0
100
AcDbSpline
 62
7
  6
CONTINUOUS
 70
0
 71
3
 72
21
 73
17
 74
0
 42
0.0000001
 43
0.0000001
 44
0.0000000001
 40
0.0
 40
0.0
 40
0.0
 40
0.0
 40
0.0012888121
 40
0.0045685479
 40
0.0098348799
 40
0.017083484
 40
0.0375158162
 40
0.0658529661
 40
0.1020800394
 40
0.1461405626
 40
0.1979587617
 40
0.257462301
 40
0.3992443044
 40
0.5707758927
 40
0.7713402725
 40
1.0
 40
1.0
 40
1.0
 40
1.0
 10
5.9468571169
 20
5.7389517862
 30
0.0
 10
5.946865603
 20
5.738953156
 30
0.0
 10
5.9468957552
 20
5.7389575589
 30
0.0
 10
5.9469606055
 20
5.7389674117
 30
0.0
 10
5.9470647955
 20
5.7389829727
 30
0.0
 10
5.947282102
 20
5.7390156316
 30
0.0
 10
5.9476515941
 20
5.7390710301
 30
0.0
 10
5.9482123282
 20
5.739154403
 30
0.0
 10
5.9489291149
 20
5.7392597782
 30
0.0
 10
5.9498010787
 20
5.7393863445
 30
0.0
 10
5.9508269588
 20
5.7395332706
 30
0.0
 10
5.9524985459
 20
5.7397689371
 30
0.0
 10
5.9549622136
 20
5.7401057144
 30
0.0
 10
5.9583609347
 20
5.7405483312
 30
0.0
 10
5.9623382168
 20
5.7410345091
 30
0.0
 10
5.9651830169
 20
5.7413553083
 30
0.0
 10
5.9666992187
 20
5.7415196587
 30
0.0
  0
SPLINE
  5
43B
100
AcDbEntity
  8
0
100
AcDbSpline
 62
7
  6
CONTINUOUS
 70
0
 71
3
 72
15
 73
11
 74
0
 42
0.0000001
 43
0.0000001
 44
0.0000000001
 40
0.0
 40
0.0
 40
0.0
 40
0.0
 40
0.1210143271
 40
0.2426424778
 40
0.3654134945
 40
0.4896565845
 40
0.6154738017
 40
0.742728421
 40
0.8710677146
 40
1.0
 40
1.0
 40
1.0
 40
1.0
 10
5.9831200902
 20
5.9028300433
 30
0.0
 10
5.9825071123
 20
5.9028300433
 30
0.0
 10
5.9812742071
 20
5.9027003281
 30
0.0
 10
5.9795016264
 20
5.9021249428
 30
0.0
 10
5.9778691414
 20
5.901191788
 30
0.0
 10
5.9764405151
 20
5.8999377841
 30
0.0
 10
5.975269656
 20
5.8984121363
 30
0.0
 10
5.9744007343
 20
5.8966735544
 30
0.0
 10
5.9738660716
 20
5.8947894952
 30
0.0
 10
5.973745867
 20
5.8934831282
 30
0.0
 10
5.973745865
 20
5.8928300433
 30
0.0
  0
SPLINE
  5
43C
100
AcDbEntity
  8
0
100
AcDbSpline
 62
7
  6
CONTINUOUS
 70
0
 71
3
 72
10
 73
6
 74
0
 42
0.0000001
 43
0.0000001
 44
0.0000000001
 40
0.0
 40
0.0
 40
0.0
 40
0.0
 40
0.4970402346
 40
0.7478790883
 40
1.0
 40
1.0
 40
1.0
 40
1.0
 10
5.9666931371
 20
5.7415207318
 30
0.0
 10
5.9677865909
 20
5.7413449899
 30
0.0
 10
5.9694194209
 20
5.7409842908
 30
0.0
 10
5.9715371229
 20
5.7402873199
 30
0.0
 10
5.9725741694
 20
5.7398586913
 30
0.0
 10
5.9730839281
 20
5.7396226243
 30
0.0
  0
SPLINE
  5
43D
100
AcDbEntity
  8
0
100
AcDbSpline
 62
7
  6
CONTINUOUS
 70
0
 71
3
 72
19
 73
15
 74
0
 42
0.0000001
 43
0.0000001
 44
0.0000000001
 40
0.0
 40
0.0
 40
0.0
 40
0.0
 40
0.0305982597
 40
0.0661132365
 40
0.1065318463
 40
0.151783149
 40
0.2017565563
 40
0.2562916737
 40
0.3152020977
 40
0.3782693859
 40
0.5159011601
 40
0.6670458934
 40
0.8292875985
 40
1.0
 40
1.0
 40
1.0
 40
1.0
 10
5.9730839281
 20
5.7396226243
 30
0.0
 10
5.9732073916
 20
5.7397029366
 30
0.0
 10
5.9734648122
 20
5.7398908706
 30
0.0
 10
5.9738563469
 20
5.7402224465
 30
0.0
 10
5.9742802006
 20
5.7406235825
 30
0.0
 10
5.9747346091
 20
5.7410926584
 30
0.0
 10
5.9752176841
 20
5.7416278988
 30
0.0
 10
5.9757274406
 20
5.7422271292
 30
0.0
 10
5.9762616863
 20
5.7428879055
 30
0.0
 10
5.9770261953
 20
5.7438765088
 30
0.0
 10
5.9780230046
 20
5.7452461741
 30
0.0
 10
5.9792467795
 20
5.7470397054
 30
0.0
 10
5.9805098413
 20
5.7489982103
 30
0.0
 10
5.9813472621
 20
5.7503648986
 30
0.0
 10
5.9817692386
 20
5.7510700101
 30
0.0
  0
SPLINE
  5
43E
100
AcDbEntity
  8
0
100
AcDbSpline
 62
7
  6
CONTINUOUS
 70
0
 71
3
 72
22
 73
18
 74
0
 42
0.0000001
 43
0.0000001
 44
0.0000000001
 40
0.0
 40
0.0
 40
0.0
 40
0.0
 40
0.0711119447
 40
0.1413060266
 40
0.2103351564
 40
0.2781198472
 40
0.3446151206
 40
0.409824437
 40
0.4737791655
 40
0.5365291608
 40
0.5981305456
 40
0.6586259868
 40
0.7180481273
 40
0.7764300413
 40
0.833813029
 40
0.890232865
 40
1.0
 40
1.0
 40
1.0
 40
1.0
 10
5.9730840909
 20
5.7396229576
 30
0.0
 10
5.9736340076
 20
5.739368072
 30
0.0
 10
5.9747150215
 20
5.7388359558
 30
0.0
 10
5.9762893033
 20
5.7379773287
 30
0.0
 10
5.9778052594
 20
5.7370737645
 30
0.0
 10
5.9792620131
 20
5.7361346712
 30
0.0
 10
5.9806601479
 20
5.7351665196
 30
0.0
 10
5.9820013724
 20
5.7341750131
 30
0.0
 10
5.9832886145
 20
5.7331653536
 30
0.0
 10
5.9845234392
 20
5.7321397214
 30
0.0
 10
5.9857071665
 20
5.73109968
 30
0.0
 10
5.9868413637
 20
5.7300471314
 30
0.0
 10
5.9879278747
 20
5.7289843246
 30
0.0
 10
5.9889674683
 20
5.7279122319
 30
0.0
 10
5.9899593262
 20
5.7268302344
 30
0.0
 10
5.9912048435
 20
5.7253877866
 30
0.0
 10
5.9920844493
 20
5.7242763038
 30
0.0
 10
5.9926450446
 20
5.7235272659
 30
0.0
  0
SPLINE
  5
43F
100
AcDbEntity
  8
0
100
AcDbSpline
 62
7
  6
CONTINUOUS
 70
0
 71
3
 72
19
 73
15
 74
0
 42
0.0000001
 43
0.0000001
 44
0.0000000001
 40
0.0
 40
0.0
 40
0.0
 40
0.0
 40
0.1245378015
 40
0.1870342585
 40
0.2496395556
 40
0.3750755949
 40
0.500694926
 40
0.6263127533
 40
0.6890639172
 40
0.7517171139
 40
0.8142174035
 40
0.8765003107
 40
0.9384890565
 40
1.0
 40
1.0
 40
1.0
 40
1.0
 10
5.9926450446
 20
5.7235272659
 30
0.0
 10
5.9925160046
 20
5.7247690908
 30
0.0
 10
5.9922604183
 20
5.7266282938
 30
0.0
 10
5.99180757
 20
5.7290898955
 30
0.0
 10
5.991280825
 20
5.7315460518
 30
0.0
 10
5.9904829506
 20
5.7345898777
 30
0.0
 10
5.9892958865
 20
5.7381772753
 30
0.0
 10
5.9881053171
 20
5.7410945624
 30
0.0
 10
5.9870194108
 20
5.7433654333
 30
0.0
 10
5.9861346679
 20
5.7450292458
 30
0.0
 10
5.9851747282
 20
5.7466455169
 30
0.0
 10
5.9841343558
 20
5.7482035084
 30
0.0
 10
5.9830087721
 20
5.7496888679
 30
0.0
 10
5.9821935713
 20
5.7506226086
 30
0.0
 10
5.9817692346
 20
5.7510700504
 30
0.0
  0
SPLINE
  5
440
100
AcDbEntity
  8
0
100
AcDbSpline
 62
7
  6
CONTINUOUS
 70
0
 71
3
 72
23
 73
19
 74
0
 42
0.0000001
 43
0.0000001
 44
0.0000000001
 40
0.0
 40
0.0
 40
0.0
 40
0.0
 40
0.0636141756
 40
0.1279351964
 40
0.1927761038
 40
0.2579448453
 40
0.3232278624
 40
0.3884108469
 40
0.4532821102
 40
0.5176422278
 40
0.581311622
 40
0.6441383819
 40
0.7060055617
 40
0.7668373149
 40
0.8266055594
 40
0.8853295928
 40
0.9430888096
 40
1.0
 40
1.0
 40
1.0
 40
1.0
 10
5.9823693195
 20
5.8865909923
 30
0.0
 10
5.982273609
 20
5.8858871348
 30
0.0
 10
5.9820102341
 20
5.8844803001
 30
0.0
 10
5.9814106961
 20
5.8824096309
 30
0.0
 10
5.9806111559
 20
5.8803888398
 30
0.0
 10
5.9796213285
 20
5.8784421918
 30
0.0
 10
5.9784528919
 20
5.8765926921
 30
0.0
 10
5.9771197701
 20
5.8748623167
 30
0.0
 10
5.9756377478
 20
5.8732716204
 30
0.0
 10
5.9740243859
 20
5.8718395253
 30
0.0
 10
5.9722987783
 20
5.8705831024
 30
0.0
 10
5.9704813488
 20
5.8695173647
 30
0.0
 10
5.9685936102
 20
5.8686551174
 30
0.0
 10
5.9666579151
 20
5.868006776
 30
0.0
 10
5.9646972714
 20
5.8675803377
 30
0.0
 10
5.9627348758
 20
5.8673811032
 30
0.0
 10
5.9607946123
 20
5.8674118221
 30
0.0
 10
5.9595223429
 20
5.8675868009
 30
0.0
 10
5.9588994097
 20
5.8677124936
 30
0.0
  0
SPLINE
  5
441
100
AcDbEntity
  8
0
100
AcDbSpline
 62
7
  6
CONTINUOUS
 70
0
 71
3
 72
22
 73
18
 74
0
 42
0.0000001
 43
0.0000001
 44
0.0000000001
 40
0.0
 40
0.0
 40
0.0
 40
0.0
 40
0.0536340364
 40
0.1091882424
 40
0.1663747499
 40
0.2250073166
 40
0.3459355342
 40
0.4709020494
 40
0.5346782713
 40
0.5992202928
 40
0.6644727189
 40
0.7303830322
 40
0.7969152769
 40
0.8640497118
 40
0.8978405694
 40
0.9317750348
 40
1.0
 40
1.0
 40
1.0
 40
1.0
 10
5.9588994097
 20
5.8677124936
 30
0.0
 10
5.9594047329
 20
5.8674761078
 30
0.0
 10
5.9604189229
 20
5.8669633881
 30
0.0
 10
5.9619226865
 20
5.8661057865
 30
0.0
 10
5.9634318845
 20
5.8651562105
 30
0.0
 10
5.9654636373
 20
5.8637638552
 30
0.0
 10
5.9679783758
 20
5.8618336331
 30
0.0
 10
5.9704062775
 20
5.8597135331
 30
0.0
 10
5.9723065319
 20
5.8578881469
 30
0.0
 10
5.9737124926
 20
5.8564463575
 30
0.0
 10
5.9750844909
 20
5.8549420138
 30
0.0
 10
5.9764152654
 20
5.8533736895
 30
0.0
 10
5.9776937579
 20
5.851737409
 30
0.0
 10
5.9787048852
 20
5.8503182902
 30
0.0
 10
5.9794778512
 20
5.8491475528
 30
0.0
 10
5.9802276945
 20
5.8479485344
 30
0.0
 10
5.9807542571
 20
5.8470246057
 30
0.0
 10
5.9810856606
 20
5.8463970923
 30
0.0
  0
SPLINE
  5
442
100
AcDbEntity
  8
0
100
AcDbSpline
 62
7
  6
CONTINUOUS
 70
0
 71
3
 72
16
 73
12
 74
0
 42
0.0000001
 43
0.0000001
 44
0.0000000001
 40
0.0
 40
0.0
 40
0.0
 40
0.0
 40
0.1376625926
 40
0.2762419531
 40
0.4133911419
 40
0.5467793847
 40
0.6741598561
 40
0.7934117834
 40
0.9025888279
 40
0.9528691049
 40
1.0
 40
1.0
 40
1.0
 40
1.0
 10
5.9810846413
 20
5.8463970864
 30
0.0
 10
5.9819608687
 20
5.8465161274
 30
0.0
 10
5.983715674
 20
5.8467813992
 30
0.0
 10
5.9863290983
 20
5.8472537389
 30
0.0
 10
5.9889009665
 20
5.8477956844
 30
0.0
 10
5.9913855365
 20
5.8483975575
 30
0.0
 10
5.9937387066
 20
5.8490485056
 30
0.0
 10
5.995918684
 20
5.8497368216
 30
0.0
 10
5.9976026788
 20
5.8503466943
 30
0.0
 10
5.9988317402
 20
5.8508474605
 30
0.0
 10
5.9994042089
 20
5.8511003681
 30
0.0
 10
5.9996789799
 20
5.8512274737
 30
0.0
  0
LINE
  5
443
100
AcDbEntity
  8
0
100
AcDbLine
 62
7
  6
CONTINUOUS
 10
5.9623838698
 20
5.8954951211
 11
5.9737458998
 21
5.8928301077
  0
SPLINE
  5
444
100
AcDbEntity
  8
0
100
AcDbSpline
 62
7
  6
CONTINUOUS
 70
0
 71
3
 72
17
 73
13
 74
0
 42
0.0000001
 43
0.0000001
 44
0.0000000001
 40
0.0
 40
0.0
 40
0.0
 40
0.0
 40
0.071920235
 40
0.1612697617
 40
0.2671509573
 40
0.3884806379
 40
0.52396418
 40
0.5965619098
 40
0.6721329009
 40
0.7504785346
 40
0.8313995247
 40
1.0
 40
1.0
 40
1.0
 40
1.0
 10
4.8830875878
 20
5.9708029571
 30
0.0
 10
4.8831945361
 20
5.9710497165
 30
0.0
 10
4.8834221698
 20
5.9716084078
 30
0.0
 10
4.8837568141
 20
5.9725499234
 30
0.0
 10
4.8841232485
 20
5.9736756091
 30
0.0
 10
4.8845170977
 20
5.9749735074
 30
0.0
 10
4.8848559162
 20
5.9761578386
 30
0.0
 10
4.8851378283
 20
5.9771803857
 30
0.0
 10
4.8853574725
 20
5.9779984473
 30
0.0
 10
4.8855802806
 20
5.9788478691
 30
0.0
 10
4.885886582
 20
5.9800350136
 30
0.0
 10
4.8861138342
 20
5.980940028
 30
0.0
 10
4.8862607546
 20
5.9815531357
 30
0.0
  0
SPLINE
  5
445
100
AcDbEntity
  8
0
100
AcDbSpline
 62
7
  6
CONTINUOUS
 70
0
 71
3
 72
22
 73
18
 74
0
 42
0.0000001
 43
0.0000001
 44
0.0000000001
 40
0.0
 40
0.0
 40
0.0
 40
0.0
 40
0.0729867991
 40
0.1459726641
 40
0.2185970176
 40
0.290552568
 40
0.3615271703
 40
0.4312071972
 40
0.4992902732
 40
0.5654838906
 40
0.6911024017
 40
0.7500631214
 40
0.8061799133
 40
0.8593089433
 40
0.909330313
 40
0.9561644807
 40
1.0
 40
1.0
 40
1.0
 40
1.0
 10
4.8862607546
 20
5.9815531357
 30
0.0
 10
4.8857864989
 20
5.9816393616
 30
0.0
 10
4.8848397505
 20
5.9818217632
 30
0.0
 10
4.8834298606
 20
5.9821333523
 30
0.0
 10
4.8820372127
 20
5.9824880815
 30
0.0
 10
4.8806683797
 20
5.9828798404
 30
0.0
 10
4.8793300011
 20
5.9833052466
 30
0.0
 10
4.8780292132
 20
5.9837624117
 30
0.0
 10
4.8767726693
 20
5.984248412
 30
0.0
 10
4.8751924449
 20
5.9849189693
 30
0.0
 10
4.8737003865
 20
5.9856419619
 30
0.0
 10
4.8723140477
 20
5.9864206031
 30
0.0
 10
4.8713700393
 20
5.9870070097
 30
0.0
 10
4.8705053245
 20
5.9876067951
 30
0.0
 10
4.8697244629
 20
5.9882172113
 30
0.0
 10
4.8690287085
 20
5.9888340445
 30
0.0
 10
4.8686132542
 20
5.9892667493
 30
0.0
 10
4.8684243468
 20
5.9894861285
 30
0.0
  0
SPLINE
  5
446
100
AcDbEntity
  8
0
100
AcDbSpline
 62
7
  6
CONTINUOUS
 70
0
 71
3
 72
15
 73
11
 74
0
 42
0.0000001
 43
0.0000001
 44
0.0000000001
 40
0.0
 40
0.0
 40
0.0
 40
0.0
 40
0.125071538
 40
0.2514709077
 40
0.3785415557
 40
0.5055546641
 40
0.6317922419
 40
0.7566023712
 40
0.8794519427
 40
1.0
 40
1.0
 40
1.0
 40
1.0
 10
4.8684243468
 20
5.9894861285
 30
0.0
 10
4.8685259201
 20
5.9884458159
 30
0.0
 10
4.8688854493
 20
5.9863663193
 30
0.0
 10
4.8698663957
 20
5.9833481029
 30
0.0
 10
4.8712678497
 20
5.9804820275
 30
0.0
 10
4.8730546441
 20
5.9778407679
 30
0.0
 10
4.8751820277
 20
5.975490406
 30
0.0
 10
4.8775972295
 20
5.973490177
 30
0.0
 10
4.8802390702
 20
5.9718909961
 30
0.0
 10
4.8821284814
 20
5.9711113097
 30
0.0
 10
4.8830875878
 20
5.9708029571
 30
0.0
  0
SPLINE
  5
447
100
AcDbEntity
  8
0
100
AcDbSpline
 62
7
  6
CONTINUOUS
 70
0
 71
3
 72
17
 73
13
 74
0
 42
0.0000001
 43
0.0000001
 44
0.0000000001
 40
0.0
 40
0.0
 40
0.0
 40
0.0
 40
0.1685712844
 40
0.3278100779
 40
0.4759630644
 40
0.6114388405
 40
0.7327713016
 40
0.8386712773
 40
0.8854826267
 40
0.9280357234
 40
0.9662278529
 40
1.0
 40
1.0
 40
1.0
 40
1.0
 10
4.9287086542
 20
6.1523664957
 30
0.0
 10
4.9288637005
 20
6.1529775498
 30
0.0
 10
4.9291612743
 20
6.154166839
 30
0.0
 10
4.9295753869
 20
6.1558980256
 30
0.0
 10
4.9299424628
 20
6.1575130977
 30
0.0
 10
4.9302585666
 20
6.1589942592
 30
0.0
 10
4.9305205118
 20
6.1603252335
 30
0.0
 10
4.9306978368
 20
6.1613347593
 30
0.0
 10
4.9308082371
 20
6.1620566345
 30
0.0
 10
4.9308732507
 20
6.1625292381
 30
0.0
 10
4.9309237733
 20
6.1629545434
 30
0.0
 10
4.9309475032
 20
6.1632227073
 30
0.0
 10
4.9309555293
 20
6.1633487521
 30
0.0
  0
SPLINE
  5
448
100
AcDbEntity
  8
0
100
AcDbSpline
 62
7
  6
CONTINUOUS
 70
0
 71
3
 72
21
 73
17
 74
0
 42
0.0000001
 43
0.0000001
 44
0.0000000001
 40
0.0
 40
0.0
 40
0.0
 40
0.0
 40
0.0600082752
 40
0.120585017
 40
0.1817488296
 40
0.2434548555
 40
0.3682039044
 40
0.4943904912
 40
0.5578582456
 40
0.6214292767
 40
0.6850133026
 40
0.7485214758
 40
0.8118599654
 40
0.8749423288
 40
0.9377106233
 40
1.0
 40
1.0
 40
1.0
 40
1.0
 10
4.9309555293
 20
6.1633487521
 30
0.0
 10
4.9304613309
 20
6.1634383946
 30
0.0
 10
4.9294602248
 20
6.1635767042
 30
0.0
 10
4.9279402069
 20
6.1636655006
 30
0.0
 10
4.9264034735
 20
6.1636389054
 30
0.0
 10
4.9243381983
 20
6.1634468157
 30
0.0
 10
4.9217658833
 20
6.1629151451
 30
0.0
 10
4.9192825903
 20
6.1620165103
 30
0.0
 10
4.9173752832
 20
6.1610888986
 30
0.0
 10
4.9159918551
 20
6.1602913313
 30
0.0
 10
4.9146677156
 20
6.1593983005
 30
0.0
 10
4.9134114379
 20
6.158415201
 30
0.0
 10
4.9122306439
 20
6.1573489193
 30
0.0
 10
4.9111322126
 20
6.1562064366
 30
0.0
 10
4.910125415
 20
6.1549939006
 30
0.0
 10
4.9095148317
 20
6.1541425236
 30
0.0
 10
4.9092253852
 20
6.1537088971
 30
0.0
  0
SPLINE
  5
449
100
AcDbEntity
  8
0
100
AcDbSpline
 62
7
  6
CONTINUOUS
 70
0
 71
3
 72
18
 73
14
 74
0
 42
0.0000001
 43
0.0000001
 44
0.0000000001
 40
0.0
 40
0.0
 40
0.0
 40
0.0
 40
0.043589268
 40
0.0904358208
 40
0.1404884478
 40
0.1936686589
 40
0.2498511663
 40
0.3088653421
 40
0.4345351077
 40
0.5687993213
 40
0.7094403731
 40
0.8540218545
 40
1.0
 40
1.0
 40
1.0
 40
1.0
 10
4.9092253852
 20
6.1537088971
 30
0.0
 10
4.9094952797
 20
6.1538092778
 30
0.0
 10
4.9100645007
 20
6.1539931064
 30
0.0
 10
4.9109666145
 20
6.1542138634
 30
0.0
 10
4.9119431972
 20
6.1543883192
 30
0.0
 10
4.9129890722
 20
6.1545156304
 30
0.0
 10
4.9140989665
 20
6.1545951889
 30
0.0
 10
4.9156900332
 20
6.1546377893
 30
0.0
 10
4.9177979756
 20
6.1545633218
 30
0.0
 10
4.9204315163
 20
6.1542866939
 30
0.0
 10
4.9231658863
 20
6.1538261087
 30
0.0
 10
4.9259442409
 20
6.1531910368
 30
0.0
 10
4.9277898259
 20
6.1526592955
 30
0.0
 10
4.9287086542
 20
6.1523664957
 30
0.0
  0
SPLINE
  5
44A
100
AcDbEntity
  8
0
100
AcDbSpline
 62
7
  6
CONTINUOUS
 70
0
 71
3
 72
21
 73
17
 74
0
 42
0.0000001
 43
0.0000001
 44
0.0000000001
 40
0.0
 40
0.0
 40
0.0
 40
0.0
 40
0.1862399276
 40
0.3610439632
 40
0.5209178078
 40
0.6626589893
 40
0.7258382274
 40
0.7834650263
 40
0.8352641336
 40
0.8809912155
 40
0.9204430348
 40
0.9534675359
 40
0.967540867
 40
0.9799812575
 40
0.9907949188
 40
1.0
 40
1.0
 40
1.0
 40
1.0
 10
5.9707934984
 20
5.7552541328
 30
0.0
 10
5.9705926523
 20
5.7543851193
 30
0.0
 10
5.970193915
 20
5.7527025996
 30
0.0
 10
5.9695881702
 20
5.7502824525
 30
0.0
 10
5.9690019777
 20
5.7480773334
 30
0.0
 10
5.9685232932
 20
5.7463970077
 30
0.0
 10
5.9681567346
 20
5.7451942262
 30
0.0
 10
5.9679045761
 20
5.7444069666
 30
0.0
 10
5.9676658239
 20
5.7437032814
 30
0.0
 10
5.9674417517
 20
5.7430866598
 30
0.0
 10
5.9672335538
 20
5.7425601661
 30
0.0
 10
5.9670665841
 20
5.742180587
 30
0.0
 10
5.9669401669
 20
5.7419249567
 30
0.0
 10
5.9668550791
 20
5.7417676782
 30
0.0
 10
5.9667747265
 20
5.7416345361
 30
0.0
 10
5.9667200527
 20
5.7415556416
 30
0.0
 10
5.9666932082
 20
5.7415206734
 30
0.0
  0
LINE
  5
44B
100
AcDbEntity
  8
0
100
AcDbLine
 62
7
  6
CONTINUOUS
 10
5.9633821723
 20
5.7217153859
 11
5.9863280047
 21
5.7228300433
  0
SPLINE
  5
44C
100
AcDbEntity
  8
0
100
AcDbSpline
 62
7
  6
CONTINUOUS
 70
0
 71
3
 72
17
 73
13
 74
0
 42
0.0000001
 43
0.0000001
 44
0.0000000001
 40
0.0
 40
0.0
 40
0.0
 40
0.0
 40
0.255186776
 40
0.3826569297
 40
0.5094062431
 40
0.5723652699
 40
0.6349718063
 40
0.697166558
 40
0.7588896758
 40
0.8200888247
 40
0.8807177234
 40
1.0
 40
1.0
 40
1.0
 40
1.0
 10
4.8825675227
 20
6.0525857258
 30
0.0
 10
4.8846427246
 20
6.0612361727
 30
0.0
 10
4.8878265703
 20
6.0741905198
 30
0.0
 10
4.8921996827
 20
6.0914017278
 30
0.0
 10
4.8949820745
 20
6.1021029242
 30
0.0
 10
4.8972337731
 20
6.1106056025
 30
0.0
 10
4.8989289054
 20
6.1169276762
 30
0.0
 10
4.9006322276
 20
6.1232029149
 30
0.0
 10
4.9023416066
 20
6.1294256416
 30
0.0
 10
4.9040559747
 20
6.1355903589
 30
0.0
 10
4.9063359114
 20
6.1436804177
 30
0.0
 10
4.9080687395
 20
6.1497080909
 30
0.0
 10
4.90922795
 20
6.153701456
 30
0.0
  0
SPLINE
  5
44D
100
AcDbEntity
  8
0
100
AcDbSpline
 62
7
  6
CONTINUOUS
 70
0
 71
3
 72
24
 73
20
 74
0
 42
0.0000001
 43
0.0000001
 44
0.0000000001
 40
0.0
 40
0.0
 40
0.0
 40
0.0
 40
0.2216745039
 40
0.4172983756
 40
0.5050525162
 40
0.5859630634
 40
0.6599272443
 40
0.7268534017
 40
0.7866547112
 40
0.839251282
 40
0.8845699992
 40
0.9225627242
 40
0.9531796434
 40
0.9656906672
 40
0.976316379
 40
0.9850457482
 40
0.9918902301
 40
0.9968687199
 40
1.0
 40
1.0
 40
1.0
 40
1.0
 10
4.90922795
 20
6.153701456
 30
0.0
 10
4.9075051644
 20
6.1563997619
 30
0.0
 10
4.9042841994
 20
6.1614934398
 30
0.0
 10
4.9004295309
 20
6.1676856075
 30
0.0
 10
4.8976726882
 20
6.1721664448
 30
0.0
 10
4.8958461814
 20
6.1751567516
 30
0.0
 10
4.8941846617
 20
6.1778953491
 30
0.0
 10
4.8926883106
 20
6.1803775648
 30
0.0
 10
4.8913571571
 20
6.1825990337
 30
0.0
 10
4.8901910997
 20
6.1845556375
 30
0.0
 10
4.8891896713
 20
6.1862437026
 30
0.0
 10
4.8883533932
 20
6.18766066
 30
0.0
 10
4.887761883
 20
6.1886718972
 30
0.0
 10
4.8873697656
 20
6.1893418861
 30
0.0
 10
4.8871363559
 20
6.1897385092
 30
0.0
 10
4.88694239
 20
6.1900633814
 30
0.0
 10
4.8867886693
 20
6.1903172913
 30
0.0
 10
4.8866764248
 20
6.1905017897
 30
0.0
 10
4.8866156644
 20
6.190601929
 30
0.0
 10
4.8865930038
 20
6.190641063
 30
0.0
  0
SPLINE
  5
44E
100
AcDbEntity
  8
0
100
AcDbSpline
 62
7
  6
CONTINUOUS
 70
0
 71
3
 72
15
 73
11
 74
0
 42
0.0000001
 43
0.0000001
 44
0.0000000001
 40
0.0
 40
0.0
 40
0.0
 40
0.0
 40
0.2500273743
 40
0.5000419073
 40
0.5625428055
 40
0.6250423596
 40
0.7500367113
 40
0.8125311393
 40
0.8750234058
 40
1.0
 40
1.0
 40
1.0
 40
1.0
 10
4.8831006103
 20
5.9708001904
 30
0.0
 10
4.9733969764
 20
5.9516280463
 30
0.0
 10
5.1539872043
 20
5.9132947899
 30
0.0
 10
5.3571584667
 20
5.8702117799
 30
0.0
 10
5.4926085356
 20
5.8415260015
 30
0.0
 10
5.5829054402
 20
5.8224143813
 30
0.0
 10
5.673204517
 20
5.8033245616
 30
0.0
 10
5.7635072292
 20
5.7842649768
 30
0.0
 10
5.8538086276
 20
5.7652309341
 30
0.0
 10
5.9215407687
 20
5.7509907543
 30
0.0
 10
5.9666992187
 20
5.7415196587
 30
0.0
  0
SPLINE
  5
44F
100
AcDbEntity
  8
0
100
AcDbSpline
 62
7
  6
CONTINUOUS
 70
0
 71
3
 72
14
 73
10
 74
0
 42
0.0000001
 43
0.0000001
 44
0.0000000001
 40
0.0
 40
0.0
 40
0.0
 40
0.0
 40
0.2551861183
 40
0.3826568227
 40
0.5094098718
 40
0.6349794046
 40
0.7589053581
 40
0.8807342798
 40
1.0
 40
1.0
 40
1.0
 40
1.0
 10
4.9011333167
 20
6.047129708
 30
0.0
 10
4.9033004265
 20
6.0561269318
 30
0.0
 10
4.9066175646
 20
6.0696023019
 30
0.0
 10
4.911157428
 20
6.0875100112
 30
0.0
 10
4.9146081391
 20
6.1008443334
 30
0.0
 10
4.9180972203
 20
6.1140357372
 30
0.0
 10
4.9216135523
 20
6.127035003
 30
0.0
 10
4.9251420865
 20
6.1397939092
 30
0.0
 10
4.9275186442
 20
6.1482082822
 30
0.0
 10
4.9287071031
 20
6.1523670704
 30
0.0
  0
SPLINE
  5
450
100
AcDbEntity
  8
0
100
AcDbSpline
 62
7
  6
CONTINUOUS
 70
0
 71
3
 72
17
 73
13
 74
0
 42
0.0000001
 43
0.0000001
 44
0.0000000001
 40
0.0
 40
0.0
 40
0.0
 40
0.0
 40
0.124999749
 40
0.2499996721
 40
0.3749997576
 40
0.4999999841
 40
0.6250002797
 40
0.6875004338
 40
0.7500005805
 40
0.812500672
 40
0.8750006436
 40
1.0
 40
1.0
 40
1.0
 40
1.0
 10
4.8862598597
 20
5.9815533139
 30
0.0
 10
4.9314328631
 20
5.9720434977
 30
0.0
 10
5.0217810349
 20
5.953033835
 30
0.0
 10
5.1573114537
 20
5.9245577049
 30
0.0
 10
5.2928518629
 20
5.8961283014
 30
0.0
 10
5.4284040037
 20
5.8677542087
 30
0.0
 10
5.5413769049
 20
5.8441699592
 30
0.0
 10
5.6317647106
 20
5.8253479732
 30
0.0
 10
5.6995606636
 20
5.8112560896
 30
0.0
 10
5.767362638
 20
5.7971935298
 30
0.0
 10
5.8577746468
 20
5.7784902951
 30
0.0
 10
5.9255961647
 20
5.7645237857
 30
0.0
 10
5.9708175124
 20
5.755247301
 30
0.0
  0
SPLINE
  5
451
100
AcDbEntity
  8
0
100
AcDbSpline
 62
7
  6
CONTINUOUS
 70
0
 71
3
 72
11
 73
7
 74
0
 42
0.0000001
 43
0.0000001
 44
0.0000000001
 40
0.0
 40
0.0
 40
0.0
 40
0.0
 40
0.2489081552
 40
0.4986397318
 40
0.7490479265
 40
1.0
 40
1.0
 40
1.0
 40
1.0
 10
5.9817691199
 20
5.7510701963
 30
0.0
 10
5.980928329
 20
5.7515671903
 30
0.0
 10
5.9791995101
 20
5.7524897028
 30
0.0
 10
5.9764938687
 20
5.7536463367
 30
0.0
 10
5.9736952027
 20
5.7545803633
 30
0.0
 10
5.9717821425
 20
5.7550494329
 30
0.0
 10
5.9708175124
 20
5.755247301
 30
0.0
  0
SPLINE
  5
452
100
AcDbEntity
  8
0
100
AcDbSpline
 62
7
  6
CONTINUOUS
 70
0
 71
3
 72
18
 73
14
 74
0
 42
0.0000001
 43
0.0000001
 44
0.0000000001
 40
0.0
 40
0.0
 40
0.0
 40
0.0
 40
0.1223247035
 40
0.2465140398
 40
0.37197812
 40
0.4350139405
 40
0.49815494
 40
0.5613340797
 40
0.6244896946
 40
0.7504924075
 40
0.8132494072
 40
0.875783348
 40
1.0
 40
1.0
 40
1.0
 40
1.0
 10
5.9817691199
 20
5.7510701963
 30
0.0
 10
5.982636599
 20
5.7548933147
 30
0.0
 10
5.9841828998
 20
5.7626455859
 30
0.0
 10
5.9858468474
 20
5.7744566535
 30
0.0
 10
5.9866469402
 20
5.7844527291
 30
0.0
 10
5.9869189178
 20
5.792513861
 30
0.0
 10
5.9869367203
 20
5.7985833537
 30
0.0
 10
5.9867713581
 20
5.8046544084
 30
0.0
 10
5.9863142938
 20
5.8127293771
 30
0.0
 10
5.9855169491
 20
5.8207681135
 30
0.0
 10
5.9844108217
 20
5.828745959
 30
0.0
 10
5.983118625
 20
5.8366377978
 30
0.0
 10
5.9819468007
 20
5.8425095763
 30
0.0
 10
5.981086588
 20
5.8463964606
 30
0.0
  0
LINE
  5
453
100
AcDbEntity
  8
0
100
AcDbLine
 62
7
  6
CONTINUOUS
 10
6.0486246753
 20
5.0599611921
 11
6.1354941344
 21
5.0600018498
  0
SPLINE
  5
454
100
AcDbEntity
  8
0
100
AcDbSpline
 62
7
  6
CONTINUOUS
 70
0
 71
3
 72
20
 73
16
 74
0
 42
0.0000001
 43
0.0000001
 44
0.0000000001
 40
0.0
 40
0.0
 40
0.0
 40
0.0
 40
0.1178306174
 40
0.177658726
 40
0.2380639231
 40
0.2990259181
 40
0.360521236
 40
0.4850239886
 40
0.5479865087
 40
0.6113929141
 40
0.6752223634
 40
0.7394550185
 40
0.8040703412
 40
0.8690492428
 40
1.0
 40
1.0
 40
1.0
 40
1.0
 10
5.9186394057
 20
5.0653300432
 30
0.0
 10
5.9230814963
 20
5.0653305502
 30
0.0
 10
5.9297793436
 20
5.0651728814
 30
0.0
 10
5.9387447311
 20
5.0647633956
 30
0.0
 10
5.9455646621
 20
5.0643740279
 30
0.0
 10
5.9524437335
 20
5.0639242577
 30
0.0
 10
5.9617307691
 20
5.063268459
 30
0.0
 10
5.9710904068
 20
5.0625713156
 30
0.0
 10
5.9805244428
 20
5.0619038536
 30
0.0
 10
5.9876791433
 20
5.061430873
 30
0.0
 10
5.9948847669
 20
5.0610043032
 30
0.0
 10
6.0021393788
 20
5.0606383692
 30
0.0
 10
6.009440517
 20
5.0603404798
 30
0.0
 10
6.0192584585
 20
5.0600450006
 30
0.0
 10
6.0266451607
 20
5.0599505793
 30
0.0
 10
6.0315818668
 20
5.0599505395
 30
0.0
  0
SPLINE
  5
455
100
AcDbEntity
  8
0
100
AcDbSpline
 62
7
  6
CONTINUOUS
 70
0
 71
3
 72
16
 73
12
 74
0
 42
0.0000001
 43
0.0000001
 44
0.0000000001
 40
0.0
 40
0.0
 40
0.0
 40
0.0
 40
0.1249999187
 40
0.249999986
 40
0.3750001792
 40
0.5000004667
 40
0.6250007684
 40
0.6875009028
 40
0.7500010127
 40
0.8750009282
 40
1.0
 40
1.0
 40
1.0
 40
1.0
 10
4.9287071031
 20
6.1523670704
 30
0.0
 10
4.9725787962
 20
6.1396960528
 30
0.0
 10
5.060319397
 20
6.1143441753
 30
0.0
 10
5.1919195541
 20
6.0762789292
 30
0.0
 10
5.3235067353
 20
6.0381683638
 30
0.0
 10
5.45507854
 20
6.0000044338
 30
0.0
 10
5.5647046508
 20
5.9681422955
 30
0.0
 10
5.6523927189
 20
5.9426085743
 30
0.0
 10
5.7400713758
 20
5.9170430596
 30
0.0
 10
5.8496487069
 20
5.8850156465
 30
0.0
 10
5.937280416
 20
5.8592910793
 30
0.0
 10
5.981086588
 20
5.8463964606
 30
0.0
  0
SPLINE
  5
456
100
AcDbEntity
  8
0
100
AcDbSpline
 62
7
  6
CONTINUOUS
 70
0
 71
3
 72
36
 73
32
 74
0
 42
0.0000001
 43
0.0000001
 44
0.0000000001
 40
0.0
 40
0.0
 40
0.0
 40
0.0
 40
0.1144153847
 40
0.223061406
 40
0.3254458959
 40
0.4213564467
 40
0.5106872635
 40
0.5932339167
 40
0.6687376501
 40
0.7369688791
 40
0.7977195327
 40
0.850801909
 40
0.8744130986
 40
0.896042832
 40
0.9156714111
 40
0.9332792247
 40
0.9488469794
 40
0.9623621848
 40
0.9738188403
 40
0.9832111997
 40
0.9871314664
 40
0.9905333426
 40
0.9934157906
 40
0.9957777644
 40
0.997618218
 40
0.9983425479
 40
0.9989361055
 40
0.99939876
 40
0.9997303808
 40
0.9999308374
 40
1.0
 40
1.0
 40
1.0
 40
1.0
 10
5.9589120112
 20
5.8677088597
 30
0.0
 10
5.9580749413
 20
5.8682292679
 30
0.0
 10
5.9564444649
 20
5.8692461851
 30
0.0
 10
5.9540707093
 20
5.8707380205
 30
0.0
 10
5.9518379251
 20
5.8721545347
 30
0.0
 10
5.949750811
 20
5.8734900123
 30
0.0
 10
5.9478113624
 20
5.8747391649
 30
0.0
 10
5.946022789
 20
5.8758978924
 30
0.0
 10
5.9443895259
 20
5.8769620374
 30
0.0
 10
5.9429159044
 20
5.8779272345
 30
0.0
 10
5.9416056972
 20
5.878789395
 30
0.0
 10
5.9406178223
 20
5.8794421215
 30
0.0
 10
5.9399117076
 20
5.8799099378
 30
0.0
 10
5.9394460649
 20
5.8802189171
 30
0.0
 10
5.9390237164
 20
5.8804996046
 30
0.0
 10
5.9386450371
 20
5.880751652
 30
0.0
 10
5.938310353
 20
5.8809747496
 30
0.0
 10
5.9380198847
 20
5.8811686413
 30
0.0
 10
5.9377737461
 20
5.8813331212
 30
0.0
 10
5.9375963701
 20
5.8814517322
 30
0.0
 10
5.93747667
 20
5.8815317638
 30
0.0
 10
5.9374035825
 20
5.8815806132
 30
0.0
 10
5.9373416501
 20
5.8816219947
 30
0.0
 10
5.9372908944
 20
5.8816558911
 30
0.0
 10
5.9372555978
 20
5.8816794614
 30
0.0
 10
5.9372329607
 20
5.8816945545
 30
0.0
 10
5.9372202084
 20
5.8817030815
 30
0.0
 10
5.9372102366
 20
5.8817096696
 30
0.0
 10
5.9372031564
 20
5.8817145153
 30
0.0
 10
5.9371987493
 20
5.8817172111
 30
0.0
 10
5.9371969108
 20
5.8817186732
 30
0.0
 10
5.9371963687
 20
5.8817189205
 30
0.0
  0
SPLINE
  5
457
100
AcDbEntity
  8
0
100
AcDbSpline
 62
7
  6
CONTINUOUS
 70
0
 71
3
 72
22
 73
18
 74
0
 42
0.0000001
 43
0.0000001
 44
0.0000000001
 40
0.0
 40
0.0
 40
0.0
 40
0.0
 40
0.2219907792
 40
0.4177443245
 40
0.5864060173
 40
0.6603335027
 40
0.7272063738
 40
0.7869426941
 40
0.8394687936
 40
0.8847181095
 40
0.9226467023
 40
0.9532079184
 40
0.9763104612
 40
0.9850359874
 40
0.9918833798
 40
0.9968667165
 40
1.0
 40
1.0
 40
1.0
 40
1.0
 10
4.9309569405
 20
6.1633483082
 30
0.0
 10
4.9293344216
 20
6.1659959132
 30
0.0
 10
4.9262994306
 20
6.1709894421
 30
0.0
 10
4.9220929578
 20
6.1780314994
 30
0.0
 10
4.9189833803
 20
6.1833161079
 30
0.0
 10
4.9168053042
 20
6.1870570014
 30
0.0
 10
4.9154006724
 20
6.1894851101
 30
0.0
 10
4.9141516216
 20
6.1916573638
 30
0.0
 10
4.9130581284
 20
6.1935701458
 30
0.0
 10
4.9121199476
 20
6.1952203327
 30
0.0
 10
4.911336362
 20
6.1966049777
 30
0.0
 10
4.9107065528
 20
6.1977206869
 30
0.0
 10
4.9102792464
 20
6.1984816272
 30
0.0
 10
4.910016989
 20
6.198954805
 30
0.0
 10
4.9098784965
 20
6.1992067983
 30
0.0
 10
4.909778047
 20
6.1993904375
 30
0.0
 10
4.9097236332
 20
6.1994900857
 30
0.0
 10
4.9097023591
 20
6.1995284048
 30
0.0
  0
SPLINE
  5
458
100
AcDbEntity
  8
0
100
AcDbSpline
 62
7
  6
CONTINUOUS
 70
0
 71
3
 72
15
 73
11
 74
0
 42
0.0000001
 43
0.0000001
 44
0.0000000001
 40
0.0
 40
0.0
 40
0.0
 40
0.0
 40
0.2500259203
 40
0.3750345447
 40
0.5000394995
 40
0.6250398178
 40
0.6875379101
 40
0.7500344423
 40
0.8750218799
 40
1.0
 40
1.0
 40
1.0
 40
1.0
 10
4.9309569405
 20
6.1633483082
 30
0.0
 10
5.0166445187
 20
6.1387639907
 30
0.0
 10
5.1451725889
 20
6.1018816264
 30
0.0
 10
5.3165334972
 20
6.052679298
 30
0.0
 10
5.4450439769
 20
6.0157623433
 30
0.0
 10
5.552127009
 20
5.9849773803
 30
0.0
 10
5.6377856916
 20
5.9603324857
 30
0.0
 10
5.7234362133
 20
5.9356758398
 30
0.0
 10
5.8304849747
 20
5.9048250081
 30
0.0
 10
5.9161074721
 20
5.8800923838
 30
0.0
 10
5.9589120112
 20
5.8677088597
 30
0.0
  0
SPLINE
  5
459
100
AcDbEntity
  8
0
100
AcDbSpline
 62
7
  6
CONTINUOUS
 70
0
 71
3
 72
23
 73
19
 74
0
 42
0.0000001
 43
0.0000001
 44
0.0000000001
 40
0.0
 40
0.0
 40
0.0
 40
0.0
 40
0.0433246999
 40
0.0901635284
 40
0.1403381438
 40
0.1936501672
 40
0.2498453635
 40
0.3086716168
 40
0.3698985418
 40
0.433338493
 40
0.4988068617
 40
0.5661010793
 40
0.6350556608
 40
0.7055426155
 40
0.7774296703
 40
0.8505795936
 40
0.924830195
 40
1.0
 40
1.0
 40
1.0
 40
1.0
 10
5.9823681664
 20
5.8865908536
 30
0.0
 10
5.9828408054
 20
5.8862545477
 30
0.0
 10
5.9837841279
 20
5.8854973485
 30
0.0
 10
5.985141529
 20
5.8841955421
 30
0.0
 10
5.9864893962
 20
5.8826986426
 30
0.0
 10
5.9878181733
 20
5.8810222159
 30
0.0
 10
5.9891213418
 20
5.879182151
 30
0.0
 10
5.9903918699
 20
5.8771926241
 30
0.0
 10
5.9916235376
 20
5.8750660246
 30
0.0
 10
5.9928076054
 20
5.872811629
 30
0.0
 10
5.9939364618
 20
5.8704388653
 30
0.0
 10
5.9950056727
 20
5.8679580636
 30
0.0
 10
5.9960078071
 20
5.8653771783
 30
0.0
 10
5.996934143
 20
5.8627029232
 30
0.0
 10
5.9977748378
 20
5.8599416885
 30
0.0
 10
5.9985201084
 20
5.8571010256
 30
0.0
 10
5.9991652697
 20
5.8541909788
 30
0.0
 10
5.9995208514
 20
5.8522215629
 30
0.0
 10
5.9996789365
 20
5.8512276027
 30
0.0
  0
SPLINE
  5
45A
100
AcDbEntity
  8
0
100
AcDbSpline
 62
7
  6
CONTINUOUS
 70
0
 71
3
 72
21
 73
17
 74
0
 42
0.0000001
 43
0.0000001
 44
0.0000000001
 40
0.0
 40
0.0
 40
0.0
 40
0.0
 40
0.0596065277
 40
0.1200576507
 40
0.1812267053
 40
0.2430167243
 40
0.3053269107
 40
0.3680587357
 40
0.4311191819
 40
0.494418646
 40
0.5578709161
 40
0.6213931064
 40
0.6849082039
 40
0.7483431791
 40
0.8747011747
 40
1.0
 40
1.0
 40
1.0
 40
1.0
 10
5.9926615219
 20
5.7235861346
 30
0.0
 10
5.9933464298
 20
5.7260537807
 30
0.0
 10
5.9946722641
 20
5.7310391359
 30
0.0
 10
5.9965019843
 20
5.7386080163
 30
0.0
 10
5.9981672455
 20
5.746310941
 30
0.0
 10
5.9996458353
 20
5.7541332775
 30
0.0
 10
6.0009204526
 20
5.7620595366
 30
0.0
 10
6.0019759586
 20
5.7700730798
 30
0.0
 10
6.0028002232
 20
5.7781564853
 30
0.0
 10
6.0033848863
 20
5.7862918142
 30
0.0
 10
6.0037249074
 20
5.7944609073
 30
0.0
 10
6.0038193671
 20
5.8026457517
 30
0.0
 10
6.0036731532
 20
5.8108290682
 30
0.0
 10
6.0031690134
 20
5.8217017495
 30
0.0
 10
6.0019905555
 20
5.8351944896
 30
0.0
 10
6.0005235757
 20
5.845910943
 30
0.0
 10
5.9996789365
 20
5.8512276027
 30
0.0
  0
LINE
  5
45B
100
AcDbEntity
  8
0
100
AcDbLine
 62
7
  6
CONTINUOUS
 10
5.7145305593
 20
4.2257503423
 11
5.7131069077
 21
4.2255762021
  0
LINE
  5
45C
100
AcDbEntity
  8
0
100
AcDbLine
 62
7
  6
CONTINUOUS
 10
5.9863293384
 20
5.7228300433
 11
5.9926615219
 21
5.7235861346
  0
SPLINE
  5
45D
100
AcDbEntity
  8
0
100
AcDbSpline
 62
7
  6
CONTINUOUS
 70
0
 71
3
 72
14
 73
10
 74
0
 42
0.0000001
 43
0.0000001
 44
0.0000000001
 40
0.0
 40
0.0
 40
0.0
 40
0.0
 40
0.1223833205
 40
0.1839073675
 40
0.2456378262
 40
0.3696823779
 40
0.4944644506
 40
0.7460400651
 40
1.0
 40
1.0
 40
1.0
 40
1.0
 10
5.9084266694
 20
5.0453300432
 30
0.0
 10
5.9133539007
 20
5.0453301779
 30
0.0
 10
5.9207582212
 20
5.0452501573
 30
0.0
 10
5.9306454733
 20
5.0450376022
 30
0.0
 10
5.9405983652
 20
5.0447707931
 30
0.0
 10
5.9530951002
 20
5.0443659938
 30
0.0
 10
5.9732294086
 20
5.0436665675
 30
0.0
 10
5.9985947971
 20
5.0428814232
 30
0.0
 10
6.0189485977
 20
5.0426398904
 30
0.0
 10
6.0291731881
 20
5.0426402914
 30
0.0
  0
SPLINE
  5
45E
100
AcDbEntity
  8
0
100
AcDbSpline
 62
7
  6
CONTINUOUS
 70
0
 71
3
 72
16
 73
12
 74
0
 42
0.0000001
 43
0.0000001
 44
0.0000000001
 40
0.0
 40
0.0
 40
0.0
 40
0.0
 40
0.1503285737
 40
0.296713262
 40
0.4373377024
 40
0.5705193354
 40
0.6946782472
 40
0.8084003542
 40
0.9104864511
 40
0.9568707949
 40
1.0
 40
1.0
 40
1.0
 40
1.0
 10
6.0267954074
 20
5.0278782415
 30
0.0
 10
6.0268188068
 20
5.0286304772
 30
0.0
 10
6.0268857005
 20
5.0301146641
 30
0.0
 10
6.0270481511
 20
5.0322984176
 30
0.0
 10
6.0272696338
 20
5.0343907324
 30
0.0
 10
6.0275470797
 20
5.0363641095
 30
0.0
 10
6.0278767263
 20
5.0381928647
 30
0.0
 10
6.0282540577
 20
5.0398531457
 30
0.0
 10
6.0286144567
 20
5.0411163443
 30
0.0
 10
6.0289269113
 20
5.0420234506
 30
0.0
 10
6.029089842
 20
5.0424411053
 30
0.0
 10
6.0291731881
 20
5.0426402914
 30
0.0
  0
LINE
  5
45F
100
AcDbEntity
  8
0
100
AcDbLine
 62
7
  6
CONTINUOUS
 10
6.0291731882
 20
5.0426402913
 11
6.0466302729
 21
5.0426456178
  0
SPLINE
  5
460
100
AcDbEntity
  8
0
100
AcDbSpline
 62
7
  6
CONTINUOUS
 70
0
 71
3
 72
16
 73
12
 74
0
 42
0.0000001
 43
0.0000001
 44
0.0000000001
 40
0.0
 40
0.0
 40
0.0
 40
0.0
 40
0.1510867035
 40
0.2981178178
 40
0.4392307737
 40
0.5726942074
 40
0.6968744526
 40
0.8102957831
 40
0.9116837734
 40
0.9575386061
 40
1.0
 40
1.0
 40
1.0
 40
1.0
 10
6.0446387313
 20
5.0278982085
 30
0.0
 10
6.0446584556
 20
5.0286497975
 30
0.0
 10
6.0447146816
 20
5.0301324127
 30
0.0
 10
6.0448509482
 20
5.0323141122
 30
0.0
 10
6.0450365322
 20
5.0344041855
 30
0.0
 10
6.0452688522
 20
5.0363751616
 30
0.0
 10
6.0455447296
 20
5.0382013534
 30
0.0
 10
6.04586036
 20
5.0398589125
 30
0.0
 10
6.0461619925
 20
5.0411212179
 30
0.0
 10
6.0464237854
 20
5.0420283589
 30
0.0
 10
6.0465603532
 20
5.0424462222
 30
0.0
 10
6.0466302729
 20
5.0426456178
 30
0.0
  0
LINE
  5
461
100
AcDbEntity
  8
0
100
AcDbLine
 62
7
  6
CONTINUOUS
 10
6.046630273
 20
5.0426456175
 11
6.1355507941
 21
5.0426659357
  0
LINE
  5
462
100
AcDbEntity
  8
0
100
AcDbLine
 62
7
  6
CONTINUOUS
 10
6.1356065554
 20
5.0279763936
 11
6.1355507944
 21
5.0426659573
  0
LINE
  5
463
100
AcDbEntity
  8
0
100
AcDbLine
 62
7
  6
CONTINUOUS
 10
6.1266211008
 20
5.2158300433
 11
6.4344238769
 21
5.3520336451
  0
LINE
  5
464
100
AcDbEntity
  8
0
100
AcDbLine
 62
7
  6
CONTINUOUS
 10
3.4289648219
 20
5.4614726769
 11
3.4283872505
 21
5.4729442814
  0
LINE
  5
465
100
AcDbEntity
  8
0
100
AcDbLine
 62
7
  6
CONTINUOUS
 10
3.4310648837
 20
5.4615930007
 11
3.4305567279
 21
5.4730692549
  0
LINE
  5
466
100
AcDbEntity
  8
0
100
AcDbLine
 62
7
  6
CONTINUOUS
 10
3.4325320313
 20
5.4616748992
 11
3.4320205836
 21
5.4731519214
  0
LINE
  5
467
100
AcDbEntity
  8
0
100
AcDbLine
 62
7
  6
CONTINUOUS
 10
3.436337118
 20
5.4618883632
 11
3.4358126608
 21
5.4733690196
  0
LINE
  5
468
100
AcDbEntity
  8
0
100
AcDbLine
 62
7
  6
CONTINUOUS
 10
3.9149980368
 20
5.4368160895
 11
3.9186594025
 21
5.4528882824
  0
LINE
  5
469
100
AcDbEntity
  8
0
100
AcDbLine
 62
7
  6
CONTINUOUS
 10
3.9164645754
 20
5.4365043989
 11
3.9201439733
 21
5.4525725816
  0
LINE
  5
46A
100
AcDbEntity
  8
0
100
AcDbLine
 62
7
  6
CONTINUOUS
 10
4.0469565007
 20
5.4030440192
 11
4.0519420634
 21
5.4187794023
  0
LINE
  5
46B
100
AcDbEntity
  8
0
100
AcDbLine
 62
7
  6
CONTINUOUS
 10
4.0495517455
 20
5.402270163
 11
4.0545383937
 21
5.4180061934
  0
LINE
  5
46C
100
AcDbEntity
  8
0
100
AcDbLine
 62
7
  6
CONTINUOUS
 10
4.0517336439
 20
5.4016187236
 11
4.0567242416
 21
5.4173550647
  0
SPLINE
  5
46D
100
AcDbEntity
  8
0
100
AcDbSpline
 62
7
  6
CONTINUOUS
 70
0
 71
3
 72
20
 73
16
 74
0
 42
0.0000001
 43
0.0000001
 44
0.0000000001
 40
0.0
 40
0.0
 40
0.0
 40
0.0
 40
0.1714215922
 40
0.3368339844
 40
0.4921873488
 40
0.6336698016
 40
0.6981188648
 40
0.7578452014
 40
0.8124926578
 40
0.8617411864
 40
0.9053132416
 40
0.9429777821
 40
0.9745702491
 40
0.9880580833
 40
1.0
 40
1.0
 40
1.0
 40
1.0
 10
5.1300419743
 20
5.0784792092
 30
0.0
 10
5.1303464203
 20
5.0794739069
 30
0.0
 10
5.1309595361
 20
5.0814239134
 30
0.0
 10
5.1319009106
 20
5.0842585889
 30
0.0
 10
5.132831765
 20
5.0869048789
 30
0.0
 10
5.1336013027
 20
5.0889580231
 30
0.0
 10
5.1341968279
 20
5.0904561497
 30
0.0
 10
5.134612658
 20
5.091458525
 30
0.0
 10
5.1350090849
 20
5.0923689376
 30
0.0
 10
5.1353836139
 20
5.0931817649
 30
0.0
 10
5.1357337883
 20
5.0938920979
 30
0.0
 10
5.1360574
 20
5.0944956353
 30
0.0
 10
5.1363149585
 20
5.0949270593
 30
0.0
 10
5.1365082076
 20
5.0952141898
 30
0.0
 10
5.136599974
 20
5.0953383565
 30
0.0
 10
5.1366447932
 20
5.0953953022
 30
0.0
  0
SPLINE
  5
46E
100
AcDbEntity
  8
0
100
AcDbSpline
 62
7
  6
CONTINUOUS
 70
0
 71
3
 72
20
 73
16
 74
0
 42
0.0000001
 43
0.0000001
 44
0.0000000001
 40
0.0
 40
0.0
 40
0.0
 40
0.0
 40
0.1714348404
 40
0.3368571645
 40
0.4922167064
 40
0.6337012669
 40
0.6981498035
 40
0.7578745515
 40
0.8125193697
 40
0.8617642396
 40
0.9053316699
 40
0.942990707
 40
0.9745769377
 40
0.9880614601
 40
1.0
 40
1.0
 40
1.0
 40
1.0
 10
5.1314790238
 20
5.078049378
 30
0.0
 10
5.1317818297
 20
5.0790445951
 30
0.0
 10
5.1323917344
 20
5.0809956276
 30
0.0
 10
5.1333284616
 20
5.0838318417
 30
0.0
 10
5.1342549898
 20
5.0864795889
 30
0.0
 10
5.1350211861
 20
5.0885338928
 30
0.0
 10
5.1356142818
 20
5.0900328791
 30
0.0
 10
5.1360284862
 20
5.0910358258
 30
0.0
 10
5.1364234396
 20
5.0919467618
 30
0.0
 10
5.1367966565
 20
5.0927600606
 30
0.0
 10
5.1371456876
 20
5.0934708104
 30
0.0
 10
5.1374683315
 20
5.0940747069
 30
0.0
 10
5.137725205
 20
5.0945063986
 30
0.0
 10
5.1379180032
 20
5.0947937129
 30
0.0
 10
5.1380095761
 20
5.0949179608
 30
0.0
 10
5.138054307
 20
5.0949749442
 30
0.0
  0
SPLINE
  5
46F
100
AcDbEntity
  8
0
100
AcDbSpline
 62
7
  6
CONTINUOUS
 70
0
 71
3
 72
26
 73
22
 74
0
 42
0.0000001
 43
0.0000001
 44
0.0000000001
 40
0.0
 40
0.0
 40
0.0
 40
0.0
 40
0.1917087303
 40
0.3733495274
 40
0.4585981294
 40
0.5392292185
 40
0.6146258438
 40
0.6842241853
 40
0.7475260744
 40
0.8041088307
 40
0.853646766
 40
0.8757120644
 40
0.8959562291
 40
0.9143866863
 40
0.9310300351
 40
0.9459370564
 40
0.9591999075
 40
0.9709645258
 40
0.9814522241
 40
0.9909864159
 40
1.0
 40
1.0
 40
1.0
 40
1.0
 10
5.6919779191
 20
5.0276383314
 30
0.0
 10
5.6920030873
 20
5.028824137
 30
0.0
 10
5.6920900765
 20
5.0311328565
 30
0.0
 10
5.6922977409
 20
5.0339632824
 30
0.0
 10
5.6925227083
 20
5.0361016945
 30
0.0
 10
5.6927130168
 20
5.0375824036
 30
0.0
 10
5.6929268016
 20
5.0389620315
 30
0.0
 10
5.6931622396
 20
5.0402292676
 30
0.0
 10
5.6934172431
 20
5.041373819
 30
0.0
 10
5.6936896199
 20
5.0423863781
 30
0.0
 10
5.6939376583
 20
5.0431403302
 30
0.0
 10
5.6941460825
 20
5.0436691326
 30
0.0
 10
5.6942992913
 20
5.0440124312
 30
0.0
 10
5.6944551401
 20
5.0443173437
 30
0.0
 10
5.6946133315
 20
5.0445833401
 30
0.0
 10
5.6947736637
 20
5.0448099696
 30
0.0
 10
5.6949359891
 20
5.0449969044
 30
0.0
 10
5.6951003203
 20
5.045143862
 30
0.0
 10
5.6952669777
 20
5.0452502905
 30
0.0
 10
5.6954359474
 20
5.0453152466
 30
0.0
 10
5.695551142
 20
5.0453300444
 30
0.0
 10
5.6956069077
 20
5.0453300444
 30
0.0
  0
SPLINE
  5
470
100
AcDbEntity
  8
0
100
AcDbSpline
 62
7
  6
CONTINUOUS
 70
0
 71
3
 72
20
 73
16
 74
0
 42
0.0000001
 43
0.0000001
 44
0.0000000001
 40
0.0
 40
0.0
 40
0.0
 40
0.0
 40
0.172101298
 40
0.3372368675
 40
0.4916645674
 40
0.5637666448
 40
0.6319202448
 40
0.6957581191
 40
0.7549454032
 40
0.8091863694
 40
0.8582345722
 40
0.9018965974
 40
0.9400589386
 40
0.9727090182
 40
1.0
 40
1.0
 40
1.0
 40
1.0
 10
5.6935661161
 20
5.027639874
 30
0.0
 10
5.6935875781
 20
5.0286490467
 30
0.0
 10
5.6936573736
 20
5.0306260973
 30
0.0
 10
5.6938455044
 20
5.0335040672
 30
0.0
 10
5.694071412
 20
5.0357906839
 30
0.0
 10
5.6942929859
 20
5.0375048996
 30
0.0
 10
5.6944724618
 20
5.0386885195
 30
0.0
 10
5.6946678939
 20
5.0397927811
 30
0.0
 10
5.6948780939
 20
5.0408111706
 30
0.0
 10
5.6951017652
 20
5.0417377113
 30
0.0
 10
5.695337475
 20
5.042567044
 30
0.0
 10
5.6955837765
 20
5.0432944332
 30
0.0
 10
5.6958391626
 20
5.0439160727
 30
0.0
 10
5.6961020727
 20
5.0444286803
 30
0.0
 10
5.6962986643
 20
5.0447219711
 30
0.0
 10
5.6963998767
 20
5.0448459757
 30
0.0
  0
SPLINE
  5
471
100
AcDbEntity
  8
0
100
AcDbSpline
 62
7
  6
CONTINUOUS
 70
0
 71
3
 72
11
 73
7
 74
0
 42
0.0000001
 43
0.0000001
 44
0.0000000001
 40
0.0
 40
0.0
 40
0.0
 40
0.0
 40
0.3001498235
 40
0.5600079984
 40
0.7887430042
 40
1.0
 40
1.0
 40
1.0
 40
1.0
 10
5.6963998767
 20
5.0448459757
 30
0.0
 10
5.6964608884
 20
5.0449207267
 30
0.0
 10
5.6965829929
 20
5.045053961
 30
0.0
 10
5.6967841515
 20
5.0452108407
 30
0.0
 10
5.6969897775
 20
5.0453076306
 30
0.0
 10
5.6971319436
 20
5.0453300433
 30
0.0
 10
5.6971998563
 20
5.0453300433
 30
0.0
  0
LINE
  5
472
100
AcDbEntity
  8
0
100
AcDbLine
 62
7
  6
CONTINUOUS
 10
5.6974534846
 20
4.2455398099
 11
5.6953223161
 21
4.2454531225
  0
LINE
  5
473
100
AcDbEntity
  8
0
100
AcDbLine
 62
7
  6
CONTINUOUS
 10
6.1356056348
 20
4.2629873012
 11
6.1355495133
 21
4.2480784776
  0
SPLINE
  5
474
100
AcDbEntity
  8
0
100
AcDbSpline
 62
7
  6
CONTINUOUS
 70
0
 71
3
 72
16
 73
12
 74
0
 42
0.0000001
 43
0.0000001
 44
0.0000000001
 40
0.0
 40
0.0
 40
0.0
 40
0.0
 40
0.1490732418
 40
0.2945105236
 40
0.4345300163
 40
0.5674768708
 40
0.6917923425
 40
0.8060748877
 40
0.9091274839
 40
0.9561438792
 40
1.0
 40
1.0
 40
1.0
 40
1.0
 10
6.0275894959
 20
4.2630651867
 30
0.0
 10
6.0276107107
 20
4.2623148978
 30
0.0
 10
6.0276736449
 20
4.2608331177
 30
0.0
 10
6.0278311087
 20
4.2586505953
 30
0.0
 10
6.0280487879
 20
4.2565548112
 30
0.0
 10
6.0283237006
 20
4.2545730298
 30
0.0
 10
6.0286521676
 20
4.2527307911
 30
0.0
 10
6.029029743
 20
4.2510518861
 30
0.0
 10
6.0293912112
 20
4.249769909
 30
0.0
 10
6.0297050702
 20
4.2488451118
 30
0.0
 10
6.0298689298
 20
4.2484177377
 30
0.0
 10
6.0299527788
 20
4.2482134596
 30
0.0
  0
SPLINE
  5
475
100
AcDbEntity
  8
0
100
AcDbSpline
 62
7
  6
CONTINUOUS
 70
0
 71
3
 72
16
 73
12
 74
0
 42
0.0000001
 43
0.0000001
 44
0.0000000001
 40
0.0
 40
0.0
 40
0.0
 40
0.0
 40
0.1496944954
 40
0.2956598206
 40
0.4360643135
 40
0.5692086696
 40
0.693494927
 40
0.8074903441
 40
0.9099771656
 40
0.9566039532
 40
1.0
 40
1.0
 40
1.0
 40
1.0
 10
6.0063329189
 20
4.2630524027
 30
0.0
 10
6.0063543576
 20
4.2622935338
 30
0.0
 10
6.006418063
 20
4.2607952056
 30
0.0
 10
6.006577705
 20
4.2585891561
 30
0.0
 10
6.0067984788
 20
4.2564726925
 30
0.0
 10
6.0070772857
 20
4.254473991
 30
0.0
 10
6.007410301
 20
4.2526194038
 30
0.0
 10
6.0077929068
 20
4.2509334346
 30
0.0
 10
6.0081592239
 20
4.2496493161
 30
0.0
 10
6.0084772821
 20
4.2487260606
 30
0.0
 10
6.0086432835
 20
4.2483005724
 30
0.0
 10
6.0087282289
 20
4.2480975445
 30
0.0
  0
SPLINE
  5
476
100
AcDbEntity
  8
0
100
AcDbSpline
 62
7
  6
CONTINUOUS
 70
0
 71
3
 72
18
 73
14
 74
0
 42
0.0000001
 43
0.0000001
 44
0.0000000001
 40
0.0
 40
0.0
 40
0.0
 40
0.0
 40
0.1505764935
 40
0.2970364241
 40
0.4374884602
 40
0.570362475
 40
0.6943120601
 40
0.7525576059
 40
0.808112374
 40
0.8608236207
 40
0.9104896602
 40
0.9568959927
 40
1.0
 40
1.0
 40
1.0
 40
1.0
 10
6.000357939
 20
4.2630513204
 30
0.0
 10
6.0004494649
 20
4.2622885197
 30
0.0
 10
6.0005857766
 20
4.2607785878
 30
0.0
 10
6.0007381084
 20
4.2585517633
 30
0.0
 10
6.000900559
 20
4.2564159474
 30
0.0
 10
6.0011196453
 20
4.2544002764
 30
0.0
 10
6.0013753935
 20
4.25281216
 30
0.0
 10
6.0016258656
 20
4.2516250539
 30
0.0
 10
6.001829008
 20
4.250799939
 30
0.0
 10
6.0020497638
 20
4.2500247872
 30
0.0
 10
6.0022821164
 20
4.2493019749
 30
0.0
 10
6.0025183676
 20
4.2486322201
 30
0.0
 10
6.0026871968
 20
4.2482076413
 30
0.0
 10
6.0027743475
 20
4.2480057206
 30
0.0
  0
SPLINE
  5
477
100
AcDbEntity
  8
0
100
AcDbSpline
 62
7
  6
CONTINUOUS
 70
0
 71
3
 72
19
 73
15
 74
0
 42
0.0000001
 43
0.0000001
 44
0.0000000001
 40
0.0
 40
0.0
 40
0.0
 40
0.0
 40
0.1524814615
 40
0.2271207602
 40
0.3003366371
 40
0.4415998186
 40
0.5746664971
 40
0.6981958952
 40
0.756020525
 40
0.8110332389
 40
0.8631004785
 40
0.912040834
 40
0.9576726477
 40
1.0
 40
1.0
 40
1.0
 40
1.0
 10
6.000357939
 20
4.2630513204
 30
0.0
 10
6.0004034075
 20
4.2622823816
 30
0.0
 10
6.0004327897
 20
4.2611347666
 30
0.0
 10
6.0004325
 20
4.2596176238
 30
0.0
 10
6.0004206641
 20
4.2581571327
 30
0.0
 10
6.0004052622
 20
4.2564014935
 30
0.0
 10
6.0004412558
 20
4.254391537
 30
0.0
 10
6.0005481587
 20
4.2528057602
 30
0.0
 10
6.0006881071
 20
4.2516197301
 30
0.0
 10
6.0008154197
 20
4.2507962674
 30
0.0
 10
6.0009668298
 20
4.2500225763
 30
0.0
 10
6.0011365745
 20
4.2493013581
 30
0.0
 10
6.0013181254
 20
4.2486338942
 30
0.0
 10
6.0014554215
 20
4.2482109797
 30
0.0
 10
6.0015284579
 20
4.2480100174
 30
0.0
  0
SPLINE
  5
478
100
AcDbEntity
  8
0
100
AcDbSpline
 62
7
  6
CONTINUOUS
 70
0
 71
3
 72
11
 73
7
 74
0
 42
0.0000001
 43
0.0000001
 44
0.0000000001
 40
0.0
 40
0.0
 40
0.0
 40
0.0
 40
0.2516919194
 40
0.5023014374
 40
0.7517610107
 40
1.0
 40
1.0
 40
1.0
 40
1.0
 10
6.0015281603
 20
4.2480105567
 30
0.0
 10
5.997285635
 20
4.2482659394
 30
0.0
 10
5.9888185832
 20
4.2487714789
 30
0.0
 10
5.9761473002
 20
4.2495413889
 30
0.0
 10
5.9635370297
 20
4.2503531411
 30
0.0
 10
5.9551536438
 20
4.2509489174
 30
0.0
 10
5.9509738707
 20
4.2512675015
 30
0.0
  0
SPLINE
  5
479
100
AcDbEntity
  8
0
100
AcDbSpline
 62
7
  6
CONTINUOUS
 70
0
 71
3
 72
19
 73
15
 74
0
 42
0.0000001
 43
0.0000001
 44
0.0000000001
 40
0.0
 40
0.0
 40
0.0
 40
0.0
 40
0.1671095007
 40
0.3274746939
 40
0.4780919572
 40
0.6161613907
 40
0.6797030255
 40
0.7392007978
 40
0.7944069878
 40
0.8451027348
 40
0.8911074898
 40
0.9322924588
 40
0.9685896911
 40
1.0
 40
1.0
 40
1.0
 40
1.0
 10
5.7026321052
 20
4.3109716293
 30
0.0
 10
5.7024485518
 20
4.3100776844
 30
0.0
 10
5.7021116785
 20
4.3083210805
 30
0.0
 10
5.7016918888
 20
4.3057437879
 30
0.0
 10
5.7013728014
 20
4.3033119169
 30
0.0
 10
5.70119079
 20
4.3013964287
 30
0.0
 10
5.7011039329
 20
4.2999730243
 30
0.0
 10
5.7010690017
 20
4.299000124
 30
0.0
 10
5.7010625043
 20
4.2980967473
 30
0.0
 10
5.7010844483
 20
4.2972672789
 30
0.0
 10
5.701134634
 20
4.2965157155
 30
0.0
 10
5.7012127377
 20
4.2958455171
 30
0.0
 10
5.7013183267
 20
4.2952598824
 30
0.0
 10
5.70141335
 20
4.2949018226
 30
0.0
 10
5.7014671654
 20
4.2947389495
 30
0.0
  0
SPLINE
  5
47A
100
AcDbEntity
  8
0
100
AcDbSpline
 62
7
  6
CONTINUOUS
 70
0
 71
3
 72
18
 73
14
 74
0
 42
0.0000001
 43
0.0000001
 44
0.0000000001
 40
0.0
 40
0.0
 40
0.0
 40
0.0
 40
0.1650782574
 40
0.3236972202
 40
0.4730546634
 40
0.6105245943
 40
0.733746369
 40
0.7893690664
 40
0.8406991899
 40
0.8875499018
 40
0.9297758135
 40
0.9672774037
 40
1.0
 40
1.0
 40
1.0
 40
1.0
 10
5.6137443765
 20
4.3340376842
 30
0.0
 10
5.6135286318
 20
4.3331817697
 30
0.0
 10
5.6131250612
 20
4.3314984372
 30
0.0
 10
5.6125967916
 20
4.3290244796
 30
0.0
 10
5.6121634676
 20
4.3266820304
 30
0.0
 10
5.6118328623
 20
4.3245141425
 30
0.0
 10
5.6116412454
 20
4.322833061
 30
0.0
 10
5.6115482326
 20
4.3216056831
 30
0.0
 10
5.6115096746
 20
4.3207840527
 30
0.0
 10
5.61149993
 20
4.3200331837
 30
0.0
 10
5.6115189814
 20
4.3193563786
 30
0.0
 10
5.6115666869
 20
4.3187567148
 30
0.0
 10
5.6116209706
 20
4.318384706
 30
0.0
 10
5.6116543937
 20
4.3182129576
 30
0.0
  0
SPLINE
  5
47B
100
AcDbEntity
  8
0
100
AcDbSpline
 62
7
  6
CONTINUOUS
 70
0
 71
3
 72
14
 73
10
 74
0
 42
0.0000001
 43
0.0000001
 44
0.0000000001
 40
0.0
 40
0.0
 40
0.0
 40
0.0
 40
0.3078909474
 40
0.4519390615
 40
0.5867585513
 40
0.7105342364
 40
0.8216096597
 40
0.9185152955
 40
1.0
 40
1.0
 40
1.0
 40
1.0
 10
4.9875068325
 20
4.5946146007
 30
0.0
 10
4.9868337328
 20
4.5932813516
 30
0.0
 10
4.9858644672
 20
4.5913147319
 30
0.0
 10
4.9846508697
 20
4.5887401062
 30
0.0
 10
4.9838409071
 20
4.5869627433
 30
0.0
 10
4.9831216712
 20
4.5853200151
 30
0.0
 10
4.9825027743
 20
4.583834358
 30
0.0
 10
4.9819924409
 20
4.5825261057
 30
0.0
 10
4.9817024865
 20
4.5817105155
 30
0.0
 10
4.9815793854
 20
4.5813349055
 30
0.0
  0
LINE
  5
47C
100
AcDbEntity
  8
0
100
AcDbLine
 62
7
  6
CONTINUOUS
 10
4.0077999289
 20
5.1094857267
 11
4.0035410342
 21
5.0949862511
  0
LINE
  5
47D
100
AcDbEntity
  8
0
100
AcDbLine
 62
7
  6
CONTINUOUS
 10
3.8766224202
 20
5.1390892647
 11
3.8745856685
 21
5.1238848487
  0
LINE
  5
47E
100
AcDbEntity
  8
0
100
AcDbLine
 62
7
  6
CONTINUOUS
 10
6.1355509634
 20
5.0426659573
 11
6.1354941343
 21
5.0600018737
  0
SPLINE
  5
47F
100
AcDbEntity
  8
0
100
AcDbSpline
 62
7
  6
CONTINUOUS
 70
0
 71
3
 72
18
 73
14
 74
0
 42
0.0000001
 43
0.0000001
 44
0.0000000001
 40
0.0
 40
0.0
 40
0.0
 40
0.0
 40
0.0415131854
 40
0.0867784407
 40
0.1356392224
 40
0.1879324495
 40
0.3020699713
 40
0.4274862305
 40
0.4938197237
 40
0.562218724
 40
0.7040978661
 40
0.8508244009
 40
1.0
 40
1.0
 40
1.0
 40
1.0
 10
6.0466302725
 20
5.0426456148
 30
0.0
 10
6.0467096497
 20
5.0428742907
 30
0.0
 10
6.0468639498
 20
5.0433563843
 30
0.0
 10
6.0470758529
 20
5.0441185274
 30
0.0
 10
6.0472773559
 20
5.0449483126
 30
0.0
 10
6.0475386398
 20
5.0461763126
 30
0.0
 10
6.0478286609
 20
5.0478538156
 30
0.0
 10
6.0480620079
 20
5.0496224913
 30
0.0
 10
6.0482223643
 20
5.0511309589
 30
0.0
 10
6.0483669014
 20
5.0527374367
 30
0.0
 10
6.0485055245
 20
5.0548148172
 30
0.0
 10
6.0486044315
 20
5.0573658616
 30
0.0
 10
6.0486254501
 20
5.0590913589
 30
0.0
 10
6.0486246784
 20
5.0599611921
 30
0.0
  0
SPLINE
  5
480
100
AcDbEntity
  8
0
100
AcDbSpline
 62
7
  6
CONTINUOUS
 70
0
 71
3
 72
18
 73
14
 74
0
 42
0.0000001
 43
0.0000001
 44
0.0000000001
 40
0.0
 40
0.0
 40
0.0
 40
0.0
 40
0.04221327
 40
0.0880234186
 40
0.1372926796
 40
0.1898743286
 40
0.3042796422
 40
0.4296314596
 40
0.4958336175
 40
0.564046286
 40
0.7054191353
 40
0.8515161553
 40
1.0
 40
1.0
 40
1.0
 40
1.0
 10
6.0291731883
 20
5.0426402913
 30
0.0
 10
6.0292684071
 20
5.0428683906
 30
0.0
 10
6.0294537469
 20
5.0433495938
 30
0.0
 10
6.0297089627
 20
5.0441121284
 30
0.0
 10
6.0299516983
 20
5.0449421729
 30
0.0
 10
6.0302661798
 20
5.0461689671
 30
0.0
 10
6.0306158059
 20
5.0478455756
 30
0.0
 10
6.0308977444
 20
5.0496153379
 30
0.0
 10
6.0310916099
 20
5.0511240526
 30
0.0
 10
6.0312664173
 20
5.0527295011
 30
0.0
 10
6.0314345629
 20
5.0548058417
 30
0.0
 10
6.0315554286
 20
5.0573560776
 30
0.0
 10
6.0315820826
 20
5.0590811063
 30
0.0
 10
6.0315818669
 20
5.0599505395
 30
0.0
  0
SPLINE
  5
481
100
AcDbEntity
  8
0
100
AcDbSpline
 62
7
  6
CONTINUOUS
 70
0
 71
3
 72
22
 73
18
 74
0
 42
0.0000001
 43
0.0000001
 44
0.0000000001
 40
0.0
 40
0.0
 40
0.0
 40
0.0
 40
0.0413052068
 40
0.083716041
 40
0.1281944481
 40
0.1755250591
 40
0.2262519431
 40
0.2807018966
 40
0.3390105464
 40
0.4011540901
 40
0.4669783553
 40
0.5362225193
 40
0.6085399353
 40
0.6835163368
 40
0.7606825719
 40
0.8395210075
 40
1.0
 40
1.0
 40
1.0
 40
1.0
 10
5.9084266675
 20
5.0453300433
 30
0.0
 10
5.9087618553
 20
5.0453300433
 30
0.0
 10
5.9094429112
 20
5.0453964546
 30
0.0
 10
5.910446128
 20
5.0456917637
 30
0.0
 10
5.9114262148
 20
5.0461782969
 30
0.0
 10
5.9123735088
 20
5.0468490097
 30
0.0
 10
5.9132800477
 20
5.0476963126
 30
0.0
 10
5.9141381901
 20
5.0487115101
 30
0.0
 10
5.9149405764
 20
5.0498848427
 30
0.0
 10
5.9156800659
 20
5.051205254
 30
0.0
 10
5.9163499021
 20
5.0526603245
 30
0.0
 10
5.9169438731
 20
5.0542363048
 30
0.0
 10
5.9174563999
 20
5.0559182646
 30
0.0
 10
5.9178825985
 20
5.057690195
 30
0.0
 10
5.9182183942
 20
5.0595352744
 30
0.0
 10
5.9185431269
 20
5.0620837176
 30
0.0
 10
5.9186394038
 20
5.0640277717
 30
0.0
 10
5.9186394057
 20
5.0653300433
 30
0.0
  0
SPLINE
  5
482
100
AcDbEntity
  8
0
100
AcDbSpline
 62
7
  6
CONTINUOUS
 70
0
 71
3
 72
23
 73
19
 74
0
 42
0.0000001
 43
0.0000001
 44
0.0000000001
 40
0.0
 40
0.0
 40
0.0
 40
0.0
 40
0.0623271441
 40
0.1246529931
 40
0.1869991344
 40
0.2493677047
 40
0.3117618047
 40
0.3741856611
 40
0.4366411431
 40
0.4991293499
 40
0.5616504859
 40
0.6242033951
 40
0.6867855165
 40
0.7493945741
 40
0.8120257292
 40
0.8746707877
 40
0.9373399755
 40
1.0
 40
1.0
 40
1.0
 40
1.0
 10
5.6973401159
 20
5.0454061798
 30
0.0
 10
5.6979523121
 20
5.0454600312
 30
0.0
 10
5.699172432
 20
5.0456249606
 30
0.0
 10
5.7009711956
 20
5.0460416513
 30
0.0
 10
5.7027239418
 20
5.0466240293
 30
0.0
 10
5.7044155134
 20
5.0473671228
 30
0.0
 10
5.7060314114
 20
5.0482645271
 30
0.0
 10
5.7075577359
 20
5.0493085303
 30
0.0
 10
5.7089813586
 20
5.0504901931
 30
0.0
 10
5.7102900834
 20
5.0517993134
 30
0.0
 10
5.711472674
 20
5.05322465
 30
0.0
 10
5.7125189263
 20
5.054753989
 30
0.0
 10
5.7134199017
 20
5.0563741605
 30
0.0
 10
5.7141678658
 20
5.0580712543
 30
0.0
 10
5.7147563532
 20
5.059830659
 30
0.0
 10
5.7151804076
 20
5.0616374127
 30
0.0
 10
5.7154362018
 20
5.063475672
 30
0.0
 10
5.7154932713
 20
5.0647122008
 30
0.0
 10
5.7154932713
 20
5.0653300433
 30
0.0
  0
SPLINE
  5
483
100
AcDbEntity
  8
0
100
AcDbSpline
 62
7
  6
CONTINUOUS
 70
0
 71
3
 72
15
 73
11
 74
0
 42
0.0000001
 43
0.0000001
 44
0.0000000001
 40
0.0
 40
0.0
 40
0.0
 40
0.0
 40
0.1247825841
 40
0.2496191445
 40
0.3745319969
 40
0.4995210008
 40
0.6245803751
 40
0.7496955229
 40
0.8748409131
 40
1.0
 40
1.0
 40
1.0
 40
1.0
 10
5.6974534728
 20
4.2455398034
 30
0.0
 10
5.6986243782
 20
4.2453687359
 30
0.0
 10
5.7009413492
 20
4.2448154608
 30
0.0
 10
5.7042106595
 20
4.2433819403
 30
0.0
 10
5.7071763316
 20
4.2413894899
 30
0.0
 10
5.70974291
 20
4.2389013771
 30
0.0
 10
5.7118295584
 20
4.2359966544
 30
0.0
 10
5.7133699964
 20
4.2327669714
 30
0.0
 10
5.714315627
 20
4.2293161263
 30
0.0
 10
5.7145294834
 20
4.226937248
 30
0.0
 10
5.7145305604
 20
4.2257503423
 30
0.0
  0
SPLINE
  5
484
100
AcDbEntity
  8
0
100
AcDbSpline
 62
7
  6
CONTINUOUS
 70
0
 71
3
 72
15
 73
11
 74
0
 42
0.0000001
 43
0.0000001
 44
0.0000000001
 40
0.0
 40
0.0
 40
0.0
 40
0.0
 40
0.1244186465
 40
0.2490090319
 40
0.3738023515
 40
0.4987943055
 40
0.6239611334
 40
0.7492588565
 40
0.8746247087
 40
1.0
 40
1.0
 40
1.0
 40
1.0
 10
5.7010167041
 20
4.2457295112
 30
0.0
 10
5.7021270616
 20
4.2455037817
 30
0.0
 10
5.7043148589
 20
4.2448583023
 30
0.0
 10
5.7073805589
 20
4.2433419381
 30
0.0
 10
5.7101471762
 20
4.2413206201
 30
0.0
 10
5.712532332
 20
4.2388538964
 30
0.0
 10
5.7144666119
 20
4.2360142995
 30
0.0
 10
5.7158932491
 20
4.2328847496
 30
0.0
 10
5.7167706659
 20
4.2295582417
 30
0.0
 10
5.7169723235
 20
4.2272706276
 30
0.0
 10
5.716975778
 20
4.2261288508
 30
0.0
  0
SPLINE
  5
485
100
AcDbEntity
  8
0
100
AcDbSpline
 62
7
  6
CONTINUOUS
 70
0
 71
3
 72
21
 73
17
 74
0
 42
0.0000001
 43
0.0000001
 44
0.0000000001
 40
0.0
 40
0.0
 40
0.0
 40
0.0
 40
0.0403867995
 40
0.0839598843
 40
0.1309007325
 40
0.1813051649
 40
0.2351682876
 40
0.2924094465
 40
0.3528871875
 40
0.4164095572
 40
0.4827431202
 40
0.5516173207
 40
0.6957467337
 40
0.7703582916
 40
0.8461877353
 40
1.0
 40
1.0
 40
1.0
 40
1.0
 10
5.9509739996
 20
4.2512683343
 30
0.0
 10
5.9511825744
 20
4.2510956308
 30
0.0
 10
5.9515924624
 20
4.2507073881
 30
0.0
 10
5.9521601501
 20
4.2500361653
 30
0.0
 10
5.9526998652
 20
4.2492590883
 30
0.0
 10
5.9532085483
 20
4.2483809534
 30
0.0
 10
5.9536834823
 20
4.2474068323
 30
0.0
 10
5.9541218452
 20
4.2463424296
 30
0.0
 10
5.9545211005
 20
4.2451940527
 30
0.0
 10
5.9548788849
 20
4.2439685271
 30
0.0
 10
5.9551930314
 20
4.2426731308
 30
0.0
 10
5.9555566562
 20
4.240835352
 30
0.0
 10
5.9558168082
 20
4.2389223113
 30
0.0
 10
5.9559796237
 20
4.2369536464
 30
0.0
 10
5.9560776148
 20
4.2349156594
 30
0.0
 10
5.9560741452
 20
4.2333744366
 30
0.0
 10
5.9560383964
 20
4.2323437391
 30
0.0
  0
SPLINE
  5
486
100
AcDbEntity
  8
0
100
AcDbSpline
 62
7
  6
CONTINUOUS
 70
0
 71
3
 72
18
 73
14
 74
0
 42
0.0000001
 43
0.0000001
 44
0.0000000001
 40
0.0
 40
0.0
 40
0.0
 40
0.0
 40
0.0430494478
 40
0.0894579992
 40
0.1391273504
 40
0.1919452568
 40
0.2477781845
 40
0.3064550102
 40
0.4315445066
 40
0.5654894148
 40
0.7063206836
 40
0.8519047438
 40
1.0
 40
1.0
 40
1.0
 40
1.0
 10
6.0014836813
 20
4.2480126746
 30
0.0
 10
6.0015966531
 20
4.2477861352
 30
0.0
 10
6.0018156395
 20
4.2473074236
 30
0.0
 10
6.0021146829
 20
4.24654557
 30
0.0
 10
6.0023953034
 20
4.2457158815
 30
0.0
 10
6.0026563478
 20
4.2448220031
 30
0.0
 10
6.0028966958
 20
4.2438676479
 30
0.0
 10
6.0031946001
 20
4.2424903517
 30
0.0
 10
6.0035039713
 20
4.2406467554
 30
0.0
 10
6.003772149
 20
4.2383098655
 30
0.0
 10
6.0039397677
 20
4.235842854
 30
0.0
 10
6.0040037685
 20
4.2332878836
 30
0.0
 10
6.0039764871
 20
4.2315606058
 30
0.0
 10
6.0039453024
 20
4.2306903132
 30
0.0
  0
SPLINE
  5
487
100
AcDbEntity
  8
0
100
AcDbSpline
 62
7
  6
CONTINUOUS
 70
0
 71
3
 72
17
 73
13
 74
0
 42
0.0000001
 43
0.0000001
 44
0.0000000001
 40
0.0
 40
0.0
 40
0.0
 40
0.0
 40
0.0436130917
 40
0.0905516549
 40
0.1407017299
 40
0.193938624
 40
0.3090481513
 40
0.4344099178
 40
0.56824659
 40
0.7085682224
 40
0.8532327018
 40
1.0
 40
1.0
 40
1.0
 40
1.0
 10
6.0027775375
 20
4.248005823
 30
0.0
 10
6.0029034903
 20
4.2477793914
 30
0.0
 10
6.0031502717
 20
4.2473009851
 30
0.0
 10
6.0034947607
 20
4.2465390405
 30
0.0
 10
6.0038257298
 20
4.2457092498
 30
0.0
 10
6.0042583929
 20
4.2444850968
 30
0.0
 10
6.0047502356
 20
4.2428095116
 30
0.0
 10
6.0052522414
 20
4.2406421418
 30
0.0
 10
6.0056715036
 20
4.2383050044
 30
0.0
 10
6.0060007054
 20
4.2358378795
 30
0.0
 10
6.0062340693
 20
4.2332828
 30
0.0
 10
6.0063228731
 20
4.2315531522
 30
0.0
 10
6.0063504654
 20
4.2306816455
 30
0.0
  0
SPLINE
  5
488
100
AcDbEntity
  8
0
100
AcDbSpline
 62
7
  6
CONTINUOUS
 70
0
 71
3
 72
17
 73
13
 74
0
 42
0.0000001
 43
0.0000001
 44
0.0000000001
 40
0.0
 40
0.0
 40
0.0
 40
0.0
 40
0.0436037166
 40
0.0905480629
 40
0.1407116813
 40
0.1939642846
 40
0.3090990245
 40
0.4344650586
 40
0.5682854285
 40
0.7085806002
 40
0.853225311
 40
1.0
 40
1.0
 40
1.0
 40
1.0
 10
6.008728229
 20
4.2480975443
 30
0.0
 10
6.0088457129
 20
4.2478693523
 30
0.0
 10
6.0090756
 20
4.2473881617
 30
0.0
 10
6.0093957851
 20
4.246624016
 30
0.0
 10
6.0097027525
 20
4.245793642
 30
0.0
 10
6.0101031283
 20
4.2445708428
 30
0.0
 10
6.010556456
 20
4.2429009865
 30
0.0
 10
6.0110164539
 20
4.2407453194
 30
0.0
 10
6.0113976061
 20
4.2384241831
 30
0.0
 10
6.0116933596
 20
4.2359764022
 30
0.0
 10
6.0118985968
 20
4.2334429541
 30
0.0
 10
6.0119725762
 20
4.2317287286
 30
0.0
 10
6.0119937582
 20
4.2308650458
 30
0.0
  0
SPLINE
  5
489
100
AcDbEntity
  8
0
100
AcDbSpline
 62
7
  6
CONTINUOUS
 70
0
 71
3
 72
18
 73
14
 74
0
 42
0.0000001
 43
0.0000001
 44
0.0000000001
 40
0.0
 40
0.0
 40
0.0
 40
0.0
 40
0.0428948329
 40
0.089280939
 40
0.139017209
 40
0.1919565712
 40
0.3067593897
 40
0.4321176643
 40
0.4981940953
 40
0.5662069759
 40
0.7069983671
 40
0.8523439881
 40
1.0
 40
1.0
 40
1.0
 40
1.0
 10
6.0299527865
 20
4.2482134437
 30
0.0
 10
6.0300434636
 20
4.2479826219
 30
0.0
 10
6.0302197888
 20
4.2474972677
 30
0.0
 10
6.0304623699
 20
4.2467308372
 30
0.0
 10
6.0306924404
 20
4.2459001439
 30
0.0
 10
6.0309892853
 20
4.2446781697
 30
0.0
 10
6.031317845
 20
4.2430149393
 30
0.0
 10
6.0315810817
 20
4.2412635952
 30
0.0
 10
6.0317605859
 20
4.2397743182
 30
0.0
 10
6.0319211411
 20
4.2381931597
 30
0.0
 10
6.0320732321
 20
4.236150878
 30
0.0
 10
6.0321778944
 20
4.2336447268
 30
0.0
 10
6.0321958523
 20
4.2319505277
 30
0.0
 10
6.0321918199
 20
4.2310968723
 30
0.0
  0
LINE
  5
48A
100
AcDbEntity
  8
0
100
AcDbLine
 62
7
  6
CONTINUOUS
 10
6.1355501658
 20
4.2480784776
 11
6.1354946132
 21
4.2308269013
  0
SPLINE
  5
48B
100
AcDbEntity
  8
0
100
AcDbSpline
 62
7
  6
CONTINUOUS
 70
0
 71
3
 72
20
 73
16
 74
0
 42
0.0000001
 43
0.0000001
 44
0.0000000001
 40
0.0
 40
0.0
 40
0.0
 40
0.0
 40
0.1242395918
 40
0.1864740579
 40
0.2487771519
 40
0.373565564
 40
0.4360438431
 40
0.4985706014
 40
0.623745483
 40
0.686390663
 40
0.7490661274
 40
0.8117683631
 40
0.8744932969
 40
0.9372393445
 40
1.0
 40
1.0
 40
1.0
 40
1.0
 10
5.6853512229
 20
5.0453269215
 30
0.0
 10
5.6625086628
 20
5.0453138457
 30
0.0
 10
5.6282237575
 20
5.0452413999
 30
0.0
 10
5.5824837965
 20
5.0453726103
 30
0.0
 10
5.5366446408
 20
5.0457663417
 30
0.0
 10
5.490764904
 20
5.0467150426
 30
0.0
 10
5.4448727229
 20
5.0485392522
 30
0.0
 10
5.3989428357
 20
5.051055346
 30
0.0
 10
5.3530497197
 20
5.0547720123
 30
0.0
 10
5.3072934765
 20
5.0600514548
 30
0.0
 10
5.273059541
 20
5.0648883765
 30
0.0
 10
5.2389605473
 20
5.0706918225
 30
0.0
 10
5.2050431087
 20
5.0775478815
 30
0.0
 10
5.1713643073
 20
5.0855426037
 30
0.0
 10
5.149114954
 20
5.0916866102
 30
0.0
 10
5.138054307
 20
5.0949749442
 30
0.0
  0
SPLINE
  5
48C
100
AcDbEntity
  8
0
100
AcDbSpline
 62
7
  6
CONTINUOUS
 70
0
 71
3
 72
44
 73
40
 74
0
 42
0.0000001
 43
0.0000001
 44
0.0000000001
 40
0.0
 40
0.0
 40
0.0
 40
0.0
 40
0.0000185106
 40
0.0000685122
 40
0.0001500504
 40
0.0002631249
 40
0.0004077297
 40
0.000583857
 40
0.0010306452
 40
0.0016034197
 40
0.0023021086
 40
0.0031266396
 40
0.0040769396
 40
0.0051529359
 40
0.0063545552
 40
0.0091343706
 40
0.0124158006
 40
0.0161982593
 40
0.0204811774
 40
0.0252640246
 40
0.0305462766
 40
0.0363274093
 40
0.049384222
 40
0.0644302761
 40
0.0814607812
 40
0.1004692423
 40
0.1214488755
 40
0.1443929059
 40
0.1692939551
 40
0.1961430306
 40
0.2556482782
 40
0.322831934
 40
0.3976081344
 40
0.4798817499
 40
0.5695327914
 40
0.6664534816
 40
0.7705949467
 40
0.8818696859
 40
1.0
 40
1.0
 40
1.0
 40
1.0
 10
4.8473259836
 20
5.9488428854
 30
0.0
 10
4.8473262416
 20
5.9488428629
 30
0.0
 10
4.8473270458
 20
5.9488435952
 30
0.0
 10
4.8473288779
 20
5.9488444326
 30
0.0
 10
4.8473317787
 20
5.9488463555
 30
0.0
 10
4.8473358164
 20
5.9488488047
 30
0.0
 10
4.8473409567
 20
5.9488520512
 30
0.0
 10
4.847350044
 20
5.9488577665
 30
0.0
 10
4.8473641752
 20
5.9488667295
 30
0.0
 10
4.847384462
 20
5.9488796311
 30
0.0
 10
4.8474091904
 20
5.9488954016
 30
0.0
 10
4.8474383589
 20
5.9489140329
 30
0.0
 10
4.8474719652
 20
5.9489355249
 30
0.0
 10
4.8475100071
 20
5.9489598744
 30
0.0
 10
4.8475695993
 20
5.9489980422
 30
0.0
 10
4.84765516
 20
5.9490528828
 30
0.0
 10
4.8477711071
 20
5.9491272377
 30
0.0
 10
4.8479047481
 20
5.9492129635
 30
0.0
 10
4.8480560688
 20
5.9493100384
 30
0.0
 10
4.8482250629
 20
5.9494184303
 30
0.0
 10
4.8484117235
 20
5.9495381087
 30
0.0
 10
4.8486958897
 20
5.9497202101
 30
0.0
 10
4.8490951989
 20
5.949975849
 30
0.0
 10
4.8496273158
 20
5.9503159865
 30
0.0
 10
4.8502299079
 20
5.9507004983
 30
0.0
 10
4.8509028828
 20
5.951129058
 30
0.0
 10
4.851646122
 20
5.9516013279
 30
0.0
 10
4.8524594969
 20
5.9521169625
 30
0.0
 10
4.8533428543
 20
5.9526755965
 30
0.0
 10
4.8546595666
 20
5.9535061341
 30
0.0
 10
4.8564788518
 20
5.9546488957
 30
0.0
 10
4.8588699086
 20
5.9561421794
 30
0.0
 10
4.8615359285
 20
5.9577966124
 30
0.0
 10
4.8644745854
 20
5.9596079023
 30
0.0
 10
4.8676829137
 20
5.961572189
 30
0.0
 10
4.8711587042
 20
5.9636856068
 30
0.0
 10
4.8749026133
 20
5.965940403
 30
0.0
 10
4.8789126993
 20
5.9683283661
 30
0.0
 10
4.8816764587
 20
5.9699610903
 30
0.0
 10
4.8831006103
 20
5.9708001904
 30
0.0
  0
SPLINE
  5
48D
100
AcDbEntity
  8
0
100
AcDbSpline
 62
7
  6
CONTINUOUS
 70
0
 71
3
 72
9
 73
5
 74
0
 42
0.0000001
 43
0.0000001
 44
0.0000000001
 40
0.0
 40
0.0
 40
0.0
 40
0.0
 40
0.4999918711
 40
1.0
 40
1.0
 40
1.0
 40
1.0
 10
3.8766224092
 20
5.1390892673
 30
0.0
 10
3.8988522323
 20
5.1360827836
 30
0.0
 10
3.9430474735
 20
5.127966257
 30
0.0
 10
3.9863874823
 20
5.1161748101
 30
0.0
 10
4.007799929
 20
5.1094857269
 30
0.0
  0
SPLINE
  5
48E
100
AcDbEntity
  8
0
100
AcDbSpline
 62
7
  6
CONTINUOUS
 70
0
 71
3
 72
9
 73
5
 74
0
 42
0.0000001
 43
0.0000001
 44
0.0000000001
 40
0.0
 40
0.0
 40
0.0
 40
0.0
 40
0.4999963219
 40
1.0
 40
1.0
 40
1.0
 40
1.0
 10
4.0469565007
 20
5.4030440192
 30
0.0
 10
4.0254358855
 20
5.4094597254
 30
0.0
 10
3.9821579871
 20
5.4215139225
 30
0.0
 10
3.9384294157
 20
5.4318290855
 30
0.0
 10
3.9164645701
 20
5.4365043992
 30
0.0
  0
SPLINE
  5
48F
100
AcDbEntity
  8
0
100
AcDbSpline
 62
7
  6
CONTINUOUS
 70
0
 71
3
 72
38
 73
34
 74
0
 42
0.0000001
 43
0.0000001
 44
0.0000000001
 40
0.0
 40
0.0
 40
0.0
 40
0.0
 40
0.0312829773
 40
0.062566413
 40
0.0938486913
 40
0.1251302705
 40
0.1407711671
 40
0.1564114189
 40
0.1720513264
 40
0.1876911434
 40
0.2033306985
 40
0.2189696472
 40
0.2346081386
 40
0.2502463238
 40
0.2658841952
 40
0.2815216254
 40
0.3127951413
 40
0.3440670345
 40
0.3597022416
 40
0.3753368957
 40
0.4066045422
 40
0.4378699949
 40
0.4691332203
 40
0.500394013
 40
0.5316520632
 40
0.5629070563
 40
0.6254069502
 40
0.6878916947
 40
0.7503590765
 40
0.8128068216
 40
0.8752320051
 40
0.9376317395
 40
1.0
 40
1.0
 40
1.0
 40
1.0
 10
4.007799929
 20
5.1094857269
 30
0.0
 10
4.0188289053
 20
5.1060403559
 30
0.0
 10
4.0407578471
 20
5.0987298052
 30
0.0
 10
4.073252442
 20
5.0866439112
 30
0.0
 10
4.1053606939
 20
5.0735698077
 30
0.0
 10
4.1318135079
 20
5.0619592425
 30
0.0
 10
4.1528089654
 20
5.0523058827
 30
0.0
 10
4.1684773071
 20
5.0448987514
 30
0.0
 10
4.184073416
 20
5.0373418417
 30
0.0
 10
4.1996042352
 20
5.0296523201
 30
0.0
 10
4.215076845
 20
5.0218472305
 30
0.0
 10
4.2304986619
 20
5.013943397
 30
0.0
 10
4.2458743401
 20
5.0059513198
 30
0.0
 10
4.2612088555
 20
4.9978814413
 30
0.0
 10
4.2765071827
 20
4.9897440386
 30
0.0
 10
4.296863462
 20
4.9788185203
 30
0.0
 10
4.3222418575
 20
4.9650398244
 30
0.0
 10
4.3475556852
 20
4.9511448049
 30
0.0
 10
4.3677832985
 20
4.9399883552
 30
0.0
 10
4.3879954217
 20
4.9288071018
 30
0.0
 10
4.4132321533
 20
4.9147823627
 30
0.0
 10
4.4434702255
 20
4.8978739285
 30
0.0
 10
4.4736623104
 20
4.8808886931
 30
0.0
 10
4.5038168551
 20
4.863842483
 30
0.0
 10
4.5339412806
 20
4.8467492789
 30
0.0
 10
4.5740755359
 20
4.8239167485
 30
0.0
 10
4.6242097186
 20
4.7953368449
 30
0.0
 10
4.6843930101
 20
4.7611065398
 30
0.0
 10
4.7446470468
 20
4.7270398488
 30
0.0
 10
4.8050225248
 20
4.6932335361
 30
0.0
 10
4.8655769225
 20
4.6597998525
 30
0.0
 10
4.9263637589
 20
4.6268517431
 30
0.0
 10
4.9670886938
 20
4.6052806951
 30
0.0
 10
4.9875068371
 20
4.5946146045
 30
0.0
  0
SPLINE
  5
490
100
AcDbEntity
  8
0
100
AcDbSpline
 62
7
  6
CONTINUOUS
 70
0
 71
3
 72
12
 73
8
 74
0
 42
0.0000001
 43
0.0000001
 44
0.0000000001
 40
0.0
 40
0.0
 40
0.0
 40
0.0
 40
0.2495191917
 40
0.3744612505
 40
0.4994844256
 40
0.7496872764
 40
1.0
 40
1.0
 40
1.0
 40
1.0
 10
5.1300419743
 20
5.0784792092
 30
0.0
 10
5.0403643455
 20
5.1053843315
 30
0.0
 10
4.9057789916
 20
5.1457505809
 30
0.0
 10
4.7262534504
 20
5.1995756605
 30
0.0
 10
4.5464788613
 20
5.2534633246
 30
0.0
 10
4.3216387701
 20
5.3208458156
 30
0.0
 10
4.1417300326
 20
5.3747401597
 30
0.0
 10
4.0517336439
 20
5.4016187236
 30
0.0
  0
SPLINE
  5
491
100
AcDbEntity
  8
0
100
AcDbSpline
 62
7
  6
CONTINUOUS
 70
0
 71
3
 72
15
 73
11
 74
0
 42
0.0000001
 43
0.0000001
 44
0.0000000001
 40
0.0
 40
0.0
 40
0.0
 40
0.0
 40
0.1255111873
 40
0.2509208594
 40
0.3762091124
 40
0.5013561996
 40
0.6263380014
 40
0.7511266654
 40
0.8756913722
 40
1.0
 40
1.0
 40
1.0
 40
1.0
 10
4.9875068294
 20
4.5946145995
 30
0.0
 10
5.0127037247
 20
4.5814518301
 30
0.0
 10
5.0632622692
 20
4.5554887468
 30
0.0
 10
5.1397118485
 20
4.5178457447
 30
0.0
 10
5.2168170463
 20
4.4817544799
 30
0.0
 10
5.2946345378
 20
4.447460755
 30
0.0
 10
5.3732066927
 20
4.4152244713
 30
0.0
 10
5.4525570342
 20
4.3853182091
 30
0.0
 10
5.532678463
 20
4.3580088016
 30
0.0
 10
5.5866463351
 20
4.3416813928
 30
0.0
 10
5.6137443765
 20
4.3340376842
 30
0.0
  0
SPLINE
  5
492
100
AcDbEntity
  8
0
100
AcDbSpline
 62
7
  6
CONTINUOUS
 70
0
 71
3
 72
22
 73
18
 74
0
 42
0.0000001
 43
0.0000001
 44
0.0000000001
 40
0.0
 40
0.0
 40
0.0
 40
0.0
 40
0.1242816864
 40
0.1865143304
 40
0.2488047937
 40
0.3111493199
 40
0.3735468419
 40
0.4359955953
 40
0.4984924295
 40
0.5610368292
 40
0.6236250114
 40
0.6862568144
 40
0.7489294971
 40
0.8116419505
 40
0.8743918517
 40
0.9371794617
 40
1.0
 40
1.0
 40
1.0
 40
1.0
 10
5.6919779192
 20
5.0276383313
 30
0.0
 10
5.6685756945
 20
5.027615613
 30
0.0
 10
5.6334551825
 20
5.027498567
 30
0.0
 10
5.5866051447
 20
5.0275433247
 30
0.0
 10
5.5514184431
 20
5.0277689055
 30
0.0
 10
5.5162033746
 20
5.0282750476
 30
0.0
 10
5.4809654302
 20
5.0291505668
 30
0.0
 10
5.4457127352
 20
5.0304831529
 30
0.0
 10
5.410456622
 20
5.0323586413
 30
0.0
 10
5.3752127729
 20
5.0348636557
 30
0.0
 10
5.3400017614
 20
5.0380934956
 30
0.0
 10
5.3048504288
 20
5.0421421982
 30
0.0
 10
5.2697918308
 20
5.0471039716
 30
0.0
 10
5.2348666223
 20
5.0530696081
 30
0.0
 10
5.2001217167
 20
5.0601238312
 30
0.0
 10
5.165614166
 20
5.0683504678
 30
0.0
 10
5.1428148483
 20
5.0746690189
 30
0.0
 10
5.1314790256
 20
5.0780493792
 30
0.0
  0
LINE
  5
493
100
AcDbEntity
  8
0
100
AcDbLine
 62
7
  6
CONTINUOUS
 10
5.6935661161
 20
5.027639874
 11
5.6137443765
 21
4.3340376842
  0
LINE
  5
494
100
AcDbEntity
  8
0
100
AcDbLine
 62
7
  6
CONTINUOUS
 10
6.0003566931
 20
4.2630513753
 11
6.0063329189
 21
4.2630524027
  0
SPLINE
  5
495
100
AcDbEntity
  8
0
100
AcDbSpline
 62
7
  6
CONTINUOUS
 70
0
 71
3
 72
11
 73
7
 74
0
 42
0.0000001
 43
0.0000001
 44
0.0000000001
 40
0.0
 40
0.0
 40
0.0
 40
0.0
 40
0.2510301789
 40
0.5014141148
 40
0.7510910663
 40
1.0
 40
1.0
 40
1.0
 40
1.0
 10
5.7026321052
 20
4.3109716293
 30
0.0
 10
5.7272095313
 20
4.3051586198
 30
0.0
 10
5.7765046681
 20
4.2943881521
 30
0.0
 10
5.8508731253
 20
4.2809000612
 30
0.0
 10
5.9254841282
 20
4.2702336621
 30
0.0
 10
5.9753981579
 20
4.2650954641
 30
0.0
 10
6.0003566931
 20
4.2630513753
 30
0.0
  0
SPLINE
  5
496
100
AcDbEntity
  8
0
100
AcDbSpline
 62
7
  6
CONTINUOUS
 70
0
 71
3
 72
9
 73
5
 74
0
 42
0.0000001
 43
0.0000001
 44
0.0000000001
 40
0.0
 40
0.0
 40
0.0
 40
0.0
 40
0.2502609675
 40
1.0
 40
1.0
 40
1.0
 40
1.0
 10
5.6137443765
 20
4.3340376842
 30
0.0
 10
5.6211175857
 20
4.3319577669
 30
0.0
 10
5.6506219637
 20
4.3237976797
 30
0.0
 10
5.680297391
 20
4.3162541642
 30
0.0
 10
5.7026321052
 20
4.3109716293
 30
0.0
  0
LINE
  5
497
100
AcDbEntity
  8
0
100
AcDbLine
 62
7
  6
CONTINUOUS
 10
6.0267954075
 20
5.0278782415
 11
5.6935661161
 21
5.027639874
  0
LINE
  5
498
100
AcDbEntity
  8
0
100
AcDbLine
 62
7
  6
CONTINUOUS
 10
6.0063329189
 20
4.2630524027
 11
6.0275894931
 21
4.2630651854
  0
LINE
  5
499
100
AcDbEntity
  8
0
100
AcDbLine
 62
7
  6
CONTINUOUS
 10
6.0446387313
 20
5.0278982085
 11
6.0267954075
 21
5.0278782415
  0
LINE
  5
49A
100
AcDbEntity
  8
0
100
AcDbLine
 62
7
  6
CONTINUOUS
 10
6.0275894931
 20
4.2630651854
 11
6.1356072426
 21
4.2629873509
  0
LINE
  5
49B
100
AcDbEntity
  8
0
100
AcDbLine
 62
7
  6
CONTINUOUS
 10
6.1356070915
 20
5.027976352
 11
6.0446387313
 21
5.0278982085
  0
SPLINE
  5
49C
100
AcDbEntity
  8
0
100
AcDbSpline
 62
7
  6
CONTINUOUS
 70
0
 71
3
 72
9
 73
5
 74
0
 42
0.0000001
 43
0.0000001
 44
0.0000000001
 40
0.0
 40
0.0
 40
0.0
 40
0.0
 40
0.2502436194
 40
1.0
 40
1.0
 40
1.0
 40
1.0
 10
5.6116543936
 20
4.3182129575
 30
0.0
 10
5.6191033671
 20
4.3160969773
 30
0.0
 10
5.648913432
 20
4.3077942796
 30
0.0
 10
5.6788981639
 20
4.3001167959
 30
0.0
 10
5.7014671659
 20
4.294738951
 30
0.0
  0
SPLINE
  5
49D
100
AcDbEntity
  8
0
100
AcDbSpline
 62
7
  6
CONTINUOUS
 70
0
 71
3
 72
27
 73
23
 74
0
 42
0.0000001
 43
0.0000001
 44
0.0000000001
 40
0.0
 40
0.0
 40
0.0
 40
0.0
 40
0.2119616374
 40
0.308752333
 40
0.3993765259
 40
0.4838057621
 40
0.56201288
 40
0.6339724738
 40
0.699661582
 40
0.759060749
 40
0.8121557261
 40
0.8589403346
 40
0.8799685562
 40
0.8994235026
 40
0.917309782
 40
0.933634589
 40
0.9484087941
 40
0.9616486471
 40
0.9733785423
 40
0.9836356785
 40
0.9924782189
 40
1.0
 40
1.0
 40
1.0
 40
1.0
 10
5.7014671659
 20
4.294738951
 30
0.0
 10
5.7013632776
 20
4.291241087
 30
0.0
 10
5.7011887116
 20
4.2861465505
 30
0.0
 10
5.7009002286
 20
4.279559269
 30
0.0
 10
5.7006722083
 20
4.2750769777
 30
0.0
 10
5.7004260015
 20
4.2709029447
 30
0.0
 10
5.7001616423
 20
4.2670388206
 30
0.0
 10
5.6998792045
 20
4.2634862465
 30
0.0
 10
5.6995787706
 20
4.2602468531
 30
0.0
 10
5.6992604879
 20
4.2573222245
 30
0.0
 10
5.6989244639
 20
4.2547139601
 30
0.0
 10
5.698620139
 20
4.2527408274
 30
0.0
 10
5.6983641547
 20
4.2513229181
 30
0.0
 10
5.6981745666
 20
4.250378022
 30
0.0
 10
5.697980528
 20
4.2495134327
 30
0.0
 10
5.6977820508
 20
4.2487293145
 30
0.0
 10
5.6975791705
 20
4.2480258078
 30
0.0
 10
5.697371912
 20
4.2474030055
 30
0.0
 10
5.69716031
 20
4.2468609581
 30
0.0
 10
5.6969442851
 20
4.2463995243
 30
0.0
 10
5.6967238014
 20
4.2460186235
 30
0.0
 10
5.6965610445
 20
4.2458015632
 30
0.0
 10
5.6964778982
 20
4.2457093255
 30
0.0
  0
SPLINE
  5
49E
100
AcDbEntity
  8
0
100
AcDbSpline
 62
7
  6
CONTINUOUS
 70
0
 71
3
 72
9
 73
5
 74
0
 42
0.0000001
 43
0.0000001
 44
0.0000000001
 40
0.0
 40
0.0
 40
0.0
 40
0.0
 40
0.4999964868
 40
1.0
 40
1.0
 40
1.0
 40
1.0
 10
3.8745856047
 20
5.1238848594
 30
0.0
 10
3.8964364855
 20
5.1209658419
 30
0.0
 10
3.9398804019
 20
5.11305333
 30
0.0
 10
3.9824885877
 20
5.1015276433
 30
0.0
 10
4.0035410343
 20
5.0949862516
 30
0.0
  0
SPLINE
  5
49F
100
AcDbEntity
  8
0
100
AcDbSpline
 62
7
  6
CONTINUOUS
 70
0
 71
3
 72
38
 73
34
 74
0
 42
0.0000001
 43
0.0000001
 44
0.0000000001
 40
0.0
 40
0.0
 40
0.0
 40
0.0
 40
0.0312860253
 40
0.0625720097
 40
0.0938563071
 40
0.125139376
 40
0.1407808115
 40
0.1564214572
 40
0.1720616656
 40
0.1877016882
 40
0.2033413462
 40
0.218980329
 40
0.2346188127
 40
0.2502569354
 40
0.2658946752
 40
0.2815318986
 40
0.312804816
 40
0.3440757974
 40
0.3753443757
 40
0.4066104476
 40
0.4222425771
 40
0.4378741193
 40
0.469135417
 40
0.5003941778
 40
0.5316501221
 40
0.5629029807
 40
0.6253987133
 40
0.6878798044
 40
0.7503446686
 40
0.8127916331
 40
0.875218531
 40
0.9376230279
 40
1.0
 40
1.0
 40
1.0
 40
1.0
 10
4.0035410343
 20
5.0949862516
 30
0.0
 10
4.0145558955
 20
5.0915635935
 30
0.0
 10
4.0364547169
 20
5.0842905679
 30
0.0
 10
4.068898481
 20
5.0722432737
 30
0.0
 10
4.1009507967
 20
5.0591954534
 30
0.0
 10
4.1273538832
 20
5.0476006055
 30
0.0
 10
4.1483084678
 20
5.0379584516
 30
0.0
 10
4.1639458356
 20
5.030559684
 30
0.0
 10
4.1795108761
 20
5.0230113538
 30
0.0
 10
4.1950106177
 20
5.0153307499
 30
0.0
 10
4.2104522968
 20
5.0075351844
 30
0.0
 10
4.2258432824
 20
4.9996413155
 30
0.0
 10
4.2411881924
 20
4.9916595202
 30
0.0
 10
4.2564921054
 20
4.983600425
 30
0.0
 10
4.2717600588
 20
4.975474435
 30
0.0
 10
4.2920761591
 20
4.9645650822
 30
0.0
 10
4.3174050901
 20
4.9508084819
 30
0.0
 10
4.3477250544
 20
4.934167692
 30
0.0
 10
4.3780030019
 20
4.9174558433
 30
0.0
 10
4.4031989941
 20
4.9034683975
 30
0.0
 10
4.4233328183
 20
4.8922399948
 30
0.0
 10
4.4434500459
 20
4.8809854874
 30
0.0
 10
4.4685680739
 20
4.8668699469
 30
0.0
 10
4.4986733499
 20
4.849871236
 30
0.0
 10
4.5287499457
 20
4.8328281562
 30
0.0
 10
4.5688228454
 20
4.8100666551
 30
0.0
 10
4.6188832731
 20
4.7815801818
 30
0.0
 10
4.6789770457
 20
4.7474590725
 30
0.0
 10
4.739138905
 20
4.713494536
 30
0.0
 10
4.7994193319
 20
4.6797814919
 30
0.0
 10
4.8598737506
 20
4.6464269738
 30
0.0
 10
4.9205539302
 20
4.6135386293
 30
0.0
 10
4.9612013981
 20
4.5919928399
 30
0.0
 10
4.9815793932
 20
4.5813349189
 30
0.0
  0
SPLINE
  5
4A0
100
AcDbEntity
  8
0
100
AcDbSpline
 62
7
  6
CONTINUOUS
 70
0
 71
3
 72
14
 73
10
 74
0
 42
0.0000001
 43
0.0000001
 44
0.0000000001
 40
0.0
 40
0.0
 40
0.0
 40
0.0
 40
0.2507979126
 40
0.3760519153
 40
0.5011840142
 40
0.6261718204
 40
0.7509896389
 40
0.8756099561
 40
1.0
 40
1.0
 40
1.0
 40
1.0
 10
4.9815793932
 20
4.5813349189
 30
0.0
 10
5.0322491228
 20
4.5548337048
 30
0.0
 10
5.1087833846
 20
4.5161371555
 30
0.0
 10
5.212232356
 20
4.4675837793
 30
0.0
 10
5.2905136111
 20
4.4329681182
 30
0.0
 10
5.3695630817
 20
4.4004000058
 30
0.0
 10
5.4494073973
 20
4.3701516456
 30
0.0
 10
5.5300468538
 20
4.3425048429
 30
0.0
 10
5.5843729117
 20
4.3259624152
 30
0.0
 10
5.6116543936
 20
4.3182129575
 30
0.0
  0
SPLINE
  5
4A1
100
AcDbEntity
  8
0
100
AcDbSpline
 62
7
  6
CONTINUOUS
 70
0
 71
3
 72
22
 73
18
 74
0
 42
0.0000001
 43
0.0000001
 44
0.0000000001
 40
0.0
 40
0.0
 40
0.0
 40
0.0
 40
0.0973258575
 40
0.1914060454
 40
0.2818794789
 40
0.368406611
 40
0.4506736872
 40
0.5283849452
 40
0.6012620143
 40
0.6690511157
 40
0.731499492
 40
0.7883786755
 40
0.8844897634
 40
0.9232764613
 40
0.9555875599
 40
0.9812213053
 40
1.0
 40
1.0
 40
1.0
 40
1.0
 10
5.9509738483
 20
4.2512674654
 30
0.0
 10
5.9428579266
 20
4.2516209134
 30
0.0
 10
5.9268945726
 20
4.252267426
 30
0.0
 10
5.9033800782
 20
4.2530687751
 30
0.0
 10
5.8807613417
 20
4.2536748724
 30
0.0
 10
5.859124064
 20
4.2540711707
 30
0.0
 10
5.8385490166
 20
4.2542430052
 30
0.0
 10
5.8191125939
 20
4.2541795132
 30
0.0
 10
5.8008869267
 20
4.253876981
 30
0.0
 10
5.7839409924
 20
4.2533456016
 30
0.0
 10
5.7683394878
 20
4.2526050237
 30
0.0
 10
5.7503936432
 20
4.2514519296
 30
0.0
 10
5.7344452945
 20
4.2500385631
 30
0.0
 10
5.7205784929
 20
4.2484538672
 30
0.0
 10
5.7125704203
 20
4.2474220865
 30
0.0
 10
5.7062293686
 20
4.246525659
 30
0.0
 10
5.7025640317
 20
4.2459709294
 30
0.0
 10
5.7010152989
 20
4.2457295909
 30
0.0
  0
SPLINE
  5
4A2
100
AcDbEntity
  8
0
100
AcDbSpline
 62
7
  6
CONTINUOUS
 70
0
 71
3
 72
11
 73
7
 74
0
 42
0.0000001
 43
0.0000001
 44
0.0000000001
 40
0.0
 40
0.0
 40
0.0
 40
0.0
 40
0.2510457653
 40
0.5014267115
 40
0.751092985
 40
1.0
 40
1.0
 40
1.0
 40
1.0
 10
5.7014671659
 20
4.294738951
 30
0.0
 10
5.722096493
 20
4.2898237092
 30
0.0
 10
5.7634486288
 20
4.2806158235
 30
0.0
 10
5.8257788168
 20
4.2687080522
 30
0.0
 10
5.8882730774
 20
4.2587841602
 30
0.0
 10
5.9300701659
 20
4.2535334389
 30
0.0
 10
5.9509738483
 20
4.2512674654
 30
0.0
  0
LINE
  5
4A3
100
AcDbEntity
  8
0
100
AcDbLine
 62
7
  6
CONTINUOUS
 10
3.43633702
 20
5.4618883576
 11
3.4372350349
 21
5.4591603525
  0
LINE
  5
4A4
100
AcDbEntity
  8
0
100
AcDbLine
 62
7
  6
CONTINUOUS
 10
3.4372350349
 20
5.4591603525
 11
3.5762299732
 21
5.0443751802
  0
SPLINE
  5
4A5
100
AcDbEntity
  8
0
100
AcDbSpline
 62
7
  6
CONTINUOUS
 70
0
 71
3
 72
45
 73
41
 74
0
 42
0.0000001
 43
0.0000001
 44
0.0000000001
 40
0.0
 40
0.0
 40
0.0
 40
0.0
 40
0.0000148306
 40
0.000061062
 40
0.0001387818
 40
0.0002480009
 40
0.0003887218
 40
0.0005609452
 40
0.0009998977
 40
0.0015648524
 40
0.0022558011
 40
0.0030727347
 40
0.0040156438
 40
0.0050845186
 40
0.0062793494
 40
0.0090468394
 40
0.0123180346
 40
0.0160928549
 40
0.0203710444
 40
0.0251519254
 40
0.0304347579
 40
0.0362188017
 40
0.0492875646
 40
0.0643522998
 40
0.0814067083
 40
0.1004434352
 40
0.1214549558
 40
0.1444337523
 40
0.1693716735
 40
0.1962589656
 40
0.2250856393
 40
0.2558417174
 40
0.323098544
 40
0.3979347207
 40
0.4802497177
 40
0.5699311519
 40
0.6668665934
 40
0.7709503769
 40
0.8820588972
 40
1.0
 40
1.0
 40
1.0
 40
1.0
 10
4.8311022407
 20
5.9674920781
 30
0.0
 10
4.8311022601
 20
5.9674918648
 30
0.0
 10
4.8311035209
 20
5.9674929386
 30
0.0
 10
4.8311047963
 20
5.967493262
 30
0.0
 10
4.8311079798
 20
5.9674953362
 30
0.0
 10
4.8311119335
 20
5.9674975745
 30
0.0
 10
4.8311172175
 20
5.9675007641
 30
0.0
 10
4.8311265072
 20
5.9675063214
 30
0.0
 10
4.8311410623
 20
5.9675151275
 30
0.0
 10
4.8311619833
 20
5.9675278212
 30
0.0
 10
4.8311875583
 20
5.9675433962
 30
0.0
 10
4.8312177747
 20
5.9675618361
 30
0.0
 10
4.8312526357
 20
5.9675831476
 30
0.0
 10
4.8312921391
 20
5.9676073292
 30
0.0
 10
4.8313541018
 20
5.9676453007
 30
0.0
 10
4.8314431531
 20
5.9676999497
 30
0.0
 10
4.8315639229
 20
5.9677741615
 30
0.0
 10
4.8317032429
 20
5.9678598645
 30
0.0
 10
4.8318611009
 20
5.9679570505
 30
0.0
 10
4.8320374937
 20
5.9680656788
 30
0.0
 10
4.8322324094
 20
5.968185709
 30
0.0
 10
4.8325292844
 20
5.9683684715
 30
0.0
 10
4.8329465703
 20
5.9686251583
 30
0.0
 10
4.8335027542
 20
5.9689667493
 30
0.0
 10
4.8341327218
 20
5.9693529189
 30
0.0
 10
4.8348363213
 20
5.9697833284
 30
0.0
 10
4.8356133875
 20
5.970257626
 30
0.0
 10
4.8364637438
 20
5.9707754567
 30
0.0
 10
4.8373871909
 20
5.9713364392
 30
0.0
 10
4.8383835254
 20
5.97194013
 30
0.0
 10
4.8394525178
 20
5.9725860762
 30
0.0
 10
4.8410217739
 20
5.9735316136
 30
0.0
 10
4.8431628648
 20
5.9748158034
 30
0.0
 10
4.8459473913
 20
5.9764750695
 30
0.0
 10
4.8490157433
 20
5.9782907581
 30
0.0
 10
4.8523653042
 20
5.9802579921
 30
0.0
 10
4.855993327
 20
5.9823719339
 30
0.0
 10
4.8598963273
 20
5.9846286617
 30
0.0
 10
4.8640700091
 20
5.9870233493
 30
0.0
 10
4.8669468644
 20
5.9886572598
 30
0.0
 10
4.8684303249
 20
5.9894948171
 30
0.0
  0
SPLINE
  5
4A6
100
AcDbEntity
  8
0
100
AcDbSpline
 62
7
  6
CONTINUOUS
 70
0
 71
3
 72
61
 73
57
 74
0
 42
0.0000001
 43
0.0000001
 44
0.0000000001
 40
0.0
 40
0.0
 40
0.0
 40
0.0
 40
0.0492656233
 40
0.0983730151
 40
0.1471976312
 40
0.1956278931
 40
0.2435503897
 40
0.2908532151
 40
0.3831654232
 40
0.4717117862
 40
0.5556622739
 40
0.6342410704
 40
0.6712939331
 40
0.7067460555
 40
0.7405181395
 40
0.772530399
 40
0.8027012963
 40
0.8309544377
 40
0.8572189202
 40
0.8814298698
 40
0.9035280453
 40
0.9234602862
 40
0.9326000131
 40
0.9411815234
 40
0.9491993881
 40
0.9566481832
 40
0.963522575
 40
0.9698174967
 40
0.9755279297
 40
0.9806490862
 40
0.9851769306
 40
0.9872171481
 40
0.9891075821
 40
0.9908477757
 40
0.992437362
 40
0.9938759918
 40
0.9951633175
 40
0.9962989925
 40
0.9972826735
 40
0.9981141588
 40
0.9984729082
 40
0.9987937241
 40
0.9990766524
 40
0.999321738
 40
0.9995290255
 40
0.9996985585
 40
0.9997691806
 40
0.9998303801
 40
0.9998821624
 40
0.9999245327
 40
0.9999574961
 40
0.999981058
 40
0.9999893149
 40
0.9999952235
 40
0.9999987845
 40
1.0
 40
1.0
 40
1.0
 40
1.0
 10
3.4289648177
 20
5.4614727214
 30
0.0
 10
3.4256207939
 20
5.4613285113
 30
0.0
 10
3.4189429947
 20
5.4610517986
 30
0.0
 10
3.4089493868
 20
5.4606750228
 30
0.0
 10
3.3990109828
 20
5.4603425353
 30
0.0
 10
3.3891515261
 20
5.4600612753
 30
0.0
 10
3.3793940911
 20
5.4598338394
 30
0.0
 10
3.3666546526
 20
5.4596075659
 30
0.0
 10
3.3511534313
 20
5.4594689726
 30
0.0
 10
3.3331617736
 20
5.4595456274
 30
0.0
 10
3.3161058281
 20
5.4598558092
 30
0.0
 10
3.3025527415
 20
5.4602957806
 30
0.0
 10
3.2922976308
 20
5.4607413203
 30
0.0
 10
3.2850862714
 20
5.4611061548
 30
0.0
 10
3.2782195746
 20
5.4615023008
 30
0.0
 10
3.2717138907
 20
5.4619234613
 30
0.0
 10
3.2655852951
 20
5.4623630044
 30
0.0
 10
3.2598491398
 20
5.4628135864
 30
0.0
 10
3.254519527
 20
5.463267368
 30
0.0
 10
3.2496092371
 20
5.4637157193
 30
0.0
 10
3.2451297195
 20
5.4641497206
 30
0.0
 10
3.2416710133
 20
5.4645013675
 30
0.0
 10
3.2391266339
 20
5.4647668992
 30
0.0
 10
3.2373875972
 20
5.4649507551
 30
0.0
 10
3.235763052
 20
5.4651248366
 30
0.0
 10
3.2342540661
 20
5.4652887574
 30
0.0
 10
3.232861685
 20
5.4654421565
 30
0.0
 10
3.2315869333
 20
5.4655847338
 30
0.0
 10
3.230430798
 20
5.46571619
 30
0.0
 10
3.229394197
 20
5.4658362337
 30
0.0
 10
3.2286055091
 20
5.4659294067
 30
0.0
 10
3.2280349433
 20
5.4659980049
 30
0.0
 10
3.2276524853
 20
5.4660445538
 30
0.0
 10
3.2273004885
 20
5.4660879704
 30
0.0
 10
3.2269790291
 20
5.4661282115
 30
0.0
 10
3.2266881755
 20
5.4661652341
 30
0.0
 10
3.2264279952
 20
5.4661989947
 30
0.0
 10
3.2261985555
 20
5.4662294495
 30
0.0
 10
3.2259999136
 20
5.4662565515
 30
0.0
 10
3.2258536686
 20
5.4662772156
 30
0.0
 10
3.2257520713
 20
5.4662919599
 30
0.0
 10
3.2256873793
 20
5.466301505
 30
0.0
 10
3.2256303469
 20
5.4663100565
 30
0.0
 10
3.2255809596
 20
5.4663175782
 30
0.0
 10
3.225539203
 20
5.4663240335
 30
0.0
 10
3.2255091703
 20
5.4663287426
 30
0.0
 10
3.2254889484
 20
5.4663319453
 30
0.0
 10
3.2254766292
 20
5.4663339089
 30
0.0
 10
3.2254662086
 20
5.466335575
 30
0.0
 10
3.225457678
 20
5.4663369533
 30
0.0
 10
3.2254510539
 20
5.4663380015
 30
0.0
 10
3.2254466885
 20
5.4663387401
 30
0.0
 10
3.2254441835
 20
5.4663390869
 30
0.0
 10
3.2254429496
 20
5.4663393624
 30
0.0
 10
3.2254423098
 20
5.4663393098
 30
0.0
 10
3.225441906
 20
5.4663395208
 30
0.0
 10
3.2254418575
 20
5.466339454
 30
0.0
  0
SPLINE
  5
4A7
100
AcDbEntity
  8
0
100
AcDbSpline
 62
7
  6
CONTINUOUS
 70
0
 71
3
 72
27
 73
23
 74
0
 42
0.0000001
 43
0.0000001
 44
0.0000000001
 40
0.0
 40
0.0
 40
0.0
 40
0.0
 40
0.1249924183
 40
0.2499901104
 40
0.312493016
 40
0.3749961048
 40
0.4374992663
 40
0.4687512955
 40
0.5000033661
 40
0.5312555227
 40
0.5625074548
 40
0.5937588751
 40
0.6093843988
 40
0.6250097977
 40
0.6562605679
 40
0.6875116668
 40
0.7187624991
 40
0.7500120828
 40
0.7812610916
 40
0.8125101896
 40
0.8750079768
 40
1.0
 40
1.0
 40
1.0
 40
1.0
 10
3.9149980368
 20
5.4368160894
 30
0.0
 10
3.8953847428
 20
5.4409760666
 30
0.0
 10
3.8560127994
 20
5.4486333837
 30
0.0
 10
3.8064697705
 20
5.456345995
 30
0.0
 10
3.7666715614
 20
5.461295584
 30
0.0
 10
3.7367490735
 20
5.464370733
 30
0.0
 10
3.7117624642
 20
5.4663788062
 30
0.0
 10
3.6917499733
 20
5.4676426025
 30
0.0
 10
3.6767304347
 20
5.4684167226
 30
0.0
 10
3.6617028846
 20
5.4690148721
 30
0.0
 10
3.646669436
 20
5.4694358946
 30
0.0
 10
3.6341383599
 20
5.469638163
 30
0.0
 10
3.6241127791
 20
5.4697100234
 30
0.0
 10
3.6140870528
 20
5.4697224129
 30
0.0
 10
3.6015549842
 20
5.4696315179
 30
0.0
 10
3.5865185289
 20
5.4693668357
 30
0.0
 10
3.5714854343
 20
5.4689614197
 30
0.0
 10
3.5564566572
 20
5.4684298055
 30
0.0
 10
3.5414323966
 20
5.4677906011
 30
0.0
 10
3.5214056388
 20
5.46682009
 30
0.0
 10
3.4863719886
 20
5.4648776037
 30
0.0
 10
3.4563547603
 20
5.4630181976
 30
0.0
 10
3.4363370909
 20
5.4618881155
 30
0.0
  0
SPLINE
  5
4A8
100
AcDbEntity
  8
0
100
AcDbSpline
 62
7
  6
CONTINUOUS
 70
0
 71
3
 72
35
 73
31
 74
0
 42
0.0000001
 43
0.0000001
 44
0.0000000001
 40
0.0
 40
0.0
 40
0.0
 40
0.0
 40
0.0312111004
 40
0.0624326885
 40
0.0936622288
 40
0.1248974069
 40
0.1561372469
 40
0.1873811784
 40
0.2186284127
 40
0.2498783076
 40
0.2811301899
 40
0.3123833465
 40
0.3436373133
 40
0.3748926359
 40
0.4061480652
 40
0.4374040895
 40
0.4686603665
 40
0.4999165648
 40
0.5311733094
 40
0.5624298401
 40
0.5936865285
 40
0.6249429441
 40
0.6561999804
 40
0.6874563964
 40
0.718713238
 40
0.749969487
 40
0.8124788648
 40
0.8749873428
 40
0.9374950744
 40
1.0
 40
1.0
 40
1.0
 40
1.0
 10
3.576343837
 20
5.0440418537
 30
0.0
 10
3.5778043555
 20
5.0472231302
 30
0.0
 10
3.5809998321
 20
5.0534645908
 30
0.0
 10
3.5865380806
 20
5.062403214
 30
0.0
 10
3.5927553142
 20
5.0708866292
 30
0.0
 10
3.5995847235
 20
5.078887008
 30
0.0
 10
3.6069738524
 20
5.086374927
 30
0.0
 10
3.6148566399
 20
5.0933415999
 30
0.0
 10
3.6231651514
 20
5.0997946492
 30
0.0
 10
3.6318360968
 20
5.1057516579
 30
0.0
 10
3.6408156897
 20
5.111232151
 30
0.0
 10
3.6500594836
 20
5.1162540654
 30
0.0
 10
3.6595320809
 20
5.1208296178
 30
0.0
 10
3.6691986947
 20
5.1249789305
 30
0.0
 10
3.67902936
 20
5.1287227595
 30
0.0
 10
3.6890017779
 20
5.132070506
 30
0.0
 10
3.6990963435
 20
5.1350294805
 30
0.0
 10
3.7092960197
 20
5.1376026518
 30
0.0
 10
3.7195826777
 20
5.1398016156
 30
0.0
 10
3.7299398232
 20
5.1416394335
 30
0.0
 10
3.7403524622
 20
5.1431295903
 30
0.0
 10
3.750807185
 20
5.1442868476
 30
0.0
 10
3.7612915097
 20
5.145131907
 30
0.0
 10
3.7717951604
 20
5.1456847344
 30
0.0
 10
3.7823094741
 20
5.1459626568
 30
0.0
 10
3.7963326512
 20
5.1459900796
 30
0.0
 10
3.8138564918
 20
5.1454258571
 30
0.0
 10
3.834840016
 20
5.1439374871
 30
0.0
 10
3.85576459
 20
5.1417915593
 30
0.0
 10
3.8696751956
 20
5.1400277542
 30
0.0
 10
3.8766224109
 20
5.1390892797
 30
0.0
  0
SPLINE
  5
4A9
100
AcDbEntity
  8
0
100
AcDbSpline
 62
7
  6
CONTINUOUS
 70
0
 71
3
 72
31
 73
27
 74
0
 42
0.0000001
 43
0.0000001
 44
0.0000000001
 40
0.0
 40
0.0
 40
0.0
 40
0.0
 40
0.0312234225
 40
0.0624480405
 40
0.0780626142
 40
0.0936773484
 40
0.1092919027
 40
0.1249061871
 40
0.1405207612
 40
0.1561354167
 40
0.1873634082
 40
0.2185946511
 40
0.2498295212
 40
0.2810678083
 40
0.3123087838
 40
0.3747854991
 40
0.4372739215
 40
0.4685261181
 40
0.4997794847
 40
0.5622820463
 40
0.6247934603
 40
0.6873136154
 40
0.7498418811
 40
0.8123777534
 40
0.8749193663
 40
1.0
 40
1.0
 40
1.0
 40
1.0
 10
3.5763438404
 20
5.0440418602
 30
0.0
 10
3.5780767507
 20
5.0469685533
 30
0.0
 10
3.5817748277
 20
5.0526875627
 30
0.0
 10
3.586921496
 20
5.0594666757
 30
0.0
 10
3.5913224774
 20
5.0646563056
 30
0.0
 10
3.5947591097
 20
5.0684298452
 30
0.0
 10
3.5983253203
 20
5.0720810121
 30
0.0
 10
3.6020147666
 20
5.075607518
 30
0.0
 10
3.6058198867
 20
5.079008887
 30
0.0
 10
3.6110380477
 20
5.083376234
 30
0.0
 10
3.6178141747
 20
5.0885253302
 30
0.0
 10
3.6262901104
 20
5.0942203304
 30
0.0
 10
3.6350605863
 20
5.09945153
 30
0.0
 10
3.6440840541
 20
5.1042344097
 30
0.0
 10
3.6564035189
 20
5.1100334789
 30
0.0
 10
3.6722714898
 20
5.1162375946
 30
0.0
 10
3.688574804
 20
5.1211733722
 30
0.0
 10
3.7018092022
 20
5.1243853259
 30
0.0
 10
3.7151531962
 20
5.1271140399
 30
0.0
 10
3.7320012664
 20
5.1296417643
 30
0.0
 10
3.7523655842
 20
5.1313978021
 30
0.0
 10
3.7727957509
 20
5.1320390735
 30
0.0
 10
3.7932336434
 20
5.1317207795
 30
0.0
 10
3.8136433333
 20
5.1305940114
 30
0.0
 10
3.8407935443
 20
5.1282182133
 30
0.0
 10
3.8610802878
 20
5.1256896065
 30
0.0
 10
3.8745856048
 20
5.1238848595
 30
0.0
  0
LINE
  5
4AA
100
AcDbEntity
  8
0
100
AcDbLine
 62
7
  6
CONTINUOUS
 10
6.0039453121
 20
4.2306903132
 11
5.9560379844
 21
4.2323437392
  0
SPLINE
  5
4AB
100
AcDbEntity
  8
0
100
AcDbSpline
 62
7
  6
CONTINUOUS
 70
0
 71
3
 72
11
 73
7
 74
0
 42
0.0000001
 43
0.0000001
 44
0.0000000001
 40
0.0
 40
0.0
 40
0.0
 40
0.0
 40
0.2495345848
 40
0.4995021333
 40
0.7496986803
 40
1.0
 40
1.0
 40
1.0
 40
1.0
 10
5.136644829
 20
5.0953952915
 30
0.0
 10
5.0468306555
 20
5.1222144498
 30
0.0
 10
4.8670397185
 20
5.1758766814
 30
0.0
 10
4.5971740082
 20
5.2563543381
 30
0.0
 10
4.3270142439
 20
5.3368537285
 30
0.0
 10
4.1468303773
 20
5.3905071197
 30
0.0
 10
4.0567242416
 20
5.4173550647
 30
0.0
  0
SPLINE
  5
4AC
100
AcDbEntity
  8
0
100
AcDbSpline
 62
7
  6
CONTINUOUS
 70
0
 71
3
 72
9
 73
5
 74
0
 42
0.0000001
 43
0.0000001
 44
0.0000000001
 40
0.0
 40
0.0
 40
0.0
 40
0.0
 40
0.4999990964
 40
1.0
 40
1.0
 40
1.0
 40
1.0
 10
4.0519420634
 20
5.4187794024
 30
0.0
 10
4.0302030005
 20
5.425248947
 30
0.0
 10
3.98649033
 20
5.4374155459
 30
0.0
 10
3.9423268521
 20
5.4478433671
 30
0.0
 10
3.9201439733
 20
5.4525725816
 30
0.0
  0
SPLINE
  5
4AD
100
AcDbEntity
  8
0
100
AcDbSpline
 62
7
  6
CONTINUOUS
 70
0
 71
3
 72
59
 73
55
 74
0
 42
0.0000001
 43
0.0000001
 44
0.0000000001
 40
0.0
 40
0.0
 40
0.0
 40
0.0
 40
0.0989518991
 40
0.1480671033
 40
0.1967858342
 40
0.2925686421
 40
0.3853820309
 40
0.4743305037
 40
0.5585541484
 40
0.5986409387
 40
0.6372522375
 40
0.6742992584
 40
0.7096974712
 40
0.7433682112
 40
0.7752349318
 40
0.8052209695
 40
0.8332559195
 40
0.859276233
 40
0.8832268599
 40
0.905060063
 40
0.9247404631
 40
0.9337646277
 40
0.9422356285
 40
0.9501459106
 40
0.9574889823
 40
0.9642596347
 40
0.9704544419
 40
0.9760700866
 40
0.9811034336
 40
0.9855517976
 40
0.9875557751
 40
0.9894124549
 40
0.9911214118
 40
0.9926820754
 40
0.9940937285
 40
0.9953553967
 40
0.9964656112
 40
0.9974223791
 40
0.9982241696
 40
0.9985676771
 40
0.9988739964
 40
0.9991434739
 40
0.9993759611
 40
0.9995713057
 40
0.9997294973
 40
0.9997946798
 40
0.9998505976
 40
0.9998972936
 40
0.9999349618
 40
0.9999638366
 40
0.9999841494
 40
0.9999911665
 40
0.9999961284
 40
1.0
 40
1.0
 40
1.0
 40
1.0
 10
3.4283872497
 20
5.4729442939
 30
0.0
 10
3.4221189305
 20
5.4725706573
 30
0.0
 10
3.4127371176
 20
5.4720467594
 30
0.0
 10
3.4002638062
 20
5.4714413598
 30
0.0
 10
3.3879883174
 20
5.4709122794
 30
0.0
 10
3.372936955
 20
5.4703933591
 30
0.0
 10
3.35532751
 20
5.4700178867
 30
0.0
 10
3.3384479129
 20
5.4699077648
 30
0.0
 10
3.3249145155
 20
5.4700261439
 30
0.0
 10
3.3145776974
 20
5.4702402305
 30
0.0
 10
3.3072354887
 20
5.4704503524
 30
0.0
 10
3.3001925286
 20
5.4707081049
 30
0.0
 10
3.2934650972
 20
5.4710087965
 30
0.0
 10
3.2870686052
 20
5.4713465726
 30
0.0
 10
3.2810178597
 20
5.471714879
 30
0.0
 10
3.275327012
 20
5.4721062984
 30
0.0
 10
3.2700092627
 20
5.4725129515
 30
0.0
 10
3.2650763146
 20
5.4729266125
 30
0.0
 10
3.260538259
 20
5.4733383133
 30
0.0
 10
3.2564032904
 20
5.4737391852
 30
0.0
 10
3.2532127841
 20
5.4740651605
 30
0.0
 10
3.2508665302
 20
5.4743114599
 30
0.0
 10
3.2492634118
 20
5.4744825247
 30
0.0
 10
3.2477666309
 20
5.4746446723
 30
0.0
 10
3.2463774078
 20
5.4747977814
 30
0.0
 10
3.2450966862
 20
5.4749416027
 30
0.0
 10
3.2439251792
 20
5.4750756382
 30
0.0
 10
3.2428634764
 20
5.4751994807
 30
0.0
 10
3.2419121213
 20
5.4753127353
 30
0.0
 10
3.2411885752
 20
5.4754007347
 30
0.0
 10
3.240665288
 20
5.4754655589
 30
0.0
 10
3.2403145923
 20
5.4755095618
 30
0.0
 10
3.2399918808
 20
5.4755506211
 30
0.0
 10
3.2396972599
 20
5.4755887022
 30
0.0
 10
3.2394308716
 20
5.4756237744
 30
0.0
 10
3.2391929159
 20
5.4756558064
 30
0.0
 10
3.2389836776
 20
5.4756847846
 30
0.0
 10
3.2388034811
 20
5.4757107124
 30
0.0
 10
3.2386715879
 20
5.4757306913
 30
0.0
 10
3.2385805991
 20
5.4757450787
 30
0.0
 10
3.2385230075
 20
5.4757543854
 30
0.0
 10
3.2384723995
 20
5.4757627437
 30
0.0
 10
3.2384287733
 20
5.4757701536
 30
0.0
 10
3.2383921488
 20
5.4757766113
 30
0.0
 10
3.2383660192
 20
5.4757814358
 30
0.0
 10
3.238348619
 20
5.4757848155
 30
0.0
 10
3.2383381842
 20
5.4757869197
 30
0.0
 10
3.2383294665
 20
5.4757887744
 30
0.0
 10
3.238322477
 20
5.4757903173
 30
0.0
 10
3.2383170471
 20
5.47579162
 30
0.0
 10
3.2383137083
 20
5.4757923619
 30
0.0
 10
3.2383115527
 20
5.4757929947
 30
0.0
 10
3.2383108652
 20
5.4757930102
 30
0.0
 10
3.2383097779
 20
5.4757935846
 30
0.0
 10
3.2383098787
 20
5.4757933605
 30
0.0
  0
SPLINE
  5
4AE
100
AcDbEntity
  8
0
100
AcDbSpline
 62
7
  6
CONTINUOUS
 70
0
 71
3
 72
35
 73
31
 74
0
 42
0.0000001
 43
0.0000001
 44
0.0000000001
 40
0.0
 40
0.0
 40
0.0
 40
0.0
 40
0.0001823889
 40
0.0004516366
 40
0.0013189701
 40
0.0026575441
 40
0.0044780311
 40
0.0067842619
 40
0.0095779367
 40
0.0128598852
 40
0.0166305161
 40
0.0256383522
 40
0.0366016532
 40
0.0495195429
 40
0.0643906936
 40
0.0812135364
 40
0.0999863612
 40
0.1207073709
 40
0.1433747108
 40
0.1679864872
 40
0.1945407785
 40
0.2534691123
 40
0.3201426262
 40
0.3945257379
 40
0.4765699891
 40
0.566226603
 40
0.6634467637
 40
0.7681816279
 40
0.8803823326
 40
1.0
 40
1.0
 40
1.0
 40
1.0
 10
3.4359005932
 20
5.5079356524
 30
0.0
 10
3.4358984587
 20
5.5079354391
 30
0.0
 10
3.4358935632
 20
5.5079326126
 30
0.0
 10
3.4358837455
 20
5.5079205786
 30
0.0
 10
3.4358710097
 20
5.5078940574
 30
0.0
 10
3.4358546682
 20
5.5078497034
 30
0.0
 10
3.4358358953
 20
5.5077881487
 30
0.0
 10
3.4358147037
 20
5.5077095733
 30
0.0
 10
3.4357911722
 20
5.507613825
 30
0.0
 10
3.4357653121
 20
5.5075009404
 30
0.0
 10
3.4357253309
 20
5.5073163189
 30
0.0
 10
3.4356701131
 20
5.5070425795
 30
0.0
 10
3.4355979554
 20
5.506662536
 30
0.0
 10
3.4355166117
 20
5.5062140588
 30
0.0
 10
3.4354261019
 20
5.5056972135
 30
0.0
 10
3.4353264587
 20
5.5051120634
 30
0.0
 10
3.4352176993
 20
5.5044586766
 30
0.0
 10
3.4350998398
 20
5.5037371216
 30
0.0
 10
3.4349728934
 20
5.502947468
 30
0.0
 10
3.4348368708
 20
5.5020897859
 30
0.0
 10
3.4346363601
 20
5.500810515
 30
0.0
 10
3.4343634785
 20
5.4990418363
 30
0.0
 10
3.4340102804
 20
5.4967163563
 30
0.0
 10
3.4336211067
 20
5.4941213465
 30
0.0
 10
3.4331961831
 20
5.4912583603
 30
0.0
 10
3.4327357613
 20
5.4881291024
 30
0.0
 10
3.4322400877
 20
5.4847352816
 30
0.0
 10
3.4317094073
 20
5.4810786071
 30
0.0
 10
3.4311439635
 20
5.4771607882
 30
0.0
 10
3.4307563348
 20
5.4744619224
 30
0.0
 10
3.4305567278
 20
5.4730692563
 30
0.0
  0
SPLINE
  5
4AF
100
AcDbEntity
  8
0
100
AcDbSpline
 62
7
  6
CONTINUOUS
 70
0
 71
3
 72
26
 73
22
 74
0
 42
0.0000001
 43
0.0000001
 44
0.0000000001
 40
0.0
 40
0.0
 40
0.0
 40
0.0
 40
0.1249905442
 40
0.2499885489
 40
0.3749887376
 40
0.4374928675
 40
0.4999966203
 40
0.5625000609
 40
0.5937521687
 40
0.6250040856
 40
0.6562556527
 40
0.6875072309
 40
0.7187585749
 40
0.750009598
 40
0.7812603595
 40
0.8125108248
 40
0.8750103742
 40
0.9062592406
 40
0.9375072664
 40
0.9687542622
 40
1.0
 40
1.0
 40
1.0
 40
1.0
 10
3.9186593784
 20
5.4528882922
 30
0.0
 10
3.8988824548
 20
5.4570836805
 30
0.0
 10
3.8591525848
 20
5.4646774729
 30
0.0
 10
3.799126642
 20
5.4735069374
 30
0.0
 10
3.748820066
 20
5.4786242343
 30
0.0
 10
3.7084679985
 20
5.4813122342
 30
0.0
 10
3.678163461
 20
5.4826154113
 30
0.0
 10
3.6528909313
 20
5.4831031299
 30
0.0
 10
3.6326708264
 20
5.4831361616
 30
0.0
 10
3.617506394
 20
5.4829866016
 30
0.0
 10
3.6023447843
 20
5.4826645105
 30
0.0
 10
3.5871874219
 20
5.4821873952
 30
0.0
 10
3.5720350313
 20
5.4815759761
 30
0.0
 10
3.5568878952
 20
5.4808495985
 30
0.0
 10
3.5417458698
 20
5.4800268984
 30
0.0
 10
3.5215626163
 20
5.4788295339
 30
0.0
 10
3.5013861134
 20
5.4775278392
 30
0.0
 10
3.4812115261
 20
5.476204168
 30
0.0
 10
3.4660804864
 20
5.4752212459
 30
0.0
 10
3.4509481484
 20
5.4742664525
 30
0.0
 10
3.4408581936
 20
5.4736605575
 30
0.0
 10
3.4358126606
 20
5.4733690223
 30
0.0
  0
LINE
  5
4B0
100
AcDbEntity
  8
0
100
AcDbLine
 62
7
  6
CONTINUOUS
 10
3.4358126344
 20
5.4733711349
 11
3.4320206075
 21
5.4731497459
  0
ENDSEC
  0
SECTION
  2
OBJECTS
  0
DICTIONARY
  5
C
100
AcDbDictionary
280
0
281
1
  3
ACAD_GROUP
350
D
  3
ACAD_MLINESTYLE
350
17
  3
ACAD_LAYOUT
350
1A
  3
ACAD_PLOTSETTINGS
350
19
  3
ACAD_PLOTSTYLENAME
350
E
  0
DICTIONARY
  5
D
102
{ACAD_REACTORS
330
C
102
}
100
AcDbDictionary
280
0
281
1
  0
ACDBDICTIONARYWDFLT
  5
E
102
{ACAD_REACTORS
330
C
102
}
100
AcDbDictionary
281
1
  3
Normal
350
F
100
AcDbDictionaryWithDefault
340
F
  0
DICTIONARY
  5
17
102
{ACAD_REACTORS
330
C
102
}
100
AcDbDictionary
280
0
281
1
  3
Standard
350
18
  0
DICTIONARY
  5
19
102
{ACAD_REACTORS
330
C
102
}
100
AcDbDictionary
281
1
  0
DICTIONARY
  5
1A
102
{ACAD_REACTORS
330
C
102
}
100
AcDbDictionary
281
1
  3
Model
350
4B1
  3
Layout1
350
4B2
  0
ACDBPLACEHOLDER
  5
F
102
{ACAD_REACTORS
330
E
102
}
  0
MLINESTYLE
  5
18
102
{ACAD_REACTORS
330
17
102
}
100
AcDbMlineStyle
  2
STANDARD
 70
0
  3

 62
256
 51
90.0
 52
90.0
 71
2
 49
0.5
 62
256
  6
BYLAYER
 49
-0.5
 62
256
  6
BYLAYER
  0
LAYOUT
  5
4B1
102
{ACAD_REACTORS
330
1A
102
}
100
AcDbPlotSettings
  1

  2
none_device
  4
ANSI_A_(11.00_x_8.50_Inches)
  6

 40
0.0
 41
0.0
 42
0.0
 43
0.0
 44
279.4
 45
215.9
 46
0.0
 47
0.0
 48
0.0
 49
0.0
140
0.0
141
0.0
142
1.0
143
1.0
 70
1024
 72
0
 73
0
 74
0
  7

 75
0
147
1.0
148
0.0
149
0.0
100
AcDbLayout
  1
Model
 70
0
 71
0
 10
0.0
 20
0.0
 11
11.0
 21
8.5
 12
0.0
 22
0.0
 32
0.0
 14
0.0
 24
0.0
 34
0.0
 15
0.0
 25
0.0
 35
0.0
146
0.0
 13
0.0
 23
0.0
 33
0.0
 16
1.0
 26
0.0
 36
0.0
 17
0.0
 27
1.0
 37
0.0
 76
0
330
202
345
0
346
0
  0
LAYOUT
  5
4B2
102
{ACAD_REACTORS
330
1A
102
}
100
AcDbPlotSettings
  1

  2
none_device
  4
ANSI_A_(11.00_x_8.50_Inches)
  6

 40
0.0
 41
0.0
 42
0.0
 43
0.0
 44
279.4
 45
215.9
 46
0.0
 47
0.0
 48
0.0
 49
0.0
140
0.0
141
0.0
142
1.0
143
1.0
 70
0
 72
0
 73
0
 74
0
  7

 75
0
147
1.0
148
0.0
149
0.0
100
AcDbLayout
  1
Layout1
 70
0
 71
1
 10
0.0
 20
0.0
 11
11.0
 21
8.5
 12
0.0
 22
0.0
 32
0.0
 14
0.0
 24
0.0
 34
0.0
 15
0.0
 25
0.0
 35
0.0
146
0.0
 13
0.0
 23
0.0
 33
0.0
 16
1.0
 26
0.0
 36
0.0
 17
0.0
 27
1.0
 37
0.0
 76
0
330
203
345
0
346
0
  0
ENDSEC
  0
EOF
