999
DXF file: 1623_TOP.dxf
999
Pro/ENGINEER 2018400 by Parametric Technology Corporation
  0
SECTION
  2
HEADER
  9
$ACADVER
  1
AC1027
  9
$DWGCODEPAGE
  3
ANSI_1252
  9
$EXTMAX
 10
11.0
 20
8.5
 30
0.0
  9
$EXTMIN
 10
0.0
 20
0.0
 30
0.0
  9
$LIMMIN
 10
0.0
 20
0.0
  9
$LIMMAX
 10
11.0
 20
8.5
  9
$VIEWCTR
 10
5.5
 20
4.25
  9
$VIEWSIZE
 40
8.5
  9
$CLAYER
  8
0
  9
$LTSCALE
 40
0.605
  9
$CELTYPE
  6
BYLAYER
  9
$DIMSCALE
 40
1.0
  9
$DIMASZ
 40
0.1
  9
$DIMEXO
 40
0.0625
  9
$DIMDLI
 40
0.418
  9
$DIMEXE
 40
0.125
  9
$DIMCEN
 40
0.099
  9
$DIMLFAC
 40
1.0
  9
$DIMBLK
  1
_FILLED
  9
$DIMALT
 70
1
  9
$DIMALTD
 70
2
  9
$DIMALTTD
 70
2
  9
$DIMALTF
 40
25.4
  9
$DIMTXT
 40
0.08
  9
$DIMTOL
 70
1
  9
$DIMLIM
 70
0
  9
$DIMTFAC
 40
1.0
  9
$DIMTP
 40
0.001
  9
$DIMTM
 40
0.001
  9
$DIMGAP
 40
0.09
  9
$DIMDSEP
 70
46
  9
$AUNITS
 70
0
  9
$PDMODE
 70
3
  9
$PDSIZE
 40
0.3125
  9
$HANDSEED
  5
6AA
  9
$TILEMODE
 70
1
  9
$MEASUREMENT
 70
0
  9
$INSUNITS
 70
1
  0
ENDSEC
  0
SECTION
  2
CLASSES
  0
CLASS
  1
ACDBDICTIONARYWDFLT
  2
AcDbDictionaryWithDefault
  3
AutoCAD 2000
 90
0
 91
1
280
0
281
0
  0
CLASS
  1
ACDBPLACEHOLDER
  2
AcDbPlaceHolder
  3
AutoCAD 2000
 90
0
 91
1
280
0
281
0
  0
CLASS
  1
LAYOUT
  2
AcDbLayout
  3
AutoCAD 2000
 90
0
 91
0
280
0
281
0
  0
ENDSEC
  0
SECTION
  2
TABLES
  0
TABLE
  2
VPORT
  5
8
100
AcDbSymbolTable
 70
2
  0
VPORT
  5
1F4
100
AcDbSymbolTableRecord
100
AcDbViewportTableRecord
  2
*ACTIVE
 70
0
 10
0.0
 20
0.0
 11
1.0
 21
1.0
 12
5.5
 22
4.25
 13
0.0
 23
0.0
 14
1.0
 24
1.0
 15
0.0
 25
0.0
 16
0.0
 26
0.0
 36
1.0
 17
0.0
 27
0.0
 37
0.0
 40
8.5
 41
1.2941176471
 42
50.0
 43
0.0
 44
0.0
 50
0.0
 51
0.0
 71
0
 72
100
 73
1
 74
1
 75
0
 76
0
 77
0
 78
0
  0
ENDTAB
  0
TABLE
  2
LTYPE
  5
5
100
AcDbSymbolTable
 70
6
  0
LTYPE
  5
14
100
AcDbSymbolTableRecord
100
AcDbLinetypeTableRecord
  2
BYBLOCK
 70
0
  3

 72
65
 73
0
 40
0.0
  0
LTYPE
  5
15
100
AcDbSymbolTableRecord
100
AcDbLinetypeTableRecord
  2
BYLAYER
 70
0
  3

 72
65
 73
0
 40
0.0
  0
LTYPE
  5
16
100
AcDbSymbolTableRecord
100
AcDbLinetypeTableRecord
  2
CONTINUOUS
 70
64
  3
Solid line
 72
65
 73
0
 40
0.0
  0
LTYPE
  5
1F5
100
AcDbSymbolTableRecord
100
AcDbLinetypeTableRecord
  2
CENTER
 70
64
  3
____ _ ____ _ ____ _ ____ _ ____ _ ____ _ ____
 72
65
 73
4
 40
0.6
 49
0.375
 74
0
 49
-0.075
 74
0
 49
0.075
 74
0
 49
-0.075
 74
0
  0
LTYPE
  5
1F6
100
AcDbSymbolTableRecord
100
AcDbLinetypeTableRecord
  2
HIDDEN
 70
64
  3
- - - - - - - - - - - - - - - - - - - -
 72
65
 73
2
 40
0.2
 49
0.1
 74
0
 49
-0.1
 74
0
  0
LTYPE
  5
1F7
100
AcDbSymbolTableRecord
100
AcDbLinetypeTableRecord
  2
PHANTOM
 70
64
  3
_____ _ _ _____ _ _ _____ _ _ _____
 72
65
 73
6
 40
0.8
 49
0.45
 74
0
 49
-0.05
 74
0
 49
0.1
 74
0
 49
-0.05
 74
0
 49
0.1
 74
0
 49
-0.05
 74
0
  0
LTYPE
  5
1F8
100
AcDbSymbolTableRecord
100
AcDbLinetypeTableRecord
  2
DOT
 70
64
  3
. . . . . . . . . . . . . . . . . . . .
 72
65
 73
2
 40
0.2
 49
0.1
 74
0
 49
-0.1
 74
0
  0
LTYPE
  5
1F9
100
AcDbSymbolTableRecord
100
AcDbLinetypeTableRecord
  2
DASHED
 70
64
  3
- - - - - - - - - - - - - - - - - - - -
 72
65
 73
2
 40
0.2
 49
0.1
 74
0
 49
-0.1
 74
0
  0
ENDTAB
  0
TABLE
  2
LAYER
  5
2
100
AcDbSymbolTable
 70
36
  0
LAYER
  5
10
100
AcDbSymbolTableRecord
100
AcDbLayerTableRecord
  2
0
 70
0
 62
7
  6
CONTINUOUS
370
-3
390
F
  0
LAYER
  5
1FA
100
AcDbSymbolTableRecord
100
AcDbLayerTableRecord
  2
DEFAULT_1
 70
0
 62
7
  6
CENTER
370
-3
390
F
  0
LAYER
  5
1FB
100
AcDbSymbolTableRecord
100
AcDbLayerTableRecord
  2
DEFAULT_2
 70
0
 62
8
  6
HIDDEN
370
-3
390
F
  0
LAYER
  5
1FC
100
AcDbSymbolTableRecord
100
AcDbLayerTableRecord
  2
DEFAULT_3
 70
0
 62
7
  6
PHANTOM
370
-3
390
F
  0
LAYER
  5
1FD
100
AcDbSymbolTableRecord
100
AcDbLayerTableRecord
  2
DEFAULT_COORDINATE_SYSTEM
 70
0
 62
7
  6
CONTINUOUS
370
-3
390
F
  0
LAYER
  5
1FE
100
AcDbSymbolTableRecord
100
AcDbLayerTableRecord
  2
DEFAULT_DATUM_AXES
 70
0
 62
7
  6
CONTINUOUS
370
-3
390
F
  0
LAYER
  5
1FF
100
AcDbSymbolTableRecord
100
AcDbLayerTableRecord
  2
DEFAULT_DATUM_PLANES
 70
0
 62
7
  6
CONTINUOUS
370
-3
390
F
  0
ENDTAB
  0
TABLE
  2
STYLE
  5
3
100
AcDbSymbolTable
 70
1
  0
STYLE
  5
11
100
AcDbSymbolTableRecord
100
AcDbTextStyleTableRecord
  2
STANDARD
 70
0
 40
0.0
 41
0.8
 50
0.0
 71
0
 42
0.2
  3
txt
  4

  0
STYLE
  5
200
100
AcDbSymbolTableRecord
100
AcDbTextStyleTableRecord
  2
TEXTSTYLE_1
 70
0
 40
0.0
 41
0.8
 50
0.0
 71
0
 42
0.2
  3
gdt
  4

  0
ENDTAB
  0
TABLE
  2
VIEW
  5
6
100
AcDbSymbolTable
 70
0
  0
ENDTAB
  0
TABLE
  2
UCS
  5
7
100
AcDbSymbolTable
 70
0
  0
ENDTAB
  0
TABLE
  2
APPID
  5
9
100
AcDbSymbolTable
 70
1
  0
APPID
  5
201
100
AcDbSymbolTableRecord
100
AcDbRegAppTableRecord
  2
ACAD
 70
0
  0
ENDTAB
  0
TABLE
  2
BLOCK_RECORD
  5
1
100
AcDbSymbolTable
 70
0
  0
BLOCK_RECORD
  5
202
100
AcDbSymbolTableRecord
100
AcDbBlockTableRecord
  2
*Model_Space
  0
BLOCK_RECORD
  5
203
100
AcDbSymbolTableRecord
100
AcDbBlockTableRecord
  2
*Paper_Space
  0
BLOCK_RECORD
  5
204
100
AcDbSymbolTableRecord
100
AcDbBlockTableRecord
  2
_FILLED
  0
ENDTAB
  0
TABLE
  2
DIMSTYLE
  5
A
100
AcDbSymbolTable
 70
1
100
AcDbDimStyleTable
 71
0
  0
DIMSTYLE
105
205
100
AcDbSymbolTableRecord
100
AcDbDimStyleTableRecord
  2
STANDARD
 70
0
  3

  4

 40
1.0
 41
0.1
 42
0.0625
 43
0.38
 44
0.125
 45
0.0
 46
0.0
 47
0.001
 48
0.001
140
0.08
141
0.09
142
0.0
143
25.4
144
1.0
145
0.0
146
1.0
147
0.09
 71
1.0
 72
0.0
 73
1
 74
1
 75
0
 76
0
 77
0
 78
4
 79
1
170
1
171
2
172
0
173
0
174
0
175
0
176
0
177
0
178
0
270
2
179
3
271
3
272
3
273
2
274
2
275
0
280
0
281
0
282
0
283
1
284
4
285
0
286
0
287
3
288
0
340
11
278
46
341
204
342
204
343
204
344
204
  0
ENDTAB
  0
ENDSEC
  0
SECTION
  2
BLOCKS
  0
BLOCK
  5
20
100
AcDbEntity
  8
0
100
AcDbBlockBegin
  2
*Model_Space
 70
0
 10
0.0
 20
0.0
 30
0.0
  3
*Model_Space
  1

  0
ENDBLK
  5
21
100
AcDbEntity
  8
0
100
AcDbBlockEnd
  0
BLOCK
  5
1C
100
AcDbEntity
  8
0
100
AcDbBlockBegin
  2
*Paper_Space
 70
0
 10
0.0
 20
0.0
 30
0.0
  3
*Paper_Space
  1

  0
ENDBLK
  5
1D
100
AcDbEntity
  8
0
100
AcDbBlockEnd
  0
BLOCK
  5
206
100
AcDbEntity
  8
0
100
AcDbBlockBegin
  2
_FILLED
 70
64
 10
0.0
 20
0.0
  3
_FILLED
  1

  0
SOLID
  5
207
100
AcDbEntity
  8
0
  6
BYBLOCK
 62
0
100
AcDbTrace
 10
0.0
 20
0.0
 11
-1.0
 21
0.2
 12
-1.0
 22
-0.2
 13
-1.0
 23
-0.2
  0
ENDBLK
  5
208
100
AcDbEntity
  8
0
  6
BYBLOCK
 62
0
100
AcDbBlockEnd
  0
ENDSEC
  0
SECTION
  2
ENTITIES
  0
MTEXT
  5
209
100
AcDbEntity
  8
0
100
AcDbMText
 62
2
  6
CONTINUOUS
  7
STANDARD
 71
3
 72
1
 10
5.3616459627
 20
1.6807944898
 30
0.0
 11
1.0
 21
0.0
 31
0.0
 73
2
 44
0.9
  1
SCALE  .500
 40
0.08
 41
0.704
  0
LINE
  5
20A
100
AcDbEntity
  8
0
100
AcDbLine
 62
7
  6
CONTINUOUS
 10
0.0
 20
0.0
 11
0.0
 21
8.5
  0
LINE
  5
20B
100
AcDbEntity
  8
0
100
AcDbLine
 62
7
  6
CONTINUOUS
 10
0.0
 20
0.0
 11
11.0
 21
0.0
  0
LINE
  5
20C
100
AcDbEntity
  8
0
100
AcDbLine
 62
7
  6
CONTINUOUS
 10
0.0
 20
8.5
 11
11.0
 21
8.5
  0
LINE
  5
20D
100
AcDbEntity
  8
0
100
AcDbLine
 62
7
  6
CONTINUOUS
 10
11.0
 20
0.0
 11
11.0
 21
8.5
  0
LINE
  5
20E
100
AcDbEntity
  8
0
100
AcDbLine
 62
7
  6
CONTINUOUS
 10
5.1361693711
 20
2.956113883
 11
5.1268441105
 21
2.9538949079
  0
LINE
  5
20F
100
AcDbEntity
  8
0
100
AcDbLine
 62
7
  6
CONTINUOUS
 10
4.7065622986
 20
2.8538875315
 11
4.6962487581
 21
2.8514333922
  0
LINE
  5
210
100
AcDbEntity
  8
0
100
AcDbLine
 62
7
  6
CONTINUOUS
 10
5.1361693711
 20
2.9604290825
 11
5.1258558307
 21
2.9579749432
  0
LINE
  5
211
100
AcDbEntity
  8
0
100
AcDbLine
 62
7
  6
CONTINUOUS
 10
4.7065622986
 20
2.8582027311
 11
4.6962487581
 21
2.8557485918
  0
LINE
  5
212
100
AcDbEntity
  8
0
100
AcDbLine
 62
7
  6
CONTINUOUS
 10
5.1230307073
 20
2.9355739776
 11
5.1132273814
 21
2.9340350307
  0
LINE
  5
213
100
AcDbEntity
  8
0
100
AcDbLine
 62
7
  6
CONTINUOUS
 10
4.6866557355
 20
2.8670709055
 11
4.6761797187
 21
2.8654263581
  0
LINE
  5
214
100
AcDbEntity
  8
0
100
AcDbLine
 62
7
  6
CONTINUOUS
 10
5.1230307073
 20
2.9398891772
 11
5.1125546905
 21
2.9382446298
  0
LINE
  5
215
100
AcDbEntity
  8
0
100
AcDbLine
 62
7
  6
CONTINUOUS
 10
4.6866557355
 20
2.8713861051
 11
4.6761797187
 21
2.8697415576
  0
LINE
  5
216
100
AcDbEntity
  8
0
100
AcDbLine
 62
7
  6
CONTINUOUS
 10
5.1083066074
 20
2.9161191107
 11
5.0980732403
 21
2.915320858
  0
LINE
  5
217
100
AcDbEntity
  8
0
100
AcDbLine
 62
7
  6
CONTINUOUS
 10
4.6678541332
 20
2.8817616621
 11
4.6572802281
 21
2.8809368457
  0
LINE
  5
218
100
AcDbEntity
  8
0
100
AcDbLine
 62
7
  6
CONTINUOUS
 10
5.1083066074
 20
2.9204343103
 11
5.0977327023
 21
2.9196094939
  0
LINE
  5
219
100
AcDbEntity
  8
0
100
AcDbLine
 62
7
  6
CONTINUOUS
 10
4.6678541332
 20
2.8860768616
 11
4.6572802281
 21
2.8852520453
  0
LINE
  5
21A
100
AcDbEntity
  8
0
100
AcDbLine
 62
7
  6
CONTINUOUS
 10
5.0920878504
 20
2.8978692278
 11
5.0814812487
 21
2.8978692278
  0
LINE
  5
21B
100
AcDbEntity
  8
0
100
AcDbLine
 62
7
  6
CONTINUOUS
 10
4.6502734097
 20
2.8978692278
 11
4.639666808
 21
2.8978692278
  0
LINE
  5
21C
100
AcDbEntity
  8
0
100
AcDbLine
 62
7
  6
CONTINUOUS
 10
5.0920878504
 20
2.9021844274
 11
5.0814812487
 21
2.9021844274
  0
LINE
  5
21D
100
AcDbEntity
  8
0
100
AcDbLine
 62
7
  6
CONTINUOUS
 10
4.6502734097
 20
2.9021844274
 11
4.639666808
 21
2.9021844274
  0
LINE
  5
21E
100
AcDbEntity
  8
0
100
AcDbLine
 62
7
  6
CONTINUOUS
 10
5.0744744303
 20
2.8809368457
 11
5.0639005252
 21
2.8817616621
  0
LINE
  5
21F
100
AcDbEntity
  8
0
100
AcDbLine
 62
7
  6
CONTINUOUS
 10
4.633681418
 20
2.915320858
 11
4.623448051
 21
2.9161191107
  0
LINE
  5
220
100
AcDbEntity
  8
0
100
AcDbLine
 62
7
  6
CONTINUOUS
 10
5.0744744303
 20
2.8852520453
 11
5.0639005252
 21
2.8860768616
  0
LINE
  5
221
100
AcDbEntity
  8
0
100
AcDbLine
 62
7
  6
CONTINUOUS
 10
4.6340219561
 20
2.9196094939
 11
4.623448051
 21
2.9204343103
  0
LINE
  5
222
100
AcDbEntity
  8
0
100
AcDbLine
 62
7
  6
CONTINUOUS
 10
5.0555749397
 20
2.8654263581
 11
5.0450989228
 21
2.8670709055
  0
LINE
  5
223
100
AcDbEntity
  8
0
100
AcDbLine
 62
7
  6
CONTINUOUS
 10
4.618527277
 20
2.9340350307
 11
4.6087239511
 21
2.9355739776
  0
LINE
  5
224
100
AcDbEntity
  8
0
100
AcDbLine
 62
7
  6
CONTINUOUS
 10
5.0555749397
 20
2.8697415576
 11
5.0450989228
 21
2.8713861051
  0
LINE
  5
225
100
AcDbEntity
  8
0
100
AcDbLine
 62
7
  6
CONTINUOUS
 10
4.6191999679
 20
2.9382446298
 11
4.6087239511
 21
2.9398891772
  0
LINE
  5
226
100
AcDbEntity
  8
0
100
AcDbLine
 62
7
  6
CONTINUOUS
 10
5.0355059003
 20
2.8514333922
 11
5.0251923598
 21
2.8538875315
  0
LINE
  5
227
100
AcDbEntity
  8
0
100
AcDbLine
 62
7
  6
CONTINUOUS
 10
4.6049105479
 20
2.9538949079
 11
4.5955852873
 21
2.956113883
  0
LINE
  5
228
100
AcDbEntity
  8
0
100
AcDbLine
 62
7
  6
CONTINUOUS
 10
5.0355059003
 20
2.8557485918
 11
5.0251923598
 21
2.8582027311
  0
LINE
  5
229
100
AcDbEntity
  8
0
100
AcDbLine
 62
7
  6
CONTINUOUS
 10
4.6058988277
 20
2.9579749432
 11
4.5955852873
 21
2.9604290825
  0
LINE
  5
22A
100
AcDbEntity
  8
0
100
AcDbLine
 62
7
  6
CONTINUOUS
 10
5.0143910443
 20
2.8390442194
 11
5.0043035666
 21
2.8422928201
  0
LINE
  5
22B
100
AcDbEntity
  8
0
100
AcDbLine
 62
7
  6
CONTINUOUS
 10
4.5929210073
 20
2.9747756556
 11
4.5841130638
 21
2.9776121914
  0
LINE
  5
22C
100
AcDbEntity
  8
0
100
AcDbLine
 62
7
  6
CONTINUOUS
 10
5.0143910443
 20
2.843359419
 11
5.0043035666
 21
2.8466080196
  0
LINE
  5
22D
100
AcDbEntity
  8
0
100
AcDbLine
 62
7
  6
CONTINUOUS
 10
4.5942005415
 20
2.9786787903
 11
4.5841130638
 21
2.9819273909
  0
LINE
  5
22E
100
AcDbEntity
  8
0
100
AcDbLine
 62
7
  6
CONTINUOUS
 10
4.3575093304
 20
6.0273667344
 11
4.3655283891
 21
6.0314526489
  0
LINE
  5
22F
100
AcDbEntity
  8
0
100
AcDbLine
 62
7
  6
CONTINUOUS
 10
5.0284505548
 20
6.3692283633
 11
5.0364696135
 21
6.3733142778
  0
LINE
  5
230
100
AcDbEntity
  8
0
100
AcDbLine
 62
7
  6
CONTINUOUS
 10
4.3627383861
 20
6.0432567552
 11
4.3708818295
 21
6.0470887688
  0
LINE
  5
231
100
AcDbEntity
  8
0
100
AcDbLine
 62
7
  6
CONTINUOUS
 10
5.0440866748
 20
6.3638749229
 11
5.0522301182
 21
6.3677069365
  0
LINE
  5
232
100
AcDbEntity
  8
0
100
AcDbLine
 62
7
  6
CONTINUOUS
 10
4.3684639791
 20
6.0589746866
 11
4.3767237707
 21
6.0625490176
  0
LINE
  5
233
100
AcDbEntity
  8
0
100
AcDbLine
 62
7
  6
CONTINUOUS
 10
5.0595469236
 20
6.3580329817
 11
5.0678067152
 21
6.3616073127
  0
LINE
  5
234
100
AcDbEntity
  8
0
100
AcDbLine
 62
7
  6
CONTINUOUS
 10
4.3746804591
 20
6.074505017
 11
4.3830484475
 21
6.077818138
  0
LINE
  5
235
100
AcDbEntity
  8
0
100
AcDbLine
 62
7
  6
CONTINUOUS
 10
5.0748160439
 20
6.351708305
 11
5.0831840323
 21
6.3550214259
  0
LINE
  5
236
100
AcDbEntity
  8
0
100
AcDbLine
 62
7
  6
CONTINUOUS
 10
4.3813816911
 20
6.0898324197
 11
4.389849618
 21
6.092881061
  0
LINE
  5
237
100
AcDbEntity
  8
0
100
AcDbLine
 62
7
  6
CONTINUOUS
 10
5.0898789669
 20
6.3449071344
 11
5.0983468939
 21
6.3479557757
  0
LINE
  5
238
100
AcDbEntity
  8
0
100
AcDbLine
 62
7
  6
CONTINUOUS
 10
4.3885610618
 20
6.1049417685
 11
4.3971205704
 21
6.1077229215
  0
LINE
  5
239
100
AcDbEntity
  8
0
100
AcDbLine
 62
7
  6
CONTINUOUS
 10
5.1047208274
 20
6.337636182
 11
5.1132803361
 21
6.340417335
  0
LINE
  5
23A
100
AcDbEntity
  8
0
100
AcDbLine
 62
7
  6
CONTINUOUS
 10
4.396211486
 20
6.1198181523
 11
4.4048541292
 21
6.1223290722
  0
LINE
  5
23B
100
AcDbEntity
  8
0
100
AcDbLine
 62
7
  6
CONTINUOUS
 10
5.1193269782
 20
6.3299026233
 11
5.1279696214
 21
6.3324135432
  0
LINE
  5
23C
100
AcDbEntity
  8
0
100
AcDbLine
 62
7
  6
CONTINUOUS
 10
4.9923605518
 20
2.8283352231
 11
4.9825613296
 21
2.8323582563
  0
LINE
  5
23D
100
AcDbEntity
  8
0
100
AcDbLine
 62
7
  6
CONTINUOUS
 10
4.5826379509
 20
2.9965452717
 11
4.5743780107
 21
2.9999363586
  0
LINE
  5
23E
100
AcDbEntity
  8
0
100
AcDbLine
 62
7
  6
CONTINUOUS
 10
4.9923605518
 20
2.8326504227
 11
4.9825613296
 21
2.8366734559
  0
LINE
  5
23F
100
AcDbEntity
  8
0
100
AcDbLine
 62
7
  6
CONTINUOUS
 10
4.5841772329
 20
3.0002285249
 11
4.5743780107
 21
3.0042515581
  0
LINE
  5
240
100
AcDbEntity
  8
0
100
AcDbLine
 62
7
  6
CONTINUOUS
 10
4.9695502483
 20
2.8193724277
 11
4.9600996969
 21
2.8241450903
  0
LINE
  5
241
100
AcDbEntity
  8
0
100
AcDbLine
 62
7
  6
CONTINUOUS
 10
4.5741295715
 20
3.0190654806
 11
4.5664401478
 21
3.0229487487
  0
LINE
  5
242
100
AcDbEntity
  8
0
100
AcDbLine
 62
7
  6
CONTINUOUS
 10
4.9695502483
 20
2.8236876273
 11
4.9600996969
 21
2.8284602898
  0
LINE
  5
243
100
AcDbEntity
  8
0
100
AcDbLine
 62
7
  6
CONTINUOUS
 10
4.5758906991
 20
3.0224912857
 11
4.5664401478
 21
3.0272639482
  0
LINE
  5
244
100
AcDbEntity
  8
0
100
AcDbLine
 62
7
  6
CONTINUOUS
 10
4.9461007667
 20
2.812211092
 11
4.9370571521
 21
2.8177039587
  0
LINE
  5
245
100
AcDbEntity
  8
0
100
AcDbLine
 62
7
  6
CONTINUOUS
 10
4.5674524209
 20
3.0421926859
 11
4.5603484147
 21
3.0465074827
  0
LINE
  5
246
100
AcDbEntity
  8
0
100
AcDbLine
 62
7
  6
CONTINUOUS
 10
4.3368163646
 20
5.9293008244
 11
4.3439277597
 21
5.9348169879
  0
LINE
  5
247
100
AcDbEntity
  8
0
100
AcDbLine
 62
7
  6
CONTINUOUS
 10
4.9318148939
 20
6.3908289927
 11
4.938926289
 21
6.3963451562
  0
LINE
  5
248
100
AcDbEntity
  8
0
100
AcDbLine
 62
7
  6
CONTINUOUS
 10
4.3389753063
 20
5.9458892166
 11
4.3462564593
 21
5.9511792839
  0
LINE
  5
249
100
AcDbEntity
  8
0
100
AcDbLine
 62
7
  6
CONTINUOUS
 10
4.9481771899
 20
6.3885002932
 11
4.9554583428
 21
6.3937903604
  0
LINE
  5
24A
100
AcDbEntity
  8
0
100
AcDbLine
 62
7
  6
CONTINUOUS
 10
4.3416542367
 20
5.9624016094
 11
4.3490979619
 21
5.9674603598
  0
LINE
  5
24B
100
AcDbEntity
  8
0
100
AcDbLine
 62
7
  6
CONTINUOUS
 10
4.9644582658
 20
6.3856587905
 11
4.971901991
 21
6.3907175409
  0
LINE
  5
24C
100
AcDbEntity
  8
0
100
AcDbLine
 62
7
  6
CONTINUOUS
 10
4.344850512
 20
5.9788217072
 11
4.3524494634
 21
5.9836441483
  0
LINE
  5
24D
100
AcDbEntity
  8
0
100
AcDbLine
 62
7
  6
CONTINUOUS
 10
4.9806420543
 20
6.3823072891
 11
4.9882410056
 21
6.3871297302
  0
LINE
  5
24E
100
AcDbEntity
  8
0
100
AcDbLine
 62
7
  6
CONTINUOUS
 10
4.3485609779
 20
5.9951333051
 11
4.3563076561
 21
5.9997146778
  0
LINE
  5
24F
100
AcDbEntity
  8
0
100
AcDbLine
 62
7
  6
CONTINUOUS
 10
4.9967125838
 20
6.3784490963
 11
5.004459262
 21
6.383030469
  0
LINE
  5
250
100
AcDbEntity
  8
0
100
AcDbLine
 62
7
  6
CONTINUOUS
 10
4.3527819726
 20
6.0113203057
 11
4.3606687327
 21
6.0156560888
  0
LINE
  5
251
100
AcDbEntity
  8
0
100
AcDbLine
 62
7
  6
CONTINUOUS
 10
5.0126539947
 20
6.3740880198
 11
5.0205407549
 21
6.3784238028
  0
LINE
  5
252
100
AcDbEntity
  8
0
100
AcDbLine
 62
7
  6
CONTINUOUS
 10
4.9461007667
 20
2.8165262915
 11
4.9370571521
 21
2.8220191583
  0
LINE
  5
253
100
AcDbEntity
  8
0
100
AcDbLine
 62
7
  6
CONTINUOUS
 10
4.5693920294
 20
3.0453298155
 11
4.5603484147
 21
3.0508226822
  0
LINE
  5
254
100
AcDbEntity
  8
0
100
AcDbLine
 62
7
  6
CONTINUOUS
 10
4.9221566809
 20
2.8068953678
 11
4.9135757599
 21
2.8130745734
  0
LINE
  5
255
100
AcDbEntity
  8
0
100
AcDbLine
 62
7
  6
CONTINUOUS
 10
4.5626509604
 20
3.0657789723
 11
4.556140369
 21
3.0704673131
  0
LINE
  5
256
100
AcDbEntity
  8
0
100
AcDbLine
 62
7
  6
CONTINUOUS
 10
4.9221566809
 20
2.8112105674
 11
4.9135757599
 21
2.817389773
  0
LINE
  5
257
100
AcDbEntity
  8
0
100
AcDbLine
 62
7
  6
CONTINUOUS
 10
4.5647212901
 20
3.068603307
 11
4.556140369
 21
3.0747825127
  0
LINE
  5
258
100
AcDbEntity
  8
0
100
AcDbLine
 62
7
  6
CONTINUOUS
 10
4.3338779934
 20
5.8457935678
 11
4.3400389174
 21
5.8523542854
  0
LINE
  5
259
100
AcDbEntity
  8
0
100
AcDbLine
 62
7
  6
CONTINUOUS
 10
4.8493521914
 20
6.3947178351
 11
4.8555131153
 21
6.4012785527
  0
LINE
  5
25A
100
AcDbEntity
  8
0
100
AcDbLine
 62
7
  6
CONTINUOUS
 10
4.3334153587
 20
5.8625154622
 11
4.3397793198
 21
5.8688794232
  0
LINE
  5
25B
100
AcDbEntity
  8
0
100
AcDbLine
 62
7
  6
CONTINUOUS
 10
4.8658773292
 20
6.3949774327
 11
4.8722412902
 21
6.4013413937
  0
LINE
  5
25C
100
AcDbEntity
  8
0
100
AcDbLine
 62
7
  6
CONTINUOUS
 10
4.3334781997
 20
5.8792436371
 11
4.3400389174
 21
5.8854045611
  0
LINE
  5
25D
100
AcDbEntity
  8
0
100
AcDbLine
 62
7
  6
CONTINUOUS
 10
4.882402467
 20
6.3947178351
 11
4.8889631847
 21
6.400878759
  0
LINE
  5
25E
100
AcDbEntity
  8
0
100
AcDbLine
 62
7
  6
CONTINUOUS
 10
4.3340664544
 20
5.8959615838
 11
4.340817454
 21
5.9019133906
  0
LINE
  5
25F
100
AcDbEntity
  8
0
100
AcDbLine
 62
7
  6
CONTINUOUS
 10
4.8989112965
 20
6.3939392984
 11
4.9056622962
 21
6.3998911052
  0
LINE
  5
260
100
AcDbEntity
  8
0
100
AcDbLine
 62
7
  6
CONTINUOUS
 10
4.3351795422
 20
5.9126528036
 11
4.3421141613
 21
5.9183896195
  0
LINE
  5
261
100
AcDbEntity
  8
0
100
AcDbLine
 62
7
  6
CONTINUOUS
 10
4.9153875255
 20
6.3926425911
 11
4.9223221447
 21
6.398379407
  0
LINE
  5
262
100
AcDbEntity
  8
0
100
AcDbLine
 62
7
  6
CONTINUOUS
 10
4.6087239511
 20
3.2918696693
 11
4.6173515977
 21
3.2932240556
  0
LINE
  5
263
100
AcDbEntity
  8
0
100
AcDbLine
 62
7
  6
CONTINUOUS
 10
5.1144030607
 20
3.2932240556
 11
5.1230307073
 21
3.2918696693
  0
LINE
  5
264
100
AcDbEntity
  8
0
100
AcDbLine
 62
7
  6
CONTINUOUS
 10
4.8978656143
 20
2.8034580284
 11
4.8898002911
 21
2.8102854761
  0
LINE
  5
265
100
AcDbEntity
  8
0
100
AcDbLine
 62
7
  6
CONTINUOUS
 10
4.5597572053
 20
3.0896731488
 11
4.5538419547
 21
3.0946805196
  0
LINE
  5
266
100
AcDbEntity
  8
0
100
AcDbLine
 62
7
  6
CONTINUOUS
 10
4.8978656143
 20
2.807773228
 11
4.8898002911
 21
2.8146006756
  0
LINE
  5
267
100
AcDbEntity
  8
0
100
AcDbLine
 62
7
  6
CONTINUOUS
 10
4.5619072779
 20
3.0921682716
 11
4.5538419547
 21
3.0989957192
  0
LINE
  5
268
100
AcDbEntity
  8
0
100
AcDbLine
 62
7
  6
CONTINUOUS
 10
4.8733773292
 20
2.8019202662
 11
4.8658773292
 21
2.8093538624
  0
LINE
  5
269
100
AcDbEntity
  8
0
100
AcDbLine
 62
7
  6
CONTINUOUS
 10
4.5587904687
 20
3.1137218235
 11
4.5534673422
 21
3.1189978198
  0
LINE
  5
26A
100
AcDbEntity
  8
0
100
AcDbLine
 62
7
  6
CONTINUOUS
 10
4.8733773292
 20
2.8062354658
 11
4.8658773292
 21
2.8136690619
  0
LINE
  5
26B
100
AcDbEntity
  8
0
100
AcDbLine
 62
7
  6
CONTINUOUS
 10
4.5609673422
 20
3.1158794232
 11
4.5534673422
 21
3.1233130194
  0
LINE
  5
26C
100
AcDbEntity
  8
0
100
AcDbLine
 62
7
  6
CONTINUOUS
 10
4.340966392
 20
5.7792984096
 11
4.3462564593
 21
5.7865795626
  0
LINE
  5
26D
100
AcDbEntity
  8
0
100
AcDbLine
 62
7
  6
CONTINUOUS
 10
4.7835774685
 20
6.3885002932
 11
4.7888675358
 21
6.3957814461
  0
LINE
  5
26E
100
AcDbEntity
  8
0
100
AcDbLine
 62
7
  6
CONTINUOUS
 10
4.3384115962
 20
5.7958304634
 11
4.3439277597
 21
5.8029418585
  0
LINE
  5
26F
100
AcDbEntity
  8
0
100
AcDbLine
 62
7
  6
CONTINUOUS
 10
4.7999397645
 20
6.3908289927
 11
4.805455928
 21
6.3979403878
  0
LINE
  5
270
100
AcDbEntity
  8
0
100
AcDbLine
 62
7
  6
CONTINUOUS
 10
4.3363773454
 20
5.8124346077
 11
4.3421141613
 21
5.8193692269
  0
LINE
  5
271
100
AcDbEntity
  8
0
100
AcDbLine
 62
7
  6
CONTINUOUS
 10
4.8163671329
 20
6.3926425911
 11
4.8221039488
 21
6.3995772103
  0
LINE
  5
272
100
AcDbEntity
  8
0
100
AcDbLine
 62
7
  6
CONTINUOUS
 10
4.3348656472
 20
5.8290944563
 11
4.340817454
 21
5.8358454559
  0
LINE
  5
273
100
AcDbEntity
  8
0
100
AcDbLine
 62
7
  6
CONTINUOUS
 10
4.8328433619
 20
6.3939392984
 11
4.8387951686
 21
6.4006902981
  0
LINE
  5
274
100
AcDbEntity
  8
0
100
AcDbLine
 62
7
  6
CONTINUOUS
 10
4.5955852873
 20
3.2713297639
 11
4.6058988277
 21
3.2737839033
  0
LINE
  5
275
100
AcDbEntity
  8
0
100
AcDbLine
 62
7
  6
CONTINUOUS
 10
5.1258558307
 20
3.2737839033
 11
5.1361693711
 21
3.2713297639
  0
LINE
  5
276
100
AcDbEntity
  8
0
100
AcDbLine
 62
7
  6
CONTINUOUS
 10
5.1375541169
 20
3.2530800562
 11
5.1476415946
 21
3.2498314555
  0
LINE
  5
277
100
AcDbEntity
  8
0
100
AcDbLine
 62
7
  6
CONTINUOUS
 10
5.1475774255
 20
3.2315303216
 11
5.1573766477
 21
3.2275072883
  0
LINE
  5
278
100
AcDbEntity
  8
0
100
AcDbLine
 62
7
  6
CONTINUOUS
 10
5.1558639592
 20
3.2092675608
 11
5.1653145106
 21
3.2044948982
  0
LINE
  5
279
100
AcDbEntity
  8
0
100
AcDbLine
 62
7
  6
CONTINUOUS
 10
4.8488428041
 20
2.802291562
 11
4.8419543673
 21
2.8102854761
  0
LINE
  5
27A
100
AcDbEntity
  8
0
100
AcDbLine
 62
7
  6
CONTINUOUS
 10
4.5597572053
 20
3.1377704981
 11
4.5550188411
 21
3.1432692894
  0
LINE
  5
27B
100
AcDbEntity
  8
0
100
AcDbLine
 62
7
  6
CONTINUOUS
 10
4.8488428041
 20
2.8066067615
 11
4.8419543673
 21
2.8146006756
  0
LINE
  5
27C
100
AcDbEntity
  8
0
100
AcDbLine
 62
7
  6
CONTINUOUS
 10
4.5619072779
 20
3.1395905749
 11
4.5550188411
 21
3.147584489
  0
LINE
  5
27D
100
AcDbEntity
  8
0
100
AcDbLine
 62
7
  6
CONTINUOUS
 10
4.3517262834
 20
5.7302974904
 11
4.3563076561
 21
5.7380441686
  0
LINE
  5
27E
100
AcDbEntity
  8
0
100
AcDbLine
 62
7
  6
CONTINUOUS
 10
4.7350420746
 20
6.3784490963
 11
4.7396234473
 21
6.3861957745
  0
LINE
  5
27F
100
AcDbEntity
  8
0
100
AcDbLine
 62
7
  6
CONTINUOUS
 10
4.3476270222
 20
5.7465157468
 11
4.3524494634
 21
5.7541146982
  0
LINE
  5
280
100
AcDbEntity
  8
0
100
AcDbLine
 62
7
  6
CONTINUOUS
 10
4.7511126041
 20
6.3823072891
 11
4.7559350453
 21
6.3899062404
  0
LINE
  5
281
100
AcDbEntity
  8
0
100
AcDbLine
 62
7
  6
CONTINUOUS
 10
4.3440392115
 20
5.7628547615
 11
4.3490979619
 21
5.7702984866
  0
LINE
  5
282
100
AcDbEntity
  8
0
100
AcDbLine
 62
7
  6
CONTINUOUS
 10
4.7672963926
 20
6.3856587905
 11
4.772355143
 21
6.3931025157
  0
LINE
  5
283
100
AcDbEntity
  8
0
100
AcDbLine
 62
7
  6
CONTINUOUS
 10
4.4875668884
 20
5.6441991829
 11
4.5047628176
 21
5.6544119211
  0
LINE
  5
284
100
AcDbEntity
  8
0
100
AcDbLine
 62
7
  6
CONTINUOUS
 10
4.9250088341
 20
5.709494859
 11
4.9250722881
 21
5.7095184153
  0
LINE
  5
285
100
AcDbEntity
  8
0
100
AcDbLine
 62
7
  6
CONTINUOUS
 10
5.162362629
 20
3.186429031
 11
5.1714062436
 21
3.1809361642
  0
LINE
  5
286
100
AcDbEntity
  8
0
100
AcDbLine
 62
7
  6
CONTINUOUS
 10
5.1670333683
 20
3.1631555394
 11
5.1756142894
 21
3.1569763338
  0
LINE
  5
287
100
AcDbEntity
  8
0
100
AcDbLine
 62
7
  6
CONTINUOUS
 10
4.8244133026
 20
2.8045696265
 11
4.8181788985
 21
2.8130745734
  0
LINE
  5
288
100
AcDbEntity
  8
0
100
AcDbLine
 62
7
  6
CONTINUOUS
 10
4.5626509604
 20
3.1616646747
 11
4.558486886
 21
3.1673452868
  0
LINE
  5
289
100
AcDbEntity
  8
0
100
AcDbLine
 62
7
  6
CONTINUOUS
 10
4.8244133026
 20
2.8088848261
 11
4.8181788985
 21
2.817389773
  0
LINE
  5
28A
100
AcDbEntity
  8
0
100
AcDbLine
 62
7
  6
CONTINUOUS
 10
4.5647212901
 20
3.1631555394
 11
4.558486886
 21
3.1716604863
  0
LINE
  5
28B
100
AcDbEntity
  8
0
100
AcDbLine
 62
7
  6
CONTINUOUS
 10
4.8002394405
 20
2.8087404148
 11
4.7946975063
 21
2.8177039587
  0
LINE
  5
28C
100
AcDbEntity
  8
0
100
AcDbLine
 62
7
  6
CONTINUOUS
 10
4.5674524209
 20
3.185250961
 11
4.5638500952
 21
3.1910773753
  0
LINE
  5
28D
100
AcDbEntity
  8
0
100
AcDbLine
 62
7
  6
CONTINUOUS
 10
4.8002394405
 20
2.8130556144
 11
4.7946975063
 21
2.8220191583
  0
LINE
  5
28E
100
AcDbEntity
  8
0
100
AcDbLine
 62
7
  6
CONTINUOUS
 10
4.5693920294
 20
3.186429031
 11
4.5638500952
 21
3.1953925749
  0
LINE
  5
28F
100
AcDbEntity
  8
0
100
AcDbLine
 62
7
  6
CONTINUOUS
 10
4.3731494397
 20
5.6669500372
 11
4.3767237707
 21
5.6752098288
  0
LINE
  5
290
100
AcDbEntity
  8
0
100
AcDbLine
 62
7
  6
CONTINUOUS
 10
4.6722077348
 20
6.3580329817
 11
4.6757820658
 21
6.3662927733
  0
LINE
  5
291
100
AcDbEntity
  8
0
100
AcDbLine
 62
7
  6
CONTINUOUS
 10
4.3670498159
 20
5.6825266342
 11
4.3708818295
 21
5.6906700777
  0
LINE
  5
292
100
AcDbEntity
  8
0
100
AcDbLine
 62
7
  6
CONTINUOUS
 10
4.6876679836
 20
6.3638749229
 11
4.6914999973
 21
6.3720183664
  0
LINE
  5
293
100
AcDbEntity
  8
0
100
AcDbLine
 62
7
  6
CONTINUOUS
 10
4.3614424746
 20
5.6982871389
 11
4.3655283891
 21
5.7063061976
  0
LINE
  5
294
100
AcDbEntity
  8
0
100
AcDbLine
 62
7
  6
CONTINUOUS
 10
4.7033041036
 20
6.3692283633
 11
4.7073900181
 21
6.377247422
  0
LINE
  5
295
100
AcDbEntity
  8
0
100
AcDbLine
 62
7
  6
CONTINUOUS
 10
4.3563329496
 20
5.7142159976
 11
4.3606687327
 21
5.7221027577
  0
LINE
  5
296
100
AcDbEntity
  8
0
100
AcDbLine
 62
7
  6
CONTINUOUS
 10
4.7191006637
 20
6.3740880198
 11
4.7234364467
 21
6.3819747799
  0
LINE
  5
297
100
AcDbEntity
  8
0
100
AcDbLine
 62
7
  6
CONTINUOUS
 10
5.1698473805
 20
3.1395905749
 11
5.1779127037
 21
3.1327631273
  0
LINE
  5
298
100
AcDbEntity
  8
0
100
AcDbLine
 62
7
  6
CONTINUOUS
 10
4.7764702579
 20
2.8147782126
 11
4.7716549614
 21
2.8241450903
  0
LINE
  5
299
100
AcDbEntity
  8
0
100
AcDbLine
 62
7
  6
CONTINUOUS
 10
4.5741295715
 20
3.2083781663
 11
4.5710754027
 21
3.2143192388
  0
LINE
  5
29A
100
AcDbEntity
  8
0
100
AcDbLine
 62
7
  6
CONTINUOUS
 10
4.7764702579
 20
2.8190934122
 11
4.7716549614
 21
2.8284602898
  0
LINE
  5
29B
100
AcDbEntity
  8
0
100
AcDbLine
 62
7
  6
CONTINUOUS
 10
4.5758906991
 20
3.2092675608
 11
4.5710754027
 21
3.2186344384
  0
LINE
  5
29C
100
AcDbEntity
  8
0
100
AcDbLine
 62
7
  6
CONTINUOUS
 10
4.3943394175
 20
5.6214764164
 11
4.3971205704
 21
5.630035925
  0
LINE
  5
29D
100
AcDbEntity
  8
0
100
AcDbLine
 62
7
  6
CONTINUOUS
 10
4.627033831
 20
6.337636182
 11
4.6298149839
 21
6.3461956907
  0
LINE
  5
29E
100
AcDbEntity
  8
0
100
AcDbLine
 62
7
  6
CONTINUOUS
 10
4.3868009767
 20
5.6364098586
 11
4.389849618
 21
5.6448777855
  0
LINE
  5
29F
100
AcDbEntity
  8
0
100
AcDbLine
 62
7
  6
CONTINUOUS
 10
4.6418756914
 20
6.3449071344
 11
4.6449243327
 21
6.3533750613
  0
LINE
  5
2A0
100
AcDbEntity
  8
0
100
AcDbLine
 62
7
  6
CONTINUOUS
 10
4.3797353265
 20
5.6515727201
 11
4.3830484475
 21
5.6599407085
  0
LINE
  5
2A1
100
AcDbEntity
  8
0
100
AcDbLine
 62
7
  6
CONTINUOUS
 10
4.6569386145
 20
6.351708305
 11
4.6602517354
 21
6.3600762933
  0
LINE
  5
2A2
100
AcDbEntity
  8
0
100
AcDbLine
 62
7
  6
CONTINUOUS
 10
4.9755755146
 20
5.7389821143
 11
4.9761866747
 21
5.7395277269
  0
LINE
  5
2A3
100
AcDbEntity
  8
0
100
AcDbLine
 62
7
  6
CONTINUOUS
 10
5.3789726858
 20
5.7264385408
 11
5.3710859257
 21
5.7221027577
  0
LINE
  5
2A4
100
AcDbEntity
  8
0
100
AcDbLine
 62
7
  6
CONTINUOUS
 10
5.374245328
 20
5.7103921121
 11
5.3662262693
 21
5.7063061976
  0
LINE
  5
2A5
100
AcDbEntity
  8
0
100
AcDbLine
 62
7
  6
CONTINUOUS
 10
5.3690162723
 20
5.6945020913
 11
5.3608728289
 21
5.6906700777
  0
LINE
  5
2A6
100
AcDbEntity
  8
0
100
AcDbLine
 62
7
  6
CONTINUOUS
 10
5.3632906793
 20
5.6787841599
 11
5.3550308876
 21
5.6752098288
  0
LINE
  5
2A7
100
AcDbEntity
  8
0
100
AcDbLine
 62
7
  6
CONTINUOUS
 10
5.3570741993
 20
5.6632538295
 11
5.3487062109
 21
5.6599407085
  0
LINE
  5
2A8
100
AcDbEntity
  8
0
100
AcDbLine
 62
7
  6
CONTINUOUS
 10
5.3503729673
 20
5.6479264268
 11
5.3419050404
 21
5.6448777855
  0
LINE
  5
2A9
100
AcDbEntity
  8
0
100
AcDbLine
 62
7
  6
CONTINUOUS
 10
5.3431935966
 20
5.632817078
 11
5.334634088
 21
5.630035925
  0
LINE
  5
2AA
100
AcDbEntity
  8
0
100
AcDbLine
 62
7
  6
CONTINUOUS
 10
5.3355431724
 20
5.6179406942
 11
5.3269005292
 21
5.6154297743
  0
LINE
  5
2AB
100
AcDbEntity
  8
0
100
AcDbLine
 62
7
  6
CONTINUOUS
 10
5.1707873162
 20
3.1158794232
 11
5.1782873162
 21
3.1084458271
  0
LINE
  5
2AC
100
AcDbEntity
  8
0
100
AcDbLine
 62
7
  6
CONTINUOUS
 10
5.1698473805
 20
3.0921682716
 11
5.1767358173
 21
3.0841743575
  0
LINE
  5
2AD
100
AcDbEntity
  8
0
100
AcDbLine
 62
7
  6
CONTINUOUS
 10
4.7532522995
 20
2.8226457949
 11
4.7491933288
 21
2.8323582563
  0
LINE
  5
2AE
100
AcDbEntity
  8
0
100
AcDbLine
 62
7
  6
CONTINUOUS
 10
4.5826379509
 20
3.2308983753
 11
4.5801182622
 21
3.2369275835
  0
LINE
  5
2AF
100
AcDbEntity
  8
0
100
AcDbLine
 62
7
  6
CONTINUOUS
 10
4.7532522995
 20
2.8269609945
 11
4.7491933288
 21
2.8366734559
  0
LINE
  5
2B0
100
AcDbEntity
  8
0
100
AcDbLine
 62
7
  6
CONTINUOUS
 10
4.5841772329
 20
3.2315303216
 11
4.5801182622
 21
3.241242783
  0
LINE
  5
2B1
100
AcDbEntity
  8
0
100
AcDbLine
 62
7
  6
CONTINUOUS
 10
4.4290654536
 20
5.5643278918
 11
4.4307518854
 21
5.573168477
  0
LINE
  5
2B2
100
AcDbEntity
  8
0
100
AcDbLine
 62
7
  6
CONTINUOUS
 10
4.570166383
 20
6.304004867
 11
4.5718528148
 21
6.3128454523
  0
LINE
  5
2B3
100
AcDbEntity
  8
0
100
AcDbLine
 62
7
  6
CONTINUOUS
 10
4.4197147991
 20
5.5781987621
 11
4.4216780883
 21
5.586982013
  0
LINE
  5
2B4
100
AcDbEntity
  8
0
100
AcDbLine
 62
7
  6
CONTINUOUS
 10
4.5839799189
 20
6.3130786642
 11
4.5859432081
 21
6.321861915
  0
LINE
  5
2B5
100
AcDbEntity
  8
0
100
AcDbLine
 62
7
  6
CONTINUOUS
 10
4.4108044532
 20
5.5923564992
 11
4.4130426621
 21
5.6010737477
  0
LINE
  5
2B6
100
AcDbEntity
  8
0
100
AcDbLine
 62
7
  6
CONTINUOUS
 10
4.5980716536
 20
6.3217140903
 11
4.6003098626
 21
6.3304313387
  0
LINE
  5
2B7
100
AcDbEntity
  8
0
100
AcDbLine
 62
7
  6
CONTINUOUS
 10
4.4023432092
 20
5.6067871311
 11
4.4048541292
 21
5.6154297743
  0
LINE
  5
2B8
100
AcDbEntity
  8
0
100
AcDbLine
 62
7
  6
CONTINUOUS
 10
4.6124276802
 20
6.3299026233
 11
4.6149386002
 21
6.3385452664
  0
LINE
  5
2B9
100
AcDbEntity
  8
0
100
AcDbLine
 62
7
  6
CONTINUOUS
 10
5.3949382938
 20
5.808458022
 11
5.3878268987
 21
5.8029418585
  0
LINE
  5
2BA
100
AcDbEntity
  8
0
100
AcDbLine
 62
7
  6
CONTINUOUS
 10
5.3927793521
 20
5.7918696298
 11
5.3854981991
 21
5.7865795626
  0
LINE
  5
2BB
100
AcDbEntity
  8
0
100
AcDbLine
 62
7
  6
CONTINUOUS
 10
5.3901004217
 20
5.775357237
 11
5.3826566965
 21
5.7702984866
  0
LINE
  5
2BC
100
AcDbEntity
  8
0
100
AcDbLine
 62
7
  6
CONTINUOUS
 10
5.3869041464
 20
5.7589371393
 11
5.379305195
 21
5.7541146982
  0
LINE
  5
2BD
100
AcDbEntity
  8
0
100
AcDbLine
 62
7
  6
CONTINUOUS
 10
5.3831936805
 20
5.7426255414
 11
5.3754470022
 21
5.7380441686
  0
LINE
  5
2BE
100
AcDbEntity
  8
0
100
AcDbLine
 62
7
  6
CONTINUOUS
 10
5.1670333683
 20
3.068603307
 11
5.1732677724
 21
3.0600983601
  0
LINE
  5
2BF
100
AcDbEntity
  8
0
100
AcDbLine
 62
7
  6
CONTINUOUS
 10
4.730728712
 20
2.8322946554
 11
4.7274510918
 21
2.8422928201
  0
LINE
  5
2C0
100
AcDbEntity
  8
0
100
AcDbLine
 62
7
  6
CONTINUOUS
 10
4.5929210073
 20
3.2526679913
 11
4.5909229213
 21
3.2587630213
  0
LINE
  5
2C1
100
AcDbEntity
  8
0
100
AcDbLine
 62
7
  6
CONTINUOUS
 10
4.730728712
 20
2.8366098549
 11
4.7274510918
 21
2.8466080196
  0
LINE
  5
2C2
100
AcDbEntity
  8
0
100
AcDbLine
 62
7
  6
CONTINUOUS
 10
4.5942005415
 20
3.2530800562
 11
4.5909229213
 21
3.2630782209
  0
LINE
  5
2C3
100
AcDbEntity
  8
0
100
AcDbLine
 62
7
  6
CONTINUOUS
 10
4.4596648711
 20
5.5245718734
 11
4.4605118459
 21
5.5335319311
  0
LINE
  5
2C4
100
AcDbEntity
  8
0
100
AcDbLine
 62
7
  6
CONTINUOUS
 10
4.530529837
 20
6.2742449065
 11
4.5313768118
 21
6.2832049642
  0
LINE
  5
2C5
100
AcDbEntity
  8
0
100
AcDbLine
 62
7
  6
CONTINUOUS
 10
4.4490503509
 20
5.53750121
 11
4.45017835
 21
5.5464302423
  0
LINE
  5
2C6
100
AcDbEntity
  8
0
100
AcDbLine
 62
7
  6
CONTINUOUS
 10
4.5434281483
 20
6.2845784024
 11
4.5445561474
 21
6.2935074347
  0
LINE
  5
2C7
100
AcDbEntity
  8
0
100
AcDbLine
 62
7
  6
CONTINUOUS
 10
4.4388471887
 20
5.550757577
 11
4.4402550988
 21
5.559646772
  0
LINE
  5
2C8
100
AcDbEntity
  8
0
100
AcDbLine
 62
7
  6
CONTINUOUS
 10
4.556644678
 20
6.2945016536
 11
4.5580525882
 21
6.3033908486
  0
LWPOLYLINE
  5
2C9
100
AcDbEntity
  8
0
100
AcDbPolyline
 62
7
  6
CONTINUOUS
 90
8
 70
0
 10
4.9719877804
 20
5.7345276119
 10
4.9724199248
 20
5.7352245275
 10
4.9728802602
 20
5.7359031226
 10
4.9733680378
 20
5.7365622938
 10
4.9738824105
 20
5.7372008969
 10
4.9744224147
 20
5.7378177543
 10
4.9749870937
 20
5.7384118091
 10
4.9755755146
 20
5.7389821143
  0
LINE
  5
2CA
100
AcDbEntity
  8
0
100
AcDbLine
 62
7
  6
CONTINUOUS
 10
5.397876665
 20
5.8919652787
 11
5.391715741
 21
5.8854045611
  0
LINE
  5
2CB
100
AcDbEntity
  8
0
100
AcDbLine
 62
7
  6
CONTINUOUS
 10
5.3983392997
 20
5.8752433843
 11
5.3919753386
 21
5.8688794232
  0
LINE
  5
2CC
100
AcDbEntity
  8
0
100
AcDbLine
 62
7
  6
CONTINUOUS
 10
5.3982764587
 20
5.8585152094
 11
5.391715741
 21
5.8523542854
  0
LINE
  5
2CD
100
AcDbEntity
  8
0
100
AcDbLine
 62
7
  6
CONTINUOUS
 10
5.397688204
 20
5.8417972627
 11
5.3909372044
 21
5.8358454559
  0
LINE
  5
2CE
100
AcDbEntity
  8
0
100
AcDbLine
 62
7
  6
CONTINUOUS
 10
5.3965751162
 20
5.8251060428
 11
5.389640497
 21
5.8193692269
  0
LINE
  5
2CF
100
AcDbEntity
  8
0
100
AcDbLine
 62
7
  6
CONTINUOUS
 10
5.162362629
 20
3.0453298155
 11
5.1679045632
 21
3.0363662716
  0
LINE
  5
2D0
100
AcDbEntity
  8
0
100
AcDbLine
 62
7
  6
CONTINUOUS
 10
4.7090383606
 20
2.8436653056
 11
4.7065622986
 21
2.8538875315
  0
LINE
  5
2D1
100
AcDbEntity
  8
0
100
AcDbLine
 62
7
  6
CONTINUOUS
 10
4.6049115134
 20
3.2735447527
 11
4.6034227657
 21
3.2796909297
  0
LINE
  5
2D2
100
AcDbEntity
  8
0
100
AcDbLine
 62
7
  6
CONTINUOUS
 10
4.7090383606
 20
2.8479805051
 11
4.7065622986
 21
2.8582027311
  0
LINE
  5
2D3
100
AcDbEntity
  8
0
100
AcDbLine
 62
7
  6
CONTINUOUS
 10
4.6058988277
 20
3.2737839033
 11
4.6034227657
 21
3.2840061292
  0
LWPOLYLINE
  5
2D4
100
AcDbEntity
  8
0
100
AcDbPolyline
 62
7
  6
CONTINUOUS
 90
13
 70
0
 10
4.4022518761
 20
5.8713789823
 10
4.4022742421
 20
5.8638671528
 10
4.4024590369
 20
5.8554171583
 10
4.4028126685
 20
5.8469667154
 10
4.403334971
 20
5.8385192564
 10
4.4040257839
 20
5.8300781588
 10
4.40488496
 20
5.8216467382
 10
4.4059123454
 20
5.8132284544
 10
4.4071077951
 20
5.8048267271
 10
4.4084711971
 20
5.7964448258
 10
4.410002433
 20
5.7880861635
 10
4.4117013647
 20
5.7797542983
 10
4.4133944738
 20
5.7721923313
  0
LINE
  5
2D5
100
AcDbEntity
  8
0
100
AcDbLine
 62
7
  6
CONTINUOUS
 10
4.4938698591
 20
6.2408868933
 11
4.4938698591
 21
6.2498868933
  0
LINE
  5
2D6
100
AcDbEntity
  8
0
100
AcDbLine
 62
7
  6
CONTINUOUS
 10
4.5057384594
 20
6.2523883671
 11
4.5060211562
 21
6.2613839261
  0
LWPOLYLINE
  5
2D7
100
AcDbEntity
  8
0
100
AcDbPolyline
 62
7
  6
CONTINUOUS
 90
3
 70
0
 10
4.5499680233
 20
5.869808346
 10
4.5499429326
 20
5.8691058319
 10
4.5499420435
 20
5.8690395048
  0
LINE
  5
2D8
100
AcDbEntity
  8
0
100
AcDbLine
 62
7
  6
CONTINUOUS
 10
4.5502041167
 20
5.8762691658
 11
4.5501805097
 21
5.8757730728
  0
LINE
  5
2D9
100
AcDbEntity
  8
0
100
AcDbLine
 62
7
  6
CONTINUOUS
 10
4.4706802739
 20
5.5119823267
 11
4.4712453886
 21
5.5209645673
  0
LINE
  5
2DA
100
AcDbEntity
  8
0
100
AcDbLine
 62
7
  6
CONTINUOUS
 10
4.5179624732
 20
6.2635113638
 11
4.5185275879
 21
6.2724936044
  0
LINE
  5
2DB
100
AcDbEntity
  8
0
100
AcDbLine
 62
7
  6
CONTINUOUS
 10
4.5505881288
 20
5.8827517431
 11
4.550570109
 21
5.8824929988
  0
LINE
  5
2DC
100
AcDbEntity
  8
0
100
AcDbLine
 62
7
  6
CONTINUOUS
 10
4.8097266174
 20
5.7177255509
 11
4.8066784861
 21
5.7095197766
  0
LINE
  5
2DD
100
AcDbEntity
  8
0
100
AcDbLine
 62
7
  6
CONTINUOUS
 10
5.3907882664
 20
5.9584604369
 11
5.3854981991
 21
5.9511792839
  0
LINE
  5
2DE
100
AcDbEntity
  8
0
100
AcDbLine
 62
7
  6
CONTINUOUS
 10
5.3933430622
 20
5.941928383
 11
5.3878268987
 21
5.9348169879
  0
LINE
  5
2DF
100
AcDbEntity
  8
0
100
AcDbLine
 62
7
  6
CONTINUOUS
 10
5.395377313
 20
5.9253242387
 11
5.389640497
 21
5.9183896195
  0
LINE
  5
2E0
100
AcDbEntity
  8
0
100
AcDbLine
 62
7
  6
CONTINUOUS
 10
5.3968890112
 20
5.9086643902
 11
5.3909372044
 21
5.9019133906
  0
LINE
  5
2E1
100
AcDbEntity
  8
0
100
AcDbLine
 62
7
  6
CONTINUOUS
 10
5.1558639592
 20
3.0224912857
 11
5.1606792557
 21
3.0131244081
  0
LINE
  5
2E2
100
AcDbEntity
  8
0
100
AcDbLine
 62
7
  6
CONTINUOUS
 10
4.6883149736
 20
2.8566876417
 11
4.6866557355
 21
2.8670709055
  0
LINE
  5
2E3
100
AcDbEntity
  8
0
100
AcDbLine
 62
7
  6
CONTINUOUS
 10
4.6179974012
 20
3.2967245002
 11
4.6175407299
 21
3.299582281
  0
LINE
  5
2E4
100
AcDbEntity
  8
0
100
AcDbLine
 62
7
  6
CONTINUOUS
 10
4.6883149736
 20
2.8610028412
 11
4.6866557355
 21
2.8713861051
  0
LINE
  5
2E5
100
AcDbEntity
  8
0
100
AcDbLine
 62
7
  6
CONTINUOUS
 10
4.6183635047
 20
3.2987486783
 11
4.6175407299
 21
3.3038974805
  0
LINE
  5
2E6
100
AcDbEntity
  8
0
100
AcDbLine
 62
7
  6
CONTINUOUS
 10
4.5916525525
 20
4.8658152889
 11
4.5915049357
 21
4.8672505748
  0
LWPOLYLINE
  5
2E7
100
AcDbEntity
  8
0
100
AcDbPolyline
 62
7
  6
CONTINUOUS
 90
30
 70
0
 10
4.587323753
 20
4.8038797998
 10
4.5912446785
 20
4.7637294686
 10
4.5950011318
 20
4.7233625858
 10
4.5985402164
 20
4.6834151856
 10
4.6018731708
 20
4.6438781474
 10
4.6050101562
 20
4.6047510214
 10
4.6079603979
 20
4.5660423896
 10
4.6107338097
 20
4.5277488114
 10
4.6133396222
 20
4.4898672472
 10
4.6157856457
 20
4.452407975
 10
4.6180803749
 20
4.4153682124
 10
4.6202319852
 20
4.3787458322
 10
4.6222475842
 20
4.3425532626
 10
4.6241348956
 20
4.3067886637
 10
4.62590126
 20
4.2714518866
 10
4.6275528188
 20
4.2365599757
 10
4.6290961726
 20
4.2021145385
 10
4.6305376115
 20
4.1681180875
 10
4.6318825185
 20
4.1345894839
 10
4.6331369884
 20
4.1015238288
 10
4.6343068023
 20
4.0689169814
 10
4.6353968158
 20
4.036785359
 10
4.6364123864
 20
4.0051244516
 10
4.6373585984
 20
3.9739219561
 10
4.6382397005
 20
3.943184345
 10
4.6390602607
 20
3.9129021969
 10
4.6398246521
 20
3.8830648946
 10
4.6405363431
 20
3.8536845473
 10
4.6411987028
 20
3.8247677853
 10
4.641815133
 20
3.7963117849
  0
LINE
  5
2E8
100
AcDbEntity
  8
0
100
AcDbLine
 62
7
  6
CONTINUOUS
 10
4.4605118459
 20
6.2042269154
 11
4.4596648711
 21
6.2131869731
  0
LINE
  5
2E9
100
AcDbEntity
  8
0
100
AcDbLine
 62
7
  6
CONTINUOUS
 10
4.6686863176
 20
2.8712813767
 11
4.6678541332
 21
2.8817616621
  0
LINE
  5
2EA
100
AcDbEntity
  8
0
100
AcDbLine
 62
7
  6
CONTINUOUS
 10
4.6686863176
 20
2.8755965762
 11
4.6678541332
 21
2.8860768616
  0
LINE
  5
2EB
100
AcDbEntity
  8
0
100
AcDbLine
 62
7
  6
CONTINUOUS
 10
4.4712453886
 20
6.2167942792
 11
4.4706802739
 21
6.2257765198
  0
LINE
  5
2EC
100
AcDbEntity
  8
0
100
AcDbLine
 62
7
  6
CONTINUOUS
 10
4.4823683854
 20
6.229018293
 11
4.4820856885
 21
6.2380138521
  0
LINE
  5
2ED
100
AcDbEntity
  8
0
100
AcDbLine
 62
7
  6
CONTINUOUS
 10
4.6497908965
 20
3.7827290162
 11
4.6496876024
 21
3.7875061594
  0
LINE
  5
2EE
100
AcDbEntity
  8
0
100
AcDbLine
 62
7
  6
CONTINUOUS
 10
4.641815133
 20
3.7963117849
 11
4.6426731622
 21
3.7538368238
  0
LINE
  5
2EF
100
AcDbEntity
  8
0
100
AcDbLine
 62
7
  6
CONTINUOUS
 10
4.6426731622
 20
3.7538368238
 11
4.6432561369
 21
3.7227773887
  0
LINE
  5
2F0
100
AcDbEntity
  8
0
100
AcDbLine
 62
7
  6
CONTINUOUS
 10
4.6432561369
 20
3.7227773887
 11
4.6437869246
 21
3.6927167008
  0
LINE
  5
2F1
100
AcDbEntity
  8
0
100
AcDbLine
 62
7
  6
CONTINUOUS
 10
4.6437869246
 20
3.6927167008
 11
4.6442699692
 21
3.6636912658
  0
LINE
  5
2F2
100
AcDbEntity
  8
0
100
AcDbLine
 62
7
  6
CONTINUOUS
 10
4.6442699692
 20
3.6636912658
 11
4.6446977832
 21
3.6364881391
  0
LWPOLYLINE
  5
2F3
100
AcDbEntity
  8
0
100
AcDbPolyline
 62
7
  6
CONTINUOUS
 90
39
 70
0
 10
4.6446977751
 20
3.6364886542
 10
4.6447644926
 20
3.6316451554
 10
4.6448249889
 20
3.6258787312
 10
4.6448663203
 20
3.6199035938
 10
4.6448866004
 20
3.6137088909
 10
4.6448837943
 20
3.6073088996
 10
4.6448561875
 20
3.6007434533
 10
4.6448022483
 20
3.594014328
 10
4.6447204521
 20
3.5871248858
 10
4.6446099809
 20
3.580117871
 10
4.6444697765
 20
3.5729958231
 10
4.6442988034
 20
3.565761922
 10
4.6440972345
 20
3.5584595077
 10
4.6438645458
 20
3.5510913439
 10
4.6436002282
 20
3.5436598588
 10
4.6433054305
 20
3.536206732
 10
4.6429802688
 20
3.528736496
 10
4.6426246709
 20
3.5212488194
 10
4.642240318
 20
3.5137768926
 10
4.6418276743
 20
3.5063237875
 10
4.6413871247
 20
3.4988906755
 10
4.6409208632
 20
3.4915063935
 10
4.6404295894
 20
3.4841717879
 10
4.639914087
 20
3.4768888554
 10
4.6393772293
 20
3.4696867021
 10
4.638819987
 20
3.462565464
 10
4.63824341
 20
3.4555264378
 10
4.6376510102
 20
3.4485991326
 10
4.6370442062
 20
3.4417856567
 10
4.63642402
 20
3.4350839245
 10
4.6357937787
 20
3.4285160568
 10
4.6351556692
 20
3.4220904159
 10
4.6345101214
 20
3.4157982387
 10
4.6338579103
 20
3.4096354596
 10
4.6332003492
 20
3.4036036676
 10
4.6325383495
 20
3.3977010481
 10
4.6318719164
 20
3.391918495
 10
4.6312018608
 20
3.3862548066
 10
4.6305292033
 20
3.3807108163
  0
LINE
  5
2F4
100
AcDbEntity
  8
0
100
AcDbLine
 62
7
  6
CONTINUOUS
 10
4.54985296
 20
5.8623936223
 11
4.5498510476
 21
5.8627412456
  0
LINE
  5
2F5
100
AcDbEntity
  8
0
100
AcDbLine
 62
7
  6
CONTINUOUS
 10
4.5534673422
 20
3.1233130194
 11
4.5534673422
 21
3.1189978198
  0
LINE
  5
2F6
100
AcDbEntity
  8
0
100
AcDbLine
 62
7
  6
CONTINUOUS
 10
4.5534673422
 20
3.1084458271
 11
4.5534673422
 21
3.1041306275
  0
LINE
  5
2F7
100
AcDbEntity
  8
0
100
AcDbLine
 62
7
  6
CONTINUOUS
 10
4.5538419547
 20
3.0989957192
 11
4.5538419547
 21
3.0946805196
  0
LINE
  5
2F8
100
AcDbEntity
  8
0
100
AcDbLine
 62
7
  6
CONTINUOUS
 10
4.5550188411
 20
3.147584489
 11
4.5550188411
 21
3.1432692894
  0
LINE
  5
2F9
100
AcDbEntity
  8
0
100
AcDbLine
 62
7
  6
CONTINUOUS
 10
4.5550188411
 20
3.0841743575
 11
4.5550188411
 21
3.0798591579
  0
LINE
  5
2FA
100
AcDbEntity
  8
0
100
AcDbLine
 62
7
  6
CONTINUOUS
 10
4.556140369
 20
3.0747825127
 11
4.556140369
 21
3.0704673131
  0
LINE
  5
2FB
100
AcDbEntity
  8
0
100
AcDbLine
 62
7
  6
CONTINUOUS
 10
4.558486886
 20
3.1716604863
 11
4.558486886
 21
3.1673452868
  0
LINE
  5
2FC
100
AcDbEntity
  8
0
100
AcDbLine
 62
7
  6
CONTINUOUS
 10
4.558486886
 20
3.0600983601
 11
4.558486886
 21
3.0557831606
  0
LINE
  5
2FD
100
AcDbEntity
  8
0
100
AcDbLine
 62
7
  6
CONTINUOUS
 10
4.5603484147
 20
3.0508226822
 11
4.5603484147
 21
3.0465074827
  0
LINE
  5
2FE
100
AcDbEntity
  8
0
100
AcDbLine
 62
7
  6
CONTINUOUS
 10
4.5638500952
 20
3.1953925749
 11
4.5638500952
 21
3.1910773753
  0
LINE
  5
2FF
100
AcDbEntity
  8
0
100
AcDbLine
 62
7
  6
CONTINUOUS
 10
4.5638500952
 20
3.0363662716
 11
4.5638500952
 21
3.032051072
  0
LINE
  5
300
100
AcDbEntity
  8
0
100
AcDbLine
 62
7
  6
CONTINUOUS
 10
4.5664401478
 20
3.0272639482
 11
4.5664401478
 21
3.0229487487
  0
LINE
  5
301
100
AcDbEntity
  8
0
100
AcDbLine
 62
7
  6
CONTINUOUS
 10
4.5710754027
 20
3.2186344384
 11
4.5710754027
 21
3.2143192388
  0
LINE
  5
302
100
AcDbEntity
  8
0
100
AcDbLine
 62
7
  6
CONTINUOUS
 10
4.5710754027
 20
3.0131244081
 11
4.5710754027
 21
3.0088092085
  0
LINE
  5
303
100
AcDbEntity
  8
0
100
AcDbLine
 62
7
  6
CONTINUOUS
 10
4.5743780107
 20
3.0042515581
 11
4.5743780107
 21
2.9999363586
  0
LINE
  5
304
100
AcDbEntity
  8
0
100
AcDbLine
 62
7
  6
CONTINUOUS
 10
4.5801182622
 20
3.241242783
 11
4.5801182622
 21
3.2369275835
  0
LINE
  5
305
100
AcDbEntity
  8
0
100
AcDbLine
 62
7
  6
CONTINUOUS
 10
4.5801182622
 20
2.9905160634
 11
4.5801182622
 21
2.9862008639
  0
LINE
  5
306
100
AcDbEntity
  8
0
100
AcDbLine
 62
7
  6
CONTINUOUS
 10
4.5841130638
 20
2.9819273909
 11
4.5841130638
 21
2.9776121914
  0
LINE
  5
307
100
AcDbEntity
  8
0
100
AcDbLine
 62
7
  6
CONTINUOUS
 10
4.5909229213
 20
3.2630782209
 11
4.5909229213
 21
3.2587630213
  0
LINE
  5
308
100
AcDbEntity
  8
0
100
AcDbLine
 62
7
  6
CONTINUOUS
 10
4.5909229213
 20
2.9686806256
 11
4.5909229213
 21
2.964365426
  0
LINE
  5
309
100
AcDbEntity
  8
0
100
AcDbLine
 62
7
  6
CONTINUOUS
 10
4.5955852873
 20
2.9604290825
 11
4.5955852873
 21
2.956113883
  0
LINE
  5
30A
100
AcDbEntity
  8
0
100
AcDbLine
 62
7
  6
CONTINUOUS
 10
4.6034227657
 20
3.2840061292
 11
4.6034227657
 21
3.2796909297
  0
LINE
  5
30B
100
AcDbEntity
  8
0
100
AcDbLine
 62
7
  6
CONTINUOUS
 10
4.6034227657
 20
2.9477527172
 11
4.6034227657
 21
2.9434375177
  0
LINE
  5
30C
100
AcDbEntity
  8
0
100
AcDbLine
 62
7
  6
CONTINUOUS
 10
4.6087239511
 20
2.9398891772
 11
4.6087239511
 21
2.9355739776
  0
LINE
  5
30D
100
AcDbEntity
  8
0
100
AcDbLine
 62
7
  6
CONTINUOUS
 10
4.6175407299
 20
3.3038974805
 11
4.6175407299
 21
3.299582281
  0
LINE
  5
30E
100
AcDbEntity
  8
0
100
AcDbLine
 62
7
  6
CONTINUOUS
 10
4.6175407299
 20
2.927861366
 11
4.6175407299
 21
2.9235461664
  0
LINE
  5
30F
100
AcDbEntity
  8
0
100
AcDbLine
 62
7
  6
CONTINUOUS
 10
4.623448051
 20
2.9204343103
 11
4.623448051
 21
2.9161191107
  0
LINE
  5
310
100
AcDbEntity
  8
0
100
AcDbLine
 62
7
  6
CONTINUOUS
 10
4.549853933
 20
5.8627412065
 11
4.5498529599
 21
5.8623936165
  0
LINE
  5
311
100
AcDbEntity
  8
0
100
AcDbLine
 62
7
  6
CONTINUOUS
 10
4.5499250988
 20
5.8685380447
 11
4.5498529599
 21
5.8623936165
  0
LINE
  5
312
100
AcDbEntity
  8
0
100
AcDbLine
 62
7
  6
CONTINUOUS
 10
4.5499609109
 20
5.8698094264
 11
4.5499412144
 21
5.8690404528
  0
LINE
  5
313
100
AcDbEntity
  8
0
100
AcDbLine
 62
7
  6
CONTINUOUS
 10
5.3754217088
 20
6.0235428489
 11
5.3710859257
 21
6.0156560888
  0
LINE
  5
314
100
AcDbEntity
  8
0
100
AcDbLine
 62
7
  6
CONTINUOUS
 10
5.380028375
 20
6.0074613561
 11
5.3754470022
 21
5.9997146778
  0
LINE
  5
315
100
AcDbEntity
  8
0
100
AcDbLine
 62
7
  6
CONTINUOUS
 10
5.3841276362
 20
5.9912430996
 11
5.379305195
 21
5.9836441483
  0
LINE
  5
316
100
AcDbEntity
  8
0
100
AcDbLine
 62
7
  6
CONTINUOUS
 10
5.3877154469
 20
5.974904085
 11
5.3826566965
 21
5.9674603598
  0
LINE
  5
317
100
AcDbEntity
  8
0
100
AcDbLine
 62
7
  6
CONTINUOUS
 10
5.1475774255
 20
3.0002285249
 11
5.1516363962
 21
2.9905160634
  0
LINE
  5
318
100
AcDbEntity
  8
0
100
AcDbLine
 62
7
  6
CONTINUOUS
 10
5.1375541169
 20
2.9786787903
 11
5.1408317371
 21
2.9686806256
  0
LINE
  5
319
100
AcDbEntity
  8
0
100
AcDbLine
 62
7
  6
CONTINUOUS
 10
4.6067395067
 20
4.872417345
 11
4.6065946811
 21
4.8738268225
  0
LINE
  5
31A
100
AcDbEntity
  8
0
100
AcDbLine
 62
7
  6
CONTINUOUS
 10
4.6067361991
 20
4.8724168131
 11
4.6065979036
 21
4.87382734
  0
LINE
  5
31B
100
AcDbEntity
  8
0
100
AcDbLine
 62
7
  6
CONTINUOUS
 10
4.6636209587
 20
3.787714579
 11
4.6635197088
 21
3.7924967571
  0
LINE
  5
31C
100
AcDbEntity
  8
0
100
AcDbLine
 62
7
  6
CONTINUOUS
 10
4.6705565055
 20
3.1663292434
 11
4.6705269425
 21
3.1677930995
  0
LINE
  5
31D
100
AcDbEntity
  8
0
100
AcDbLine
 62
7
  6
CONTINUOUS
 10
4.6662836273
 20
3.6544318955
 11
4.6662557742
 21
3.6559164888
  0
LINE
  5
31E
100
AcDbEntity
  8
0
100
AcDbLine
 62
7
  6
CONTINUOUS
 10
4.6524156179
 20
3.6507705524
 11
4.6523886735
 21
3.6522370857
  0
LINE
  5
31F
100
AcDbEntity
  8
0
100
AcDbLine
 62
7
  6
CONTINUOUS
 10
4.6587903425
 20
3.1668371927
 11
4.6587038822
 21
3.1721099866
  0
LINE
  5
320
100
AcDbEntity
  8
0
100
AcDbLine
 62
7
  6
CONTINUOUS
 10
4.6331897717
 20
2.9091292085
 11
4.6331897717
 21
2.9048140089
  0
LINE
  5
321
100
AcDbEntity
  8
0
100
AcDbLine
 62
7
  6
CONTINUOUS
 10
4.639666808
 20
2.9021844274
 11
4.639666808
 21
2.8978692278
  0
LINE
  5
322
100
AcDbEntity
  8
0
100
AcDbLine
 62
7
  6
CONTINUOUS
 10
4.6502734097
 20
2.8873565353
 11
4.6502734097
 21
2.9021844274
  0
LINE
  5
323
100
AcDbEntity
  8
0
100
AcDbLine
 62
7
  6
CONTINUOUS
 10
4.6572802281
 20
2.8852520453
 11
4.6572802281
 21
2.8809368457
  0
LINE
  5
324
100
AcDbEntity
  8
0
100
AcDbLine
 62
7
  6
CONTINUOUS
 10
4.6678541332
 20
2.8860768616
 11
4.6678541332
 21
2.8817616621
  0
LINE
  5
325
100
AcDbEntity
  8
0
100
AcDbLine
 62
7
  6
CONTINUOUS
 10
4.6686863176
 20
2.8755965762
 11
4.6686863176
 21
2.8712813767
  0
LINE
  5
326
100
AcDbEntity
  8
0
100
AcDbLine
 62
7
  6
CONTINUOUS
 10
4.6761797187
 20
2.8697415576
 11
4.6761797187
 21
2.8654263581
  0
LINE
  5
327
100
AcDbEntity
  8
0
100
AcDbLine
 62
7
  6
CONTINUOUS
 10
4.6866557355
 20
2.8713861051
 11
4.6866557355
 21
2.8670709055
  0
LINE
  5
328
100
AcDbEntity
  8
0
100
AcDbLine
 62
7
  6
CONTINUOUS
 10
4.6883149736
 20
2.8610028412
 11
4.6883149736
 21
2.8566876417
  0
LINE
  5
329
100
AcDbEntity
  8
0
100
AcDbLine
 62
7
  6
CONTINUOUS
 10
4.6962487581
 20
2.8557485918
 11
4.6962487581
 21
2.8514333922
  0
LINE
  5
32A
100
AcDbEntity
  8
0
100
AcDbLine
 62
7
  6
CONTINUOUS
 10
4.7065622986
 20
2.8582027311
 11
4.7065622986
 21
2.8538875315
  0
LINE
  5
32B
100
AcDbEntity
  8
0
100
AcDbLine
 62
7
  6
CONTINUOUS
 10
4.7090383606
 20
2.8479805051
 11
4.7090383606
 21
2.8436653056
  0
LINE
  5
32C
100
AcDbEntity
  8
0
100
AcDbLine
 62
7
  6
CONTINUOUS
 10
4.7173636141
 20
2.843359419
 11
4.7173636141
 21
2.8390442194
  0
LINE
  5
32D
100
AcDbEntity
  8
0
100
AcDbLine
 62
7
  6
CONTINUOUS
 10
4.7274510918
 20
2.8466080196
 11
4.7274510918
 21
2.8422928201
  0
LINE
  5
32E
100
AcDbEntity
  8
0
100
AcDbLine
 62
7
  6
CONTINUOUS
 10
4.730728712
 20
2.8366098549
 11
4.730728712
 21
2.8322946554
  0
LINE
  5
32F
100
AcDbEntity
  8
0
100
AcDbLine
 62
7
  6
CONTINUOUS
 10
4.7393941066
 20
2.8326504227
 11
4.7393941066
 21
2.8283352231
  0
LINE
  5
330
100
AcDbEntity
  8
0
100
AcDbLine
 62
7
  6
CONTINUOUS
 10
4.7491933288
 20
2.8366734559
 11
4.7491933288
 21
2.8323582563
  0
LINE
  5
331
100
AcDbEntity
  8
0
100
AcDbLine
 62
7
  6
CONTINUOUS
 10
4.7532522995
 20
2.8269609945
 11
4.7532522995
 21
2.8226457949
  0
LWPOLYLINE
  5
332
100
AcDbEntity
  8
0
100
AcDbPolyline
 62
7
  6
CONTINUOUS
 90
13
 70
0
 10
4.6689442701
 20
4.6431041741
 10
4.6689309027
 20
4.6429462637
 10
4.6688499387
 20
4.6416324365
 10
4.6688229517
 20
4.6403118745
 10
4.6688508736
 20
4.6389843089
 10
4.66893457
 20
4.6376531731
 10
4.6690740761
 20
4.6363255565
 10
4.6692693583
 20
4.6350030526
 10
4.6695203008
 20
4.6336873068
 10
4.6698253403
 20
4.6323852815
 10
4.6701830292
 20
4.6311001079
 10
4.6705927974
 20
4.6298312448
 10
4.67090899
 20
4.6289563015
  0
LINE
  5
333
100
AcDbEntity
  8
0
100
AcDbLine
 62
7
  6
CONTINUOUS
 10
4.762506646
 20
5.7227187635
 11
4.668942301
 21
4.6430825334
  0
LINE
  5
334
100
AcDbEntity
  8
0
100
AcDbLine
 62
7
  6
CONTINUOUS
 10
5.3586052187
 20
6.0708088093
 11
5.3550308876
 21
6.0625490176
  0
LINE
  5
335
100
AcDbEntity
  8
0
100
AcDbLine
 62
7
  6
CONTINUOUS
 10
5.3647048425
 20
6.0552322123
 11
5.3608728289
 21
6.0470887688
  0
LINE
  5
336
100
AcDbEntity
  8
0
100
AcDbLine
 62
7
  6
CONTINUOUS
 10
5.3703121838
 20
6.0394717076
 11
5.3662262693
 21
6.0314526489
  0
LWPOLYLINE
  5
337
100
AcDbEntity
  8
0
100
AcDbPolyline
 62
7
  6
CONTINUOUS
 90
21
 70
0
 10
4.6709108016
 20
4.6289509788
 10
4.6712991862
 20
4.6279696766
 10
4.6719131455
 20
4.6265768969
 10
4.6726007622
 20
4.6251893954
 10
4.6733656611
 20
4.6238055335
 10
4.6742075849
 20
4.622431032
 10
4.6751208208
 20
4.6210779954
 10
4.6761049895
 20
4.6197480503
 10
4.6771609529
 20
4.6184411016
 10
4.6782826588
 20
4.6171648441
 10
4.6794689895
 20
4.615919819
 10
4.6807207431
 20
4.6147046127
 10
4.6820335464
 20
4.6135226566
 10
4.683406526
 20
4.6123735525
 10
4.6848406855
 20
4.6112554425
 10
4.6863339397
 20
4.6101689481
 10
4.6878861008
 20
4.609113135
 10
4.6894983823
 20
4.6080862737
 10
4.6911705065
 20
4.6070877648
 10
4.6929028365
 20
4.606116641
 10
4.6946967175
 20
4.6051714932
  0
LINE
  5
338
100
AcDbEntity
  8
0
100
AcDbLine
 62
7
  6
CONTINUOUS
 10
4.4165795849
 20
5.7589266513
 11
4.4256041311
 21
5.7228998764
  0
LWPOLYLINE
  5
339
100
AcDbEntity
  8
0
100
AcDbPolyline
 62
7
  6
CONTINUOUS
 90
12
 70
0
 10
4.4256041311
 20
5.7228998764
 10
4.433099288
 20
5.6924264973
 10
4.4404432266
 20
5.6619847923
 10
4.4476347225
 20
5.6315828995
 10
4.4546736208
 20
5.6012245081
 10
4.4615606337
 20
5.5709092985
 10
4.4682947978
 20
5.5406440659
 10
4.4748754299
 20
5.510434419
 10
4.4813033187
 20
5.4802789946
 10
4.4875780151
 20
5.4501818143
 10
4.4936980531
 20
5.4201518072
 10
4.4995182172
 20
5.3909286185
  0
LINE
  5
33A
100
AcDbEntity
  8
0
100
AcDbLine
 62
7
  6
CONTINUOUS
 10
4.4154438062
 20
5.7635738013
 11
4.4165795849
 21
5.7589266513
  0
LINE
  5
33B
100
AcDbEntity
  8
0
100
AcDbLine
 62
7
  6
CONTINUOUS
 10
5.1258558307
 20
2.9579749432
 11
5.1283318926
 21
2.9477527172
  0
LINE
  5
33C
100
AcDbEntity
  8
0
100
AcDbLine
 62
7
  6
CONTINUOUS
 10
4.4143292838
 20
5.7682223318
 11
4.4154438062
 21
5.7635738013
  0
LINE
  5
33D
100
AcDbEntity
  8
0
100
AcDbLine
 62
7
  6
CONTINUOUS
 10
4.4133944735
 20
5.7721923325
 11
4.4143292838
 21
5.7682223318
  0
LWPOLYLINE
  5
33E
100
AcDbEntity
  8
0
100
AcDbPolyline
 62
7
  6
CONTINUOUS
 90
25
 70
0
 10
4.4995182332
 20
5.390928537
 10
4.5052512496
 20
5.3614632951
 10
4.5108723397
 20
5.3318703441
 10
4.5162545284
 20
5.3028310992
 10
4.5214028673
 20
5.2743569548
 10
4.5263263586
 20
5.2464370664
 10
4.531037406
 20
5.2190387018
 10
4.5355420852
 20
5.1921632479
 10
4.5398468407
 20
5.165809301
 10
4.5439635216
 20
5.1399402349
 10
4.5478976034
 20
5.1145564932
 10
4.551654687
 20
5.0896571451
 10
4.5552456271
 20
5.065204297
 10
4.5586748147
 20
5.041200993
 10
4.5619469217
 20
5.0176478546
 10
4.565071936
 20
4.9945049129
 10
4.5680534584
 20
4.9717761838
 10
4.570895725
 20
4.9494605165
 10
4.5736085254
 20
4.9275106443
 10
4.5761947757
 20
4.9059323503
 10
4.5786576233
 20
4.8847296967
 10
4.5810058541
 20
4.8638552598
 10
4.5832437133
 20
4.8432965896
 10
4.5853715862
 20
4.8230759043
 10
4.587323171
 20
4.8038853105
  0
LINE
  5
33F
100
AcDbEntity
  8
0
100
AcDbLine
 62
7
  6
CONTINUOUS
 10
4.4307518854
 20
6.1645903695
 11
4.4290654536
 21
6.1734309547
  0
LINE
  5
340
100
AcDbEntity
  8
0
100
AcDbLine
 62
7
  6
CONTINUOUS
 10
4.5116531406
 20
5.4277506355
 11
4.5113564611
 21
5.4293384278
  0
LINE
  5
341
100
AcDbEntity
  8
0
100
AcDbLine
 62
7
  6
CONTINUOUS
 10
4.4402550988
 20
6.1781120744
 11
4.4388471887
 21
6.1870012695
  0
LINE
  5
342
100
AcDbEntity
  8
0
100
AcDbLine
 62
7
  6
CONTINUOUS
 10
4.45017835
 20
6.1913286041
 11
4.4490503509
 21
6.2002576364
  0
LINE
  5
343
100
AcDbEntity
  8
0
100
AcDbLine
 62
7
  6
CONTINUOUS
 10
4.7622044101
 20
2.8236876273
 11
4.7622044101
 21
2.8193724277
  0
LINE
  5
344
100
AcDbEntity
  8
0
100
AcDbLine
 62
7
  6
CONTINUOUS
 10
4.7716549614
 20
2.8284602898
 11
4.7716549614
 21
2.8241450903
  0
LINE
  5
345
100
AcDbEntity
  8
0
100
AcDbLine
 62
7
  6
CONTINUOUS
 10
4.7764702579
 20
2.8190934122
 11
4.7764702579
 21
2.8147782126
  0
LINE
  5
346
100
AcDbEntity
  8
0
100
AcDbLine
 62
7
  6
CONTINUOUS
 10
4.7856538917
 20
2.8165262915
 11
4.7856538917
 21
2.812211092
  0
LINE
  5
347
100
AcDbEntity
  8
0
100
AcDbLine
 62
7
  6
CONTINUOUS
 10
4.7946975063
 20
2.8220191583
 11
4.7946975063
 21
2.8177039587
  0
LINE
  5
348
100
AcDbEntity
  8
0
100
AcDbLine
 62
7
  6
CONTINUOUS
 10
4.8002394405
 20
2.8130556144
 11
4.8002394405
 21
2.8087404148
  0
LINE
  5
349
100
AcDbEntity
  8
0
100
AcDbLine
 62
7
  6
CONTINUOUS
 10
4.8095979774
 20
2.8112105674
 11
4.8095979774
 21
2.8068953678
  0
LINE
  5
34A
100
AcDbEntity
  8
0
100
AcDbLine
 62
7
  6
CONTINUOUS
 10
4.8181788985
 20
2.817389773
 11
4.8181788985
 21
2.8130745734
  0
LINE
  5
34B
100
AcDbEntity
  8
0
100
AcDbLine
 62
7
  6
CONTINUOUS
 10
4.8244133026
 20
2.8088848261
 11
4.8244133026
 21
2.8045696265
  0
LINE
  5
34C
100
AcDbEntity
  8
0
100
AcDbLine
 62
7
  6
CONTINUOUS
 10
4.8338890441
 20
2.807773228
 11
4.8338890441
 21
2.8034580284
  0
LINE
  5
34D
100
AcDbEntity
  8
0
100
AcDbLine
 62
7
  6
CONTINUOUS
 10
4.8419543673
 20
2.8146006756
 11
4.8419543673
 21
2.8102854761
  0
LINE
  5
34E
100
AcDbEntity
  8
0
100
AcDbLine
 62
7
  6
CONTINUOUS
 10
4.8488428041
 20
2.8066067615
 11
4.8488428041
 21
2.802291562
  0
LINE
  5
34F
100
AcDbEntity
  8
0
100
AcDbLine
 62
7
  6
CONTINUOUS
 10
4.8583773292
 20
2.8062354658
 11
4.8583773292
 21
2.8019202662
  0
LINE
  5
350
100
AcDbEntity
  8
0
100
AcDbLine
 62
7
  6
CONTINUOUS
 10
4.8658773292
 20
2.8383584998
 11
4.8658773194
 21
2.961214373
  0
LINE
  5
351
100
AcDbEntity
  8
0
100
AcDbLine
 62
7
  6
CONTINUOUS
 10
4.8658773292
 20
2.8136690619
 11
4.8658773292
 21
2.8093538624
  0
LINE
  5
352
100
AcDbEntity
  8
0
100
AcDbLine
 62
7
  6
CONTINUOUS
 10
4.8658773292
 20
2.9740823942
 11
4.8658773292
 21
4.5663988982
  0
LINE
  5
353
100
AcDbEntity
  8
0
100
AcDbLine
 62
7
  6
CONTINUOUS
 10
4.8658773439
 20
2.961214373
 11
4.8658778525
 21
2.9740823356
  0
LINE
  5
354
100
AcDbEntity
  8
0
100
AcDbLine
 62
7
  6
CONTINUOUS
 10
4.8733773292
 20
2.8062354658
 11
4.8733773292
 21
2.8019202662
  0
LINE
  5
355
100
AcDbEntity
  8
0
100
AcDbLine
 62
7
  6
CONTINUOUS
 10
4.6331897717
 20
2.9091292085
 11
4.6340219561
 21
2.9196094939
  0
LINE
  5
356
100
AcDbEntity
  8
0
100
AcDbLine
 62
7
  6
CONTINUOUS
 10
4.6305292033
 20
3.3807108163
 11
4.6291772049
 21
3.3699635573
  0
LINE
  5
357
100
AcDbEntity
  8
0
100
AcDbLine
 62
7
  6
CONTINUOUS
 10
4.6291772049
 20
3.3699635573
 11
4.6278213958
 21
3.3596716756
  0
LINE
  5
358
100
AcDbEntity
  8
0
100
AcDbLine
 62
7
  6
CONTINUOUS
 10
4.6278213958
 20
3.3596716756
 11
4.6264673174
 21
3.3498344049
  0
LINE
  5
359
100
AcDbEntity
  8
0
100
AcDbLine
 62
7
  6
CONTINUOUS
 10
4.6264673174
 20
3.3498344049
 11
4.6251201462
 21
3.3404503866
  0
LINE
  5
35A
100
AcDbEntity
  8
0
100
AcDbLine
 62
7
  6
CONTINUOUS
 10
4.6251201462
 20
3.3404503866
 11
4.6237849466
 21
3.3315190919
  0
LINE
  5
35B
100
AcDbEntity
  8
0
100
AcDbLine
 62
7
  6
CONTINUOUS
 10
4.6237849466
 20
3.3315190919
 11
4.6224669089
 21
3.3230446634
  0
LINE
  5
35C
100
AcDbEntity
  8
0
100
AcDbLine
 62
7
  6
CONTINUOUS
 10
4.6224669089
 20
3.3230446634
 11
4.6211713736
 21
3.3150358679
  0
LWPOLYLINE
  5
35D
100
AcDbEntity
  8
0
100
AcDbPolyline
 62
7
  6
CONTINUOUS
 90
28
 70
0
 10
4.5911389852
 20
3.1742092894
 10
4.5907752273
 20
3.1720066466
 10
4.5904223587
 20
3.1698062828
 10
4.5900805185
 20
3.1676072029
 10
4.5897499898
 20
3.1654092648
 10
4.5894310069
 20
3.1632119846
 10
4.5891236598
 20
3.1610137717
 10
4.5888282375
 20
3.1588143112
 10
4.5885450156
 20
3.1566131477
 10
4.588274103
 20
3.1544083825
 10
4.5880157647
 20
3.1521991243
 10
4.5877703736
 20
3.149985317
 10
4.5875382266
 20
3.1477661867
 10
4.5873193986
 20
3.1455384687
 10
4.5871145177
 20
3.1433042515
 10
4.5869245575
 20
3.141070604
 10
4.5867496042
 20
3.1388354285
 10
4.5865899717
 20
3.1365993315
 10
4.586446572
 20
3.1343732561
 10
4.5863192895
 20
3.1321550992
 10
4.5862081656
 20
3.1299452794
 10
4.5861137734
 20
3.127758466
 10
4.5860357172
 20
3.125593012
 10
4.5859736698
 20
3.1234489244
 10
4.585927602
 20
3.1213434989
 10
4.5858968496
 20
3.1192821282
 10
4.5858805375
 20
3.1172581759
 10
4.5858773294
 20
3.1158895814
  0
LINE
  5
35E
100
AcDbEntity
  8
0
100
AcDbLine
 62
7
  6
CONTINUOUS
 10
4.5861550634
 20
3.1158363277
 11
4.5861534197
 21
3.1158264581
  0
LINE
  5
35F
100
AcDbEntity
  8
0
100
AcDbLine
 62
7
  6
CONTINUOUS
 10
4.6211713736
 20
3.3150358679
 11
4.6199030485
 21
3.3074967886
  0
LINE
  5
360
100
AcDbEntity
  8
0
100
AcDbLine
 62
7
  6
CONTINUOUS
 10
4.586186769
 20
3.1158365678
 11
4.5861850781
 21
3.1158266981
  0
LINE
  5
361
100
AcDbEntity
  8
0
100
AcDbLine
 62
7
  6
CONTINUOUS
 10
4.5918982052
 20
3.1786226236
 11
4.5911389852
 21
3.1742092894
  0
LINE
  5
362
100
AcDbEntity
  8
0
100
AcDbLine
 62
7
  6
CONTINUOUS
 10
4.6199030485
 20
3.3074967886
 11
4.6186667347
 21
3.300431005
  0
LINE
  5
363
100
AcDbEntity
  8
0
100
AcDbLine
 62
7
  6
CONTINUOUS
 10
4.5926980106
 20
3.1830480634
 11
4.5918982052
 21
3.1786226236
  0
LINE
  5
364
100
AcDbEntity
  8
0
100
AcDbLine
 62
7
  6
CONTINUOUS
 10
4.6186667347
 20
3.300431005
 11
4.6174654382
 21
3.293831051
  0
LINE
  5
365
100
AcDbEntity
  8
0
100
AcDbLine
 62
7
  6
CONTINUOUS
 10
4.5935371424
 20
3.1874910567
 11
4.5926980106
 21
3.1830480634
  0
LINE
  5
366
100
AcDbEntity
  8
0
100
AcDbLine
 62
7
  6
CONTINUOUS
 10
4.6174654382
 20
3.293831051
 11
4.6163022356
 21
3.2876899938
  0
LINE
  5
367
100
AcDbEntity
  8
0
100
AcDbLine
 62
7
  6
CONTINUOUS
 10
4.6163022356
 20
3.2876899938
 11
4.6151795226
 21
3.2819981682
  0
LWPOLYLINE
  5
368
100
AcDbEntity
  8
0
100
AcDbPolyline
 62
7
  6
CONTINUOUS
 90
3
 70
0
 10
4.5948705629
 20
3.1942169099
 10
4.5944158968
 20
3.1919640551
 10
4.5935371424
 20
3.1874910567
  0
LINE
  5
369
100
AcDbEntity
  8
0
100
AcDbLine
 62
7
  6
CONTINUOUS
 10
5.3374152409
 20
6.1162824301
 11
5.334634088
 21
6.1077229215
  0
LINE
  5
36A
100
AcDbEntity
  8
0
100
AcDbLine
 62
7
  6
CONTINUOUS
 10
5.3449536817
 20
6.1013489879
 11
5.3419050404
 21
6.092881061
  0
LINE
  5
36B
100
AcDbEntity
  8
0
100
AcDbLine
 62
7
  6
CONTINUOUS
 10
5.3520193319
 20
6.0861861263
 11
5.3487062109
 21
6.077818138
  0
LINE
  5
36C
100
AcDbEntity
  8
0
100
AcDbLine
 62
7
  6
CONTINUOUS
 10
4.7051693327
 20
4.6003148625
 11
4.7074528809
 21
4.5993144587
  0
LINE
  5
36D
100
AcDbEntity
  8
0
100
AcDbLine
 62
7
  6
CONTINUOUS
 10
4.6964226385
 20
4.6043151305
 11
4.6965628835
 21
4.6042506962
  0
LINE
  5
36E
100
AcDbEntity
  8
0
100
AcDbLine
 62
7
  6
CONTINUOUS
 10
4.6965621953
 20
4.6042495318
 11
4.6962325311
 21
4.6044062654
  0
LINE
  5
36F
100
AcDbEntity
  8
0
100
AcDbLine
 62
7
  6
CONTINUOUS
 10
4.6962291352
 20
4.6044100947
 11
4.6964346423
 21
4.6043098209
  0
LINE
  5
370
100
AcDbEntity
  8
0
100
AcDbLine
 62
7
  6
CONTINUOUS
 10
4.6946967175
 20
4.6051714932
 11
4.6964346423
 21
4.6043098209
  0
LINE
  5
371
100
AcDbEntity
  8
0
100
AcDbLine
 62
7
  6
CONTINUOUS
 10
4.4048541292
 20
6.1223290722
 11
4.4023432092
 21
6.1309717154
  0
LINE
  5
372
100
AcDbEntity
  8
0
100
AcDbLine
 62
7
  6
CONTINUOUS
 10
4.4130426621
 20
6.1366850988
 11
4.4108044532
 21
6.1454023472
  0
LWPOLYLINE
  5
373
100
AcDbEntity
  8
0
100
AcDbPolyline
 62
7
  6
CONTINUOUS
 90
8
 70
0
 10
5.1213667908
 20
3.2604496711
 10
5.1210473162
 20
3.2617384961
 10
5.1206044422
 20
3.2635624466
 10
5.120146759
 20
3.2654917953
 10
5.1196747161
 20
3.2675277905
 10
5.1191889302
 20
3.2696708552
 10
5.118690138
 20
3.2719207205
 10
5.1181788311
 20
3.2742780609
  0
LINE
  5
374
100
AcDbEntity
  8
0
100
AcDbLine
 62
7
  6
CONTINUOUS
 10
5.1265283857
 20
3.2395099181
 11
5.1214223622
 21
3.2600719125
  0
LINE
  5
375
100
AcDbEntity
  8
0
100
AcDbLine
 62
7
  6
CONTINUOUS
 10
5.1291807761
 20
3.2285857386
 11
5.1265283857
 21
3.2395099181
  0
LINE
  5
376
100
AcDbEntity
  8
0
100
AcDbLine
 62
7
  6
CONTINUOUS
 10
5.1310488314
 20
3.2207036917
 11
5.1291807761
 21
3.2285857386
  0
LINE
  5
377
100
AcDbEntity
  8
0
100
AcDbLine
 62
7
  6
CONTINUOUS
 10
5.1322386105
 20
3.2155714365
 11
5.1310488314
 21
3.2207036917
  0
LINE
  5
378
100
AcDbEntity
  8
0
100
AcDbLine
 62
7
  6
CONTINUOUS
 10
5.133384093
 20
3.2105262244
 11
5.1322386105
 21
3.2155714365
  0
LINE
  5
379
100
AcDbEntity
  8
0
100
AcDbLine
 62
7
  6
CONTINUOUS
 10
4.4216780883
 20
6.1507768335
 11
4.4197147991
 21
6.1595600843
  0
LINE
  5
37A
100
AcDbEntity
  8
0
100
AcDbLine
 62
7
  6
CONTINUOUS
 10
5.1344851634
 20
3.2055599279
 11
5.133384093
 21
3.2105262244
  0
LINE
  5
37B
100
AcDbEntity
  8
0
100
AcDbLine
 62
7
  6
CONTINUOUS
 10
5.1355407992
 20
3.200668618
 11
5.1344851634
 21
3.2055599279
  0
LINE
  5
37C
100
AcDbEntity
  8
0
100
AcDbLine
 62
7
  6
CONTINUOUS
 10
5.1181788311
 20
3.2742780609
 11
5.1171206925
 21
3.2793170973
  0
LINE
  5
37D
100
AcDbEntity
  8
0
100
AcDbLine
 62
7
  6
CONTINUOUS
 10
5.1365500356
 20
3.1958484001
 11
5.1355407992
 21
3.200668618
  0
LINE
  5
37E
100
AcDbEntity
  8
0
100
AcDbLine
 62
7
  6
CONTINUOUS
 10
5.1375121701
 20
3.1910943316
 11
5.1365500356
 21
3.1958484001
  0
LINE
  5
37F
100
AcDbEntity
  8
0
100
AcDbLine
 62
7
  6
CONTINUOUS
 10
5.1171206925
 20
3.2793170973
 11
5.1160190568
 21
3.2847881798
  0
LINE
  5
380
100
AcDbEntity
  8
0
100
AcDbLine
 62
7
  6
CONTINUOUS
 10
5.1384265572
 20
3.1864012396
 11
5.1375121701
 21
3.1910943316
  0
LINE
  5
381
100
AcDbEntity
  8
0
100
AcDbLine
 62
7
  6
CONTINUOUS
 10
5.1160190568
 20
3.2847881798
 11
5.1148756481
 21
3.2907042304
  0
LINE
  5
382
100
AcDbEntity
  8
0
100
AcDbLine
 62
7
  6
CONTINUOUS
 10
5.1392923583
 20
3.181764952
 11
5.1384265572
 21
3.1864012396
  0
LWPOLYLINE
  5
383
100
AcDbEntity
  8
0
100
AcDbPolyline
 62
7
  6
CONTINUOUS
 90
3
 70
0
 10
5.1148756481
 20
3.2907042304
 10
5.1136931828
 20
3.2970730131
 10
5.1130879237
 20
3.3004310053
  0
LINE
  5
384
100
AcDbEntity
  8
0
100
AcDbLine
 62
7
  6
CONTINUOUS
 10
5.1125546905
 20
2.9382446298
 11
5.1142139285
 21
2.927861366
  0
LINE
  5
385
100
AcDbEntity
  8
0
100
AcDbLine
 62
7
  6
CONTINUOUS
 10
5.0977327023
 20
2.9196094939
 11
5.0985648867
 21
2.9091292085
  0
LINE
  5
386
100
AcDbEntity
  8
0
100
AcDbLine
 62
7
  6
CONTINUOUS
 10
4.8829118543
 20
2.8066067615
 11
4.8829118543
 21
2.802291562
  0
LINE
  5
387
100
AcDbEntity
  8
0
100
AcDbLine
 62
7
  6
CONTINUOUS
 10
4.8898002911
 20
2.8146006756
 11
4.8898002911
 21
2.8102854761
  0
LINE
  5
388
100
AcDbEntity
  8
0
100
AcDbLine
 62
7
  6
CONTINUOUS
 10
4.8978656143
 20
2.807773228
 11
4.8978656143
 21
2.8034580284
  0
LINE
  5
389
100
AcDbEntity
  8
0
100
AcDbLine
 62
7
  6
CONTINUOUS
 10
4.9073413558
 20
2.8088848261
 11
4.9073413558
 21
2.8045696265
  0
LINE
  5
38A
100
AcDbEntity
  8
0
100
AcDbLine
 62
7
  6
CONTINUOUS
 10
4.9135757599
 20
2.817389773
 11
4.9135757599
 21
2.8130745734
  0
LINE
  5
38B
100
AcDbEntity
  8
0
100
AcDbLine
 62
7
  6
CONTINUOUS
 10
4.9221566809
 20
2.8112105674
 11
4.9221566809
 21
2.8068953678
  0
LINE
  5
38C
100
AcDbEntity
  8
0
100
AcDbLine
 62
7
  6
CONTINUOUS
 10
4.9315152179
 20
2.8130556144
 11
4.9315152179
 21
2.8087404148
  0
LINE
  5
38D
100
AcDbEntity
  8
0
100
AcDbLine
 62
7
  6
CONTINUOUS
 10
4.9370571521
 20
2.8220191583
 11
4.9370571521
 21
2.8177039587
  0
LINE
  5
38E
100
AcDbEntity
  8
0
100
AcDbLine
 62
7
  6
CONTINUOUS
 10
4.9461007667
 20
2.8165262915
 11
4.9461007667
 21
2.812211092
  0
LINE
  5
38F
100
AcDbEntity
  8
0
100
AcDbLine
 62
7
  6
CONTINUOUS
 10
4.9552844005
 20
2.8190934122
 11
4.9552844005
 21
2.8147782126
  0
LINE
  5
390
100
AcDbEntity
  8
0
100
AcDbLine
 62
7
  6
CONTINUOUS
 10
4.9600996969
 20
2.8284602898
 11
4.9600996969
 21
2.8241450903
  0
LINE
  5
391
100
AcDbEntity
  8
0
100
AcDbLine
 62
7
  6
CONTINUOUS
 10
4.9695502483
 20
2.8236876273
 11
4.9695502483
 21
2.8193724277
  0
LINE
  5
392
100
AcDbEntity
  8
0
100
AcDbLine
 62
7
  6
CONTINUOUS
 10
4.9785023588
 20
2.8269609945
 11
4.9785023588
 21
2.8226457949
  0
LINE
  5
393
100
AcDbEntity
  8
0
100
AcDbLine
 62
7
  6
CONTINUOUS
 10
4.9825613296
 20
2.8366734559
 11
4.9825613296
 21
2.8323582563
  0
LINE
  5
394
100
AcDbEntity
  8
0
100
AcDbLine
 62
7
  6
CONTINUOUS
 10
4.9923605518
 20
2.8326504227
 11
4.9923605518
 21
2.8283352231
  0
LINE
  5
395
100
AcDbEntity
  8
0
100
AcDbLine
 62
7
  6
CONTINUOUS
 10
5.0010259464
 20
2.8366098549
 11
5.0010259464
 21
2.8322946554
  0
LINE
  5
396
100
AcDbEntity
  8
0
100
AcDbLine
 62
7
  6
CONTINUOUS
 10
5.0043035666
 20
2.8466080196
 11
5.0043035666
 21
2.8422928201
  0
LINE
  5
397
100
AcDbEntity
  8
0
100
AcDbLine
 62
7
  6
CONTINUOUS
 10
4.6175407299
 20
2.927861366
 11
4.6191999679
 21
2.9382446298
  0
LINE
  5
398
100
AcDbEntity
  8
0
100
AcDbLine
 62
7
  6
CONTINUOUS
 10
5.3026892048
 20
6.1734309547
 11
5.301002773
 21
6.1645903695
  0
LWPOLYLINE
  5
399
100
AcDbEntity
  8
0
100
AcDbPolyline
 62
7
  6
CONTINUOUS
 90
10
 70
0
 10
4.6151795226
 20
3.2819981682
 10
4.6140991829
 20
3.2767435711
 10
4.6135758272
 20
3.2742780608
 10
4.6130645203
 20
3.2719207204
 10
4.6125657281
 20
3.2696708552
 10
4.6120799423
 20
3.2675277904
 10
4.6116078993
 20
3.2654917953
 10
4.6111502162
 20
3.2635624465
 10
4.6107073422
 20
3.2617384961
 10
4.6103878675
 20
3.2604496711
  0
LINE
  5
39A
100
AcDbEntity
  8
0
100
AcDbLine
 62
7
  6
CONTINUOUS
 10
4.5958106218
 20
3.1987611461
 11
4.5948705629
 21
3.1942169099
  0
LINE
  5
39B
100
AcDbEntity
  8
0
100
AcDbLine
 62
7
  6
CONTINUOUS
 10
4.5967930765
 20
3.2033696814
 11
4.5958106218
 21
3.1987611461
  0
LINE
  5
39C
100
AcDbEntity
  8
0
100
AcDbLine
 62
7
  6
CONTINUOUS
 10
4.5978183979
 20
3.208051428
 11
4.5967930765
 21
3.2033696814
  0
LINE
  5
39D
100
AcDbEntity
  8
0
100
AcDbLine
 62
7
  6
CONTINUOUS
 10
5.3120398593
 20
6.1595600843
 11
5.3100765701
 21
6.1507768335
  0
LINE
  5
39E
100
AcDbEntity
  8
0
100
AcDbLine
 62
7
  6
CONTINUOUS
 10
4.59888796
 20
3.2128190159
 11
4.5978183979
 21
3.208051428
  0
LINE
  5
39F
100
AcDbEntity
  8
0
100
AcDbLine
 62
7
  6
CONTINUOUS
 10
4.6005737468
 20
3.2201387425
 11
4.59888796
 21
3.2128190159
  0
LINE
  5
3A0
100
AcDbEntity
  8
0
100
AcDbLine
 62
7
  6
CONTINUOUS
 10
4.6023546207
 20
3.2276700479
 11
4.6005737468
 21
3.2201387425
  0
LINE
  5
3A1
100
AcDbEntity
  8
0
100
AcDbLine
 62
7
  6
CONTINUOUS
 10
4.6034227657
 20
2.9477527172
 11
4.6058988277
 21
2.9579749432
  0
LINE
  5
3A2
100
AcDbEntity
  8
0
100
AcDbLine
 62
7
  6
CONTINUOUS
 10
4.6048705302
 20
3.2380587186
 11
4.6023546207
 21
3.2276700479
  0
LINE
  5
3A3
100
AcDbEntity
  8
0
100
AcDbLine
 62
7
  6
CONTINUOUS
 10
4.610413865
 20
3.2603982513
 11
4.6048705302
 21
3.2380587186
  0
LINE
  5
3A4
100
AcDbEntity
  8
0
100
AcDbLine
 62
7
  6
CONTINUOUS
 10
5.3209502052
 20
6.1454023472
 11
5.3187119962
 21
6.1366850988
  0
LINE
  5
3A5
100
AcDbEntity
  8
0
100
AcDbLine
 62
7
  6
CONTINUOUS
 10
5.3294114492
 20
6.1309717154
 11
5.3269005292
 21
6.1223290722
  0
LWPOLYLINE
  5
3A6
100
AcDbEntity
  8
0
100
AcDbPolyline
 62
7
  6
CONTINUOUS
 90
22
 70
0
 10
5.0350941119
 20
4.6042028404
 10
5.0367613883
 20
4.6050262432
 10
5.0385302396
 20
4.6059529355
 10
5.0402401477
 20
4.6069050489
 10
5.0418924246
 20
4.6078839833
 10
5.0434872534
 20
4.6088906378
 10
5.0450240519
 20
4.6099254571
 10
5.0465038876
 20
4.6109900293
 10
5.0479266601
 20
4.6120852947
 10
5.0492903787
 20
4.6132106832
 10
5.0505961101
 20
4.6143680921
 10
5.0518429227
 20
4.6155578899
 10
5.0530263723
 20
4.6167766449
 10
5.0541472234
 20
4.6180256672
 10
5.0552044908
 20
4.6193045212
 10
5.0561922713
 20
4.6206058714
 10
5.0571115211
 20
4.621930006
 10
5.0579618266
 20
4.6232753762
 10
5.0587373484
 20
4.6246301441
 10
5.0594377562
 20
4.6259887873
 10
5.0600666963
 20
4.6273530525
 10
5.0604788775
 20
4.6283446955
  0
LINE
  5
3A7
100
AcDbEntity
  8
0
100
AcDbLine
 62
7
  6
CONTINUOUS
 10
5.0350941119
 20
4.6042028404
 11
5.0352851155
 21
4.6042957288
  0
LINE
  5
3A8
100
AcDbEntity
  8
0
100
AcDbLine
 62
7
  6
CONTINUOUS
 10
5.035282526
 20
4.6042924667
 11
5.0350815154
 21
4.6041968623
  0
LINE
  5
3A9
100
AcDbEntity
  8
0
100
AcDbLine
 62
7
  6
CONTINUOUS
 10
5.0350815154
 20
4.6041968623
 11
5.0351052508
 21
4.6042077217
  0
LINE
  5
3AA
100
AcDbEntity
  8
0
100
AcDbLine
 62
7
  6
CONTINUOUS
 10
5.0267705418
 20
4.6003967907
 11
5.0267783128
 21
4.6004002306
  0
LINE
  5
3AB
100
AcDbEntity
  8
0
100
AcDbLine
 62
7
  6
CONTINUOUS
 10
4.3767237707
 20
6.0625490176
 11
4.3731494397
 21
6.0708088093
  0
LINE
  5
3AC
100
AcDbEntity
  8
0
100
AcDbLine
 62
7
  6
CONTINUOUS
 10
4.3830484475
 20
6.077818138
 11
4.3797353265
 21
6.0861861263
  0
LINE
  5
3AD
100
AcDbEntity
  8
0
100
AcDbLine
 62
7
  6
CONTINUOUS
 10
4.389849618
 20
6.092881061
 11
4.3868009767
 21
6.1013489879
  0
LINE
  5
3AE
100
AcDbEntity
  8
0
100
AcDbLine
 62
7
  6
CONTINUOUS
 10
4.3971205704
 20
6.1077229215
 11
4.3943394175
 21
6.1162824301
  0
LINE
  5
3AF
100
AcDbEntity
  8
0
100
AcDbLine
 62
7
  6
CONTINUOUS
 10
5.1130879237
 20
3.3004310053
 11
5.1118516098
 21
3.307496789
  0
LINE
  5
3B0
100
AcDbEntity
  8
0
100
AcDbLine
 62
7
  6
CONTINUOUS
 10
5.1118516098
 20
3.307496789
 11
5.1105832846
 21
3.3150358682
  0
LINE
  5
3B1
100
AcDbEntity
  8
0
100
AcDbLine
 62
7
  6
CONTINUOUS
 10
5.1105832846
 20
3.3150358682
 11
5.1092877494
 21
3.3230446639
  0
LINE
  5
3B2
100
AcDbEntity
  8
0
100
AcDbLine
 62
7
  6
CONTINUOUS
 10
5.1092877494
 20
3.3230446639
 11
5.1079697117
 21
3.3315190924
  0
LINE
  5
3B3
100
AcDbEntity
  8
0
100
AcDbLine
 62
7
  6
CONTINUOUS
 10
5.1079697117
 20
3.3315190924
 11
5.1066345121
 21
3.3404503872
  0
LINE
  5
3B4
100
AcDbEntity
  8
0
100
AcDbLine
 62
7
  6
CONTINUOUS
 10
5.1066345121
 20
3.3404503872
 11
5.1052873409
 21
3.3498344055
  0
LINE
  5
3B5
100
AcDbEntity
  8
0
100
AcDbLine
 62
7
  6
CONTINUOUS
 10
5.1052873409
 20
3.3498344055
 11
5.1039332625
 21
3.3596716763
  0
LINE
  5
3B6
100
AcDbEntity
  8
0
100
AcDbLine
 62
7
  6
CONTINUOUS
 10
5.1039332625
 20
3.3596716763
 11
5.1025774533
 21
3.3699635581
  0
LWPOLYLINE
  5
3B7
100
AcDbEntity
  8
0
100
AcDbPolyline
 62
7
  6
CONTINUOUS
 90
39
 70
0
 10
5.1025774533
 20
3.3699635581
 10
5.101225455
 20
3.3807108172
 10
5.1005527974
 20
3.3862548076
 10
5.0998827419
 20
3.391918496
 10
5.0992163087
 20
3.3977010491
 10
5.0985543091
 20
3.4036036686
 10
5.0978967479
 20
3.4096354608
 10
5.0972445368
 20
3.4157982398
 10
5.0965989891
 20
3.4220904171
 10
5.0959608795
 20
3.4285160581
 10
5.0953306382
 20
3.4350839259
 10
5.0947104521
 20
3.4417856582
 10
5.094103648
 20
3.4485991341
 10
5.0935112482
 20
3.4555264394
 10
5.0929346712
 20
3.4625654657
 10
5.0923774289
 20
3.4696867039
 10
5.0918405712
 20
3.4768888573
 10
5.0913250688
 20
3.4841717898
 10
5.090833795
 20
3.4915063955
 10
5.0903675336
 20
3.4988906775
 10
5.0899269839
 20
3.5063237896
 10
5.0895143402
 20
3.5137768946
 10
5.0891299874
 20
3.5212488215
 10
5.0887743895
 20
3.528736498
 10
5.0884492278
 20
3.5362067339
 10
5.0881544301
 20
3.5436598606
 10
5.0878901125
 20
3.5510913456
 10
5.0876574239
 20
3.5584595093
 10
5.0874558549
 20
3.5657619234
 10
5.0872848819
 20
3.5729958244
 10
5.0871446774
 20
3.5801178721
 10
5.0870342062
 20
3.5871248868
 10
5.0869524101
 20
3.5940143288
 10
5.0868984709
 20
3.6007434539
 10
5.086870864
 20
3.6073089
 10
5.086868058
 20
3.6137088912
 10
5.0868883381
 20
3.619903594
 10
5.0869296695
 20
3.6258787313
 10
5.0869901658
 20
3.6316451554
  0
LWPOLYLINE
  5
3B8
100
AcDbEntity
  8
0
100
AcDbPolyline
 62
7
  6
CONTINUOUS
 90
17
 70
0
 10
4.9692721042
 20
5.7226150915
 10
4.9692626034
 20
5.72272871
 10
4.9692133682
 20
5.7235473228
 10
4.9691977343
 20
5.7243672825
 10
4.9692157301
 20
5.7251872144
 10
4.9692673275
 20
5.7260057357
 10
4.9693524404
 20
5.7268214573
 10
4.969470926
 20
5.7276330074
 10
4.9696225856
 20
5.7284390212
 10
4.9698071615
 20
5.7292381309
 10
4.9700243421
 20
5.7300289923
 10
4.9702737612
 20
5.7308102763
 10
4.9705549945
 20
5.7315806595
 10
4.9708675648
 20
5.7323388425
 10
4.9712109459
 20
5.7330835564
 10
4.9715845603
 20
5.7338135537
 10
4.9719877804
 20
5.7345276119
  0
LINE
  5
3B9
100
AcDbEntity
  8
0
100
AcDbLine
 62
7
  6
CONTINUOUS
 10
5.0143910443
 20
2.843359419
 11
5.0143910443
 21
2.8390442194
  0
LINE
  5
3BA
100
AcDbEntity
  8
0
100
AcDbLine
 62
7
  6
CONTINUOUS
 10
5.0227162978
 20
2.8479805051
 11
5.0227162978
 21
2.8436653056
  0
LINE
  5
3BB
100
AcDbEntity
  8
0
100
AcDbLine
 62
7
  6
CONTINUOUS
 10
5.0251923598
 20
2.8582027311
 11
5.0251923598
 21
2.8538875315
  0
LINE
  5
3BC
100
AcDbEntity
  8
0
100
AcDbLine
 62
7
  6
CONTINUOUS
 10
5.0355059003
 20
2.8557485918
 11
5.0355059003
 21
2.8514333922
  0
LINE
  5
3BD
100
AcDbEntity
  8
0
100
AcDbLine
 62
7
  6
CONTINUOUS
 10
5.0434396848
 20
2.8610028412
 11
5.0434396848
 21
2.8566876417
  0
LINE
  5
3BE
100
AcDbEntity
  8
0
100
AcDbLine
 62
7
  6
CONTINUOUS
 10
5.0450989228
 20
2.8713861051
 11
5.0450989228
 21
2.8670709055
  0
LINE
  5
3BF
100
AcDbEntity
  8
0
100
AcDbLine
 62
7
  6
CONTINUOUS
 10
5.0555749397
 20
2.8697415576
 11
5.0555749397
 21
2.8654263581
  0
LINE
  5
3C0
100
AcDbEntity
  8
0
100
AcDbLine
 62
7
  6
CONTINUOUS
 10
5.0630683408
 20
2.8755965762
 11
5.0630683408
 21
2.8712813767
  0
LINE
  5
3C1
100
AcDbEntity
  8
0
100
AcDbLine
 62
7
  6
CONTINUOUS
 10
5.0639005252
 20
2.8860768616
 11
5.0639005252
 21
2.8817616621
  0
LINE
  5
3C2
100
AcDbEntity
  8
0
100
AcDbLine
 62
7
  6
CONTINUOUS
 10
5.0744744303
 20
2.8852520453
 11
5.0744744303
 21
2.8809368457
  0
LINE
  5
3C3
100
AcDbEntity
  8
0
100
AcDbLine
 62
7
  6
CONTINUOUS
 10
5.0814812487
 20
2.9021844274
 11
5.0814812487
 21
2.8873565353
  0
LINE
  5
3C4
100
AcDbEntity
  8
0
100
AcDbLine
 62
7
  6
CONTINUOUS
 10
5.0920878504
 20
2.9021844274
 11
5.0920878504
 21
2.8978692278
  0
LINE
  5
3C5
100
AcDbEntity
  8
0
100
AcDbLine
 62
7
  6
CONTINUOUS
 10
5.0985648867
 20
2.9091292085
 11
5.0985648867
 21
2.9048140089
  0
LINE
  5
3C6
100
AcDbEntity
  8
0
100
AcDbLine
 62
7
  6
CONTINUOUS
 10
5.1083066074
 20
2.9204343103
 11
5.1083066074
 21
2.9161191107
  0
LINE
  5
3C7
100
AcDbEntity
  8
0
100
AcDbLine
 62
7
  6
CONTINUOUS
 10
5.1142139285
 20
3.3038974805
 11
5.1142139285
 21
3.299582281
  0
LINE
  5
3C8
100
AcDbEntity
  8
0
100
AcDbLine
 62
7
  6
CONTINUOUS
 10
5.1142139285
 20
2.927861366
 11
5.1142139285
 21
2.9235461664
  0
LINE
  5
3C9
100
AcDbEntity
  8
0
100
AcDbLine
 62
7
  6
CONTINUOUS
 10
5.1230307073
 20
2.9398891772
 11
5.1230307073
 21
2.9355739776
  0
LINE
  5
3CA
100
AcDbEntity
  8
0
100
AcDbLine
 62
7
  6
CONTINUOUS
 10
5.1283318926
 20
3.2840061292
 11
5.1283318926
 21
3.2796909297
  0
LINE
  5
3CB
100
AcDbEntity
  8
0
100
AcDbLine
 62
7
  6
CONTINUOUS
 10
5.1283318926
 20
2.9477527172
 11
5.1283318926
 21
2.9434375177
  0
LINE
  5
3CC
100
AcDbEntity
  8
0
100
AcDbLine
 62
7
  6
CONTINUOUS
 10
5.0730468071
 20
3.1721095355
 11
5.0729662639
 21
3.1668373993
  0
LINE
  5
3CD
100
AcDbEntity
  8
0
100
AcDbLine
 62
7
  6
CONTINUOUS
 10
5.0869901658
 20
3.6316451554
 11
5.0872597995
 21
3.6495775991
  0
LINE
  5
3CE
100
AcDbEntity
  8
0
100
AcDbLine
 62
7
  6
CONTINUOUS
 10
5.0872597995
 20
3.6495775991
 11
5.0877205055
 21
3.6780724562
  0
LINE
  5
3CF
100
AcDbEntity
  8
0
100
AcDbLine
 62
7
  6
CONTINUOUS
 10
5.0654976595
 20
3.6559165884
 11
5.0654722132
 21
3.6544317997
  0
LINE
  5
3D0
100
AcDbEntity
  8
0
100
AcDbLine
 62
7
  6
CONTINUOUS
 10
5.0612254599
 20
3.1677930905
 11
5.061200283
 21
3.1663292512
  0
LINE
  5
3D1
100
AcDbEntity
  8
0
100
AcDbLine
 62
7
  6
CONTINUOUS
 10
5.0877205055
 20
3.6780724562
 11
5.0882268875
 21
3.7076195766
  0
LINE
  5
3D2
100
AcDbEntity
  8
0
100
AcDbLine
 62
7
  6
CONTINUOUS
 10
5.0793656964
 20
3.6522375411
 11
5.079339333
 21
3.6507700928
  0
LINE
  5
3D3
100
AcDbEntity
  8
0
100
AcDbLine
 62
7
  6
CONTINUOUS
 10
5.0882268875
 20
3.7076195766
 11
5.0887831979
 21
3.7381850632
  0
LINE
  5
3D4
100
AcDbEntity
  8
0
100
AcDbLine
 62
7
  6
CONTINUOUS
 10
5.0887831979
 20
3.7381850632
 11
5.089380622
 21
3.7690555404
  0
LINE
  5
3D5
100
AcDbEntity
  8
0
100
AcDbLine
 62
7
  6
CONTINUOUS
 10
5.0682344625
 20
3.79249681
 11
5.0681349232
 21
3.7877144463
  0
LWPOLYLINE
  5
3D6
100
AcDbEntity
  8
0
100
AcDbPolyline
 62
7
  6
CONTINUOUS
 90
31
 70
0
 10
5.0893806224
 20
3.7690555615
 10
5.0899395256
 20
3.7963117953
 10
5.0905559558
 20
3.8247677947
 10
5.0912183154
 20
3.8536845552
 10
5.0919300065
 20
3.8830649012
 10
5.0926943978
 20
3.912902203
 10
5.0935149582
 20
3.9431843511
 10
5.0943960603
 20
3.9739219627
 10
5.0953422724
 20
4.0051244587
 10
5.096357843
 20
4.0367853663
 10
5.0974478565
 20
4.0689169881
 10
5.0986176703
 20
4.1015238345
 10
5.0998721402
 20
4.1345894886
 10
5.1012170472
 20
4.1681180916
 10
5.102658486
 20
4.2021145426
 10
5.1042018398
 20
4.2365599802
 10
5.1058533987
 20
4.2714518915
 10
5.1076197631
 20
4.3067886688
 10
5.1095070746
 20
4.3425532676
 10
5.1115226735
 20
4.3787458368
 10
5.1136742838
 20
4.4153682165
 10
5.115969013
 20
4.4524079785
 10
5.1184150365
 20
4.4898672499
 10
5.121020849
 20
4.5277488134
 10
5.1237942607
 20
4.5660423911
 10
5.1267445024
 20
4.6047510225
 10
5.1298814878
 20
4.6438781483
 10
5.1332144422
 20
4.6834151862
 10
5.1367535268
 20
4.723362586
 10
5.1405099801
 20
4.7637294684
 10
5.1444309055
 20
4.8038797991
  0
LINE
  5
3D7
100
AcDbEntity
  8
0
100
AcDbLine
 62
7
  6
CONTINUOUS
 10
5.0820198196
 20
3.7853243472
 11
5.0819639061
 21
3.7827286972
  0
LINE
  5
3D8
100
AcDbEntity
  8
0
100
AcDbLine
 62
7
  6
CONTINUOUS
 10
5.0820670395
 20
3.787506196
 11
5.0819637619
 21
3.7827290162
  0
LINE
  5
3D9
100
AcDbEntity
  8
0
100
AcDbLine
 62
7
  6
CONTINUOUS
 10
5.2720897873
 20
6.2131869731
 11
5.2712428125
 21
6.2042269154
  0
LINE
  5
3DA
100
AcDbEntity
  8
0
100
AcDbLine
 62
7
  6
CONTINUOUS
 10
5.1251567547
 20
4.8738273401
 11
5.1250184592
 21
4.8724168132
  0
LWPOLYLINE
  5
3DB
100
AcDbEntity
  8
0
100
AcDbPolyline
 62
7
  6
CONTINUOUS
 90
25
 70
0
 10
5.1444314875
 20
4.80388531
 10
5.1463830724
 20
4.8230759049
 10
5.1485109454
 20
4.843296591
 10
5.1507488047
 20
4.8638552619
 10
5.1530970356
 20
4.8847296994
 10
5.1555598832
 20
4.9059323533
 10
5.1581461335
 20
4.9275106474
 10
5.1608589339
 20
4.9494605195
 10
5.1637012005
 20
4.9717761867
 10
5.1666827229
 20
4.9945049154
 10
5.1698077371
 20
5.0176478567
 10
5.173079844
 20
5.0412009947
 10
5.1765090316
 20
5.065204298
 10
5.1800999716
 20
5.0896571455
 10
5.1838570551
 20
5.1145564929
 10
5.1877911368
 20
5.1399402338
 10
5.1919078176
 20
5.1658092992
 10
5.196212573
 20
5.1921632455
 10
5.200717252
 20
5.2190386987
 10
5.2054282993
 20
5.2464370626
 10
5.2103517906
 20
5.2743569504
 10
5.2155001293
 20
5.3028310944
 10
5.220882318
 20
5.3318703389
 10
5.226503408
 20
5.3614632896
 10
5.2322364243
 20
5.3909285315
  0
LINE
  5
3DC
100
AcDbEntity
  8
0
100
AcDbLine
 62
7
  6
CONTINUOUS
 10
5.1402495101
 20
4.8672515409
 11
5.1401022819
 21
4.8658144898
  0
LINE
  5
3DD
100
AcDbEntity
  8
0
100
AcDbLine
 62
7
  6
CONTINUOUS
 10
5.1251599773
 20
4.8738268225
 11
5.1250151517
 21
4.872417345
  0
LINE
  5
3DE
100
AcDbEntity
  8
0
100
AcDbLine
 62
7
  6
CONTINUOUS
 10
5.2827043075
 20
6.2002576364
 11
5.2815763084
 21
6.1913286041
  0
LINE
  5
3DF
100
AcDbEntity
  8
0
100
AcDbLine
 62
7
  6
CONTINUOUS
 10
5.2929074697
 20
6.1870012695
 11
5.2914995595
 21
6.1781120744
  0
LINE
  5
3E0
100
AcDbEntity
  8
0
100
AcDbLine
 62
7
  6
CONTINUOUS
 10
5.2203974038
 20
5.4293386316
 11
5.2201023038
 21
5.4277504347
  0
LWPOLYLINE
  5
3E1
100
AcDbEntity
  8
0
100
AcDbPolyline
 62
7
  6
CONTINUOUS
 90
12
 70
0
 10
5.2322364403
 20
5.390928613
 10
5.2380566049
 20
5.4201518044
 10
5.2441766433
 20
5.4501818138
 10
5.2504513401
 20
5.4802789961
 10
5.2568792293
 20
5.510434422
 10
5.2634598616
 20
5.5406440698
 10
5.2701940258
 20
5.5709093031
 10
5.2770810388
 20
5.601224513
 10
5.2841199371
 20
5.6315829042
 10
5.2913114329
 20
5.6619847965
 10
5.2986553713
 20
5.6924265006
 10
5.3061505278
 20
5.7228998783
  0
LWPOLYLINE
  5
3E2
100
AcDbEntity
  8
0
100
AcDbPolyline
 62
7
  6
CONTINUOUS
 90
13
 70
0
 10
5.3183601843
 20
5.7721923302
 10
5.3200532937
 20
5.7797542982
 10
5.3217522254
 20
5.7880861635
 10
5.3232834613
 20
5.7964448258
 10
5.3246468633
 20
5.804826727
 10
5.3258423129
 20
5.8132284543
 10
5.3268696984
 20
5.8216467381
 10
5.3277288745
 20
5.8300781588
 10
5.3284196874
 20
5.8385192564
 10
5.3289419899
 20
5.8469667154
 10
5.3292956215
 20
5.8554171583
 10
5.3294804163
 20
5.8638671528
 10
5.3295027823
 20
5.8713789823
  0
LINE
  5
3E3
100
AcDbEntity
  8
0
100
AcDbLine
 62
7
  6
CONTINUOUS
 10
5.3168709802
 20
5.7658987839
 11
5.3183601846
 21
5.7721923314
  0
LINE
  5
3E4
100
AcDbEntity
  8
0
100
AcDbLine
 62
7
  6
CONTINUOUS
 10
5.3157452554
 20
5.7612485501
 11
5.3168709802
 21
5.7658987839
  0
LINE
  5
3E5
100
AcDbEntity
  8
0
100
AcDbLine
 62
7
  6
CONTINUOUS
 10
5.3146006133
 20
5.7566092626
 11
5.3157452554
 21
5.7612485501
  0
LINE
  5
3E6
100
AcDbEntity
  8
0
100
AcDbLine
 62
7
  6
CONTINUOUS
 10
5.3061505278
 20
5.7228998783
 11
5.3146006133
 21
5.7566092626
  0
LINE
  5
3E7
100
AcDbEntity
  8
0
100
AcDbLine
 62
7
  6
CONTINUOUS
 10
4.5909229213
 20
2.9686806256
 11
4.5942005415
 21
2.9786787903
  0
LWPOLYLINE
  5
3E8
100
AcDbEntity
  8
0
100
AcDbPolyline
 62
7
  6
CONTINUOUS
 90
13
 70
0
 10
5.0604822806
 20
4.6283528506
 10
5.0608182728
 20
4.6292364305
 10
5.0612641185
 20
4.6305461372
 10
5.061654321
 20
4.6318741664
 10
5.0619882399
 20
4.6332212187
 10
5.0622641707
 20
4.6345838023
 10
5.0624802471
 20
4.6359540322
 10
5.0626363376
 20
4.6373300356
 10
5.0627324189
 20
4.6387100924
 10
5.0627685111
 20
4.6400862868
 10
5.0627456144
 20
4.6414547889
 10
5.0626648225
 20
4.6428159148
 10
4.969272083
 20
5.7226152675
  0
LINE
  5
3E9
100
AcDbEntity
  8
0
100
AcDbLine
 62
7
  6
CONTINUOUS
 10
4.3606687327
 20
6.0156560888
 11
4.3563329496
 21
6.0235428489
  0
LINE
  5
3EA
100
AcDbEntity
  8
0
100
AcDbLine
 62
7
  6
CONTINUOUS
 10
4.3655283891
 20
6.0314526489
 11
4.3614424746
 21
6.0394717076
  0
LINE
  5
3EB
100
AcDbEntity
  8
0
100
AcDbLine
 62
7
  6
CONTINUOUS
 10
4.3708818295
 20
6.0470887688
 11
4.3670498159
 21
6.0552322123
  0
LINE
  5
3EC
100
AcDbEntity
  8
0
100
AcDbLine
 62
7
  6
CONTINUOUS
 10
5.1815755118
 20
5.8757438887
 11
5.1815396821
 21
5.8764917671
  0
LINE
  5
3ED
100
AcDbEntity
  8
0
100
AcDbLine
 62
7
  6
CONTINUOUS
 10
5.1815746877
 20
5.8757431026
 11
5.1815722096
 21
5.8758124931
  0
LWPOLYLINE
  5
3EE
100
AcDbEntity
  8
0
100
AcDbPolyline
 62
7
  6
CONTINUOUS
 90
76
 70
0
 10
5.1819016985
 20
5.8623936164
 10
5.1818308812
 20
5.8684789821
 10
5.1816051065
 20
5.8751997835
 10
5.1812293211
 20
5.8819117943
 10
5.1807037687
 20
5.888612854
 10
5.180028804
 20
5.8952994863
 10
5.1792051086
 20
5.9019669254
 10
5.1782332538
 20
5.9086124158
 10
5.177113811
 20
5.9152332151
 10
5.1758478039
 20
5.9218246214
 10
5.1744360623
 20
5.9283839228
 10
5.1728794226
 20
5.9349084116
 10
5.1711792633
 20
5.9413934472
 10
5.1693366463
 20
5.9478363797
 10
5.1673526762
 20
5.9542345739
 10
5.16522912
 20
5.9605834962
 10
5.1629672406
 20
5.9668805857
 10
5.1605683972
 20
5.9731232968
 10
5.158034752
 20
5.9793072349
 10
5.1553677982
 20
5.9854299478
 10
5.152569099
 20
5.9914890023
 10
5.1496412119
 20
5.9974801613
 10
5.1465859562
 20
6.0034009796
 10
5.1434050389
 20
6.0092492749
 10
5.14010117
 20
6.0150213367
 10
5.136676528
 20
6.0207146884
 10
5.133132943
 20
6.0263274576
 10
5.1294728196
 20
6.0318569565
 10
5.1256983607
 20
6.0373010761
 10
5.1218117121
 20
6.0426578333
 10
5.1178153571
 20
6.0479248223
 10
5.1137115664
 20
6.0531001159
 10
5.1095026886
 20
6.0581818278
 10
5.1051914042
 20
6.0631677127
 10
5.1007800975
 20
6.0680559624
 10
5.0962712314
 20
6.0728448735
 10
5.0916676134
 20
6.0775324578
 10
5.0869718318
 20
6.082117
 10
5.0821863551
 20
6.0865970186
 10
5.0773138825
 20
6.0909709722
 10
5.0723571215
 20
6.0952373403
 10
5.0673186339
 20
6.0993947585
 10
5.0622009957
 20
6.1034420105
 10
5.057007176
 20
6.1073776595
 10
5.0517397252
 20
6.1112006019
 10
5.0464006267
 20
6.1149101682
 10
5.0409927862
 20
6.1185051761
 10
5.0355189754
 20
6.1219845702
 10
5.0299809907
 20
6.1253478824
 10
5.0243817249
 20
6.1285940538
 10
5.018724029
 20
6.1317221824
 10
5.0130095547
 20
6.1347319887
 10
5.0072411433
 20
6.1376225287
 10
5.0014217078
 20
6.1403930115
 10
4.9955528632
 20
6.143043279
 10
4.9896375084
 20
6.145572519
 10
4.983678517
 20
6.1479800217
 10
4.977677433
 20
6.1502657471
 10
4.9716373318
 20
6.1524290184
 10
4.9655610019
 20
6.1544692755
 10
4.9594495046
 20
6.1563866118
 10
4.9533058129
 20
6.1581805458
 10
4.9471327979
 20
6.1598506329
 10
4.940931327
 20
6.1613969452
 10
4.9347042988
 20
6.1628191382
 10
4.9284547924
 20
6.164116888
 10
4.9221839589
 20
6.1652902201
 10
4.9158948338
 20
6.1663387783
 10
4.9095901406
 20
6.1672624448
 10
4.9032704793
 20
6.1680613765
 10
4.8969387893
 20
6.1687353284
 10
4.8905977244
 20
6.1692841193
 10
4.8842478092
 20
6.1697079336
 10
4.8778915873
 20
6.1700068013
 10
4.871533404
 20
6.1701806507
 10
4.8658773292
 20
6.1702302277
  0
LINE
  5
3EF
100
AcDbEntity
  8
0
100
AcDbLine
 62
7
  6
CONTINUOUS
 10
5.1819016985
 20
5.8623936164
 11
5.1819007254
 21
5.862741206
  0
LWPOLYLINE
  5
3F0
100
AcDbEntity
  8
0
100
AcDbPolyline
 62
7
  6
CONTINUOUS
 90
30
 70
0
 10
5.1458773292
 20
3.1158806207
 10
5.1458730809
 20
3.1174660664
 10
5.1458532045
 20
3.1196626182
 10
5.1458170919
 20
3.1218615627
 10
5.1457647077
 20
3.1240654211
 10
5.1456960769
 20
3.1262733893
 10
5.1456114064
 20
3.1284813432
 10
5.1455107811
 20
3.1306904436
 10
5.1453943043
 20
3.1329012476
 10
5.1452624371
 20
3.1351086864
 10
5.1451154526
 20
3.1373126151
 10
5.1449534975
 20
3.1395147588
 10
5.1447770281
 20
3.1417127423
 10
5.1445864566
 20
3.1439055069
 10
5.1443818963
 20
3.1460954734
 10
5.144163376
 20
3.1482853652
 10
5.143931088
 20
3.1504758686
 10
5.1436852381
 20
3.1526674892
 10
5.143425805
 20
3.1548625867
 10
5.143152927
 20
3.157061894
 10
5.1428667912
 20
3.1592657251
 10
5.1425674017
 20
3.1614757312
 10
5.1422549221
 20
3.1636922637
 10
5.1419294862
 20
3.1659158862
 10
5.1415910181
 20
3.1681485017
 10
5.1412396127
 20
3.1703907511
 10
5.1408754382
 20
3.1726428096
 10
5.1404985041
 20
3.174905825
 10
5.1401089349
 20
3.1771802107
 10
5.1392923583
 20
3.181764952
  0
LINE
  5
3F1
100
AcDbEntity
  8
0
100
AcDbLine
 62
7
  6
CONTINUOUS
 10
5.1361693711
 20
2.9604290825
 11
5.1361693711
 21
2.956113883
  0
LINE
  5
3F2
100
AcDbEntity
  8
0
100
AcDbLine
 62
7
  6
CONTINUOUS
 10
5.1408317371
 20
3.2630782209
 11
5.1408317371
 21
3.2587630213
  0
LINE
  5
3F3
100
AcDbEntity
  8
0
100
AcDbLine
 62
7
  6
CONTINUOUS
 10
5.1408317371
 20
2.9686806256
 11
5.1408317371
 21
2.964365426
  0
LINE
  5
3F4
100
AcDbEntity
  8
0
100
AcDbLine
 62
7
  6
CONTINUOUS
 10
5.1476415946
 20
2.9819273909
 11
5.1476415946
 21
2.9776121914
  0
LINE
  5
3F5
100
AcDbEntity
  8
0
100
AcDbLine
 62
7
  6
CONTINUOUS
 10
5.1516363962
 20
3.241242783
 11
5.1516363962
 21
3.2369275835
  0
LINE
  5
3F6
100
AcDbEntity
  8
0
100
AcDbLine
 62
7
  6
CONTINUOUS
 10
5.1516363962
 20
2.9905160634
 11
5.1516363962
 21
2.9862008639
  0
LINE
  5
3F7
100
AcDbEntity
  8
0
100
AcDbLine
 62
7
  6
CONTINUOUS
 10
5.1573766477
 20
3.0042515581
 11
5.1573766477
 21
2.9999363586
  0
LINE
  5
3F8
100
AcDbEntity
  8
0
100
AcDbLine
 62
7
  6
CONTINUOUS
 10
5.1606792557
 20
3.2186344384
 11
5.1606792557
 21
3.2143192388
  0
LINE
  5
3F9
100
AcDbEntity
  8
0
100
AcDbLine
 62
7
  6
CONTINUOUS
 10
5.1606792557
 20
3.0131244081
 11
5.1606792557
 21
3.0088092085
  0
LINE
  5
3FA
100
AcDbEntity
  8
0
100
AcDbLine
 62
7
  6
CONTINUOUS
 10
5.1653145106
 20
3.0272639482
 11
5.1653145106
 21
3.0229487487
  0
LINE
  5
3FB
100
AcDbEntity
  8
0
100
AcDbLine
 62
7
  6
CONTINUOUS
 10
5.1679045632
 20
3.1953925749
 11
5.1679045632
 21
3.1910773753
  0
LINE
  5
3FC
100
AcDbEntity
  8
0
100
AcDbLine
 62
7
  6
CONTINUOUS
 10
5.1679045632
 20
3.0363662716
 11
5.1679045632
 21
3.032051072
  0
LINE
  5
3FD
100
AcDbEntity
  8
0
100
AcDbLine
 62
7
  6
CONTINUOUS
 10
5.1714062436
 20
3.0508226822
 11
5.1714062436
 21
3.0465074827
  0
LINE
  5
3FE
100
AcDbEntity
  8
0
100
AcDbLine
 62
7
  6
CONTINUOUS
 10
5.1732677724
 20
3.1716604863
 11
5.1732677724
 21
3.1673452868
  0
LINE
  5
3FF
100
AcDbEntity
  8
0
100
AcDbLine
 62
7
  6
CONTINUOUS
 10
5.1732677724
 20
3.0600983601
 11
5.1732677724
 21
3.0557831606
  0
LINE
  5
400
100
AcDbEntity
  8
0
100
AcDbLine
 62
7
  6
CONTINUOUS
 10
5.1756142894
 20
3.0747825127
 11
5.1756142894
 21
3.0704673131
  0
LINE
  5
401
100
AcDbEntity
  8
0
100
AcDbLine
 62
7
  6
CONTINUOUS
 10
5.1767358173
 20
3.147584489
 11
5.1767358173
 21
3.1432692894
  0
LINE
  5
402
100
AcDbEntity
  8
0
100
AcDbLine
 62
7
  6
CONTINUOUS
 10
5.1767358173
 20
3.0841743575
 11
5.1767358173
 21
3.0798591579
  0
LINE
  5
403
100
AcDbEntity
  8
0
100
AcDbLine
 62
7
  6
CONTINUOUS
 10
5.1779127037
 20
3.0989957192
 11
5.1779127037
 21
3.0946805196
  0
LINE
  5
404
100
AcDbEntity
  8
0
100
AcDbLine
 62
7
  6
CONTINUOUS
 10
5.1782873162
 20
3.1233130194
 11
5.1782873162
 21
3.1189978198
  0
LINE
  5
405
100
AcDbEntity
  8
0
100
AcDbLine
 62
7
  6
CONTINUOUS
 10
5.1782873162
 20
3.1084458271
 11
5.1782873162
 21
3.1041306275
  0
LINE
  5
406
100
AcDbEntity
  8
0
100
AcDbLine
 62
7
  6
CONTINUOUS
 10
5.2378847992
 20
6.2498868933
 11
5.2378847992
 21
6.2408868933
  0
LINE
  5
407
100
AcDbEntity
  8
0
100
AcDbLine
 62
7
  6
CONTINUOUS
 10
5.1819036141
 20
5.8627412452
 11
5.1819016984
 21
5.8623936217
  0
LINE
  5
408
100
AcDbEntity
  8
0
100
AcDbLine
 62
7
  6
CONTINUOUS
 10
5.2496689699
 20
6.2380138521
 11
5.249386273
 21
6.229018293
  0
LINE
  5
409
100
AcDbEntity
  8
0
100
AcDbLine
 62
7
  6
CONTINUOUS
 10
5.2610743845
 20
6.2257765198
 11
5.2605092698
 21
6.2167942792
  0
LINE
  5
40A
100
AcDbEntity
  8
0
100
AcDbLine
 62
7
  6
CONTINUOUS
 10
5.0639005252
 20
2.8860768616
 11
5.0630683408
 21
2.8755965762
  0
LINE
  5
40B
100
AcDbEntity
  8
0
100
AcDbLine
 62
7
  6
CONTINUOUS
 10
5.0639005252
 20
2.8817616621
 11
5.0630683408
 21
2.8712813767
  0
LINE
  5
40C
100
AcDbEntity
  8
0
100
AcDbLine
 62
7
  6
CONTINUOUS
 10
4.5801182622
 20
2.9905160634
 11
4.5841772329
 21
3.0002285249
  0
LINE
  5
40D
100
AcDbEntity
  8
0
100
AcDbLine
 62
7
  6
CONTINUOUS
 10
4.3462564593
 20
5.9511792839
 11
4.340966392
 21
5.9584604369
  0
LINE
  5
40E
100
AcDbEntity
  8
0
100
AcDbLine
 62
7
  6
CONTINUOUS
 10
4.3490979619
 20
5.9674603598
 11
4.3440392115
 21
5.974904085
  0
LINE
  5
40F
100
AcDbEntity
  8
0
100
AcDbLine
 62
7
  6
CONTINUOUS
 10
4.3524494634
 20
5.9836441483
 11
4.3476270222
 21
5.9912430996
  0
LINE
  5
410
100
AcDbEntity
  8
0
100
AcDbLine
 62
7
  6
CONTINUOUS
 10
4.3563076561
 20
5.9997146778
 11
4.3517262834
 21
6.0074613561
  0
LINE
  5
411
100
AcDbEntity
  8
0
100
AcDbLine
 62
7
  6
CONTINUOUS
 10
5.2003778466
 20
6.2832049642
 11
5.2012248214
 21
6.2742449065
  0
LINE
  5
412
100
AcDbEntity
  8
0
100
AcDbLine
 62
7
  6
CONTINUOUS
 10
5.2712428125
 20
5.5335319311
 11
5.2720897873
 21
5.5245718734
  0
LINE
  5
413
100
AcDbEntity
  8
0
100
AcDbLine
 62
7
  6
CONTINUOUS
 10
5.1806469112
 20
5.8891784054
 11
5.1806235671
 21
5.8894319418
  0
LINE
  5
414
100
AcDbEntity
  8
0
100
AcDbLine
 62
7
  6
CONTINUOUS
 10
5.1811865631
 20
5.8824638834
 11
5.1811494943
 21
5.8829934421
  0
LINE
  5
415
100
AcDbEntity
  8
0
100
AcDbLine
 62
7
  6
CONTINUOUS
 10
5.2132270705
 20
6.2724936044
 11
5.2137921852
 21
6.2635113638
  0
LINE
  5
416
100
AcDbEntity
  8
0
100
AcDbLine
 62
7
  6
CONTINUOUS
 10
5.2605092698
 20
5.5209645673
 11
5.2610743845
 21
5.5119823267
  0
LINE
  5
417
100
AcDbEntity
  8
0
100
AcDbLine
 62
7
  6
CONTINUOUS
 10
5.2257335022
 20
6.2613839261
 11
5.226016199
 21
6.2523883671
  0
LINE
  5
418
100
AcDbEntity
  8
0
100
AcDbLine
 62
7
  6
CONTINUOUS
 10
5.1142139285
 20
3.3038974805
 11
5.1133911536
 21
3.2987486782
  0
LINE
  5
419
100
AcDbEntity
  8
0
100
AcDbLine
 62
7
  6
CONTINUOUS
 10
5.0450989228
 20
2.8713861051
 11
5.0434396848
 21
2.8610028412
  0
LINE
  5
41A
100
AcDbEntity
  8
0
100
AcDbLine
 62
7
  6
CONTINUOUS
 10
5.1142139285
 20
3.299582281
 11
5.1137572572
 21
3.2967245002
  0
LINE
  5
41B
100
AcDbEntity
  8
0
100
AcDbLine
 62
7
  6
CONTINUOUS
 10
5.0450989228
 20
2.8670709055
 11
5.0434396848
 21
2.8566876417
  0
LINE
  5
41C
100
AcDbEntity
  8
0
100
AcDbLine
 62
7
  6
CONTINUOUS
 10
4.5710754027
 20
3.0131244081
 11
4.5758906991
 21
3.0224912857
  0
LINE
  5
41D
100
AcDbEntity
  8
0
100
AcDbLine
 62
7
  6
CONTINUOUS
 10
4.3400389174
 20
5.8854045611
 11
4.3338779934
 21
5.8919652787
  0
LINE
  5
41E
100
AcDbEntity
  8
0
100
AcDbLine
 62
7
  6
CONTINUOUS
 10
4.340817454
 20
5.9019133906
 11
4.3348656472
 21
5.9086643902
  0
LINE
  5
41F
100
AcDbEntity
  8
0
100
AcDbLine
 62
7
  6
CONTINUOUS
 10
4.3421141613
 20
5.9183896195
 11
4.3363773454
 21
5.9253242387
  0
LINE
  5
420
100
AcDbEntity
  8
0
100
AcDbLine
 62
7
  6
CONTINUOUS
 10
4.3439277597
 20
5.9348169879
 11
4.3384115962
 21
5.941928383
  0
LWPOLYLINE
  5
421
100
AcDbEntity
  8
0
100
AcDbPolyline
 62
7
  6
CONTINUOUS
 90
16
 70
0
 10
4.7597802104
 20
5.734517123
 10
4.7601835184
 20
5.7338030834
 10
4.7605572149
 20
5.7330731119
 10
4.7609006729
 20
5.7323284328
 10
4.7612133182
 20
5.7315702897
 10
4.7614946254
 20
5.7307999522
 10
4.7617441184
 20
5.7300187196
 10
4.761961375
 20
5.7292279105
 10
4.7621460294
 20
5.7284288537
 10
4.7622977703
 20
5.7276228933
 10
4.7624163412
 20
5.7268113915
 10
4.7625015428
 20
5.7259957129
 10
4.7625532321
 20
5.7251772289
 10
4.7625713225
 20
5.7243573229
 10
4.7625557847
 20
5.7235373756
 10
4.762506646
 20
5.7227187635
  0
LINE
  5
422
100
AcDbEntity
  8
0
100
AcDbLine
 62
7
  6
CONTINUOUS
 10
4.9220244492
 20
5.7177242609
 11
4.925072414
 21
5.7095183805
  0
LINE
  5
423
100
AcDbEntity
  8
0
100
AcDbLine
 62
7
  6
CONTINUOUS
 10
5.1283318926
 20
3.2840061292
 11
5.1258558307
 21
3.2737839033
  0
LINE
  5
424
100
AcDbEntity
  8
0
100
AcDbLine
 62
7
  6
CONTINUOUS
 10
5.0251923598
 20
2.8582027311
 11
5.0227162978
 21
2.8479805051
  0
LINE
  5
425
100
AcDbEntity
  8
0
100
AcDbLine
 62
7
  6
CONTINUOUS
 10
5.1283318926
 20
3.2796909297
 11
5.126843145
 21
3.2735447527
  0
LINE
  5
426
100
AcDbEntity
  8
0
100
AcDbLine
 62
7
  6
CONTINUOUS
 10
5.0251923598
 20
2.8538875315
 11
5.0227162978
 21
2.8436653056
  0
LINE
  5
427
100
AcDbEntity
  8
0
100
AcDbLine
 62
7
  6
CONTINUOUS
 10
4.5638500952
 20
3.0363662716
 11
4.5693920294
 21
3.0453298155
  0
LINE
  5
428
100
AcDbEntity
  8
0
100
AcDbLine
 62
7
  6
CONTINUOUS
 10
4.3439277597
 20
5.8029418585
 11
4.3368163646
 21
5.808458022
  0
LINE
  5
429
100
AcDbEntity
  8
0
100
AcDbLine
 62
7
  6
CONTINUOUS
 10
4.3421141613
 20
5.8193692269
 11
4.3351795422
 21
5.8251060428
  0
LINE
  5
42A
100
AcDbEntity
  8
0
100
AcDbLine
 62
7
  6
CONTINUOUS
 10
4.340817454
 20
5.8358454559
 11
4.3340664544
 21
5.8417972627
  0
LINE
  5
42B
100
AcDbEntity
  8
0
100
AcDbLine
 62
7
  6
CONTINUOUS
 10
4.3400389174
 20
5.8523542854
 11
4.3334781997
 21
5.8585152094
  0
LINE
  5
42C
100
AcDbEntity
  8
0
100
AcDbLine
 62
7
  6
CONTINUOUS
 10
4.3397793198
 20
5.8688794232
 11
4.3334153587
 21
5.8752433843
  0
LINE
  5
42D
100
AcDbEntity
  8
0
100
AcDbLine
 62
7
  6
CONTINUOUS
 10
5.1599018436
 20
6.3128454523
 11
5.1615882754
 21
6.304004867
  0
LINE
  5
42E
100
AcDbEntity
  8
0
100
AcDbLine
 62
7
  6
CONTINUOUS
 10
5.301002773
 20
5.573168477
 11
5.3026892048
 21
5.5643278918
  0
LINE
  5
42F
100
AcDbEntity
  8
0
100
AcDbLine
 62
7
  6
CONTINUOUS
 10
5.1737020702
 20
6.3033908486
 11
5.1751099804
 21
6.2945016536
  0
LINE
  5
430
100
AcDbEntity
  8
0
100
AcDbLine
 62
7
  6
CONTINUOUS
 10
5.2914995595
 20
5.559646772
 11
5.2929074697
 21
5.550757577
  0
LINE
  5
431
100
AcDbEntity
  8
0
100
AcDbLine
 62
7
  6
CONTINUOUS
 10
5.187198511
 20
6.2935074347
 11
5.1883265101
 21
6.2845784024
  0
LINE
  5
432
100
AcDbEntity
  8
0
100
AcDbLine
 62
7
  6
CONTINUOUS
 10
5.2815763084
 20
5.5464302423
 11
5.2827043075
 21
5.53750121
  0
LINE
  5
433
100
AcDbEntity
  8
0
100
AcDbLine
 62
7
  6
CONTINUOUS
 10
5.1408317371
 20
3.2630782209
 11
5.1375541169
 21
3.2530800562
  0
LINE
  5
434
100
AcDbEntity
  8
0
100
AcDbLine
 62
7
  6
CONTINUOUS
 10
5.0043035666
 20
2.8466080196
 11
5.0010259464
 21
2.8366098549
  0
LINE
  5
435
100
AcDbEntity
  8
0
100
AcDbLine
 62
7
  6
CONTINUOUS
 10
5.1408317371
 20
3.2587630213
 11
5.1388336511
 21
3.2526679913
  0
LINE
  5
436
100
AcDbEntity
  8
0
100
AcDbLine
 62
7
  6
CONTINUOUS
 10
5.0043035666
 20
2.8422928201
 11
5.0010259464
 21
2.8322946554
  0
LINE
  5
437
100
AcDbEntity
  8
0
100
AcDbLine
 62
7
  6
CONTINUOUS
 10
4.558486886
 20
3.0600983601
 11
4.5647212901
 21
3.068603307
  0
LINE
  5
438
100
AcDbEntity
  8
0
100
AcDbLine
 62
7
  6
CONTINUOUS
 10
4.5550188411
 20
3.0841743575
 11
4.5619072779
 21
3.0921682716
  0
LINE
  5
439
100
AcDbEntity
  8
0
100
AcDbLine
 62
7
  6
CONTINUOUS
 10
4.3655283891
 20
5.7063061976
 11
4.3575093304
 21
5.7103921121
  0
LINE
  5
43A
100
AcDbEntity
  8
0
100
AcDbLine
 62
7
  6
CONTINUOUS
 10
4.3606687327
 20
5.7221027577
 11
4.3527819726
 21
5.7264385408
  0
LINE
  5
43B
100
AcDbEntity
  8
0
100
AcDbLine
 62
7
  6
CONTINUOUS
 10
4.3563076561
 20
5.7380441686
 11
4.3485609779
 21
5.7426255414
  0
LINE
  5
43C
100
AcDbEntity
  8
0
100
AcDbLine
 62
7
  6
CONTINUOUS
 10
4.3524494634
 20
5.7541146982
 11
4.344850512
 21
5.7589371393
  0
LINE
  5
43D
100
AcDbEntity
  8
0
100
AcDbLine
 62
7
  6
CONTINUOUS
 10
4.3490979619
 20
5.7702984866
 11
4.3416542367
 21
5.775357237
  0
LINE
  5
43E
100
AcDbEntity
  8
0
100
AcDbLine
 62
7
  6
CONTINUOUS
 10
4.3462564593
 20
5.7865795626
 11
4.3389753063
 21
5.7918696298
  0
LWPOLYLINE
  5
43F
100
AcDbEntity
  8
0
100
AcDbPolyline
 62
7
  6
CONTINUOUS
 90
8
 70
0
 10
4.7561914249
 20
5.7389717899
 10
4.7567800693
 20
5.7384014279
 10
4.7573449427
 20
5.7378073243
 10
4.7578851121
 20
5.7371904316
 10
4.7583996253
 20
5.7365518072
 10
4.7588875265
 20
5.7358926238
 10
4.7593479706
 20
5.7352140273
 10
4.7597802104
 20
5.734517123
  0
LINE
  5
440
100
AcDbEntity
  8
0
100
AcDbLine
 62
7
  6
CONTINUOUS
 10
5.1019396745
 20
6.3461956907
 11
5.1047208274
 21
6.337636182
  0
LINE
  5
441
100
AcDbEntity
  8
0
100
AcDbLine
 62
7
  6
CONTINUOUS
 10
5.334634088
 20
5.630035925
 11
5.3374152409
 21
5.6214764164
  0
LINE
  5
442
100
AcDbEntity
  8
0
100
AcDbLine
 62
7
  6
CONTINUOUS
 10
5.1168160582
 20
6.3385452664
 11
5.1193269782
 21
6.3299026233
  0
LINE
  5
443
100
AcDbEntity
  8
0
100
AcDbLine
 62
7
  6
CONTINUOUS
 10
5.3269005292
 20
5.6154297743
 11
5.3294114492
 21
5.6067871311
  0
LINE
  5
444
100
AcDbEntity
  8
0
100
AcDbLine
 62
7
  6
CONTINUOUS
 10
5.1314447958
 20
6.3304313387
 11
5.1336830047
 21
6.3217140903
  0
LINE
  5
445
100
AcDbEntity
  8
0
100
AcDbLine
 62
7
  6
CONTINUOUS
 10
5.3187119962
 20
5.6010737477
 11
5.3209502052
 21
5.5923564992
  0
LINE
  5
446
100
AcDbEntity
  8
0
100
AcDbLine
 62
7
  6
CONTINUOUS
 10
5.1458114503
 20
6.321861915
 11
5.1477747394
 21
6.3130786642
  0
LINE
  5
447
100
AcDbEntity
  8
0
100
AcDbLine
 62
7
  6
CONTINUOUS
 10
5.3100765701
 20
5.586982013
 11
5.3120398593
 21
5.5781987621
  0
LINE
  5
448
100
AcDbEntity
  8
0
100
AcDbLine
 62
7
  6
CONTINUOUS
 10
5.1516363962
 20
3.241242783
 11
5.1475774255
 21
3.2315303216
  0
LINE
  5
449
100
AcDbEntity
  8
0
100
AcDbLine
 62
7
  6
CONTINUOUS
 10
4.9825613296
 20
2.8366734559
 11
4.9785023588
 21
2.8269609945
  0
LINE
  5
44A
100
AcDbEntity
  8
0
100
AcDbLine
 62
7
  6
CONTINUOUS
 10
5.1516363962
 20
3.2369275835
 11
5.1491167075
 21
3.2308983753
  0
LINE
  5
44B
100
AcDbEntity
  8
0
100
AcDbLine
 62
7
  6
CONTINUOUS
 10
4.9825613296
 20
2.8323582563
 11
4.9785023588
 21
2.8226457949
  0
LINE
  5
44C
100
AcDbEntity
  8
0
100
AcDbLine
 62
7
  6
CONTINUOUS
 10
4.5534673422
 20
3.1084458271
 11
4.5609673422
 21
3.1158794232
  0
LINE
  5
44D
100
AcDbEntity
  8
0
100
AcDbLine
 62
7
  6
CONTINUOUS
 10
5.3274292447
 20
5.6033119567
 11
5.3187119962
 21
5.6010737477
  0
LINE
  5
44E
100
AcDbEntity
  8
0
100
AcDbLine
 62
7
  6
CONTINUOUS
 10
5.318859821
 20
5.5889453022
 11
5.3100765701
 21
5.586982013
  0
LINE
  5
44F
100
AcDbEntity
  8
0
100
AcDbLine
 62
7
  6
CONTINUOUS
 10
5.3098433582
 20
5.5748549088
 11
5.301002773
 21
5.573168477
  0
LINE
  5
450
100
AcDbEntity
  8
0
100
AcDbLine
 62
7
  6
CONTINUOUS
 10
4.5113572547
 20
5.4293386319
 11
4.5308882712
 21
5.4329723721
  0
LINE
  5
451
100
AcDbEntity
  8
0
100
AcDbLine
 62
7
  6
CONTINUOUS
 10
4.5116523546
 20
5.4277504347
 11
4.5311844371
 21
5.4313794232
  0
LINE
  5
452
100
AcDbEntity
  8
0
100
AcDbLine
 62
7
  6
CONTINUOUS
 10
5.3003887546
 20
5.5610546822
 11
5.2914995595
 21
5.559646772
  0
LINE
  5
453
100
AcDbEntity
  8
0
100
AcDbLine
 62
7
  6
CONTINUOUS
 10
5.2905053407
 20
5.5475582414
 11
5.2815763084
 21
5.5464302423
  0
LINE
  5
454
100
AcDbEntity
  8
0
100
AcDbLine
 62
7
  6
CONTINUOUS
 10
5.2802028701
 20
5.5343789059
 11
5.2712428125
 21
5.5335319311
  0
LINE
  5
455
100
AcDbEntity
  8
0
100
AcDbLine
 62
7
  6
CONTINUOUS
 10
4.7372595732
 20
5.4313794232
 11
4.5311844371
 21
5.4313794232
  0
LINE
  5
456
100
AcDbEntity
  8
0
100
AcDbLine
 62
7
  6
CONTINUOUS
 10
4.994460725
 20
5.4313794232
 11
5.2005702213
 21
5.4313794232
  0
LINE
  5
457
100
AcDbEntity
  8
0
100
AcDbLine
 62
7
  6
CONTINUOUS
 10
4.4605118459
 20
5.5335319311
 11
4.4515517882
 21
5.5343789059
  0
LINE
  5
458
100
AcDbEntity
  8
0
100
AcDbLine
 62
7
  6
CONTINUOUS
 10
4.45017835
 20
5.5464302423
 11
4.4412493177
 21
5.5475582414
  0
LINE
  5
459
100
AcDbEntity
  8
0
100
AcDbLine
 62
7
  6
CONTINUOUS
 10
4.4402550988
 20
5.559646772
 11
4.4313659038
 21
5.5610546822
  0
LINE
  5
45A
100
AcDbEntity
  8
0
100
AcDbLine
 62
7
  6
CONTINUOUS
 10
5.2201023045
 20
5.4277504346
 11
5.2005702213
 21
5.4313794232
  0
LINE
  5
45B
100
AcDbEntity
  8
0
100
AcDbLine
 62
7
  6
CONTINUOUS
 10
5.2203974038
 20
5.4293386316
 11
5.2008663871
 21
5.4329723718
  0
LINE
  5
45C
100
AcDbEntity
  8
0
100
AcDbLine
 62
7
  6
CONTINUOUS
 10
4.4307518854
 20
5.573168477
 11
4.4219113002
 21
5.5748549088
  0
LINE
  5
45D
100
AcDbEntity
  8
0
100
AcDbLine
 62
7
  6
CONTINUOUS
 10
4.4216780883
 20
5.586982013
 11
4.4128948374
 21
5.5889453022
  0
LINE
  5
45E
100
AcDbEntity
  8
0
100
AcDbLine
 62
7
  6
CONTINUOUS
 10
4.4130426621
 20
5.6010737477
 11
4.4043254137
 21
5.6033119567
  0
LINE
  5
45F
100
AcDbEntity
  8
0
100
AcDbLine
 62
7
  6
CONTINUOUS
 10
4.4048541292
 20
5.6154297743
 11
4.396211486
 21
5.6179406942
  0
LINE
  5
460
100
AcDbEntity
  8
0
100
AcDbLine
 62
7
  6
CONTINUOUS
 10
4.3971205704
 20
5.630035925
 11
4.3885610618
 21
5.632817078
  0
LINE
  5
461
100
AcDbEntity
  8
0
100
AcDbLine
 62
7
  6
CONTINUOUS
 10
4.389849618
 20
5.6448777855
 11
4.3813816911
 21
5.6479264268
  0
LINE
  5
462
100
AcDbEntity
  8
0
100
AcDbLine
 62
7
  6
CONTINUOUS
 10
4.3830484475
 20
5.6599407085
 11
4.3746804591
 21
5.6632538295
  0
LINE
  5
463
100
AcDbEntity
  8
0
100
AcDbLine
 62
7
  6
CONTINUOUS
 10
4.3767237707
 20
5.6752098288
 11
4.3684639791
 21
5.6787841599
  0
LINE
  5
464
100
AcDbEntity
  8
0
100
AcDbLine
 62
7
  6
CONTINUOUS
 10
4.3708818295
 20
5.6906700777
 11
4.3627383861
 21
5.6945020913
  0
LINE
  5
465
100
AcDbEntity
  8
0
100
AcDbLine
 62
7
  6
CONTINUOUS
 10
4.7555800105
 20
5.7395174641
 11
4.7561914249
 21
5.7389717899
  0
LINE
  5
466
100
AcDbEntity
  8
0
100
AcDbLine
 62
7
  6
CONTINUOUS
 10
5.0559725926
 20
6.3662927733
 11
5.0595469236
 21
6.3580329817
  0
LINE
  5
467
100
AcDbEntity
  8
0
100
AcDbLine
 62
7
  6
CONTINUOUS
 10
5.3550308876
 20
5.6752098288
 11
5.3586052187
 21
5.6669500372
  0
LINE
  5
468
100
AcDbEntity
  8
0
100
AcDbLine
 62
7
  6
CONTINUOUS
 10
5.0715029229
 20
6.3600762933
 11
5.0748160439
 21
6.351708305
  0
LINE
  5
469
100
AcDbEntity
  8
0
100
AcDbLine
 62
7
  6
CONTINUOUS
 10
5.3487062109
 20
5.6599407085
 11
5.3520193319
 21
5.6515727201
  0
LINE
  5
46A
100
AcDbEntity
  8
0
100
AcDbLine
 62
7
  6
CONTINUOUS
 10
5.0868303257
 20
6.3533750613
 11
5.0898789669
 21
6.3449071344
  0
LINE
  5
46B
100
AcDbEntity
  8
0
100
AcDbLine
 62
7
  6
CONTINUOUS
 10
5.3419050404
 20
5.6448777855
 11
5.3449536817
 21
5.6364098586
  0
LINE
  5
46C
100
AcDbEntity
  8
0
100
AcDbLine
 62
7
  6
CONTINUOUS
 10
5.1606792557
 20
3.2186344384
 11
5.1558639592
 21
3.2092675608
  0
LINE
  5
46D
100
AcDbEntity
  8
0
100
AcDbLine
 62
7
  6
CONTINUOUS
 10
4.9600996969
 20
2.8284602898
 11
4.9552844005
 21
2.8190934122
  0
LINE
  5
46E
100
AcDbEntity
  8
0
100
AcDbLine
 62
7
  6
CONTINUOUS
 10
5.1606792557
 20
3.2143192388
 11
5.1576250869
 21
3.2083781663
  0
LINE
  5
46F
100
AcDbEntity
  8
0
100
AcDbLine
 62
7
  6
CONTINUOUS
 10
4.9600996969
 20
2.8241450903
 11
4.9552844005
 21
2.8147782126
  0
LINE
  5
470
100
AcDbEntity
  8
0
100
AcDbLine
 62
7
  6
CONTINUOUS
 10
5.1679045632
 20
3.1953925749
 11
5.162362629
 21
3.186429031
  0
LINE
  5
471
100
AcDbEntity
  8
0
100
AcDbLine
 62
7
  6
CONTINUOUS
 10
4.9370571521
 20
2.8220191583
 11
4.9315152179
 21
2.8130556144
  0
LINE
  5
472
100
AcDbEntity
  8
0
100
AcDbLine
 62
7
  6
CONTINUOUS
 10
5.1679045632
 20
3.1910773753
 11
5.1643022375
 21
3.185250961
  0
LINE
  5
473
100
AcDbEntity
  8
0
100
AcDbLine
 62
7
  6
CONTINUOUS
 10
4.9370571521
 20
2.8177039587
 11
4.9315152179
 21
2.8087404148
  0
LINE
  5
474
100
AcDbEntity
  8
0
100
AcDbLine
 62
7
  6
CONTINUOUS
 10
4.5538419547
 20
3.1327631273
 11
4.5619072779
 21
3.1395905749
  0
LINE
  5
475
100
AcDbEntity
  8
0
100
AcDbLine
 62
7
  6
CONTINUOUS
 10
4.556140369
 20
3.1569763338
 11
4.5647212901
 21
3.1631555394
  0
LINE
  5
476
100
AcDbEntity
  8
0
100
AcDbLine
 62
7
  6
CONTINUOUS
 10
5.2694915103
 20
5.5215296819
 11
5.2605092698
 21
5.5209645673
  0
LINE
  5
477
100
AcDbEntity
  8
0
100
AcDbLine
 62
7
  6
CONTINUOUS
 10
5.2583818321
 20
5.5090232503
 11
5.2565662638
 21
5.5089661937
  0
LINE
  5
478
100
AcDbEntity
  8
0
100
AcDbLine
 62
7
  6
CONTINUOUS
 10
4.4751883947
 20
5.5089661937
 11
4.4733728263
 21
5.5090232503
  0
LINE
  5
479
100
AcDbEntity
  8
0
100
AcDbLine
 62
7
  6
CONTINUOUS
 10
4.4712453886
 20
5.5209645673
 11
4.462263148
 21
5.5215296819
  0
LINE
  5
47A
100
AcDbEntity
  8
0
100
AcDbLine
 62
7
  6
CONTINUOUS
 10
4.9921312111
 20
6.3861957745
 11
4.9967125838
 21
6.3784490963
  0
LINE
  5
47B
100
AcDbEntity
  8
0
100
AcDbLine
 62
7
  6
CONTINUOUS
 10
5.3754470022
 20
5.7380441686
 11
5.380028375
 21
5.7302974904
  0
LINE
  5
47C
100
AcDbEntity
  8
0
100
AcDbLine
 62
7
  6
CONTINUOUS
 10
5.0083182117
 20
6.3819747799
 11
5.0126539947
 21
6.3740880198
  0
LINE
  5
47D
100
AcDbEntity
  8
0
100
AcDbLine
 62
7
  6
CONTINUOUS
 10
5.3710859257
 20
5.7221027577
 11
5.3754217088
 21
5.7142159976
  0
LINE
  5
47E
100
AcDbEntity
  8
0
100
AcDbLine
 62
7
  6
CONTINUOUS
 10
5.0243646403
 20
6.377247422
 11
5.0284505548
 21
6.3692283633
  0
LINE
  5
47F
100
AcDbEntity
  8
0
100
AcDbLine
 62
7
  6
CONTINUOUS
 10
5.3662262693
 20
5.7063061976
 11
5.3703121838
 21
5.6982871389
  0
LINE
  5
480
100
AcDbEntity
  8
0
100
AcDbLine
 62
7
  6
CONTINUOUS
 10
5.0402546611
 20
6.3720183664
 11
5.0440866748
 21
6.3638749229
  0
LINE
  5
481
100
AcDbEntity
  8
0
100
AcDbLine
 62
7
  6
CONTINUOUS
 10
5.3608728289
 20
5.6906700777
 11
5.3647048425
 21
5.6825266342
  0
LINE
  5
482
100
AcDbEntity
  8
0
100
AcDbLine
 62
7
  6
CONTINUOUS
 10
5.1732677724
 20
3.1716604863
 11
5.1670333683
 21
3.1631555394
  0
LINE
  5
483
100
AcDbEntity
  8
0
100
AcDbLine
 62
7
  6
CONTINUOUS
 10
4.9135757599
 20
2.817389773
 11
4.9073413558
 21
2.8088848261
  0
LINE
  5
484
100
AcDbEntity
  8
0
100
AcDbLine
 62
7
  6
CONTINUOUS
 10
5.1732677724
 20
3.1673452868
 11
5.169103698
 21
3.1616646747
  0
LINE
  5
485
100
AcDbEntity
  8
0
100
AcDbLine
 62
7
  6
CONTINUOUS
 10
4.9135757599
 20
2.8130745734
 11
4.9073413558
 21
2.8045696265
  0
LINE
  5
486
100
AcDbEntity
  8
0
100
AcDbLine
 62
7
  6
CONTINUOUS
 10
4.5603484147
 20
3.1809361642
 11
4.5693920294
 21
3.186429031
  0
LINE
  5
487
100
AcDbEntity
  8
0
100
AcDbLine
 62
7
  6
CONTINUOUS
 10
4.5664401478
 20
3.2044948982
 11
4.5758906991
 21
3.2092675608
  0
LINE
  5
488
100
AcDbEntity
  8
0
100
AcDbLine
 62
7
  6
CONTINUOUS
 10
4.8066784751
 20
5.7095197604
 11
4.8067396233
 21
5.7094970564
  0
LINE
  5
489
100
AcDbEntity
  8
0
100
AcDbLine
 62
7
  6
CONTINUOUS
 10
5.24418777
 20
5.6441991831
 11
5.2269918409
 21
5.6544119212
  0
LINE
  5
48A
100
AcDbEntity
  8
0
100
AcDbLine
 62
7
  6
CONTINUOUS
 10
4.9428871226
 20
6.3957814461
 11
4.9481771899
 21
6.3885002932
  0
LINE
  5
48B
100
AcDbEntity
  8
0
100
AcDbLine
 62
7
  6
CONTINUOUS
 10
5.3854981991
 20
5.7865795626
 11
5.3907882664
 21
5.7792984096
  0
LINE
  5
48C
100
AcDbEntity
  8
0
100
AcDbLine
 62
7
  6
CONTINUOUS
 10
4.9593995154
 20
6.3931025157
 11
4.9644582658
 21
6.3856587905
  0
LINE
  5
48D
100
AcDbEntity
  8
0
100
AcDbLine
 62
7
  6
CONTINUOUS
 10
5.3826566965
 20
5.7702984866
 11
5.3877154469
 21
5.7628547615
  0
LINE
  5
48E
100
AcDbEntity
  8
0
100
AcDbLine
 62
7
  6
CONTINUOUS
 10
4.9758196131
 20
6.3899062404
 11
4.9806420543
 21
6.3823072891
  0
LINE
  5
48F
100
AcDbEntity
  8
0
100
AcDbLine
 62
7
  6
CONTINUOUS
 10
5.379305195
 20
5.7541146982
 11
5.3841276362
 21
5.7465157468
  0
LINE
  5
490
100
AcDbEntity
  8
0
100
AcDbLine
 62
7
  6
CONTINUOUS
 10
5.1767358173
 20
3.147584489
 11
5.1698473805
 21
3.1395905749
  0
LINE
  5
491
100
AcDbEntity
  8
0
100
AcDbLine
 62
7
  6
CONTINUOUS
 10
4.8898002911
 20
2.8146006756
 11
4.8829118543
 21
2.8066067615
  0
LINE
  5
492
100
AcDbEntity
  8
0
100
AcDbLine
 62
7
  6
CONTINUOUS
 10
5.1767358173
 20
3.1432692894
 11
5.1719974531
 21
3.1377704981
  0
LINE
  5
493
100
AcDbEntity
  8
0
100
AcDbLine
 62
7
  6
CONTINUOUS
 10
4.8898002911
 20
2.8102854761
 11
4.8829118543
 21
2.802291562
  0
LINE
  5
494
100
AcDbEntity
  8
0
100
AcDbLine
 62
7
  6
CONTINUOUS
 10
4.5743780107
 20
3.2275072883
 11
4.5841772329
 21
3.2315303216
  0
LINE
  5
495
100
AcDbEntity
  8
0
100
AcDbLine
 62
7
  6
CONTINUOUS
 10
4.5841130638
 20
3.2498314555
 11
4.5942005415
 21
3.2530800562
  0
LINE
  5
496
100
AcDbEntity
  8
0
100
AcDbLine
 62
7
  6
CONTINUOUS
 10
4.4391183489
 20
5.762567923
 11
4.4583328205
 21
5.767354425
  0
LINE
  5
497
100
AcDbEntity
  8
0
100
AcDbLine
 62
7
  6
CONTINUOUS
 10
4.4350494282
 20
5.7804112471
 11
4.444671373
 21
5.7824027887
  0
LINE
  5
498
100
AcDbEntity
  8
0
100
AcDbLine
 62
7
  6
CONTINUOUS
 10
4.4446713724
 20
5.7824027893
 11
4.4544617824
 21
5.7843971911
  0
LINE
  5
499
100
AcDbEntity
  8
0
100
AcDbLine
 62
7
  6
CONTINUOUS
 10
5.3057478417
 20
5.8713790709
 11
5.2858705448
 21
5.8712666498
  0
LINE
  5
49A
100
AcDbEntity
  8
0
100
AcDbLine
 62
7
  6
CONTINUOUS
 10
4.4260068167
 20
5.8713790709
 11
4.4458841111
 21
5.8712662175
  0
LINE
  5
49B
100
AcDbEntity
  8
0
100
AcDbLine
 62
7
  6
CONTINUOUS
 10
5.2870832836
 20
5.7824027881
 11
5.2772928614
 21
5.7843971939
  0
LINE
  5
49C
100
AcDbEntity
  8
0
100
AcDbLine
 62
7
  6
CONTINUOUS
 10
5.2967052309
 20
5.7804112468
 11
5.2870832858
 21
5.7824027884
  0
LINE
  5
49D
100
AcDbEntity
  8
0
100
AcDbLine
 62
7
  6
CONTINUOUS
 10
5.2926363098
 20
5.762567923
 11
5.2734220087
 21
5.7673543825
  0
LINE
  5
49E
100
AcDbEntity
  8
0
100
AcDbLine
 62
7
  6
CONTINUOUS
 10
4.8762415431
 20
6.4012785527
 11
4.882402467
 21
6.3947178351
  0
LINE
  5
49F
100
AcDbEntity
  8
0
100
AcDbLine
 62
7
  6
CONTINUOUS
 10
5.391715741
 20
5.8523542854
 11
5.397876665
 21
5.8457935678
  0
LINE
  5
4A0
100
AcDbEntity
  8
0
100
AcDbLine
 62
7
  6
CONTINUOUS
 10
4.8929594897
 20
6.4006902981
 11
4.8989112965
 21
6.3939392984
  0
LINE
  5
4A1
100
AcDbEntity
  8
0
100
AcDbLine
 62
7
  6
CONTINUOUS
 10
5.3909372044
 20
5.8358454559
 11
5.3968890112
 21
5.8290944563
  0
LINE
  5
4A2
100
AcDbEntity
  8
0
100
AcDbLine
 62
7
  6
CONTINUOUS
 10
4.9096507096
 20
6.3995772103
 11
4.9153875255
 21
6.3926425911
  0
LINE
  5
4A3
100
AcDbEntity
  8
0
100
AcDbLine
 62
7
  6
CONTINUOUS
 10
5.389640497
 20
5.8193692269
 11
5.395377313
 21
5.8124346077
  0
LINE
  5
4A4
100
AcDbEntity
  8
0
100
AcDbLine
 62
7
  6
CONTINUOUS
 10
4.9262987304
 20
6.3979403878
 11
4.9318148939
 21
6.3908289927
  0
LINE
  5
4A5
100
AcDbEntity
  8
0
100
AcDbLine
 62
7
  6
CONTINUOUS
 10
5.3878268987
 20
5.8029418585
 11
5.3933430622
 21
5.7958304634
  0
LINE
  5
4A6
100
AcDbEntity
  8
0
100
AcDbLine
 62
7
  6
CONTINUOUS
 10
5.1782873162
 20
3.1233130194
 11
5.1707873162
 21
3.1158794232
  0
LINE
  5
4A7
100
AcDbEntity
  8
0
100
AcDbLine
 62
7
  6
CONTINUOUS
 10
4.8658773292
 20
2.8136690619
 11
4.8583773292
 21
2.8062354658
  0
LINE
  5
4A8
100
AcDbEntity
  8
0
100
AcDbLine
 62
7
  6
CONTINUOUS
 10
5.1782873162
 20
3.1189978198
 11
5.1729641897
 21
3.1137218235
  0
LINE
  5
4A9
100
AcDbEntity
  8
0
100
AcDbLine
 62
7
  6
CONTINUOUS
 10
4.8658773292
 20
2.8093538624
 11
4.8583773292
 21
2.8019202662
  0
LINE
  5
4AA
100
AcDbEntity
  8
0
100
AcDbLine
 62
7
  6
CONTINUOUS
 10
5.1779127037
 20
3.0989957192
 11
5.1698473805
 21
3.0921682716
  0
LINE
  5
4AB
100
AcDbEntity
  8
0
100
AcDbLine
 62
7
  6
CONTINUOUS
 10
4.8419543673
 20
2.8146006756
 11
4.8338890441
 21
2.807773228
  0
LINE
  5
4AC
100
AcDbEntity
  8
0
100
AcDbLine
 62
7
  6
CONTINUOUS
 10
5.1779127037
 20
3.0946805196
 11
5.1719974531
 21
3.0896731488
  0
LINE
  5
4AD
100
AcDbEntity
  8
0
100
AcDbLine
 62
7
  6
CONTINUOUS
 10
4.8419543673
 20
2.8102854761
 11
4.8338890441
 21
2.8034580284
  0
LINE
  5
4AE
100
AcDbEntity
  8
0
100
AcDbLine
 62
7
  6
CONTINUOUS
 10
4.4260068963
 20
5.8713796071
 11
4.402251875
 21
5.8713789819
  0
LINE
  5
4AF
100
AcDbEntity
  8
0
100
AcDbLine
 62
7
  6
CONTINUOUS
 10
5.3057477621
 20
5.8713796071
 11
5.3295027834
 21
5.8713789819
  0
LINE
  5
4B0
100
AcDbEntity
  8
0
100
AcDbLine
 62
7
  6
CONTINUOUS
 10
4.7928283694
 20
6.3963451562
 11
4.7999397645
 21
6.3908289927
  0
LINE
  5
4B1
100
AcDbEntity
  8
0
100
AcDbLine
 62
7
  6
CONTINUOUS
 10
5.3878268987
 20
5.9348169879
 11
5.3949382938
 21
5.9293008244
  0
LINE
  5
4B2
100
AcDbEntity
  8
0
100
AcDbLine
 62
7
  6
CONTINUOUS
 10
4.8094325137
 20
6.398379407
 11
4.8163671329
 21
6.3926425911
  0
LINE
  5
4B3
100
AcDbEntity
  8
0
100
AcDbLine
 62
7
  6
CONTINUOUS
 10
5.389640497
 20
5.9183896195
 11
5.3965751162
 21
5.9126528036
  0
LINE
  5
4B4
100
AcDbEntity
  8
0
100
AcDbLine
 62
7
  6
CONTINUOUS
 10
4.8260923622
 20
6.3998911052
 11
4.8328433619
 21
6.3939392984
  0
LINE
  5
4B5
100
AcDbEntity
  8
0
100
AcDbLine
 62
7
  6
CONTINUOUS
 10
5.3909372044
 20
5.9019133906
 11
5.397688204
 21
5.8959615838
  0
LINE
  5
4B6
100
AcDbEntity
  8
0
100
AcDbLine
 62
7
  6
CONTINUOUS
 10
4.8427914737
 20
6.400878759
 11
4.8493521914
 21
6.3947178351
  0
LINE
  5
4B7
100
AcDbEntity
  8
0
100
AcDbLine
 62
7
  6
CONTINUOUS
 10
5.391715741
 20
5.8854045611
 11
5.3982764587
 21
5.8792436371
  0
LINE
  5
4B8
100
AcDbEntity
  8
0
100
AcDbLine
 62
7
  6
CONTINUOUS
 10
4.8595133682
 20
6.4013413937
 11
4.8658773292
 21
6.3949774327
  0
LINE
  5
4B9
100
AcDbEntity
  8
0
100
AcDbLine
 62
7
  6
CONTINUOUS
 10
5.3919753386
 20
5.8688794232
 11
5.3983392997
 21
5.8625154622
  0
LINE
  5
4BA
100
AcDbEntity
  8
0
100
AcDbLine
 62
7
  6
CONTINUOUS
 10
5.1756142894
 20
3.0747825127
 11
5.1670333683
 21
3.068603307
  0
LINE
  5
4BB
100
AcDbEntity
  8
0
100
AcDbLine
 62
7
  6
CONTINUOUS
 10
4.8181788985
 20
2.817389773
 11
4.8095979774
 21
2.8112105674
  0
LINE
  5
4BC
100
AcDbEntity
  8
0
100
AcDbLine
 62
7
  6
CONTINUOUS
 10
5.1756142894
 20
3.0704673131
 11
5.169103698
 21
3.0657789723
  0
LINE
  5
4BD
100
AcDbEntity
  8
0
100
AcDbLine
 62
7
  6
CONTINUOUS
 10
4.8181788985
 20
2.8130745734
 11
4.8095979774
 21
2.8068953678
  0
LINE
  5
4BE
100
AcDbEntity
  8
0
100
AcDbLine
 62
7
  6
CONTINUOUS
 10
5.1714062436
 20
3.0508226822
 11
5.162362629
 21
3.0453298155
  0
LINE
  5
4BF
100
AcDbEntity
  8
0
100
AcDbLine
 62
7
  6
CONTINUOUS
 10
4.7946975063
 20
2.8220191583
 11
4.7856538917
 21
2.8165262915
  0
LINE
  5
4C0
100
AcDbEntity
  8
0
100
AcDbLine
 62
7
  6
CONTINUOUS
 10
5.1714062436
 20
3.0465074827
 11
5.1643022375
 21
3.0421926859
  0
LINE
  5
4C1
100
AcDbEntity
  8
0
100
AcDbLine
 62
7
  6
CONTINUOUS
 10
4.7946975063
 20
2.8177039587
 11
4.7856538917
 21
2.812211092
  0
LINE
  5
4C2
100
AcDbEntity
  8
0
100
AcDbLine
 62
7
  6
CONTINUOUS
 10
4.6952850449
 20
6.3733142778
 11
4.7033041036
 21
6.3692283633
  0
LINE
  5
4C3
100
AcDbEntity
  8
0
100
AcDbLine
 62
7
  6
CONTINUOUS
 10
5.3662262693
 20
6.0314526489
 11
5.374245328
 21
6.0273667344
  0
LINE
  5
4C4
100
AcDbEntity
  8
0
100
AcDbLine
 62
7
  6
CONTINUOUS
 10
4.7112139035
 20
6.3784238028
 11
4.7191006637
 21
6.3740880198
  0
LINE
  5
4C5
100
AcDbEntity
  8
0
100
AcDbLine
 62
7
  6
CONTINUOUS
 10
5.3710859257
 20
6.0156560888
 11
5.3789726858
 21
6.0113203057
  0
LINE
  5
4C6
100
AcDbEntity
  8
0
100
AcDbLine
 62
7
  6
CONTINUOUS
 10
4.7272953963
 20
6.383030469
 11
4.7350420746
 21
6.3784490963
  0
LINE
  5
4C7
100
AcDbEntity
  8
0
100
AcDbLine
 62
7
  6
CONTINUOUS
 10
5.3754470022
 20
5.9997146778
 11
5.3831936805
 21
5.9951333051
  0
LINE
  5
4C8
100
AcDbEntity
  8
0
100
AcDbLine
 62
7
  6
CONTINUOUS
 10
4.7435136528
 20
6.3871297302
 11
4.7511126041
 21
6.3823072891
  0
LINE
  5
4C9
100
AcDbEntity
  8
0
100
AcDbLine
 62
7
  6
CONTINUOUS
 10
5.379305195
 20
5.9836441483
 11
5.3869041464
 21
5.9788217072
  0
LINE
  5
4CA
100
AcDbEntity
  8
0
100
AcDbLine
 62
7
  6
CONTINUOUS
 10
4.7598526674
 20
6.3907175409
 11
4.7672963926
 21
6.3856587905
  0
LINE
  5
4CB
100
AcDbEntity
  8
0
100
AcDbLine
 62
7
  6
CONTINUOUS
 10
5.3826566965
 20
5.9674603598
 11
5.3901004217
 21
5.9624016094
  0
LINE
  5
4CC
100
AcDbEntity
  8
0
100
AcDbLine
 62
7
  6
CONTINUOUS
 10
4.7762963156
 20
6.3937903604
 11
4.7835774685
 21
6.3885002932
  0
LINE
  5
4CD
100
AcDbEntity
  8
0
100
AcDbLine
 62
7
  6
CONTINUOUS
 10
5.3854981991
 20
5.9511792839
 11
5.3927793521
 21
5.9458892166
  0
LINE
  5
4CE
100
AcDbEntity
  8
0
100
AcDbLine
 62
7
  6
CONTINUOUS
 10
5.1653145106
 20
3.0272639482
 11
5.1558639592
 21
3.0224912857
  0
LINE
  5
4CF
100
AcDbEntity
  8
0
100
AcDbLine
 62
7
  6
CONTINUOUS
 10
4.7716549614
 20
2.8284602898
 11
4.7622044101
 21
2.8236876273
  0
LINE
  5
4D0
100
AcDbEntity
  8
0
100
AcDbLine
 62
7
  6
CONTINUOUS
 10
5.1653145106
 20
3.0229487487
 11
5.1576250869
 21
3.0190654806
  0
LINE
  5
4D1
100
AcDbEntity
  8
0
100
AcDbLine
 62
7
  6
CONTINUOUS
 10
4.7716549614
 20
2.8241450903
 11
4.7622044101
 21
2.8193724277
  0
LINE
  5
4D2
100
AcDbEntity
  8
0
100
AcDbLine
 62
7
  6
CONTINUOUS
 10
5.1573766477
 20
3.0042515581
 11
5.1475774255
 21
3.0002285249
  0
LINE
  5
4D3
100
AcDbEntity
  8
0
100
AcDbLine
 62
7
  6
CONTINUOUS
 10
4.7491933288
 20
2.8366734559
 11
4.7393941066
 21
2.8326504227
  0
LINE
  5
4D4
100
AcDbEntity
  8
0
100
AcDbLine
 62
7
  6
CONTINUOUS
 10
5.1573766477
 20
2.9999363586
 11
5.1491167075
 21
2.9965452717
  0
LINE
  5
4D5
100
AcDbEntity
  8
0
100
AcDbLine
 62
7
  6
CONTINUOUS
 10
4.7491933288
 20
2.8323582563
 11
4.7393941066
 21
2.8283352231
  0
LINE
  5
4D6
100
AcDbEntity
  8
0
100
AcDbLine
 62
7
  6
CONTINUOUS
 10
5.1476415946
 20
2.9819273909
 11
5.1375541169
 21
2.9786787903
  0
LINE
  5
4D7
100
AcDbEntity
  8
0
100
AcDbLine
 62
7
  6
CONTINUOUS
 10
4.7274510918
 20
2.8466080196
 11
4.7173636141
 21
2.843359419
  0
LINE
  5
4D8
100
AcDbEntity
  8
0
100
AcDbLine
 62
7
  6
CONTINUOUS
 10
5.1476415946
 20
2.9776121914
 11
5.1388336511
 21
2.9747756556
  0
LINE
  5
4D9
100
AcDbEntity
  8
0
100
AcDbLine
 62
7
  6
CONTINUOUS
 10
4.7274510918
 20
2.8422928201
 11
4.7173636141
 21
2.8390442194
  0
LINE
  5
4DA
100
AcDbEntity
  8
0
100
AcDbLine
 62
7
  6
CONTINUOUS
 10
4.4043254137
 20
6.1344468898
 11
4.4130426621
 21
6.1366850988
  0
LINE
  5
4DB
100
AcDbEntity
  8
0
100
AcDbLine
 62
7
  6
CONTINUOUS
 10
5.1336830047
 20
6.3217140903
 11
5.1424002532
 21
6.3239522993
  0
LINE
  5
4DC
100
AcDbEntity
  8
0
100
AcDbLine
 62
7
  6
CONTINUOUS
 10
4.4128948374
 20
6.1488135443
 11
4.4216780883
 21
6.1507768335
  0
LINE
  5
4DD
100
AcDbEntity
  8
0
100
AcDbLine
 62
7
  6
CONTINUOUS
 10
5.1477747394
 20
6.3130786642
 11
5.1565579903
 21
6.3150419533
  0
LINE
  5
4DE
100
AcDbEntity
  8
0
100
AcDbLine
 62
7
  6
CONTINUOUS
 10
4.4219113002
 20
6.1629039376
 11
4.4307518854
 21
6.1645903695
  0
LINE
  5
4DF
100
AcDbEntity
  8
0
100
AcDbLine
 62
7
  6
CONTINUOUS
 10
5.1615882754
 20
6.304004867
 11
5.1704288607
 21
6.3056912988
  0
LINE
  5
4E0
100
AcDbEntity
  8
0
100
AcDbLine
 62
7
  6
CONTINUOUS
 10
4.4313659038
 20
6.1767041643
 11
4.4402550988
 21
6.1781120744
  0
LINE
  5
4E1
100
AcDbEntity
  8
0
100
AcDbLine
 62
7
  6
CONTINUOUS
 10
5.1751099804
 20
6.2945016536
 11
5.1839991755
 21
6.2959095638
  0
LINE
  5
4E2
100
AcDbEntity
  8
0
100
AcDbLine
 62
7
  6
CONTINUOUS
 10
4.4412493177
 20
6.190200605
 11
4.45017835
 21
6.1913286041
  0
LINE
  5
4E3
100
AcDbEntity
  8
0
100
AcDbLine
 62
7
  6
CONTINUOUS
 10
5.1883265101
 20
6.2845784024
 11
5.1972555424
 21
6.2857064015
  0
LINE
  5
4E4
100
AcDbEntity
  8
0
100
AcDbLine
 62
7
  6
CONTINUOUS
 10
4.4515517882
 20
6.2033799406
 11
4.4605118459
 21
6.2042269154
  0
LINE
  5
4E5
100
AcDbEntity
  8
0
100
AcDbLine
 62
7
  6
CONTINUOUS
 10
5.2012248214
 20
6.2742449065
 11
5.2101848791
 21
6.2750918813
  0
LINE
  5
4E6
100
AcDbEntity
  8
0
100
AcDbLine
 62
7
  6
CONTINUOUS
 10
4.462263148
 20
6.2162291645
 11
4.4712453886
 21
6.2167942792
  0
LINE
  5
4E7
100
AcDbEntity
  8
0
100
AcDbLine
 62
7
  6
CONTINUOUS
 10
5.2137921852
 20
6.2635113638
 11
5.2227744257
 21
6.2640764785
  0
LINE
  5
4E8
100
AcDbEntity
  8
0
100
AcDbLine
 62
7
  6
CONTINUOUS
 10
4.4733728263
 20
6.2287355962
 11
4.4823683854
 21
6.229018293
  0
LINE
  5
4E9
100
AcDbEntity
  8
0
100
AcDbLine
 62
7
  6
CONTINUOUS
 10
5.226016199
 20
6.2523883671
 11
5.235011758
 21
6.2526710639
  0
LWPOLYLINE
  5
4EA
100
AcDbEntity
  8
0
100
AcDbPolyline
 62
7
  6
CONTINUOUS
 90
75
 70
0
 10
4.8658773292
 20
6.1702302342
 10
4.8602829595
 20
6.1701817619
 10
4.8539231944
 20
6.1700091076
 10
4.8475652565
 20
6.1697113481
 10
4.8412133915
 20
6.1692885152
 10
4.8348701965
 20
6.1687405683
 10
4.8285362545
 20
6.1680674196
 10
4.8222142182
 20
6.1672692239
 10
4.8159069924
 20
6.1663461675
 10
4.8096153549
 20
6.1652980871
 10
4.8033421251
 20
6.1641252105
 10
4.7970903432
 20
6.1628278852
 10
4.7908612378
 20
6.1614060335
 10
4.7846578663
 20
6.1598599677
 10
4.7784830667
 20
6.1581901493
 10
4.7723378383
 20
6.1563965208
 10
4.7662251318
 20
6.1544794934
 10
4.7601479056
 20
6.1524395966
 10
4.7541072371
 20
6.1502768343
 10
4.7481059879
 20
6.1479917588
 10
4.7421472204
 20
6.1455850112
 10
4.7362323224
 20
6.1430566744
 10
4.7303641446
 20
6.1404074873
 10
4.7245456165
 20
6.1376382297
 10
4.7187782691
 20
6.1347490076
 10
4.7130649363
 20
6.1317406837
 10
4.7074084667
 20
6.1286141892
 10
4.7018104376
 20
6.1253697062
 10
4.6962736988
 20
6.1220081668
 10
4.6908010574
 20
6.1185306473
 10
4.6853941614
 20
6.1149374604
 10
4.6800558124
 20
6.1112296165
 10
4.6747888663
 20
6.1074083292
 10
4.6695951806
 20
6.103474159
 10
4.6644772892
 20
6.0994281029
 10
4.6594382712
 20
6.0952716427
 10
4.6544807654
 20
6.0910061114
 10
4.6496073702
 20
6.0866328468
 10
4.6448208669
 20
6.08215336
 10
4.6401240654
 20
6.0775693429
 10
4.6355194392
 20
6.072882324
 10
4.6310095872
 20
6.068093974
 10
4.6265973741
 20
6.0632063124
 10
4.6222851891
 20
6.058221061
 10
4.6180754233
 20
6.0531400196
 10
4.6139708067
 20
6.0479654359
 10
4.6099736628
 20
6.0426991976
 10
4.6060862074
 20
6.0373432351
 10
4.6023109649
 20
6.0318999614
 10
4.5986501164
 20
6.0263713649
 10
4.5951057988
 20
6.0207595515
 10
4.5916804069
 20
6.0150672092
 10
4.5883758148
 20
6.0092962245
 10
4.585194202
 20
6.0034490664
 10
4.5821381953
 20
5.9975294086
 10
4.5792095252
 20
5.9915394425
 10
4.5764100456
 20
5.9854816158
 10
4.5737422731
 20
5.9793601189
 10
4.5712077333
 20
5.973177377
 10
4.5688079518
 20
5.9669358469
 10
4.5665451052
 20
5.9606398841
 10
4.5644205115
 20
5.9542920241
 10
4.5624354327
 20
5.9478948293
 10
4.5605916593
 20
5.9414528
 10
4.5588903109
 20
5.9349685728
 10
4.5573324093
 20
5.9284447775
 10
4.555919348
 20
5.9218859996
 10
4.554651999
 20
5.9152949395
 10
4.5535311823
 20
5.9086743049
 10
4.5525579036
 20
5.9020287729
 10
4.5517327736
 20
5.8953611249
 10
4.5510563966
 20
5.8886741537
 10
4.5505294264
 20
5.8819725783
 10
4.5501522333
 20
5.8752598275
 10
4.5499250988
 20
5.8685380447
  0
LINE
  5
4EB
100
AcDbEntity
  8
0
100
AcDbLine
 62
7
  6
CONTINUOUS
 10
4.4848698591
 20
6.2408868933
 11
4.4938698591
 21
6.2408868933
  0
LINE
  5
4EC
100
AcDbEntity
  8
0
100
AcDbLine
 62
7
  6
CONTINUOUS
 10
5.2378847992
 20
6.2408868933
 11
5.2468847992
 21
6.2408868933
  0
LINE
  5
4ED
100
AcDbEntity
  8
0
100
AcDbLine
 62
7
  6
CONTINUOUS
 10
4.4967429004
 20
6.2526710639
 11
4.5057384594
 21
6.2523883671
  0
LINE
  5
4EE
100
AcDbEntity
  8
0
100
AcDbLine
 62
7
  6
CONTINUOUS
 10
5.249386273
 20
6.229018293
 11
5.2583818321
 21
6.2287355962
  0
LINE
  5
4EF
100
AcDbEntity
  8
0
100
AcDbLine
 62
7
  6
CONTINUOUS
 10
4.5089802327
 20
6.2640764785
 11
4.5179624732
 21
6.2635113638
  0
LINE
  5
4F0
100
AcDbEntity
  8
0
100
AcDbLine
 62
7
  6
CONTINUOUS
 10
5.2605092698
 20
6.2167942792
 11
5.2694915103
 21
6.2162291645
  0
LINE
  5
4F1
100
AcDbEntity
  8
0
100
AcDbLine
 62
7
  6
CONTINUOUS
 10
4.5215697793
 20
6.2750918813
 11
4.530529837
 21
6.2742449065
  0
LINE
  5
4F2
100
AcDbEntity
  8
0
100
AcDbLine
 62
7
  6
CONTINUOUS
 10
5.2712428125
 20
6.2042269154
 11
5.2802028701
 21
6.2033799406
  0
LINE
  5
4F3
100
AcDbEntity
  8
0
100
AcDbLine
 62
7
  6
CONTINUOUS
 10
4.534499116
 20
6.2857064015
 11
4.5434281483
 21
6.2845784024
  0
LINE
  5
4F4
100
AcDbEntity
  8
0
100
AcDbLine
 62
7
  6
CONTINUOUS
 10
5.2815763084
 20
6.1913286041
 11
5.2905053407
 21
6.190200605
  0
LINE
  5
4F5
100
AcDbEntity
  8
0
100
AcDbLine
 62
7
  6
CONTINUOUS
 10
4.5477554829
 20
6.2959095638
 11
4.556644678
 21
6.2945016536
  0
LINE
  5
4F6
100
AcDbEntity
  8
0
100
AcDbLine
 62
7
  6
CONTINUOUS
 10
5.2914995595
 20
6.1781120744
 11
5.3003887546
 21
6.1767041643
  0
LINE
  5
4F7
100
AcDbEntity
  8
0
100
AcDbLine
 62
7
  6
CONTINUOUS
 10
4.5613257977
 20
6.3056912988
 11
4.570166383
 21
6.304004867
  0
LINE
  5
4F8
100
AcDbEntity
  8
0
100
AcDbLine
 62
7
  6
CONTINUOUS
 10
5.301002773
 20
6.1645903695
 11
5.3098433582
 21
6.1629039376
  0
LINE
  5
4F9
100
AcDbEntity
  8
0
100
AcDbLine
 62
7
  6
CONTINUOUS
 10
4.5751966681
 20
6.3150419533
 11
4.5839799189
 21
6.3130786642
  0
LINE
  5
4FA
100
AcDbEntity
  8
0
100
AcDbLine
 62
7
  6
CONTINUOUS
 10
5.3100765701
 20
6.1507768335
 11
5.318859821
 21
6.1488135443
  0
LINE
  5
4FB
100
AcDbEntity
  8
0
100
AcDbLine
 62
7
  6
CONTINUOUS
 10
4.5893544052
 20
6.3239522993
 11
4.5980716536
 21
6.3217140903
  0
LINE
  5
4FC
100
AcDbEntity
  8
0
100
AcDbLine
 62
7
  6
CONTINUOUS
 10
5.3187119962
 20
6.1366850988
 11
5.3274292447
 21
6.1344468898
  0
LINE
  5
4FD
100
AcDbEntity
  8
0
100
AcDbLine
 62
7
  6
CONTINUOUS
 10
4.603785037
 20
6.3324135432
 11
4.6124276802
 21
6.3299026233
  0
LINE
  5
4FE
100
AcDbEntity
  8
0
100
AcDbLine
 62
7
  6
CONTINUOUS
 10
5.3269005292
 20
6.1223290722
 11
5.3355431724
 21
6.1198181523
  0
LINE
  5
4FF
100
AcDbEntity
  8
0
100
AcDbLine
 62
7
  6
CONTINUOUS
 10
4.6184743223
 20
6.340417335
 11
4.627033831
 21
6.337636182
  0
LINE
  5
500
100
AcDbEntity
  8
0
100
AcDbLine
 62
7
  6
CONTINUOUS
 10
5.334634088
 20
6.1077229215
 11
5.3431935966
 21
6.1049417685
  0
LINE
  5
501
100
AcDbEntity
  8
0
100
AcDbLine
 62
7
  6
CONTINUOUS
 10
4.6334077645
 20
6.3479557757
 11
4.6418756914
 21
6.3449071344
  0
LINE
  5
502
100
AcDbEntity
  8
0
100
AcDbLine
 62
7
  6
CONTINUOUS
 10
5.3419050404
 20
6.092881061
 11
5.3503729673
 21
6.0898324197
  0
LINE
  5
503
100
AcDbEntity
  8
0
100
AcDbLine
 62
7
  6
CONTINUOUS
 10
4.6485706261
 20
6.3550214259
 11
4.6569386145
 21
6.351708305
  0
LINE
  5
504
100
AcDbEntity
  8
0
100
AcDbLine
 62
7
  6
CONTINUOUS
 10
5.3487062109
 20
6.077818138
 11
5.3570741993
 21
6.074505017
  0
LINE
  5
505
100
AcDbEntity
  8
0
100
AcDbLine
 62
7
  6
CONTINUOUS
 10
4.6639479432
 20
6.3616073127
 11
4.6722077348
 21
6.3580329817
  0
LINE
  5
506
100
AcDbEntity
  8
0
100
AcDbLine
 62
7
  6
CONTINUOUS
 10
5.3550308876
 20
6.0625490176
 11
5.3632906793
 21
6.0589746866
  0
LINE
  5
507
100
AcDbEntity
  8
0
100
AcDbLine
 62
7
  6
CONTINUOUS
 10
4.6795245402
 20
6.3677069365
 11
4.6876679836
 21
6.3638749229
  0
LINE
  5
508
100
AcDbEntity
  8
0
100
AcDbLine
 62
7
  6
CONTINUOUS
 10
5.3608728289
 20
6.0470887688
 11
5.3690162723
 21
6.0432567552
  0
ARC
  5
509
100
AcDbEntity
  8
0
100
AcDbCircle
 62
7
  6
CONTINUOUS
 10
-55.1960690631
 20
2.5251160083
 40
59.8730043062
100
AcDbArc
 50
1.0821896814
 51
1.2083397678
  0
ARC
  5
50A
100
AcDbEntity
  8
0
100
AcDbCircle
 62
7
  6
CONTINUOUS
 10
-37.3152258228
 20
2.8820360838
 40
41.9746813687
100
AcDbArc
 50
1.0513896008
 51
1.2295475055
  0
ARC
  5
50B
100
AcDbEntity
  8
0
100
AcDbCircle
 62
7
  6
CONTINUOUS
 10
4.8740409592
 20
1.2910344533
 40
3.590165938
100
AcDbArc
 50
85.9914109735
 51
87.3122798556
  0
ARC
  5
50C
100
AcDbEntity
  8
0
100
AcDbCircle
 62
7
  6
CONTINUOUS
 10
4.8577054007
 20
1.2911676568
 40
3.5900324803
100
AcDbArc
 50
92.6897628308
 51
94.0086055209
  0
ARC
  5
50D
100
AcDbEntity
  8
0
100
AcDbCircle
 62
7
  6
CONTINUOUS
 10
3.7357382329
 20
3.1458020661
 40
0.9350436181
100
AcDbArc
 50
1.1249595651
 51
1.2579253951
  0
ARC
  5
50E
100
AcDbEntity
  8
0
100
AcDbCircle
 62
7
  6
CONTINUOUS
 10
4.604705842
 20
3.1127258377
 40
0.0188097373
100
AcDbArc
 50
170.5119881709
 51
180.2192702347
  0
ARC
  5
50F
100
AcDbEntity
  8
0
100
AcDbCircle
 62
7
  6
CONTINUOUS
 10
4.8656537814
 20
3.1161670638
 40
0.3143069016
100
AcDbArc
 50
249.0460820611
 51
250.7837240088
  0
ARC
  5
510
100
AcDbEntity
  8
0
100
AcDbCircle
 62
7
  6
CONTINUOUS
 10
4.8654799484
 20
3.1157417445
 40
0.3138473324
100
AcDbArc
 50
244.5735046798
 51
246.3128381911
  0
ARC
  5
511
100
AcDbEntity
  8
0
100
AcDbCircle
 62
7
  6
CONTINUOUS
 10
4.8652436283
 20
3.1152716506
 40
0.3133210691
100
AcDbArc
 50
240.096085634
 51
241.83736263
  0
ARC
  5
512
100
AcDbEntity
  8
0
100
AcDbCircle
 62
7
  6
CONTINUOUS
 10
4.8649436716
 20
3.1147755005
 40
0.3127411707
100
AcDbArc
 50
235.6132642837
 51
237.3566903365
  0
ARC
  5
513
100
AcDbEntity
  8
0
100
AcDbCircle
 62
7
  6
CONTINUOUS
 10
4.864583054
 20
3.11427235
 40
0.3121220026
100
AcDbArc
 50
231.1246095011
 51
232.8703385659
  0
ARC
  5
514
100
AcDbEntity
  8
0
100
AcDbCircle
 62
7
  6
CONTINUOUS
 10
4.8641687951
 20
3.113780591
 40
0.3114788739
100
AcDbArc
 50
226.6298310647
 51
228.377961356
  0
ARC
  5
515
100
AcDbEntity
  8
0
100
AcDbCircle
 62
7
  6
CONTINUOUS
 10
4.8637116504
 20
3.1133169929
 40
0.3108276546
100
AcDbArc
 50
222.1287878552
 51
223.8793589985
  0
ARC
  5
516
100
AcDbEntity
  8
0
100
AcDbCircle
 62
7
  6
CONTINUOUS
 10
4.863225592
 20
3.1128958402
 40
0.3101843813
100
AcDbArc
 50
217.6214925513
 51
219.3744841222
  0
ARC
  5
517
100
AcDbEntity
  8
0
100
AcDbCircle
 62
7
  6
CONTINUOUS
 10
4.8631518848
 20
3.1146056679
 40
0.3100906799
100
AcDbArc
 50
141.7073653796
 51
142.3786618415
  0
ARC
  5
518
100
AcDbEntity
  8
0
100
AcDbCircle
 62
7
  6
CONTINUOUS
 10
4.8627271055
 20
3.114915434
 40
0.3095648621
100
AcDbArc
 50
145.1365558741
 51
146.8918874076
  0
ARC
  5
519
100
AcDbEntity
  8
0
100
AcDbCircle
 62
7
  6
CONTINUOUS
 10
4.8627271055
 20
3.1125282129
 40
0.3095648621
100
AcDbArc
 50
213.1081125924
 51
214.8634441259
  0
ARC
  5
51A
100
AcDbEntity
  8
0
100
AcDbCircle
 62
7
  6
CONTINUOUS
 10
4.8622343439
 20
3.1122214497
 40
0.3089842905
100
AcDbArc
 50
208.5889672586
 51
210.3464997768
  0
ARC
  5
51B
100
AcDbEntity
  8
0
100
AcDbCircle
 62
7
  6
CONTINUOUS
 10
4.8622343438
 20
3.1152221972
 40
0.3089842905
100
AcDbArc
 50
149.6535002231
 51
151.4110327414
  0
ARC
  5
51C
100
AcDbEntity
  8
0
100
AcDbCircle
 62
7
  6
CONTINUOUS
 10
4.8617661812
 20
3.1154648246
 40
0.3084568772
100
AcDbArc
 50
154.1759401121
 51
155.9354791784
  0
ARC
  5
51D
100
AcDbEntity
  8
0
100
AcDbCircle
 62
7
  6
CONTINUOUS
 10
4.8617661812
 20
3.1119788223
 40
0.3084568772
100
AcDbArc
 50
204.0645208216
 51
205.8240598879
  0
ARC
  5
51E
100
AcDbEntity
  8
0
100
AcDbCircle
 62
7
  6
CONTINUOUS
 10
4.861341222
 20
3.1156442083
 40
0.3079955086
100
AcDbArc
 50
158.703327908
 51
160.4646281697
  0
ARC
  5
51F
100
AcDbEntity
  8
0
100
AcDbCircle
 62
7
  6
CONTINUOUS
 10
4.861341222
 20
3.1117994386
 40
0.3079955086
100
AcDbArc
 50
199.5353718303
 51
201.296672092
  0
ARC
  5
520
100
AcDbEntity
  8
0
100
AcDbCircle
 62
7
  6
CONTINUOUS
 10
4.8613155973
 20
3.1161051003
 40
0.3079681697
100
AcDbArc
 50
199.5352936471
 51
201.2967502752
  0
ARC
  5
521
100
AcDbEntity
  8
0
100
AcDbCircle
 62
7
  6
CONTINUOUS
 10
4.8609768176
 20
3.1157652662
 40
0.3076114391
100
AcDbArc
 50
163.2349901429
 51
164.9977612765
  0
ARC
  5
522
100
AcDbEntity
  8
0
100
AcDbCircle
 62
7
  6
CONTINUOUS
 10
4.8609768176
 20
3.1116783807
 40
0.307611439
100
AcDbArc
 50
195.0022387234
 51
196.7650098571
  0
ARC
  5
523
100
AcDbEntity
  8
0
100
AcDbCircle
 62
7
  6
CONTINUOUS
 10
4.8609768176
 20
3.1159935802
 40
0.307611439
100
AcDbArc
 50
195.0022387234
 51
196.7650098571
  0
ARC
  5
524
100
AcDbEntity
  8
0
100
AcDbCircle
 62
7
  6
CONTINUOUS
 10
4.8606881451
 20
3.115836579
 40
0.3073140244
100
AcDbArc
 50
167.7701439942
 51
169.5340579166
  0
ARC
  5
525
100
AcDbEntity
  8
0
100
AcDbCircle
 62
7
  6
CONTINUOUS
 10
4.8606881451
 20
3.1116070679
 40
0.3073140244
100
AcDbArc
 50
190.4659420834
 51
192.2298560058
  0
ARC
  5
526
100
AcDbEntity
  8
0
100
AcDbCircle
 62
7
  6
CONTINUOUS
 10
4.8606881451
 20
3.1159222674
 40
0.3073140245
100
AcDbArc
 50
190.4659420834
 51
192.2298560058
  0
ARC
  5
527
100
AcDbEntity
  8
0
100
AcDbCircle
 62
7
  6
CONTINUOUS
 10
4.8605006512
 20
3.1158682396
 40
0.307123846
100
AcDbArc
 50
172.3079552053
 51
174.0725776881
  0
ARC
  5
528
100
AcDbEntity
  8
0
100
AcDbCircle
 62
7
  6
CONTINUOUS
 10
4.8605006512
 20
3.1115754073
 40
0.307123846
100
AcDbArc
 50
185.9274223119
 51
187.6920447947
  0
ARC
  5
529
100
AcDbEntity
  8
0
100
AcDbCircle
 62
7
  6
CONTINUOUS
 10
4.8605006512
 20
3.1158906069
 40
0.307123846
100
AcDbArc
 50
185.9274223119
 51
187.6920447947
  0
ARC
  5
52A
100
AcDbEntity
  8
0
100
AcDbCircle
 62
7
  6
CONTINUOUS
 10
4.8603997431
 20
3.1158783656
 40
0.3070224305
100
AcDbArc
 50
176.8474163098
 51
178.6124273483
  0
ARC
  5
52B
100
AcDbEntity
  8
0
100
AcDbCircle
 62
7
  6
CONTINUOUS
 10
4.8603997431
 20
3.1115652813
 40
0.3070224305
100
AcDbArc
 50
181.3875726517
 51
183.1525836902
  0
ARC
  5
52C
100
AcDbEntity
  8
0
100
AcDbCircle
 62
7
  6
CONTINUOUS
 10
4.8603997431
 20
3.1158804809
 40
0.3070224305
100
AcDbArc
 50
181.3875726517
 51
183.1525836902
  0
ARC
  5
52D
100
AcDbEntity
  8
0
100
AcDbCircle
 62
7
  6
CONTINUOUS
 10
4.8637710476
 20
3.1158960155
 40
0.2778937189
100
AcDbArc
 50
180.0034212254
 51
180.668480117
  0
ARC
  5
52E
100
AcDbEntity
  8
0
100
AcDbCircle
 62
7
  6
CONTINUOUS
 10
4.8657702503
 20
3.1165302169
 40
0.314688355
100
AcDbArc
 50
253.5144936907
 51
255.2507360821
  0
ARC
  5
52F
100
AcDbEntity
  8
0
100
AcDbCircle
 62
7
  6
CONTINUOUS
 10
4.8657702503
 20
3.1208454165
 40
0.314688355
100
AcDbArc
 50
253.5144936907
 51
255.2507360821
  0
ARC
  5
530
100
AcDbEntity
  8
0
100
AcDbCircle
 62
7
  6
CONTINUOUS
 10
4.865644328
 20
3.1204564098
 40
0.3142793771
100
AcDbArc
 50
249.0460059642
 51
250.7838001057
  0
ARC
  5
531
100
AcDbEntity
  8
0
100
AcDbCircle
 62
7
  6
CONTINUOUS
 10
4.86546656
 20
3.120027643
 40
0.3138151212
100
AcDbArc
 50
244.5734154068
 51
246.3129274641
  0
ARC
  5
532
100
AcDbEntity
  8
0
100
AcDbCircle
 62
7
  6
CONTINUOUS
 10
4.8652261072
 20
3.1195552846
 40
0.313284971
100
AcDbArc
 50
240.0959853075
 51
241.8374629565
  0
ARC
  5
533
100
AcDbEntity
  8
0
100
AcDbCircle
 62
7
  6
CONTINUOUS
 10
4.8649220854
 20
3.1190581054
 40
0.3127020808
100
AcDbArc
 50
235.6131553052
 51
237.3567993149
  0
ARC
  5
534
100
AcDbEntity
  8
0
100
AcDbCircle
 62
7
  6
CONTINUOUS
 10
4.8645577372
 20
3.1185551484
 40
0.3120808883
100
AcDbArc
 50
231.1244944989
 51
232.8704535681
  0
ARC
  5
535
100
AcDbEntity
  8
0
100
AcDbCircle
 62
7
  6
CONTINUOUS
 10
4.8641403359
 20
3.1180647286
 40
0.3114367507
100
AcDbArc
 50
226.6297128342
 51
228.3780795864
  0
ARC
  5
536
100
AcDbEntity
  8
0
100
AcDbCircle
 62
7
  6
CONTINUOUS
 10
4.8636808634
 20
3.117603479
 40
0.3107855608
100
AcDbArc
 50
222.1286692943
 51
223.8794775593
  0
ARC
  5
537
100
AcDbEntity
  8
0
100
AcDbCircle
 62
7
  6
CONTINUOUS
 10
4.8631934777
 20
3.1171854967
 40
0.3101433523
100
AcDbArc
 50
217.6213765902
 51
219.3746000833
  0
ARC
  5
538
100
AcDbEntity
  8
0
100
AcDbCircle
 62
7
  6
CONTINUOUS
 10
4.8626947995
 20
3.1168216334
 40
0.3095259051
100
AcDbArc
 50
213.1080021204
 51
214.8635545978
  0
ARC
  5
539
100
AcDbEntity
  8
0
100
AcDbCircle
 62
7
  6
CONTINUOUS
 10
4.8622030578
 20
3.1165189717
 40
0.3089483599
100
AcDbArc
 50
208.5888650502
 51
210.3466019853
  0
ARC
  5
53A
100
AcDbEntity
  8
0
100
AcDbCircle
 62
7
  6
CONTINUOUS
 10
4.8617371395
 20
3.1162805138
 40
0.3084248516
100
AcDbArc
 50
204.0644294625
 51
205.824151247
  0
ARC
  5
53B
100
AcDbEntity
  8
0
100
AcDbCircle
 62
7
  6
CONTINUOUS
 10
4.8136734714
 20
3.3616016647
 40
0.2447889099
100
AcDbArc
 50
230.39303053
 51
230.7238888828
  0
ARC
  5
53C
100
AcDbEntity
  8
0
100
AcDbCircle
 62
7
  6
CONTINUOUS
 10
4.8661103304
 20
3.1161412102
 40
0.3142793771
100
AcDbArc
 50
289.2161998943
 51
290.9539940358
  0
ARC
  5
53D
100
AcDbEntity
  8
0
100
AcDbCircle
 62
7
  6
CONTINUOUS
 10
4.8662880984
 20
3.1157124434
 40
0.3138151212
100
AcDbArc
 50
293.6870725359
 51
295.4265845932
  0
ARC
  5
53E
100
AcDbEntity
  8
0
100
AcDbCircle
 62
7
  6
CONTINUOUS
 10
4.8665285512
 20
3.1152400851
 40
0.313284971
100
AcDbArc
 50
298.1625370435
 51
299.9040146925
  0
ARC
  5
53F
100
AcDbEntity
  8
0
100
AcDbCircle
 62
7
  6
CONTINUOUS
 10
4.8668325729
 20
3.1147429059
 40
0.3127020808
100
AcDbArc
 50
302.6432006851
 51
304.3868446948
  0
ARC
  5
540
100
AcDbEntity
  8
0
100
AcDbCircle
 62
7
  6
CONTINUOUS
 10
4.8671969212
 20
3.1142399489
 40
0.3120808883
100
AcDbArc
 50
307.1295464319
 51
308.8755055011
  0
ARC
  5
541
100
AcDbEntity
  8
0
100
AcDbCircle
 62
7
  6
CONTINUOUS
 10
4.8676143225
 20
3.113749529
 40
0.3114367507
100
AcDbArc
 50
311.6219204136
 51
313.3702871658
  0
ARC
  5
542
100
AcDbEntity
  8
0
100
AcDbCircle
 62
7
  6
CONTINUOUS
 10
4.868073795
 20
3.1132882794
 40
0.3107855608
100
AcDbArc
 50
316.1205224406
 51
317.8713307057
  0
ARC
  5
543
100
AcDbEntity
  8
0
100
AcDbCircle
 62
7
  6
CONTINUOUS
 10
4.8685611807
 20
3.1128702971
 40
0.3101433523
100
AcDbArc
 50
320.6253999167
 51
322.3786234098
  0
ARC
  5
544
100
AcDbEntity
  8
0
100
AcDbCircle
 62
7
  6
CONTINUOUS
 10
4.8686027735
 20
3.1146056679
 40
0.3100906799
100
AcDbArc
 50
37.6213381585
 51
38.2926346294
  0
ARC
  5
545
100
AcDbEntity
  8
0
100
AcDbCircle
 62
7
  6
CONTINUOUS
 10
4.8690598589
 20
3.1125064339
 40
0.3095259051
100
AcDbArc
 50
325.1364454022
 51
326.8919978796
  0
ARC
  5
546
100
AcDbEntity
  8
0
100
AcDbCircle
 62
7
  6
CONTINUOUS
 10
4.8690598589
 20
3.114937213
 40
0.3095259051
100
AcDbArc
 50
33.1080021204
 51
34.8635545978
  0
ARC
  5
547
100
AcDbEntity
  8
0
100
AcDbCircle
 62
7
  6
CONTINUOUS
 10
4.8695516006
 20
3.1122037722
 40
0.3089483599
100
AcDbArc
 50
329.6533980148
 51
331.4111349498
  0
ARC
  5
548
100
AcDbEntity
  8
0
100
AcDbCircle
 62
7
  6
CONTINUOUS
 10
4.8695516006
 20
3.1152398747
 40
0.3089483599
100
AcDbArc
 50
28.5888650503
 51
30.3466019852
  0
ARC
  5
549
100
AcDbEntity
  8
0
100
AcDbCircle
 62
7
  6
CONTINUOUS
 10
4.8699884772
 20
3.1162940218
 40
0.3084568772
100
AcDbArc
 50
334.1759401121
 51
335.9354791785
  0
ARC
  5
54A
100
AcDbEntity
  8
0
100
AcDbCircle
 62
7
  6
CONTINUOUS
 10
4.8700175189
 20
3.1119653143
 40
0.3084248516
100
AcDbArc
 50
334.175848753
 51
335.9355705375
  0
ARC
  5
54B
100
AcDbEntity
  8
0
100
AcDbCircle
 62
7
  6
CONTINUOUS
 10
4.8700175189
 20
3.1154783326
 40
0.3084248516
100
AcDbArc
 50
24.0644294625
 51
25.824151247
  0
ARC
  5
54C
100
AcDbEntity
  8
0
100
AcDbCircle
 62
7
  6
CONTINUOUS
 10
4.8704134364
 20
3.1161146381
 40
0.3079955086
100
AcDbArc
 50
338.7033279079
 51
340.4646281698
  0
ARC
  5
54D
100
AcDbEntity
  8
0
100
AcDbCircle
 62
7
  6
CONTINUOUS
 10
4.870439061
 20
3.1117899007
 40
0.3079681697
100
AcDbArc
 50
338.7032497248
 51
340.4647063529
  0
ARC
  5
54E
100
AcDbEntity
  8
0
100
AcDbCircle
 62
7
  6
CONTINUOUS
 10
4.870439061
 20
3.1156537462
 40
0.3079681697
100
AcDbArc
 50
19.5352936471
 51
21.2967502752
  0
ARC
  5
54F
100
AcDbEntity
  8
0
100
AcDbCircle
 62
7
  6
CONTINUOUS
 10
4.8707778408
 20
3.1116783807
 40
0.307611439
100
AcDbArc
 50
343.2349901429
 51
344.9977612766
  0
ARC
  5
550
100
AcDbEntity
  8
0
100
AcDbCircle
 62
7
  6
CONTINUOUS
 10
4.8707778408
 20
3.1157652662
 40
0.3076114391
100
AcDbArc
 50
15.0022387235
 51
16.7650098571
  0
ARC
  5
551
100
AcDbEntity
  8
0
100
AcDbCircle
 62
7
  6
CONTINUOUS
 10
4.8707778408
 20
3.1159935802
 40
0.307611439
100
AcDbArc
 50
343.2349901429
 51
344.9977612766
  0
ARC
  5
552
100
AcDbEntity
  8
0
100
AcDbCircle
 62
7
  6
CONTINUOUS
 10
4.8710665133
 20
3.1116070679
 40
0.3073140244
100
AcDbArc
 50
347.7701439942
 51
349.5340579166
  0
ARC
  5
553
100
AcDbEntity
  8
0
100
AcDbCircle
 62
7
  6
CONTINUOUS
 10
4.8710665133
 20
3.115836579
 40
0.3073140244
100
AcDbArc
 50
10.4659420834
 51
12.2298560058
  0
ARC
  5
554
100
AcDbEntity
  8
0
100
AcDbCircle
 62
7
  6
CONTINUOUS
 10
4.8710665133
 20
3.1159222674
 40
0.3073140244
100
AcDbArc
 50
347.7701439942
 51
349.5340579166
  0
ARC
  5
555
100
AcDbEntity
  8
0
100
AcDbCircle
 62
7
  6
CONTINUOUS
 10
4.8712540072
 20
3.1115754073
 40
0.307123846
100
AcDbArc
 50
352.3079552053
 51
354.0725776881
  0
ARC
  5
556
100
AcDbEntity
  8
0
100
AcDbCircle
 62
7
  6
CONTINUOUS
 10
4.8712540072
 20
3.1158682396
 40
0.307123846
100
AcDbArc
 50
5.9274223119
 51
7.6920447947
  0
ARC
  5
557
100
AcDbEntity
  8
0
100
AcDbCircle
 62
7
  6
CONTINUOUS
 10
4.8712540072
 20
3.1158906069
 40
0.307123846
100
AcDbArc
 50
352.3079552053
 51
354.0725776881
  0
ARC
  5
558
100
AcDbEntity
  8
0
100
AcDbCircle
 62
7
  6
CONTINUOUS
 10
4.8713549153
 20
3.1115652813
 40
0.3070224305
100
AcDbArc
 50
356.8474163098
 51
358.6124273483
  0
ARC
  5
559
100
AcDbEntity
  8
0
100
AcDbCircle
 62
7
  6
CONTINUOUS
 10
4.8713549153
 20
3.1158783656
 40
0.3070224305
100
AcDbArc
 50
1.3875726517
 51
3.1525836902
  0
ARC
  5
55A
100
AcDbEntity
  8
0
100
AcDbCircle
 62
7
  6
CONTINUOUS
 10
4.8713549153
 20
3.1158804809
 40
0.3070224305
100
AcDbArc
 50
356.8474163098
 51
358.6124273483
  0
ARC
  5
55B
100
AcDbEntity
  8
0
100
AcDbCircle
 62
7
  6
CONTINUOUS
 10
4.8678559822
 20
3.1158967639
 40
0.2780213476
100
AcDbArc
 50
359.331672536
 51
359.9964261217
  0
ARC
  5
55C
100
AcDbEntity
  8
0
100
AcDbCircle
 62
7
  6
CONTINUOUS
 10
4.8658776983
 20
3.1171271372
 40
0.3152960943
100
AcDbArc
 50
266.9029016631
 51
268.6369002319
  0
ARC
  5
55D
100
AcDbEntity
  8
0
100
AcDbCircle
 62
7
  6
CONTINUOUS
 10
4.8658769601
 20
3.1171271372
 40
0.3152960943
100
AcDbArc
 50
271.3630997681
 51
273.0970983369
  0
ARC
  5
55E
100
AcDbEntity
  8
0
100
AcDbCircle
 62
7
  6
CONTINUOUS
 10
4.8658776983
 20
3.1214423368
 40
0.3152960943
100
AcDbArc
 50
266.9029016631
 51
268.6369002319
  0
ARC
  5
55F
100
AcDbEntity
  8
0
100
AcDbCircle
 62
7
  6
CONTINUOUS
 10
4.8658769601
 20
3.1214423368
 40
0.3152960943
100
AcDbArc
 50
271.3630997681
 51
273.0970983369
  0
ARC
  5
560
100
AcDbEntity
  8
0
100
AcDbCircle
 62
7
  6
CONTINUOUS
 10
4.8658704878
 20
3.1170251026
 40
0.315193786
100
AcDbArc
 50
262.4420323526
 51
264.1764061111
  0
ARC
  5
561
100
AcDbEntity
  8
0
100
AcDbCircle
 62
7
  6
CONTINUOUS
 10
4.8658841705
 20
3.1170251026
 40
0.315193786
100
AcDbArc
 50
275.8235938889
 51
277.5579676474
  0
ARC
  5
562
100
AcDbEntity
  8
0
100
AcDbCircle
 62
7
  6
CONTINUOUS
 10
4.8658704878
 20
3.1213403022
 40
0.315193786
100
AcDbArc
 50
262.4420323526
 51
264.1764061111
  0
ARC
  5
563
100
AcDbEntity
  8
0
100
AcDbCircle
 62
7
  6
CONTINUOUS
 10
4.8658841705
 20
3.1213403022
 40
0.315193786
100
AcDbArc
 50
275.8235938889
 51
277.5579676474
  0
ARC
  5
564
100
AcDbEntity
  8
0
100
AcDbCircle
 62
7
  6
CONTINUOUS
 10
4.865838078
 20
3.116816063
 40
0.3149821999
100
AcDbArc
 50
257.9795140579
 51
259.7146818885
  0
ARC
  5
565
100
AcDbEntity
  8
0
100
AcDbCircle
 62
7
  6
CONTINUOUS
 10
4.8659165804
 20
3.116816063
 40
0.3149821998
100
AcDbArc
 50
280.2853181115
 51
282.0204859422
  0
ARC
  5
566
100
AcDbEntity
  8
0
100
AcDbCircle
 62
7
  6
CONTINUOUS
 10
4.865838078
 20
3.1211312626
 40
0.3149821999
100
AcDbArc
 50
257.9795140579
 51
259.7146818885
  0
ARC
  5
567
100
AcDbEntity
  8
0
100
AcDbCircle
 62
7
  6
CONTINUOUS
 10
4.8659165804
 20
3.1211312625
 40
0.3149821998
100
AcDbArc
 50
280.2853181115
 51
282.0204859422
  0
ARC
  5
568
100
AcDbEntity
  8
0
100
AcDbCircle
 62
7
  6
CONTINUOUS
 10
4.865984408
 20
3.1165302169
 40
0.314688355
100
AcDbArc
 50
284.7492639179
 51
286.4855063093
  0
ARC
  5
569
100
AcDbEntity
  8
0
100
AcDbCircle
 62
7
  6
CONTINUOUS
 10
4.865984408
 20
3.1208454165
 40
0.314688355
100
AcDbArc
 50
284.7492639179
 51
286.4855063093
  0
ARC
  5
56A
100
AcDbEntity
  8
0
100
AcDbCircle
 62
7
  6
CONTINUOUS
 10
4.866100877
 20
3.1204822633
 40
0.3143069016
100
AcDbArc
 50
289.2162759913
 51
290.9539179389
  0
ARC
  5
56B
100
AcDbEntity
  8
0
100
AcDbCircle
 62
7
  6
CONTINUOUS
 10
4.86627471
 20
3.1200569441
 40
0.3138473324
100
AcDbArc
 50
293.6871618089
 51
295.4264953202
  0
ARC
  5
56C
100
AcDbEntity
  8
0
100
AcDbCircle
 62
7
  6
CONTINUOUS
 10
4.8665110301
 20
3.1195868502
 40
0.3133210691
100
AcDbArc
 50
298.1626373699
 51
299.903914366
  0
ARC
  5
56D
100
AcDbEntity
  8
0
100
AcDbCircle
 62
7
  6
CONTINUOUS
 10
4.8668109867
 20
3.1190907001
 40
0.3127411707
100
AcDbArc
 50
302.6433096636
 51
304.3867357163
  0
ARC
  5
56E
100
AcDbEntity
  8
0
100
AcDbCircle
 62
7
  6
CONTINUOUS
 10
4.8671716044
 20
3.1185875496
 40
0.3121220026
100
AcDbArc
 50
307.1296614341
 51
308.8753904989
  0
ARC
  5
56F
100
AcDbEntity
  8
0
100
AcDbCircle
 62
7
  6
CONTINUOUS
 10
4.8675858633
 20
3.1180957906
 40
0.3114788739
100
AcDbArc
 50
311.622038644
 51
313.3701689353
  0
ARC
  5
570
100
AcDbEntity
  8
0
100
AcDbCircle
 62
7
  6
CONTINUOUS
 10
4.868043008
 20
3.1176321925
 40
0.3108276546
100
AcDbArc
 50
316.1206410015
 51
317.8712121448
  0
ARC
  5
571
100
AcDbEntity
  8
0
100
AcDbCircle
 62
7
  6
CONTINUOUS
 10
4.8685290664
 20
3.1172110397
 40
0.3101843813
100
AcDbArc
 50
320.6255158777
 51
322.3785074487
  0
ARC
  5
572
100
AcDbEntity
  8
0
100
AcDbCircle
 62
7
  6
CONTINUOUS
 10
4.8690275528
 20
3.1168434125
 40
0.3095648621
100
AcDbArc
 50
325.1365558741
 51
326.8918874077
  0
ARC
  5
573
100
AcDbEntity
  8
0
100
AcDbCircle
 62
7
  6
CONTINUOUS
 10
4.8695203145
 20
3.1165366493
 40
0.3089842905
100
AcDbArc
 50
329.6535002232
 51
331.4110327413
  0
ARC
  5
574
100
AcDbEntity
  8
0
100
AcDbCircle
 62
7
  6
CONTINUOUS
 10
5.1270486255
 20
3.112725828
 40
0.0188099282
100
AcDbArc
 50
359.7807615423
 51
9.491541697
  0
ARC
  5
575
100
AcDbEntity
  8
0
100
AcDbCircle
 62
7
  6
CONTINUOUS
 10
5.9958933847
 20
3.1458046251
 40
0.9349205508
100
AcDbArc
 50
178.7420658539
 51
178.8750491868
  0
ARC
  5
576
100
AcDbEntity
  8
0
100
AcDbCircle
 62
7
  6
CONTINUOUS
 10
4.9180809741
 20
3.3616019228
 40
0.2447892445
100
AcDbArc
 50
309.2761114494
 51
309.6069697494
  0
ARC
  5
577
100
AcDbEntity
  8
0
100
AcDbCircle
 62
7
  6
CONTINUOUS
 10
4.7049731553
 20
4.6223953419
 40
0.0200001346
100
AcDbArc
 50
244.0841733925
 51
244.6890431063
  0
ARC
  5
578
100
AcDbEntity
  8
0
100
AcDbCircle
 62
7
  6
CONTINUOUS
 10
4.8658773292
 20
4.9638794232
 40
0.3975
100
AcDbArc
 50
246.1530808186
 51
293.8763171888
  0
ARC
  5
579
100
AcDbEntity
  8
0
100
AcDbCircle
 62
7
  6
CONTINUOUS
 10
4.8577436112
 20
4.9454811649
 40
0.3773838854
100
AcDbArc
 50
245.7348912894
 51
246.1531437348
  0
ARC
  5
57A
100
AcDbEntity
  8
0
100
AcDbCircle
 62
7
  6
CONTINUOUS
 10
4.8742328206
 20
4.945006058
 40
0.3768596398
100
AcDbArc
 50
293.8772462827
 51
295.2676092144
  0
ARC
  5
57B
100
AcDbEntity
  8
0
100
AcDbCircle
 62
7
  6
CONTINUOUS
 10
4.8571282115
 20
4.9441263846
 40
0.3758958907
100
AcDbArc
 50
244.7128207863
 51
245.735542426
  0
ARC
  5
57C
100
AcDbEntity
  8
0
100
AcDbCircle
 62
7
  6
CONTINUOUS
 10
4.8506942591
 20
5.8617214192
 40
0.3008420891
100
AcDbArc
 50
177.3228696951
 51
178.4594425614
  0
ARC
  5
57D
100
AcDbEntity
  8
0
100
AcDbCircle
 62
7
  6
CONTINUOUS
 10
4.8506852482
 20
5.8617220619
 40
0.3008330577
100
AcDbArc
 50
176.040878544
 51
177.2283204821
  0
ARC
  5
57E
100
AcDbEntity
  8
0
100
AcDbCircle
 62
7
  6
CONTINUOUS
 10
4.8505554302
 20
5.8617249607
 40
0.3007032145
100
AcDbArc
 50
178.6059737305
 51
179.8063648567
  0
ARC
  5
57F
100
AcDbEntity
  8
0
100
AcDbCircle
 62
7
  6
CONTINUOUS
 10
4.8558372924
 20
5.8715594461
 40
0.4501916631
100
AcDbArc
 50
345.989466796
 51
348.3188385925
  0
ARC
  5
580
100
AcDbEntity
  8
0
100
AcDbCircle
 62
7
  6
CONTINUOUS
 10
4.8633191369
 20
5.868916163
 40
0.437319179
100
AcDbArc
 50
179.6772478768
 51
191.6762044363
  0
ARC
  5
581
100
AcDbEntity
  8
0
100
AcDbCircle
 62
7
  6
CONTINUOUS
 10
4.8600302663
 20
5.8704375931
 40
0.4360325771
100
AcDbArc
 50
345.9991790843
 51
348.3519352718
  0
ARC
  5
582
100
AcDbEntity
  8
0
100
AcDbCircle
 62
7
  6
CONTINUOUS
 10
4.8643494792
 20
5.8688985653
 40
0.4284988592
100
AcDbArc
 50
179.6758380287
 51
191.6456122305
  0
ARC
  5
583
100
AcDbEntity
  8
0
100
AcDbCircle
 62
7
  6
CONTINUOUS
 10
4.8810338268
 20
5.8617192842
 40
0.3008687482
100
AcDbArc
 50
4.054716481
 51
5.2364498195
  0
ARC
  5
584
100
AcDbEntity
  8
0
100
AcDbCircle
 62
7
  6
CONTINUOUS
 10
4.8810591576
 20
5.8617213713
 40
0.3008433315
100
AcDbArc
 50
1.5770535518
 51
2.6715641762
  0
ARC
  5
585
100
AcDbEntity
  8
0
100
AcDbCircle
 62
7
  6
CONTINUOUS
 10
4.8810702369
 20
5.8617221222
 40
0.3008322288
100
AcDbArc
 50
2.8141222026
 51
3.9535623877
  0
ARC
  5
586
100
AcDbEntity
  8
0
100
AcDbCircle
 62
7
  6
CONTINUOUS
 10
4.881114844
 20
5.8617230603
 40
0.3007876197
100
AcDbArc
 50
1.3885983557
 51
1.5770238721
  0
ARC
  5
587
100
AcDbEntity
  8
0
100
AcDbCircle
 62
7
  6
CONTINUOUS
 10
4.8811989903
 20
5.861724948
 40
0.3007034524
100
AcDbArc
 50
0.1936373077
 51
1.3886273286
  0
ARC
  5
588
100
AcDbEntity
  8
0
100
AcDbCircle
 62
7
  6
CONTINUOUS
 10
4.8658773292
 20
5.8688794232
 40
0.5325
100
AcDbArc
 50
317.1176623492
 51
222.8823376739
  0
ARC
  5
589
100
AcDbEntity
  8
0
100
AcDbCircle
 62
7
  6
CONTINUOUS
 10
4.8658773292
 20
5.8688794232
 40
0.5310355339
100
AcDbArc
 50
87.6741624199
 51
88.7282106409
  0
ARC
  5
58A
100
AcDbEntity
  8
0
100
AcDbCircle
 62
7
  6
CONTINUOUS
 10
4.8658773292
 20
5.8688794232
 40
0.5310355339
100
AcDbArc
 50
85.8724320246
 51
86.9286407341
  0
ARC
  5
58B
100
AcDbEntity
  8
0
100
AcDbCircle
 62
7
  6
CONTINUOUS
 10
4.8658773292
 20
5.8688794232
 40
0.5310355339
100
AcDbArc
 50
84.0706082198
 51
85.1262138209
  0
ARC
  5
58C
100
AcDbEntity
  8
0
100
AcDbCircle
 62
7
  6
CONTINUOUS
 10
4.8658773292
 20
5.8688794232
 40
0.5310355339
100
AcDbArc
 50
82.2733984157
 51
83.3257704739
  0
ARC
  5
58D
100
AcDbEntity
  8
0
100
AcDbCircle
 62
7
  6
CONTINUOUS
 10
4.8658773292
 20
5.8688794232
 40
0.5310355339
100
AcDbArc
 50
80.4743011237
 51
81.5272535091
  0
ARC
  5
58E
100
AcDbEntity
  8
0
100
AcDbCircle
 62
7
  6
CONTINUOUS
 10
4.8658773292
 20
5.8688794232
 40
0.5310355339
100
AcDbArc
 50
78.6732602067
 51
79.7299605629
  0
ARC
  5
58F
100
AcDbEntity
  8
0
100
AcDbCircle
 62
7
  6
CONTINUOUS
 10
4.8658773292
 20
5.8688794232
 40
0.5310355339
100
AcDbArc
 50
76.8702180135
 51
77.9268300256
  0
ARC
  5
590
100
AcDbEntity
  8
0
100
AcDbCircle
 62
7
  6
CONTINUOUS
 10
4.8658773292
 20
5.8688794232
 40
0.5310355339
100
AcDbArc
 50
75.072639178
 51
76.1257033064
  0
ARC
  5
591
100
AcDbEntity
  8
0
100
AcDbCircle
 62
7
  6
CONTINUOUS
 10
4.8658773292
 20
5.8688794232
 40
0.5310355339
100
AcDbArc
 50
73.2742046953
 51
74.3265226868
  0
ARC
  5
592
100
AcDbEntity
  8
0
100
AcDbCircle
 62
7
  6
CONTINUOUS
 10
4.8658773292
 20
5.8688794232
 40
0.5310355339
100
AcDbArc
 50
71.4738462823
 51
72.5292319652
  0
ARC
  5
593
100
AcDbEntity
  8
0
100
AcDbCircle
 62
7
  6
CONTINUOUS
 10
4.8658773292
 20
5.8688794232
 40
0.5310355339
100
AcDbArc
 50
69.6715068212
 51
70.7276886443
  0
ARC
  5
594
100
AcDbEntity
  8
0
100
AcDbCircle
 62
7
  6
CONTINUOUS
 10
4.8658773292
 20
5.8688794232
 40
0.5310355339
100
AcDbArc
 50
67.8716539199
 51
68.9258715705
  0
ARC
  5
595
100
AcDbEntity
  8
0
100
AcDbCircle
 62
7
  6
CONTINUOUS
 10
4.8658773292
 20
5.8688794232
 40
0.5310355339
100
AcDbArc
 50
66.0738755174
 51
67.1260204972
  0
ARC
  5
596
100
AcDbEntity
  8
0
100
AcDbCircle
 62
7
  6
CONTINUOUS
 10
4.8658773292
 20
5.8688794232
 40
0.5310355339
100
AcDbArc
 50
64.2741926986
 51
65.3280787019
  0
ARC
  5
597
100
AcDbEntity
  8
0
100
AcDbCircle
 62
7
  6
CONTINUOUS
 10
4.8658773292
 20
5.8688794232
 40
0.5310355339
100
AcDbArc
 50
62.4725488718
 51
63.5287921499
  0
ARC
  5
598
100
AcDbEntity
  8
0
100
AcDbCircle
 62
7
  6
CONTINUOUS
 10
4.8658773292
 20
5.8688794232
 40
0.5310355339
100
AcDbArc
 50
60.6704449405
 51
61.7262776734
  0
ARC
  5
599
100
AcDbEntity
  8
0
100
AcDbCircle
 62
7
  6
CONTINUOUS
 10
4.8658773292
 20
5.8688794232
 40
0.5310355339
100
AcDbArc
 50
58.8733159505
 51
59.9257492846
  0
ARC
  5
59A
100
AcDbEntity
  8
0
100
AcDbCircle
 62
7
  6
CONTINUOUS
 10
4.8658773292
 20
5.8688794232
 40
0.5310355339
100
AcDbArc
 50
57.0743018798
 51
58.1271497325
  0
ARC
  5
59B
100
AcDbEntity
  8
0
100
AcDbCircle
 62
7
  6
CONTINUOUS
 10
4.8658773292
 20
5.8688794232
 40
0.5310355339
100
AcDbArc
 50
55.2733466561
 51
56.3301430387
  0
ARC
  5
59C
100
AcDbEntity
  8
0
100
AcDbCircle
 62
7
  6
CONTINUOUS
 10
4.8658773292
 20
5.8688794232
 40
0.5310355339
100
AcDbArc
 50
53.4703926946
 51
54.5269240454
  0
ARC
  5
59D
100
AcDbEntity
  8
0
100
AcDbCircle
 62
7
  6
CONTINUOUS
 10
4.8658773292
 20
5.8688794232
 40
0.5310355339
100
AcDbArc
 50
51.6725283341
 51
52.7257114152
  0
ARC
  5
59E
100
AcDbEntity
  8
0
100
AcDbCircle
 62
7
  6
CONTINUOUS
 10
4.8658773292
 20
5.8688794232
 40
0.5310355339
100
AcDbArc
 50
49.8741762282
 51
50.9264473621
  0
ARC
  5
59F
100
AcDbEntity
  8
0
100
AcDbCircle
 62
7
  6
CONTINUOUS
 10
4.8658773292
 20
5.8688794232
 40
0.5310355339
100
AcDbArc
 50
48.0739026408
 51
49.1290756197
  0
ARC
  5
5A0
100
AcDbEntity
  8
0
100
AcDbCircle
 62
7
  6
CONTINUOUS
 10
4.8658773292
 20
5.8688794232
 40
0.5310355339
100
AcDbArc
 50
46.2716505206
 51
47.3278131391
  0
ARC
  5
5A1
100
AcDbEntity
  8
0
100
AcDbCircle
 62
7
  6
CONTINUOUS
 10
4.8658773292
 20
5.8688794232
 40
0.5310355339
100
AcDbArc
 50
44.4715149852
 51
45.5259092768
  0
ARC
  5
5A2
100
AcDbEntity
  8
0
100
AcDbCircle
 62
7
  6
CONTINUOUS
 10
4.8658773292
 20
5.8688794232
 40
0.5310355339
100
AcDbArc
 50
42.6738181226
 51
43.7259739156
  0
ARC
  5
5A3
100
AcDbEntity
  8
0
100
AcDbCircle
 62
7
  6
CONTINUOUS
 10
4.8658773292
 20
5.8688794232
 40
0.5310355339
100
AcDbArc
 50
40.8742192702
 51
41.9279502675
  0
ARC
  5
5A4
100
AcDbEntity
  8
0
100
AcDbCircle
 62
7
  6
CONTINUOUS
 10
4.8658773292
 20
5.8688794232
 40
0.5310355339
100
AcDbArc
 50
39.0726619023
 51
40.1289474307
  0
ARC
  5
5A5
100
AcDbEntity
  8
0
100
AcDbCircle
 62
7
  6
CONTINUOUS
 10
4.8658773292
 20
5.8688794232
 40
0.5310355339
100
AcDbArc
 50
37.2702782016
 51
38.3263452805
  0
ARC
  5
5A6
100
AcDbEntity
  8
0
100
AcDbCircle
 62
7
  6
CONTINUOUS
 10
4.8658773292
 20
5.8688794232
 40
0.5310355339
100
AcDbArc
 50
35.4732299225
 51
36.5257317415
  0
ARC
  5
5A7
100
AcDbEntity
  8
0
100
AcDbCircle
 62
7
  6
CONTINUOUS
 10
4.8658773292
 20
5.8688794232
 40
0.5310355339
100
AcDbArc
 50
33.6742989669
 51
34.7270494969
  0
ARC
  5
5A8
100
AcDbEntity
  8
0
100
AcDbCircle
 62
7
  6
CONTINUOUS
 10
4.8658773292
 20
5.8688794232
 40
0.5310355339
100
AcDbArc
 50
31.8734293274
 51
32.9302427315
  0
ARC
  5
5A9
100
AcDbEntity
  8
0
100
AcDbCircle
 62
7
  6
CONTINUOUS
 10
4.8658773292
 20
5.8688794232
 40
0.5310355339
100
AcDbArc
 50
30.0705634859
 51
31.1270218577
  0
ARC
  5
5AA
100
AcDbEntity
  8
0
100
AcDbCircle
 62
7
  6
CONTINUOUS
 10
4.8658773292
 20
5.8688794232
 40
0.5310355339
100
AcDbArc
 50
28.2724139625
 51
29.3257232065
  0
ARC
  5
5AB
100
AcDbEntity
  8
0
100
AcDbCircle
 62
7
  6
CONTINUOUS
 10
4.8658773292
 20
5.8688794232
 40
0.5310355339
100
AcDbArc
 50
26.4741441283
 51
27.5263756136
  0
ARC
  5
5AC
100
AcDbEntity
  8
0
100
AcDbCircle
 62
7
  6
CONTINUOUS
 10
4.8658773292
 20
5.8688794232
 40
0.5310355339
100
AcDbArc
 50
24.6739552594
 51
25.7289227472
  0
ARC
  5
5AD
100
AcDbEntity
  8
0
100
AcDbCircle
 62
7
  6
CONTINUOUS
 10
4.8658773292
 20
5.8688794232
 40
0.5310355339
100
AcDbArc
 50
22.8717903694
 51
23.9279414651
  0
ARC
  5
5AE
100
AcDbEntity
  8
0
100
AcDbCircle
 62
7
  6
CONTINUOUS
 10
4.8658773292
 20
5.8688794232
 40
0.5310355339
100
AcDbArc
 50
21.07137256
 51
22.1259507044
  0
ARC
  5
5AF
100
AcDbEntity
  8
0
100
AcDbCircle
 62
7
  6
CONTINUOUS
 10
4.8658773292
 20
5.8688794232
 40
0.5310355339
100
AcDbArc
 50
19.2737571336
 51
20.3259309486
  0
ARC
  5
5B0
100
AcDbEntity
  8
0
100
AcDbCircle
 62
7
  6
CONTINUOUS
 10
4.8658773292
 20
5.8688794232
 40
0.5310355339
100
AcDbArc
 50
17.4742421406
 51
18.5278253428
  0
ARC
  5
5B1
100
AcDbEntity
  8
0
100
AcDbCircle
 62
7
  6
CONTINUOUS
 10
4.8658773292
 20
5.8688794232
 40
0.5310355339
100
AcDbArc
 50
15.6727711208
 51
16.7291065816
  0
ARC
  5
5B2
100
AcDbEntity
  8
0
100
AcDbCircle
 62
7
  6
CONTINUOUS
 10
4.8658773292
 20
5.8688794232
 40
0.5310355339
100
AcDbArc
 50
13.8701080068
 51
14.9264166458
  0
ARC
  5
5B3
100
AcDbEntity
  8
0
100
AcDbCircle
 62
7
  6
CONTINUOUS
 10
4.8658773292
 20
5.8688794232
 40
0.5310355339
100
AcDbArc
 50
12.0731403348
 51
13.1257178482
  0
ARC
  5
5B4
100
AcDbEntity
  8
0
100
AcDbCircle
 62
7
  6
CONTINUOUS
 10
4.8658773292
 20
5.8688794232
 40
0.5310355339
100
AcDbArc
 50
10.2742923884
 51
11.3269528054
  0
ARC
  5
5B5
100
AcDbEntity
  8
0
100
AcDbCircle
 62
7
  6
CONTINUOUS
 10
4.8658773292
 20
5.8688794232
 40
0.5310355339
100
AcDbArc
 50
8.4735082249
 51
9.5300656388
  0
ARC
  5
5B6
100
AcDbEntity
  8
0
100
AcDbCircle
 62
7
  6
CONTINUOUS
 10
4.8658773292
 20
5.8688794232
 40
0.5310355339
100
AcDbArc
 50
6.6707303922
 51
7.7271234676
  0
ARC
  5
5B7
100
AcDbEntity
  8
0
100
AcDbCircle
 62
7
  6
CONTINUOUS
 10
4.8658773292
 20
5.8688794232
 40
0.5310355339
100
AcDbArc
 50
4.8722960694
 51
5.9257386871
  0
ARC
  5
5B8
100
AcDbEntity
  8
0
100
AcDbCircle
 62
7
  6
CONTINUOUS
 10
4.8658773292
 20
5.8688794232
 40
0.5310355339
100
AcDbArc
 50
3.0741084021
 51
4.1263074478
  0
ARC
  5
5B9
100
AcDbEntity
  8
0
100
AcDbCircle
 62
7
  6
CONTINUOUS
 10
4.8658773292
 20
5.8688794232
 40
0.5310355339
100
AcDbArc
 50
1.2740041433
 51
2.3287733529
  0
ARC
  5
5BA
100
AcDbEntity
  8
0
100
AcDbCircle
 62
7
  6
CONTINUOUS
 10
4.8658773292
 20
5.8688794232
 40
0.5310355339
100
AcDbArc
 50
359.4719263726
 51
0.5280736274
  0
ARC
  5
5BB
100
AcDbEntity
  8
0
100
AcDbCircle
 62
7
  6
CONTINUOUS
 10
4.8658773292
 20
5.8688794232
 40
0.5310355339
100
AcDbArc
 50
357.6712266471
 51
358.7259958567
  0
ARC
  5
5BC
100
AcDbEntity
  8
0
100
AcDbCircle
 62
7
  6
CONTINUOUS
 10
4.8658773292
 20
5.8688794232
 40
0.5310355339
100
AcDbArc
 50
355.8736925523
 51
356.9258915979
  0
ARC
  5
5BD
100
AcDbEntity
  8
0
100
AcDbCircle
 62
7
  6
CONTINUOUS
 10
4.8658773292
 20
5.8688794232
 40
0.5310355339
100
AcDbArc
 50
354.0742613129
 51
355.1277039306
  0
ARC
  5
5BE
100
AcDbEntity
  8
0
100
AcDbCircle
 62
7
  6
CONTINUOUS
 10
4.8658773292
 20
5.8688794232
 40
0.5310355339
100
AcDbArc
 50
352.2728765324
 51
353.3292696078
  0
ARC
  5
5BF
100
AcDbEntity
  8
0
100
AcDbCircle
 62
7
  6
CONTINUOUS
 10
4.8658773292
 20
5.8688794232
 40
0.5310355339
100
AcDbArc
 50
350.4699343613
 51
351.5264917751
  0
ARC
  5
5C0
100
AcDbEntity
  8
0
100
AcDbCircle
 62
7
  6
CONTINUOUS
 10
4.8658773292
 20
5.8688794232
 40
0.5310355339
100
AcDbArc
 50
348.6730471946
 51
349.7257076116
  0
ARC
  5
5C1
100
AcDbEntity
  8
0
100
AcDbCircle
 62
7
  6
CONTINUOUS
 10
4.8658773292
 20
5.8688794232
 40
0.5310355339
100
AcDbArc
 50
346.8742821518
 51
347.9268596652
  0
ARC
  5
5C2
100
AcDbEntity
  8
0
100
AcDbCircle
 62
7
  6
CONTINUOUS
 10
4.8658773292
 20
5.8688794232
 40
0.5310355339
100
AcDbArc
 50
345.0735833542
 51
346.1298919932
  0
ARC
  5
5C3
100
AcDbEntity
  8
0
100
AcDbCircle
 62
7
  6
CONTINUOUS
 10
4.8658773292
 20
5.8688794232
 40
0.5310355339
100
AcDbArc
 50
343.2708934184
 51
344.3272288792
  0
ARC
  5
5C4
100
AcDbEntity
  8
0
100
AcDbCircle
 62
7
  6
CONTINUOUS
 10
4.8658773292
 20
5.8688794232
 40
0.5310355339
100
AcDbArc
 50
341.4721746572
 51
342.5257578593
  0
ARC
  5
5C5
100
AcDbEntity
  8
0
100
AcDbCircle
 62
7
  6
CONTINUOUS
 10
4.8658773292
 20
5.8688794232
 40
0.5310355339
100
AcDbArc
 50
339.6740690514
 51
340.7262428664
  0
ARC
  5
5C6
100
AcDbEntity
  8
0
100
AcDbCircle
 62
7
  6
CONTINUOUS
 10
4.8658773292
 20
5.8688794232
 40
0.5310355339
100
AcDbArc
 50
337.8740492956
 51
338.92862744
  0
ARC
  5
5C7
100
AcDbEntity
  8
0
100
AcDbCircle
 62
7
  6
CONTINUOUS
 10
4.8658773292
 20
5.8688794232
 40
0.5310355339
100
AcDbArc
 50
336.0720585349
 51
337.1282096306
  0
ARC
  5
5C8
100
AcDbEntity
  8
0
100
AcDbCircle
 62
7
  6
CONTINUOUS
 10
4.8658773292
 20
5.8688794232
 40
0.5310355339
100
AcDbArc
 50
334.2710772529
 51
335.3260447406
  0
ARC
  5
5C9
100
AcDbEntity
  8
0
100
AcDbCircle
 62
7
  6
CONTINUOUS
 10
4.8658773292
 20
5.8688794232
 40
0.5310355339
100
AcDbArc
 50
332.4736243865
 51
333.5258558717
  0
ARC
  5
5CA
100
AcDbEntity
  8
0
100
AcDbCircle
 62
7
  6
CONTINUOUS
 10
4.8658773292
 20
5.8688794232
 40
0.5310355339
100
AcDbArc
 50
330.6742767935
 51
331.7275860375
  0
ARC
  5
5CB
100
AcDbEntity
  8
0
100
AcDbCircle
 62
7
  6
CONTINUOUS
 10
4.8658773292
 20
5.8688794232
 40
0.5310355339
100
AcDbArc
 50
328.8729781423
 51
329.929436514
  0
ARC
  5
5CC
100
AcDbEntity
  8
0
100
AcDbCircle
 62
7
  6
CONTINUOUS
 10
4.8658773292
 20
5.8688794232
 40
0.5310355339
100
AcDbArc
 50
327.0697572686
 51
328.1265706726
  0
ARC
  5
5CD
100
AcDbEntity
  8
0
100
AcDbCircle
 62
7
  6
CONTINUOUS
 10
4.8658773292
 20
5.8688794232
 40
0.5310355339
100
AcDbArc
 50
325.2729505032
 51
326.3257010331
  0
ARC
  5
5CE
100
AcDbEntity
  8
0
100
AcDbCircle
 62
7
  6
CONTINUOUS
 10
4.8658773292
 20
5.8688794232
 40
0.5310355339
100
AcDbArc
 50
323.4742682585
 51
324.5267700775
  0
ARC
  5
5CF
100
AcDbEntity
  8
0
100
AcDbCircle
 62
7
  6
CONTINUOUS
 10
4.8658773292
 20
5.8688794232
 40
0.5310355339
100
AcDbArc
 50
321.6736547195
 51
322.7297217984
  0
ARC
  5
5D0
100
AcDbEntity
  8
0
100
AcDbCircle
 62
7
  6
CONTINUOUS
 10
4.8658773292
 20
5.8688794232
 40
0.5310355339
100
AcDbArc
 50
319.8710525693
 51
320.9273380977
  0
ARC
  5
5D1
100
AcDbEntity
  8
0
100
AcDbCircle
 62
7
  6
CONTINUOUS
 10
4.8658773292
 20
5.8688794232
 40
0.5310355339
100
AcDbArc
 50
318.0720497325
 51
319.1257807298
  0
ARC
  5
5D2
100
AcDbEntity
  8
0
100
AcDbCircle
 62
7
  6
CONTINUOUS
 10
4.8658773292
 20
5.8688794232
 40
0.5310355339
100
AcDbArc
 50
220.8742192702
 51
221.9279502675
  0
ARC
  5
5D3
100
AcDbEntity
  8
0
100
AcDbCircle
 62
7
  6
CONTINUOUS
 10
4.8658773292
 20
5.8688794232
 40
0.5310355339
100
AcDbArc
 50
219.0726619023
 51
220.1289474307
  0
ARC
  5
5D4
100
AcDbEntity
  8
0
100
AcDbCircle
 62
7
  6
CONTINUOUS
 10
4.8658773292
 20
5.8688794232
 40
0.5310355339
100
AcDbArc
 50
217.2702782016
 51
218.3263452805
  0
ARC
  5
5D5
100
AcDbEntity
  8
0
100
AcDbCircle
 62
7
  6
CONTINUOUS
 10
4.8658773292
 20
5.8688794232
 40
0.5310355339
100
AcDbArc
 50
215.4732299225
 51
216.5257317415
  0
ARC
  5
5D6
100
AcDbEntity
  8
0
100
AcDbCircle
 62
7
  6
CONTINUOUS
 10
4.8658773292
 20
5.8688794232
 40
0.5310355339
100
AcDbArc
 50
213.6742989669
 51
214.7270494969
  0
ARC
  5
5D7
100
AcDbEntity
  8
0
100
AcDbCircle
 62
7
  6
CONTINUOUS
 10
4.8658773292
 20
5.8688794232
 40
0.5310355339
100
AcDbArc
 50
211.8734293274
 51
212.9302427315
  0
ARC
  5
5D8
100
AcDbEntity
  8
0
100
AcDbCircle
 62
7
  6
CONTINUOUS
 10
4.8658773292
 20
5.8688794232
 40
0.5310355339
100
AcDbArc
 50
210.0705634859
 51
211.1270218577
  0
ARC
  5
5D9
100
AcDbEntity
  8
0
100
AcDbCircle
 62
7
  6
CONTINUOUS
 10
4.8658773292
 20
5.8688794232
 40
0.5310355339
100
AcDbArc
 50
208.2724139625
 51
209.3257232065
  0
ARC
  5
5DA
100
AcDbEntity
  8
0
100
AcDbCircle
 62
7
  6
CONTINUOUS
 10
4.8658773292
 20
5.8688794232
 40
0.5310355339
100
AcDbArc
 50
206.4741441283
 51
207.5263756136
  0
ARC
  5
5DB
100
AcDbEntity
  8
0
100
AcDbCircle
 62
7
  6
CONTINUOUS
 10
4.8658773292
 20
5.8688794232
 40
0.5310355339
100
AcDbArc
 50
204.6739552594
 51
205.7289227472
  0
ARC
  5
5DC
100
AcDbEntity
  8
0
100
AcDbCircle
 62
7
  6
CONTINUOUS
 10
4.8658773292
 20
5.8688794232
 40
0.5310355339
100
AcDbArc
 50
202.8717903694
 51
203.9279414651
  0
ARC
  5
5DD
100
AcDbEntity
  8
0
100
AcDbCircle
 62
7
  6
CONTINUOUS
 10
4.8658773292
 20
5.8688794232
 40
0.5310355339
100
AcDbArc
 50
201.07137256
 51
202.1259507044
  0
ARC
  5
5DE
100
AcDbEntity
  8
0
100
AcDbCircle
 62
7
  6
CONTINUOUS
 10
4.8658773292
 20
5.8688794232
 40
0.5310355339
100
AcDbArc
 50
199.2737571336
 51
200.3259309486
  0
ARC
  5
5DF
100
AcDbEntity
  8
0
100
AcDbCircle
 62
7
  6
CONTINUOUS
 10
4.8658773292
 20
5.8688794232
 40
0.5310355339
100
AcDbArc
 50
197.4742421406
 51
198.5278253428
  0
ARC
  5
5E0
100
AcDbEntity
  8
0
100
AcDbCircle
 62
7
  6
CONTINUOUS
 10
4.8658773292
 20
5.8688794232
 40
0.5310355339
100
AcDbArc
 50
195.6727711208
 51
196.7291065816
  0
ARC
  5
5E1
100
AcDbEntity
  8
0
100
AcDbCircle
 62
7
  6
CONTINUOUS
 10
4.8658773292
 20
5.8688794232
 40
0.5310355339
100
AcDbArc
 50
193.8701080068
 51
194.9264166458
  0
ARC
  5
5E2
100
AcDbEntity
  8
0
100
AcDbCircle
 62
7
  6
CONTINUOUS
 10
4.8658773292
 20
5.8688794232
 40
0.5310355339
100
AcDbArc
 50
192.0731403348
 51
193.1257178482
  0
ARC
  5
5E3
100
AcDbEntity
  8
0
100
AcDbCircle
 62
7
  6
CONTINUOUS
 10
4.8658773292
 20
5.8688794232
 40
0.5310355339
100
AcDbArc
 50
190.2742923884
 51
191.3269528054
  0
ARC
  5
5E4
100
AcDbEntity
  8
0
100
AcDbCircle
 62
7
  6
CONTINUOUS
 10
4.8658773292
 20
5.8688794232
 40
0.5310355339
100
AcDbArc
 50
188.4735082249
 51
189.5300656388
  0
ARC
  5
5E5
100
AcDbEntity
  8
0
100
AcDbCircle
 62
7
  6
CONTINUOUS
 10
4.8658773292
 20
5.8688794232
 40
0.5310355339
100
AcDbArc
 50
186.6707303922
 51
187.7271234676
  0
ARC
  5
5E6
100
AcDbEntity
  8
0
100
AcDbCircle
 62
7
  6
CONTINUOUS
 10
4.8658773292
 20
5.8688794232
 40
0.5310355339
100
AcDbArc
 50
184.8722960694
 51
185.9257386871
  0
ARC
  5
5E7
100
AcDbEntity
  8
0
100
AcDbCircle
 62
7
  6
CONTINUOUS
 10
4.8658773292
 20
5.8688794232
 40
0.5310355339
100
AcDbArc
 50
183.0741084021
 51
184.1263074478
  0
ARC
  5
5E8
100
AcDbEntity
  8
0
100
AcDbCircle
 62
7
  6
CONTINUOUS
 10
4.8658773292
 20
5.8688794232
 40
0.5310355339
100
AcDbArc
 50
181.2740041433
 51
182.3287733529
  0
ARC
  5
5E9
100
AcDbEntity
  8
0
100
AcDbCircle
 62
7
  6
CONTINUOUS
 10
4.8658773292
 20
5.8688794232
 40
0.5310355339
100
AcDbArc
 50
179.4719263726
 51
180.5280736274
  0
ARC
  5
5EA
100
AcDbEntity
  8
0
100
AcDbCircle
 62
7
  6
CONTINUOUS
 10
4.8658773292
 20
5.8688794232
 40
0.5310355339
100
AcDbArc
 50
177.6712266471
 51
178.7259958567
  0
ARC
  5
5EB
100
AcDbEntity
  8
0
100
AcDbCircle
 62
7
  6
CONTINUOUS
 10
4.8658773292
 20
5.8688794232
 40
0.5310355339
100
AcDbArc
 50
175.8736925523
 51
176.9258915979
  0
ARC
  5
5EC
100
AcDbEntity
  8
0
100
AcDbCircle
 62
7
  6
CONTINUOUS
 10
4.8658773292
 20
5.8688794232
 40
0.5310355339
100
AcDbArc
 50
174.0742613129
 51
175.1277039306
  0
ARC
  5
5ED
100
AcDbEntity
  8
0
100
AcDbCircle
 62
7
  6
CONTINUOUS
 10
4.8658773292
 20
5.8688794232
 40
0.5310355339
100
AcDbArc
 50
172.2728765324
 51
173.3292696078
  0
ARC
  5
5EE
100
AcDbEntity
  8
0
100
AcDbCircle
 62
7
  6
CONTINUOUS
 10
4.8658773292
 20
5.8688794232
 40
0.5310355339
100
AcDbArc
 50
170.4699343613
 51
171.5264917751
  0
ARC
  5
5EF
100
AcDbEntity
  8
0
100
AcDbCircle
 62
7
  6
CONTINUOUS
 10
4.8658773292
 20
5.8688794232
 40
0.5310355339
100
AcDbArc
 50
168.6730471946
 51
169.7257076116
  0
ARC
  5
5F0
100
AcDbEntity
  8
0
100
AcDbCircle
 62
7
  6
CONTINUOUS
 10
4.8658773292
 20
5.8688794232
 40
0.5310355339
100
AcDbArc
 50
166.8742821518
 51
167.9268596652
  0
ARC
  5
5F1
100
AcDbEntity
  8
0
100
AcDbCircle
 62
7
  6
CONTINUOUS
 10
4.8658773292
 20
5.8688794232
 40
0.5310355339
100
AcDbArc
 50
165.0735833542
 51
166.1298919932
  0
ARC
  5
5F2
100
AcDbEntity
  8
0
100
AcDbCircle
 62
7
  6
CONTINUOUS
 10
4.8658773292
 20
5.8688794232
 40
0.5310355339
100
AcDbArc
 50
163.2708934184
 51
164.3272288792
  0
ARC
  5
5F3
100
AcDbEntity
  8
0
100
AcDbCircle
 62
7
  6
CONTINUOUS
 10
4.8658773292
 20
5.8688794232
 40
0.5310355339
100
AcDbArc
 50
161.4721746572
 51
162.5257578593
  0
ARC
  5
5F4
100
AcDbEntity
  8
0
100
AcDbCircle
 62
7
  6
CONTINUOUS
 10
4.8658773292
 20
5.8688794232
 40
0.5310355339
100
AcDbArc
 50
159.6740690514
 51
160.7262428664
  0
ARC
  5
5F5
100
AcDbEntity
  8
0
100
AcDbCircle
 62
7
  6
CONTINUOUS
 10
4.8658773292
 20
5.8688794232
 40
0.5310355339
100
AcDbArc
 50
157.8740492956
 51
158.92862744
  0
ARC
  5
5F6
100
AcDbEntity
  8
0
100
AcDbCircle
 62
7
  6
CONTINUOUS
 10
4.8658773292
 20
5.8688794232
 40
0.5310355339
100
AcDbArc
 50
156.0720585349
 51
157.1282096306
  0
ARC
  5
5F7
100
AcDbEntity
  8
0
100
AcDbCircle
 62
7
  6
CONTINUOUS
 10
4.8658773292
 20
5.8688794232
 40
0.5310355339
100
AcDbArc
 50
154.2710772529
 51
155.3260447406
  0
ARC
  5
5F8
100
AcDbEntity
  8
0
100
AcDbCircle
 62
7
  6
CONTINUOUS
 10
4.8658773292
 20
5.8688794232
 40
0.5310355339
100
AcDbArc
 50
152.4736243865
 51
153.5258558717
  0
ARC
  5
5F9
100
AcDbEntity
  8
0
100
AcDbCircle
 62
7
  6
CONTINUOUS
 10
4.8658773292
 20
5.8688794232
 40
0.5310355339
100
AcDbArc
 50
150.6742767935
 51
151.7275860375
  0
ARC
  5
5FA
100
AcDbEntity
  8
0
100
AcDbCircle
 62
7
  6
CONTINUOUS
 10
4.8658773292
 20
5.8688794232
 40
0.5310355339
100
AcDbArc
 50
148.8729781423
 51
149.929436514
  0
ARC
  5
5FB
100
AcDbEntity
  8
0
100
AcDbCircle
 62
7
  6
CONTINUOUS
 10
4.8658773292
 20
5.8688794232
 40
0.5310355339
100
AcDbArc
 50
147.0697572686
 51
148.1265706726
  0
ARC
  5
5FC
100
AcDbEntity
  8
0
100
AcDbCircle
 62
7
  6
CONTINUOUS
 10
4.8658773292
 20
5.8688794232
 40
0.5310355339
100
AcDbArc
 50
145.2729505032
 51
146.3257010331
  0
ARC
  5
5FD
100
AcDbEntity
  8
0
100
AcDbCircle
 62
7
  6
CONTINUOUS
 10
4.8658773292
 20
5.8688794232
 40
0.5310355339
100
AcDbArc
 50
143.4742682585
 51
144.5267700775
  0
ARC
  5
5FE
100
AcDbEntity
  8
0
100
AcDbCircle
 62
7
  6
CONTINUOUS
 10
4.8658773292
 20
5.8688794232
 40
0.5310355339
100
AcDbArc
 50
141.6736547195
 51
142.7297217984
  0
ARC
  5
5FF
100
AcDbEntity
  8
0
100
AcDbCircle
 62
7
  6
CONTINUOUS
 10
4.8658773292
 20
5.8688794232
 40
0.5310355339
100
AcDbArc
 50
139.8710525693
 51
140.9273380977
  0
ARC
  5
600
100
AcDbEntity
  8
0
100
AcDbCircle
 62
7
  6
CONTINUOUS
 10
4.8658773292
 20
5.8688794232
 40
0.5310355339
100
AcDbArc
 50
138.0720497325
 51
139.1257807298
  0
ARC
  5
601
100
AcDbEntity
  8
0
100
AcDbCircle
 62
7
  6
CONTINUOUS
 10
4.8658773292
 20
5.8688794232
 40
0.5310355339
100
AcDbArc
 50
136.2740260844
 51
137.3261818774
  0
ARC
  5
602
100
AcDbEntity
  8
0
100
AcDbCircle
 62
7
  6
CONTINUOUS
 10
4.8658773292
 20
5.8688794232
 40
0.5310355339
100
AcDbArc
 50
134.4740907232
 51
135.5284850148
  0
ARC
  5
603
100
AcDbEntity
  8
0
100
AcDbCircle
 62
7
  6
CONTINUOUS
 10
4.8658773292
 20
5.8688794232
 40
0.5310355339
100
AcDbArc
 50
132.6721868609
 51
133.7283494794
  0
ARC
  5
604
100
AcDbEntity
  8
0
100
AcDbCircle
 62
7
  6
CONTINUOUS
 10
4.8658773292
 20
5.8688794232
 40
0.5310355339
100
AcDbArc
 50
130.8709243803
 51
131.9260973592
  0
ARC
  5
605
100
AcDbEntity
  8
0
100
AcDbCircle
 62
7
  6
CONTINUOUS
 10
4.8658773292
 20
5.8688794232
 40
0.5310355339
100
AcDbArc
 50
129.0735526379
 51
130.1258237718
  0
ARC
  5
606
100
AcDbEntity
  8
0
100
AcDbCircle
 62
7
  6
CONTINUOUS
 10
4.8658773292
 20
5.8688794232
 40
0.5310355339
100
AcDbArc
 50
127.2742885848
 51
128.3274716659
  0
ARC
  5
607
100
AcDbEntity
  8
0
100
AcDbCircle
 62
7
  6
CONTINUOUS
 10
4.8658773292
 20
5.8688794232
 40
0.5310355339
100
AcDbArc
 50
125.4730759546
 51
126.5296073054
  0
ARC
  5
608
100
AcDbEntity
  8
0
100
AcDbCircle
 62
7
  6
CONTINUOUS
 10
4.8658773292
 20
5.8688794232
 40
0.5310355339
100
AcDbArc
 50
123.6698569613
 51
124.7266533439
  0
ARC
  5
609
100
AcDbEntity
  8
0
100
AcDbCircle
 62
7
  6
CONTINUOUS
 10
4.8658773292
 20
5.8688794232
 40
0.5310355339
100
AcDbArc
 50
121.8728502675
 51
122.9256981202
  0
ARC
  5
60A
100
AcDbEntity
  8
0
100
AcDbCircle
 62
7
  6
CONTINUOUS
 10
4.8658773292
 20
5.8688794232
 40
0.5310355339
100
AcDbArc
 50
120.0742507154
 51
121.1266840495
  0
ARC
  5
60B
100
AcDbEntity
  8
0
100
AcDbCircle
 62
7
  6
CONTINUOUS
 10
4.8658773292
 20
5.8688794232
 40
0.5310355339
100
AcDbArc
 50
118.2737223266
 51
119.3295550595
  0
ARC
  5
60C
100
AcDbEntity
  8
0
100
AcDbCircle
 62
7
  6
CONTINUOUS
 10
4.8658773292
 20
5.8688794232
 40
0.5310355339
100
AcDbArc
 50
116.4712078501
 51
117.5274511281
  0
ARC
  5
60D
100
AcDbEntity
  8
0
100
AcDbCircle
 62
7
  6
CONTINUOUS
 10
4.8658773292
 20
5.8688794232
 40
0.5310355339
100
AcDbArc
 50
114.6719212982
 51
115.7258073014
  0
ARC
  5
60E
100
AcDbEntity
  8
0
100
AcDbCircle
 62
7
  6
CONTINUOUS
 10
4.8658773292
 20
5.8688794232
 40
0.5310355339
100
AcDbArc
 50
112.8739795028
 51
113.9261244826
  0
ARC
  5
60F
100
AcDbEntity
  8
0
100
AcDbCircle
 62
7
  6
CONTINUOUS
 10
4.8658773292
 20
5.8688794232
 40
0.5310355339
100
AcDbArc
 50
111.0741284295
 51
112.1283460802
  0
ARC
  5
610
100
AcDbEntity
  8
0
100
AcDbCircle
 62
7
  6
CONTINUOUS
 10
4.8658773292
 20
5.8688794232
 40
0.5310355339
100
AcDbArc
 50
109.2723113557
 51
110.3284931787
  0
ARC
  5
611
100
AcDbEntity
  8
0
100
AcDbCircle
 62
7
  6
CONTINUOUS
 10
4.8658773292
 20
5.8688794232
 40
0.5310355339
100
AcDbArc
 50
107.4707680348
 51
108.5261537177
  0
ARC
  5
612
100
AcDbEntity
  8
0
100
AcDbCircle
 62
7
  6
CONTINUOUS
 10
4.8658773292
 20
5.8688794232
 40
0.5310355339
100
AcDbArc
 50
105.6734773132
 51
106.7257953048
  0
ARC
  5
613
100
AcDbEntity
  8
0
100
AcDbCircle
 62
7
  6
CONTINUOUS
 10
4.8658773292
 20
5.8688794232
 40
0.5310355339
100
AcDbArc
 50
103.8742966936
 51
104.927360822
  0
ARC
  5
614
100
AcDbEntity
  8
0
100
AcDbCircle
 62
7
  6
CONTINUOUS
 10
4.8658773292
 20
5.8688794232
 40
0.5310355339
100
AcDbArc
 50
102.0731699744
 51
103.1297819864
  0
ARC
  5
615
100
AcDbEntity
  8
0
100
AcDbCircle
 62
7
  6
CONTINUOUS
 10
4.8658773292
 20
5.8688794232
 40
0.5310355339
100
AcDbArc
 50
100.2700394371
 51
101.3267397933
  0
ARC
  5
616
100
AcDbEntity
  8
0
100
AcDbCircle
 62
7
  6
CONTINUOUS
 10
4.8658773292
 20
5.8688794232
 40
0.5310355339
100
AcDbArc
 50
98.4727464909
 51
99.5256988763
  0
ARC
  5
617
100
AcDbEntity
  8
0
100
AcDbCircle
 62
7
  6
CONTINUOUS
 10
4.8658773292
 20
5.8688794232
 40
0.5310355339
100
AcDbArc
 50
96.6742295261
 51
97.7266015843
  0
ARC
  5
618
100
AcDbEntity
  8
0
100
AcDbCircle
 62
7
  6
CONTINUOUS
 10
4.8658773292
 20
5.8688794232
 40
0.5310355339
100
AcDbArc
 50
94.8737861791
 51
95.9293917803
  0
ARC
  5
619
100
AcDbEntity
  8
0
100
AcDbCircle
 62
7
  6
CONTINUOUS
 10
4.8658773292
 20
5.8688794232
 40
0.5310355339
100
AcDbArc
 50
93.0713592659
 51
94.1275679754
  0
ARC
  5
61A
100
AcDbEntity
  8
0
100
AcDbCircle
 62
7
  6
CONTINUOUS
 10
4.8658773292
 20
5.8688794232
 40
0.5310355339
100
AcDbArc
 50
91.2717893591
 51
92.3258375801
  0
ARC
  5
61B
100
AcDbEntity
  8
0
100
AcDbCircle
 62
7
  6
CONTINUOUS
 10
4.8658773292
 20
5.8688794232
 40
0.5310355339
100
AcDbArc
 50
89.4739293123
 51
90.5260706877
  0
ARC
  5
61C
100
AcDbEntity
  8
0
100
AcDbCircle
 62
7
  6
CONTINUOUS
 10
4.8658773292
 20
5.8688794232
 40
0.5025
100
AcDbArc
 50
323.5571416325
 51
216.4428584022
  0
ARC
  5
61D
100
AcDbEntity
  8
0
100
AcDbCircle
 62
7
  6
CONTINUOUS
 10
4.8658773292
 20
5.8688794232
 40
0.4636328572
100
AcDbArc
 50
0.3088979163
 51
179.6911020837
  0
ARC
  5
61E
100
AcDbEntity
  8
0
100
AcDbCircle
 62
7
  6
CONTINUOUS
 10
4.875949243
 20
5.8715667152
 40
0.4502243517
100
AcDbArc
 50
191.6812459625
 51
194.0104486325
  0
ARC
  5
61F
100
AcDbEntity
  8
0
100
AcDbCircle
 62
7
  6
CONTINUOUS
 10
4.8658773292
 20
5.8688794232
 40
0.44
100
AcDbArc
 50
286.8005132627
 51
329.2937365601
  0
ARC
  5
620
100
AcDbEntity
  8
0
100
AcDbCircle
 62
7
  6
CONTINUOUS
 10
4.8658773292
 20
5.8688794232
 40
0.44
100
AcDbArc
 50
210.7062641704
 51
253.1953034248
  0
ARC
  5
621
100
AcDbEntity
  8
0
100
AcDbCircle
 62
7
  6
CONTINUOUS
 10
4.8658773292
 20
5.8688794232
 40
0.4398776135
100
AcDbArc
 50
0.325590639
 51
179.6744093617
  0
ARC
  5
622
100
AcDbEntity
  8
0
100
AcDbCircle
 62
7
  6
CONTINUOUS
 10
4.8684355216
 20
5.868916163
 40
0.4373191789
100
AcDbArc
 50
348.3237955415
 51
0.3227521241
  0
ARC
  5
623
100
AcDbEntity
  8
0
100
AcDbCircle
 62
7
  6
CONTINUOUS
 10
4.8717106798
 20
5.8704344716
 40
0.436018517
100
AcDbArc
 50
191.6480267694
 51
194.0008588567
  0
ARC
  5
624
100
AcDbEntity
  8
0
100
AcDbCircle
 62
7
  6
CONTINUOUS
 10
4.8658773292
 20
5.8688794232
 40
0.4300267336
100
AcDbArc
 50
0.3256421443
 51
179.6744168322
  0
ARC
  5
625
100
AcDbEntity
  8
0
100
AcDbCircle
 62
7
  6
CONTINUOUS
 10
4.8674051835
 20
5.8688985628
 40
0.4284988547
100
AcDbArc
 50
348.3543879527
 51
0.324221482
  0
ARC
  5
626
100
AcDbEntity
  8
0
100
AcDbCircle
 62
7
  6
CONTINUOUS
 10
4.8658773292
 20
5.8688794232
 40
0.42
100
AcDbArc
 50
287.3742815611
 51
252.6218106728
  0
ARC
  5
627
100
AcDbEntity
  8
0
100
AcDbCircle
 62
7
  6
CONTINUOUS
 10
4.8658773292
 20
5.8688794232
 40
0.4110922645
100
AcDbArc
 50
287.6474138509
 51
252.3488008613
  0
ARC
  5
628
100
AcDbEntity
  8
0
100
AcDbCircle
 62
7
  6
CONTINUOUS
 10
4.8658773292
 20
5.8688794232
 40
0.3303759132
100
AcDbArc
 50
290.8254992604
 51
249.1722869868
  0
ARC
  5
629
100
AcDbEntity
  8
0
100
AcDbCircle
 62
7
  6
CONTINUOUS
 10
4.8658773292
 20
5.8688794232
 40
0.3160909168
100
AcDbArc
 50
291.5639068221
 51
358.8242777047
  0
ARC
  5
62A
100
AcDbEntity
  8
0
100
AcDbCircle
 62
7
  6
CONTINUOUS
 10
4.8658773292
 20
5.8688794232
 40
0.3160909168
100
AcDbArc
 50
181.1757221734
 51
248.4342459058
  0
ARC
  5
62B
100
AcDbEntity
  8
0
100
AcDbCircle
 62
7
  6
CONTINUOUS
 10
4.8658773292
 20
5.8688794232
 40
0.3128263406
100
AcDbArc
 50
18.3338002787
 51
161.6642507917
  0
ARC
  5
62C
100
AcDbEntity
  8
0
100
AcDbCircle
 62
7
  6
CONTINUOUS
 10
4.8658773292
 20
5.8688794232
 40
0.2641183509
100
AcDbArc
 50
294.9606648153
 51
245.0392253516
  0
ARC
  5
62D
100
AcDbEntity
  8
0
100
AcDbCircle
 62
7
  6
CONTINUOUS
 10
4.8658773292
 20
5.8688794232
 40
0.2585760549
100
AcDbArc
 50
295.409438269
 51
244.5906870734
  0
ARC
  5
62E
100
AcDbEntity
  8
0
100
AcDbCircle
 62
7
  6
CONTINUOUS
 10
4.8658773292
 20
5.8688794232
 40
0.17
100
AcDbArc
 50
290.3776539266
 51
249.6209811891
  0
CIRCLE
  5
62F
100
AcDbEntity
  8
0
100
AcDbCircle
 62
7
  6
CONTINUOUS
 10
4.8658773292
 20
5.8688794232
 40
0.16125
  0
CIRCLE
  5
630
100
AcDbEntity
  8
0
100
AcDbCircle
 62
7
  6
CONTINUOUS
 10
4.8658773292
 20
5.8688794232
 40
0.1482243287
  0
CIRCLE
  5
631
100
AcDbEntity
  8
0
100
AcDbCircle
 62
7
  6
CONTINUOUS
 10
4.8658773292
 20
5.8688794232
 40
0.1241314425
  0
CIRCLE
  5
632
100
AcDbEntity
  8
0
100
AcDbCircle
 62
7
  6
CONTINUOUS
 10
4.8658773292
 20
5.8688794232
 40
0.1102088873
  0
CIRCLE
  5
633
100
AcDbEntity
  8
0
100
AcDbCircle
 62
7
  6
CONTINUOUS
 10
4.8658773292
 20
5.8688794232
 40
0.11
  0
CIRCLE
  5
634
100
AcDbEntity
  8
0
100
AcDbCircle
 62
7
  6
CONTINUOUS
 10
4.8658773292
 20
5.8688794232
 40
0.1
  0
CIRCLE
  5
635
100
AcDbEntity
  8
0
100
AcDbCircle
 62
7
  6
CONTINUOUS
 10
4.8658773292
 20
5.8688794232
 40
0.0947463577
  0
ARC
  5
636
100
AcDbEntity
  8
0
100
AcDbCircle
 62
7
  6
CONTINUOUS
 10
71.0018552497
 20
2.4036882068
 40
65.948246121
100
AcDbArc
 50
178.7974707944
 51
178.9119997598
  0
ARC
  5
637
100
AcDbEntity
  8
0
100
AcDbCircle
 62
7
  6
CONTINUOUS
 10
43.6604358007
 20
2.9494539278
 40
38.5874701455
100
AcDbArc
 50
178.762633131
 51
178.9564297652
  0
SPLINE
  5
638
100
AcDbEntity
  8
0
100
AcDbSpline
 62
7
  6
CONTINUOUS
 70
0
 71
3
 72
9
 73
5
 74
0
 42
0.0000001
 43
0.0000001
 44
0.0000000001
 40
0.0
 40
0.0
 40
0.0
 40
0.0
 40
0.250005137
 40
1.0
 40
1.0
 40
1.0
 40
1.0
 10
5.2441877693
 20
5.6441991821
 30
0.0
 10
5.2402456385
 20
5.6266673328
 30
0.0
 10
5.2248183712
 20
5.5564650292
 30
0.0
 10
5.2107266169
 20
5.4859702193
 30
0.0
 10
5.2008663871
 20
5.4329723718
 30
0.0
  0
LINE
  5
639
100
AcDbEntity
  8
0
100
AcDbLine
 62
7
  6
CONTINUOUS
 10
5.2008663871
 20
5.4329723718
 11
5.2005702213
 21
5.4313794232
  0
SPLINE
  5
63A
100
AcDbEntity
  8
0
100
AcDbSpline
 62
7
  6
CONTINUOUS
 70
0
 71
3
 72
14
 73
10
 74
0
 42
0.0000001
 43
0.0000001
 44
0.0000000001
 40
0.0
 40
0.0
 40
0.0
 40
0.0
 40
0.1466296952
 40
0.285138974
 40
0.5408710544
 40
0.6603725819
 40
0.7758041536
 40
0.8885272935
 40
1.0
 40
1.0
 40
1.0
 40
1.0
 10
5.0820198583
 20
3.7853242611
 30
0.0
 10
5.0826293648
 20
3.7846693869
 30
0.0
 10
5.0837752471
 20
3.7833578463
 30
0.0
 10
5.0857618227
 20
3.7807210258
 30
0.0
 10
5.0873496722
 20
3.7779948674
 30
0.0
 10
5.0884512453
 20
3.7752061719
 30
0.0
 10
5.0890172433
 20
3.7731573195
 30
0.0
 10
5.0893406001
 20
3.7711061321
 30
0.0
 10
5.0893941916
 20
3.7697355513
 30
0.0
 10
5.0893806224
 20
3.7690555615
 30
0.0
  0
SPLINE
  5
63B
100
AcDbEntity
  8
0
100
AcDbSpline
 62
7
  6
CONTINUOUS
 70
0
 71
3
 72
12
 73
8
 74
0
 42
0.0000001
 43
0.0000001
 44
0.0000000001
 40
0.0
 40
0.0
 40
0.0
 40
0.0
 40
0.250021205
 40
0.3750226075
 40
0.5000190672
 40
0.7500004274
 40
1.0
 40
1.0
 40
1.0
 40
1.0
 10
5.1401022819
 20
4.8658144898
 30
0.0
 10
5.1309278467
 20
4.7762628085
 30
0.0
 10
5.1193240099
 20
4.6417098248
 30
0.0
 10
5.107372549
 20
4.4620725124
 30
0.0
 10
5.0975025557
 20
4.2823212751
 30
0.0
 10
5.0885762242
 20
4.0574619629
 30
0.0
 10
5.0840174219
 20
3.8774976463
 30
0.0
 10
5.0820670559
 20
3.7875061594
 30
0.0
  0
SPLINE
  5
63C
100
AcDbEntity
  8
0
100
AcDbSpline
 62
7
  6
CONTINUOUS
 70
0
 71
3
 72
15
 73
11
 74
0
 42
0.0000001
 43
0.0000001
 44
0.0000000001
 40
0.0
 40
0.0
 40
0.0
 40
0.0
 40
0.1267623711
 40
0.2526359919
 40
0.3778107517
 40
0.5024793986
 40
0.626836706
 40
0.7510785904
 40
0.8754012009
 40
1.0
 40
1.0
 40
1.0
 40
1.0
 10
5.1402495101
 20
4.867251541
 30
0.0
 10
5.1408600461
 20
4.8646262886
 30
0.0
 10
5.1419734811
 20
4.8593694947
 30
0.0
 10
5.1433204481
 20
4.8514478162
 30
0.0
 10
5.1443377974
 20
4.8435218181
 30
0.0
 10
5.1450256232
 20
4.8355928224
 30
0.0
 10
5.1453840767
 20
4.8276619675
 30
0.0
 10
5.1454133003
 20
4.8197303895
 30
0.0
 10
5.1451134709
 20
4.8117994319
 30
0.0
 10
5.1446949673
 20
4.8065214837
 30
0.0
 10
5.1444314568
 20
4.803885313
 30
0.0
  0
SPLINE
  5
63D
100
AcDbEntity
  8
0
100
AcDbSpline
 62
7
  6
CONTINUOUS
 70
0
 71
3
 72
14
 73
10
 74
0
 42
0.0000001
 43
0.0000001
 44
0.0000000001
 40
0.0
 40
0.0
 40
0.0
 40
0.0
 40
0.1259613866
 40
0.2519236932
 40
0.5036907549
 40
0.6292396951
 40
0.7541815179
 40
0.8780082974
 40
1.0
 40
1.0
 40
1.0
 40
1.0
 10
5.2201023038
 20
5.4277504347
 30
0.0
 10
5.2157614155
 20
5.4043722819
 30
0.0
 10
5.2073451772
 20
5.3575660037
 30
0.0
 10
5.1915515083
 20
5.2638037376
 30
0.0
 10
5.1772795246
 20
5.1698694394
 30
0.0
 10
5.1644774061
 20
5.0759253258
 30
0.0
 10
5.1556299192
 20
5.0058201967
 30
0.0
 10
5.1475370885
 20
4.9363002133
 30
0.0
 10
5.1425966097
 20
4.8901600097
 30
0.0
 10
5.1402495122
 20
4.8672515411
 30
0.0
  0
SPLINE
  5
63E
100
AcDbEntity
  8
0
100
AcDbSpline
 62
7
  6
CONTINUOUS
 70
0
 71
3
 72
20
 73
16
 74
0
 42
0.0000001
 43
0.0000001
 44
0.0000000001
 40
0.0
 40
0.0
 40
0.0
 40
0.0
 40
0.1451940466
 40
0.2814739843
 40
0.4102410035
 40
0.4723145322
 40
0.5331086872
 40
0.5928399688
 40
0.6517305699
 40
0.7100062577
 40
0.7678939638
 40
0.8256192013
 40
0.8834034495
 40
0.9414616572
 40
1.0
 40
1.0
 40
1.0
 40
1.0
 10
5.2203974038
 20
5.4293386316
 30
0.0
 10
5.2216932778
 20
5.4277948808
 30
0.0
 10
5.224089182
 20
5.4247009939
 30
0.0
 10
5.2271540458
 20
5.4198914288
 30
0.0
 10
5.2291967097
 20
5.4158249904
 30
0.0
 10
5.2304965081
 20
5.4125809294
 30
0.0
 10
5.2313027574
 20
5.4101761962
 30
0.0
 10
5.2319533461
 20
5.4077705111
 30
0.0
 10
5.2324495689
 20
5.4053639406
 30
0.0
 10
5.2327926843
 20
5.4029566467
 30
0.0
 10
5.232983988
 20
5.4005487818
 30
0.0
 10
5.2330248005
 20
5.3981405177
 30
0.0
 10
5.2329164633
 20
5.3957319866
 30
0.0
 10
5.2326603673
 20
5.3933234413
 30
0.0
 10
5.2323934058
 20
5.3917259261
 30
0.0
 10
5.2322364403
 20
5.390928613
 30
0.0
  0
SPLINE
  5
63F
100
AcDbEntity
  8
0
100
AcDbSpline
 62
7
  6
CONTINUOUS
 70
0
 71
3
 72
10
 73
6
 74
0
 42
0.0000001
 43
0.0000001
 44
0.0000000001
 40
0.0
 40
0.0
 40
0.0
 40
0.0
 40
0.250001744
 40
0.6250008045
 40
1.0
 40
1.0
 40
1.0
 40
1.0
 10
5.2926363096
 20
5.762567923
 30
0.0
 10
5.2857555915
 20
5.734995325
 30
0.0
 10
5.2691140953
 20
5.665923408
 30
0.0
 10
5.2446623893
 20
5.5549023236
 30
0.0
 10
5.2281895381
 20
5.4712472523
 30
0.0
 10
5.2203974038
 20
5.4293386316
 30
0.0
  0
SPLINE
  5
640
100
AcDbEntity
  8
0
100
AcDbSpline
 62
7
  6
CONTINUOUS
 70
0
 71
3
 72
27
 73
23
 74
0
 42
0.0000001
 43
0.0000001
 44
0.0000000001
 40
0.0
 40
0.0
 40
0.0
 40
0.0
 40
0.1157877493
 40
0.2235085913
 40
0.3232748914
 40
0.4152067945
 40
0.4994348545
 40
0.5761038349
 40
0.6453783366
 40
0.7074513491
 40
0.7625575964
 40
0.8109949036
 40
0.8531590741
 40
0.8896008919
 40
0.9059271037
 40
0.9211496152
 40
0.9354258968
 40
0.9489424621
 40
0.9619144208
 40
0.9745803674
 40
0.9871919926
 40
1.0
 40
1.0
 40
1.0
 40
1.0
 10
5.2926363096
 20
5.762567923
 30
0.0
 10
5.2935580882
 20
5.7623701788
 30
0.0
 10
5.2953347635
 20
5.7619758652
 30
0.0
 10
5.2978946177
 20
5.7613627379
 30
0.0
 10
5.3002543041
 20
5.7607495381
 30
0.0
 10
5.3024158245
 20
5.7601363211
 30
0.0
 10
5.3043812129
 20
5.7595231449
 30
0.0
 10
5.306152538
 20
5.758910067
 30
0.0
 10
5.3077319195
 20
5.7582971402
 30
0.0
 10
5.3091215721
 20
5.7576843813
 30
0.0
 10
5.3103237976
 20
5.7570717651
 30
0.0
 10
5.3113411953
 20
5.7564590013
 30
0.0
 10
5.3121762028
 20
5.7558456844
 30
0.0
 10
5.3127419117
 20
5.7553146755
 30
0.0
 10
5.3130955365
 20
5.7548878893
 30
0.0
 10
5.3133061004
 20
5.754579121
 30
0.0
 10
5.3134719583
 20
5.754269808
 30
0.0
 10
5.3135931162
 20
5.7539598637
 30
0.0
 10
5.3136695345
 20
5.7536493505
 30
0.0
 10
5.313701191
 20
5.7533384675
 30
0.0
 10
5.3136882258
 20
5.7530276336
 30
0.0
 10
5.3136505442
 20
5.7528233529
 30
0.0
 10
5.3136249715
 20
5.7527222535
 30
0.0
  0
SPLINE
  5
641
100
AcDbEntity
  8
0
100
AcDbSpline
 62
7
  6
CONTINUOUS
 70
0
 71
3
 72
29
 73
25
 74
0
 42
0.0000001
 43
0.0000001
 44
0.0000000001
 40
0.0
 40
0.0
 40
0.0
 40
0.0
 40
0.1182097555
 40
0.2281556688
 40
0.3299415941
 40
0.4236768005
 40
0.5094778327
 40
0.5874712243
 40
0.6577975687
 40
0.7206178155
 40
0.7761233513
 40
0.8245527542
 40
0.8462131672
 40
0.866232165
 40
0.8846697915
 40
0.9015994965
 40
0.9171124399
 40
0.9313230291
 40
0.9443755793
 40
0.9564512818
 40
0.9677733189
 40
0.9786063524
 40
0.9892463345
 40
1.0
 40
1.0
 40
1.0
 40
1.0
 10
5.296705231
 20
5.7804112468
 30
0.0
 10
5.2976424381
 20
5.7802461788
 30
0.0
 10
5.2994495059
 20
5.7799170449
 30
0.0
 10
5.3020559743
 20
5.779405227
 30
0.0
 10
5.3044613571
 20
5.7788933663
 30
0.0
 10
5.3066676569
 20
5.7783815171
 30
0.0
 10
5.3086768987
 20
5.7778697409
 30
0.0
 10
5.3104911398
 20
5.7773581075
 30
0.0
 10
5.3121124635
 20
5.7768466904
 30
0.0
 10
5.3135430825
 20
5.7763355743
 30
0.0
 10
5.3147851483
 20
5.7758247901
 30
0.0
 10
5.3156964016
 20
5.7753845268
 30
0.0
 10
5.3163290241
 20
5.7750291124
 30
0.0
 10
5.3167396209
 20
5.774772539
 30
0.0
 10
5.3171045676
 20
5.774515924
 30
0.0
 10
5.3174241493
 20
5.7742591902
 30
0.0
 10
5.3176986515
 20
5.7740022421
 30
0.0
 10
5.3179283277
 20
5.7737449289
 30
0.0
 10
5.3181133583
 20
5.773487051
 30
0.0
 10
5.3182537873
 20
5.7732283905
 30
0.0
 10
5.3183494799
 20
5.7729688278
 30
0.0
 10
5.318400176
 20
5.7727084657
 30
0.0
 10
5.3184057468
 20
5.7724478544
 30
0.0
 10
5.3183798693
 20
5.7722766347
 30
0.0
 10
5.3183601846
 20
5.7721923314
 30
0.0
  0
SPLINE
  5
642
100
AcDbEntity
  8
0
100
AcDbSpline
 62
7
  6
CONTINUOUS
 70
0
 71
3
 72
26
 73
22
 74
0
 42
0.0000001
 43
0.0000001
 44
0.0000000001
 40
0.0
 40
0.0
 40
0.0
 40
0.0
 40
0.0987285825
 40
0.1921470417
 40
0.2802714102
 40
0.3631287481
 40
0.4407601842
 40
0.5132249924
 40
0.5806061081
 40
0.6430176688
 40
0.7006206414
 40
0.7536423915
 40
0.8023816113
 40
0.8472278084
 40
0.8886859909
 40
0.9083520837
 40
0.9274256098
 40
0.946010693
 40
0.9642202456
 40
0.9821746804
 40
1.0
 40
1.0
 40
1.0
 40
1.0
 10
5.0729884298
 20
3.1683045468
 30
0.0
 10
5.0759126989
 20
3.1672886839
 30
0.0
 10
5.0815838149
 20
3.1652528159
 30
0.0
 10
5.0897836841
 20
3.1620893002
 30
0.0
 10
5.0974381848
 20
3.1589021765
 30
0.0
 10
5.1045438596
 20
3.1556931307
 30
0.0
 10
5.1110973754
 20
3.1524637979
 30
0.0
 10
5.1170954627
 20
3.1492157529
 30
0.0
 10
5.1225349609
 20
3.1459504762
 30
0.0
 10
5.1274129313
 20
3.1426691377
 30
0.0
 10
5.1317269967
 20
3.1393724098
 30
0.0
 10
5.1354760501
 20
3.1360613837
 30
0.0
 10
5.1386592616
 20
3.1327359591
 30
0.0
 10
5.1412748663
 20
3.1293961612
 30
0.0
 10
5.143009156
 20
3.1265502014
 30
0.0
 10
5.1440887933
 20
3.1242770211
 30
0.0
 10
5.1447405154
 20
3.1226000377
 30
0.0
 10
5.1452479826
 20
3.1209214832
 30
0.0
 10
5.1456108581
 20
3.1192415644
 30
0.0
 10
5.145828795
 20
3.1175608354
 30
0.0
 10
5.1458773292
 20
3.116438347
 30
0.0
 10
5.1458773292
 20
3.1158794232
 30
0.0
  0
SPLINE
  5
643
100
AcDbEntity
  8
0
100
AcDbSpline
 62
7
  6
CONTINUOUS
 70
0
 71
3
 72
27
 73
23
 74
0
 42
0.0000001
 43
0.0000001
 44
0.0000000001
 40
0.0
 40
0.0
 40
0.0
 40
0.0
 40
0.076929195
 40
0.1518347193
 40
0.1884773868
 40
0.2245546123
 40
0.2950090983
 40
0.363244615
 40
0.4293251666
 40
0.4932895906
 40
0.5551991649
 40
0.6151262748
 40
0.673191621
 40
0.7296031137
 40
0.7846516749
 40
0.8386939871
 40
0.8654860556
 40
0.8922064043
 40
0.9189298014
 40
0.9457399242
 40
0.9727299164
 40
1.0
 40
1.0
 40
1.0
 40
1.0
 10
5.0741384537
 20
3.1730075504
 30
0.0
 10
5.0761826352
 20
3.1747365343
 30
0.0
 10
5.0801684472
 20
3.1782072111
 30
0.0
 10
5.0849837767
 20
3.182662964
 30
0.0
 10
5.0886702267
 20
3.1862418549
 30
0.0
 10
5.0921885073
 20
3.1897705812
 30
0.0
 10
5.0963707023
 20
3.1941889914
 30
0.0
 10
5.1010583985
 20
3.1995596482
 30
0.0
 10
5.1053531059
 20
3.2049644922
 30
0.0
 10
5.1092356386
 20
3.2104049935
 30
0.0
 10
5.1126839437
 20
3.21587988
 30
0.0
 10
5.1156756913
 20
3.2213853098
 30
0.0
 10
5.1181879171
 20
3.2269170088
 30
0.0
 10
5.1201919959
 20
3.2324736507
 30
0.0
 10
5.1216583046
 20
3.2380521789
 30
0.0
 10
5.1224068274
 20
3.2427309441
 30
0.0
 10
5.1226993716
 20
3.2464642634
 30
0.0
 10
5.1227628093
 20
3.2492574794
 30
0.0
 10
5.1226661888
 20
3.2520503897
 30
0.0
 10
5.1224046402
 20
3.254842261
 30
0.0
 10
5.1219728902
 20
3.2576321323
 30
0.0
 10
5.1215706646
 20
3.2594786068
 30
0.0
 10
5.1213405372
 20
3.2603993492
 30
0.0
  0
SPLINE
  5
644
100
AcDbEntity
  8
0
100
AcDbSpline
 62
7
  6
CONTINUOUS
 70
0
 71
3
 72
24
 73
20
 74
0
 42
0.0000001
 43
0.0000001
 44
0.0000000001
 40
0.0
 40
0.0
 40
0.0
 40
0.0
 40
0.0964743648
 40
0.1881042855
 40
0.2748945538
 40
0.356858253
 40
0.4340188996
 40
0.5064132711
 40
0.5740951754
 40
0.6371405176
 40
0.6956551882
 40
0.7497942573
 40
0.7997680705
 40
0.8458497247
 40
0.8883933735
 40
0.9278550948
 40
0.9648122866
 40
0.9825809624
 40
1.0
 40
1.0
 40
1.0
 40
1.0
 10
5.072936623
 20
3.1647373333
 30
0.0
 10
5.0756877771
 20
3.1637760037
 30
0.0
 10
5.0810342625
 20
3.1618504069
 30
0.0
 10
5.0887850776
 20
3.1588684817
 30
0.0
 10
5.0960572281
 20
3.1558689814
 30
0.0
 10
5.1028472862
 20
3.1528535396
 30
0.0
 10
5.109151914
 20
3.1498237558
 30
0.0
 10
5.1149678186
 20
3.1467812037
 30
0.0
 10
5.1202917662
 20
3.1437273852
 30
0.0
 10
5.1251206615
 20
3.1406637363
 30
0.0
 10
5.1294516703
 20
3.1375911641
 30
0.0
 10
5.1332829202
 20
3.1345107227
 30
0.0
 10
5.1366133158
 20
3.1314231704
 30
0.0
 10
5.139441673
 20
3.12832866
 30
0.0
 10
5.1417663006
 20
3.1252265442
 30
0.0
 10
5.1435842562
 20
3.1221166886
 30
0.0
 10
5.1446875653
 20
3.1194826797
 30
0.0
 10
5.1452975153
 20
3.1173885878
 30
0.0
 10
5.1455147037
 20
3.1163466811
 30
0.0
 10
5.145601045
 20
3.1158276228
 30
0.0
  0
LINE
  5
645
100
AcDbEntity
  8
0
100
AcDbLine
 62
7
  6
CONTINUOUS
 10
5.0729662639
 20
3.1668373993
 11
5.072936623
 21
3.1647373333
  0
SPLINE
  5
646
100
AcDbEntity
  8
0
100
AcDbSpline
 62
7
  6
CONTINUOUS
 70
0
 71
3
 72
30
 73
26
 74
0
 42
0.0000001
 43
0.0000001
 44
0.0000000001
 40
0.0
 40
0.0
 40
0.0
 40
0.0
 40
0.0568146992
 40
0.085770385
 40
0.1150533515
 40
0.1745054175
 40
0.2046618396
 40
0.2350892113
 40
0.2657822811
 40
0.2967206863
 40
0.3592173342
 40
0.3907480254
 40
0.4224339565
 40
0.4861909745
 40
0.5182611709
 40
0.5504331574
 40
0.6149788422
 40
0.6473273743
 40
0.6796895493
 40
0.744350615
 40
0.8088448875
 40
0.8730584325
 40
0.9050213804
 40
0.9368518344
 40
1.0
 40
1.0
 40
1.0
 40
1.0
 10
5.145858416
 20
3.1126538533
 30
0.0
 10
5.14576192
 20
3.1044256145
 30
0.0
 10
5.1450452039
 20
3.0920014372
 30
0.0
 10
5.1429675254
 20
3.0754634645
 30
0.0
 10
5.1400751778
 20
3.0586598768
 30
0.0
 10
5.1359800971
 20
3.04190356
 30
0.0
 10
5.130669482
 20
3.0253436906
 30
0.0
 10
5.1260281612
 20
3.0129591765
 30
0.0
 10
5.1207379374
 20
3.0007140373
 30
0.0
 10
5.1128105159
 20
2.9845720378
 30
0.0
 10
5.1036537767
 20
2.9689204666
 30
0.0
 10
5.0933402209
 20
2.9539082193
 30
0.0
 10
5.0821936508
 20
2.9392735105
 30
0.0
 10
5.0699164158
 20
2.9254268668
 30
0.0
 10
5.0565855813
 20
2.9125340463
 30
0.0
 10
5.0425359591
 20
2.9002546076
 30
0.0
 10
5.0275513141
 20
2.8890177351
 30
0.0
 10
5.0117792539
 20
2.8789210156
 30
0.0
 10
4.9955118787
 20
2.8696087157
 30
0.0
 10
4.9743593895
 20
2.8595153156
 30
0.0
 10
4.9479408751
 20
2.8500811334
 30
0.0
 10
4.9253205398
 20
2.844448129
 30
0.0
 10
4.907044581
 20
2.8412916256
 30
0.0
 10
4.8887916742
 20
2.8390444182
 30
0.0
 10
4.8750234467
 20
2.8383584998
 30
0.0
 10
4.8658773292
 20
2.8383584998
 30
0.0
  0
SPLINE
  5
647
100
AcDbEntity
  8
0
100
AcDbSpline
 62
7
  6
CONTINUOUS
 70
0
 71
3
 72
39
 73
35
 74
0
 42
0.0000001
 43
0.0000001
 44
0.0000000001
 40
0.0
 40
0.0
 40
0.0
 40
0.0
 40
0.0312370972
 40
0.062481961
 40
0.0937295381
 40
0.124982259
 40
0.1562394941
 40
0.187500035
 40
0.2187631659
 40
0.2500278671
 40
0.2812929254
 40
0.3125572423
 40
0.343819719
 40
0.3750795057
 40
0.4063358675
 40
0.4375883666
 40
0.5000631987
 40
0.5313039602
 40
0.5625415222
 40
0.5937766097
 40
0.6250101913
 40
0.6562433474
 40
0.6874772803
 40
0.7187131849
 40
0.749952195
 40
0.7811952996
 40
0.8124426739
 40
0.8436941613
 40
0.8749495297
 40
0.9062080119
 40
0.9374689506
 40
0.9531020903
 40
0.9687363622
 40
1.0
 40
1.0
 40
1.0
 40
1.0
 10
5.072936623
 20
3.1647373333
 30
0.0
 10
5.072871668
 20
3.1613904933
 30
0.0
 10
5.0725788523
 20
3.1546979997
 30
0.0
 10
5.071651926
 20
3.1446927053
 30
0.0
 10
5.0702388211
 20
3.1347424814
 30
0.0
 10
5.0683429248
 20
3.1248715932
 30
0.0
 10
5.0659701317
 20
3.1151029464
 30
0.0
 10
5.0631271998
 20
3.1054594842
 30
0.0
 10
5.0598217088
 20
3.0959637937
 30
0.0
 10
5.0560623333
 20
3.0866379695
 30
0.0
 10
5.0518580516
 20
3.0775039315
 30
0.0
 10
5.047218072
 20
3.0685835845
 30
0.0
 10
5.0421527126
 20
3.0598983404
 30
0.0
 10
5.0366736937
 20
3.0514690593
 30
0.0
 10
5.0307941391
 20
3.0433150334
 30
0.0
 10
5.0224432263
 20
3.0328385466
 30
0.0
 10
5.0133446674
 20
3.0229782188
 30
0.0
 10
5.0035766033
 20
3.0138136059
 30
0.0
 10
4.995927912
 20
3.00729935
 30
0.0
 10
4.987974147
 20
3.0011630451
 30
0.0
 10
4.9797326182
 20
2.9954196613
 30
0.0
 10
4.971221936
 20
2.9900834785
 30
0.0
 10
4.9624616861
 20
2.9851672079
 30
0.0
 10
4.953472249
 20
2.9806823079
 30
0.0
 10
4.9442746242
 20
2.9766391173
 30
0.0
 10
4.9348909133
 20
2.9730455215
 30
0.0
 10
4.9253429875
 20
2.9699098845
 30
0.0
 10
4.9156529057
 20
2.9672407646
 30
0.0
 10
4.9058431384
 20
2.9650463451
 30
0.0
 10
4.8959369764
 20
2.9633335819
 30
0.0
 10
4.8876206945
 20
2.9623124745
 30
0.0
 10
4.8809437008
 20
2.961741613
 30
0.0
 10
4.8742545008
 20
2.9613354015
 30
0.0
 10
4.8692276338
 20
2.9612144865
 30
0.0
 10
4.8658773194
 20
2.961214373
 30
0.0
  0
SPLINE
  5
648
100
AcDbEntity
  8
0
100
AcDbSpline
 62
7
  6
CONTINUOUS
 70
0
 71
3
 72
17
 73
13
 74
0
 42
0.0000001
 43
0.0000001
 44
0.0000000001
 40
0.0
 40
0.0
 40
0.0
 40
0.0
 40
0.1233697365
 40
0.2475494879
 40
0.3724124362
 40
0.4977784682
 40
0.6234090069
 40
0.6862391151
 40
0.7490433304
 40
0.8118119376
 40
0.8745518254
 40
1.0
 40
1.0
 40
1.0
 40
1.0
 10
5.0793390405
 20
3.6507705524
 30
0.0
 10
5.0789786053
 20
3.6310880225
 30
0.0
 10
5.0783527807
 20
3.5915919216
 30
0.0
 10
5.077620599
 20
3.5321713675
 30
0.0
 10
5.0769905149
 20
3.4724311292
 30
0.0
 10
5.0763699224
 20
3.4124592858
 30
0.0
 10
5.0757876604
 20
3.362386034
 30
0.0
 10
5.0752700607
 20
3.3222956052
 30
0.0
 10
5.0748566432
 20
3.292235415
 30
0.0
 10
5.0744208658
 20
3.2621899398
 30
0.0
 10
5.0738195148
 20
3.2221498662
 30
0.0
 10
5.0733546146
 20
3.192124721
 30
0.0
 10
5.0730467968
 20
3.1721096064
 30
0.0
  0
SPLINE
  5
649
100
AcDbEntity
  8
0
100
AcDbSpline
 62
7
  6
CONTINUOUS
 70
0
 71
3
 72
16
 73
12
 74
0
 42
0.0000001
 43
0.0000001
 44
0.0000000001
 40
0.0
 40
0.0
 40
0.0
 40
0.0
 40
0.1489005829
 40
0.2889058911
 40
0.420843015
 40
0.4841047627
 40
0.5457333446
 40
0.6646605982
 40
0.7789959688
 40
0.890235851
 40
1.0
 40
1.0
 40
1.0
 40
1.0
 10
5.0793659849
 20
3.6522370857
 30
0.0
 10
5.0799974972
 20
3.6516047575
 30
0.0
 10
5.0811849575
 20
3.6503390111
 30
0.0
 10
5.08277577
 20
3.6483741164
 30
0.0
 10
5.083910614
 20
3.6467094735
 30
0.0
 10
5.0846878559
 20
3.6453777153
 30
0.0
 10
5.0853634207
 20
3.6440791174
 30
0.0
 10
5.0860604654
 20
3.6424483727
 30
0.0
 10
5.0866572134
 20
3.6404638913
 30
0.0
 10
5.0870034785
 20
3.638476382
 30
0.0
 10
5.0870669385
 20
3.6371473591
 30
0.0
 10
5.0870568833
 20
3.6364886542
 30
0.0
  0
SPLINE
  5
64A
100
AcDbEntity
  8
0
100
AcDbSpline
 62
7
  6
CONTINUOUS
 70
0
 71
3
 72
12
 73
8
 74
0
 42
0.0000001
 43
0.0000001
 44
0.0000000001
 40
0.0
 40
0.0
 40
0.0
 40
0.0
 40
0.2500142562
 40
0.3750154392
 40
0.5000140457
 40
0.7500075196
 40
1.0
 40
1.0
 40
1.0
 40
1.0
 10
5.1250151586
 20
4.8724173445
 30
0.0
 10
5.1159846862
 20
4.7827248552
 30
0.0
 10
5.1045863013
 20
4.6479645314
 30
0.0
 10
5.0928774302
 20
4.4680565031
 30
0.0
 10
5.0832276229
 20
4.2880319023
 30
0.0
 10
5.0745368306
 20
4.0628407623
 30
0.0
 10
5.0701301809
 20
3.8826149277
 30
0.0
 10
5.0682349496
 20
3.7924967571
 30
0.0
  0
SPLINE
  5
64B
100
AcDbEntity
  8
0
100
AcDbSpline
 62
7
  6
CONTINUOUS
 70
0
 71
3
 72
11
 73
7
 74
0
 42
0.0000001
 43
0.0000001
 44
0.0000000001
 40
0.0
 40
0.0
 40
0.0
 40
0.0
 40
0.2534214484
 40
0.5054645868
 40
0.7547751332
 40
1.0
 40
1.0
 40
1.0
 40
1.0
 10
4.8658773292
 20
3.7971087906
 30
0.0
 10
4.8829772413
 20
3.7971260764
 30
0.0
 10
4.9170846066
 20
3.7969581561
 30
0.0
 10
4.9680079865
 20
3.7961046824
 30
0.0
 10
5.0183646452
 20
3.7946564113
 30
0.0
 10
5.0517068883
 20
3.7932849954
 30
0.0
 10
5.0682349496
 20
3.7924967571
 30
0.0
  0
SPLINE
  5
64C
100
AcDbEntity
  8
0
100
AcDbSpline
 62
7
  6
CONTINUOUS
 70
0
 71
3
 72
11
 73
7
 74
0
 42
0.0000001
 43
0.0000001
 44
0.0000000001
 40
0.0
 40
0.0
 40
0.0
 40
0.0
 40
0.2534263497
 40
0.5054724611
 40
0.7547820455
 40
1.0
 40
1.0
 40
1.0
 40
1.0
 10
4.8658773292
 20
3.7923121331
 30
0.0
 10
4.8829689805
 20
3.7923287834
 30
0.0
 10
4.9170597296
 20
3.7921605166
 30
0.0
 10
4.9679580098
 20
3.7913092794
 30
0.0
 10
5.0182891483
 20
3.7898659925
 30
0.0
 10
5.0516142829
 20
3.7884997569
 30
0.0
 10
5.0681336997
 20
3.787714579
 30
0.0
  0
SPLINE
  5
64D
100
AcDbEntity
  8
0
100
AcDbSpline
 62
7
  6
CONTINUOUS
 70
0
 71
3
 72
11
 73
7
 74
0
 42
0.0000001
 43
0.0000001
 44
0.0000000001
 40
0.0
 40
0.0
 40
0.0
 40
0.0
 40
0.2535592137
 40
0.5056861018
 40
0.7549697258
 40
1.0
 40
1.0
 40
1.0
 40
1.0
 10
4.8658773292
 20
3.6584822874
 30
0.0
 10
4.8827515302
 20
3.6584822874
 30
0.0
 10
4.9164048553
 20
3.658311897
 30
0.0
 10
4.9666426633
 20
3.6575505516
 30
0.0
 10
5.0163026644
 20
3.6562899721
 30
0.0
 10
5.0491784737
 20
3.6551086227
 30
0.0
 10
5.0654710311
 20
3.6544318955
 30
0.0
  0
SPLINE
  5
64E
100
AcDbEntity
  8
0
100
AcDbSpline
 62
7
  6
CONTINUOUS
 70
0
 71
3
 72
16
 73
12
 74
0
 42
0.0000001
 43
0.0000001
 44
0.0000000001
 40
0.0
 40
0.0
 40
0.0
 40
0.0
 40
0.1259421147
 40
0.1889144675
 40
0.2518856219
 40
0.3778030881
 40
0.5036199685
 40
0.6291648371
 40
0.7541219662
 40
0.877981055
 40
1.0
 40
1.0
 40
1.0
 40
1.0
 10
5.2005702213
 20
5.4313794232
 30
0.0
 10
5.1962600258
 20
5.4081494565
 30
0.0
 10
5.1900641959
 20
5.3732535615
 30
0.0
 10
5.1823108731
 20
5.3266405625
 30
0.0
 10
5.1748859302
 20
5.2799787101
 30
0.0
 10
5.166198642
 20
5.2215815147
 30
0.0
 10
5.1566473167
 20
5.1514506769
 30
0.0
 10
5.1478821753
 20
5.0813991773
 30
0.0
 10
5.1397914587
 20
5.0116367441
 30
0.0
 10
5.1322659389
 20
4.9424767506
 30
0.0
 10
5.1274980727
 20
4.8965975721
 30
0.0
 10
5.1251599773
 20
4.8738268225
 30
0.0
  0
SPLINE
  5
64F
100
AcDbEntity
  8
0
100
AcDbSpline
 62
7
  6
CONTINUOUS
 70
0
 71
3
 72
43
 73
39
 74
0
 42
0.0000001
 43
0.0000001
 44
0.0000000001
 40
0.0
 40
0.0
 40
0.0
 40
0.0
 40
0.0312151156
 40
0.0624410393
 40
0.0936728548
 40
0.1249130602
 40
0.1561610384
 40
0.1874153956
 40
0.2186753198
 40
0.2499394747
 40
0.2812064115
 40
0.312474576
 40
0.3437424644
 40
0.3750088854
 40
0.4062727122
 40
0.4375331799
 40
0.4687897282
 40
0.5000420409
 40
0.531290262
 40
0.5625346623
 40
0.5937759968
 40
0.6250152045
 40
0.6562531494
 40
0.6874905424
 40
0.7187283839
 40
0.7499681488
 40
0.7812108651
 40
0.812456994
 40
0.8437064141
 40
0.8749589568
 40
0.906214343
 40
0.9218440924
 40
0.9374743883
 40
0.953105158
 40
0.9687363483
 40
0.984367913
 40
0.9921839457
 40
1.0
 40
1.0
 40
1.0
 40
1.0
 10
5.061153033
 20
3.1641597652
 30
0.0
 10
5.0610912222
 20
3.1610178507
 30
0.0
 10
5.0608160135
 20
3.1547348614
 30
0.0
 10
5.059949023
 20
3.1453409548
 30
0.0
 10
5.0586272487
 20
3.1359973387
 30
0.0
 10
5.0568501202
 20
3.1267273176
 30
0.0
 10
5.0546224508
 20
3.1175528004
 30
0.0
 10
5.0519495324
 20
3.1084959049
 30
0.0
 10
5.0488370936
 20
3.0995787553
 30
0.0
 10
5.0452919576
 20
3.0908232433
 30
0.0
 10
5.0413221168
 20
3.0822510146
 30
0.0
 10
5.0369371168
 20
3.0738831144
 30
0.0
 10
5.0321469354
 20
3.0657404221
 30
0.0
 10
5.0269629371
 20
3.057843135
 30
0.0
 10
5.0213983458
 20
3.0502101842
 30
0.0
 10
5.0154673505
 20
3.0428596131
 30
0.0
 10
5.0091848731
 20
3.0358086544
 30
0.0
 10
5.0025664493
 20
3.0290737864
 30
0.0
 10
4.9956288064
 20
3.0226700712
 30
0.0
 10
4.9883888404
 20
3.0166119688
 30
0.0
 10
4.9808629506
 20
3.0109144474
 30
0.0
 10
4.9730689967
 20
3.0055906664
 30
0.0
 10
4.9650256282
 20
3.0006525808
 30
0.0
 10
4.9567526501
 20
2.9961099955
 30
0.0
 10
4.9482700451
 20
2.9919717056
 30
0.0
 10
4.9395988208
 20
2.9882436905
 30
0.0
 10
4.9307602941
 20
2.9849293997
 30
0.0
 10
4.9217723769
 20
2.9820412716
 30
0.0
 10
4.912655141
 20
2.9795879004
 30
0.0
 10
4.90343008
 20
2.9775738484
 30
0.0
 10
4.8956700527
 20
2.9762649589
 30
0.0
 10
4.8894300204
 20
2.9754416056
 30
0.0
 10
4.8847359612
 20
2.9749368425
 30
0.0
 10
4.8800308426
 20
2.9745465513
 30
0.0
 10
4.8753172996
 20
2.9742747114
 30
0.0
 10
4.8713850025
 20
2.974140712
 30
0.0
 10
4.8682379436
 20
2.9740899995
 30
0.0
 10
4.8666641956
 20
2.9740823762
 30
0.0
 10
4.8658773292
 20
2.9740823942
 30
0.0
  0
SPLINE
  5
650
100
AcDbEntity
  8
0
100
AcDbSpline
 62
7
  6
CONTINUOUS
 70
0
 71
3
 72
11
 73
7
 74
0
 42
0.0000001
 43
0.0000001
 44
0.0000000001
 40
0.0
 40
0.0
 40
0.0
 40
0.0
 40
0.2549168188
 40
0.5078714087
 40
0.7568783181
 40
1.0
 40
1.0
 40
1.0
 40
1.0
 10
4.8658773292
 20
3.1716731088
 30
0.0
 10
4.8824818371
 20
3.1716139598
 30
0.0
 10
4.9155626742
 20
3.1713023779
 30
0.0
 10
4.9648537997
 20
3.1702570354
 30
0.0
 10
5.01336073
 20
3.1686379598
 30
0.0
 10
5.0453838927
 20
3.1671646205
 30
0.0
 10
5.0611981529
 20
3.1663292434
 30
0.0
  0
SPLINE
  5
651
100
AcDbEntity
  8
0
100
AcDbSpline
 62
7
  6
CONTINUOUS
 70
0
 71
3
 72
20
 73
16
 74
0
 42
0.0000001
 43
0.0000001
 44
0.0000000001
 40
0.0
 40
0.0
 40
0.0
 40
0.0
 40
0.1233969434
 40
0.247685258
 40
0.3726621368
 40
0.4353357439
 40
0.4980894991
 40
0.5608890409
 40
0.6236992948
 40
0.6864880202
 40
0.7492375469
 40
0.8119471835
 40
0.8746304995
 40
0.9373079375
 40
1.0
 40
1.0
 40
1.0
 40
1.0
 10
5.0654710274
 20
3.6544318939
 30
0.0
 10
5.0651001831
 20
3.6345737922
 30
0.0
 10
5.0644795756
 20
3.5947117612
 30
0.0
 10
5.0638537503
 20
3.5347323807
 30
0.0
 10
5.0635210529
 20
3.4845247564
 30
0.0
 10
5.0633305185
 20
3.4442209653
 30
0.0
 10
5.0632127643
 20
3.4139248108
 30
0.0
 10
5.0631095181
 20
3.3836066119
 30
0.0
 10
5.0630103835
 20
3.353282771
 30
0.0
 10
5.0629048503
 20
3.3229669997
 30
0.0
 10
5.062762903
 20
3.2926675618
 30
0.0
 10
5.0625596595
 20
3.2623854215
 30
0.0
 10
5.0622669761
 20
3.2321155911
 30
0.0
 10
5.0618630612
 20
3.2018498495
 30
0.0
 10
5.061506183
 20
3.1816738625
 30
0.0
 10
5.0613042448
 20
3.1715851761
 30
0.0
  0
LINE
  5
652
100
AcDbEntity
  8
0
100
AcDbLine
 62
7
  6
CONTINUOUS
 10
5.0612984865
 20
3.1715851499
 11
5.061233653
 21
3.1677931231
  0
SPLINE
  5
653
100
AcDbEntity
  8
0
100
AcDbSpline
 62
7
  6
CONTINUOUS
 70
0
 71
3
 72
14
 73
10
 74
0
 42
0.0000001
 43
0.0000001
 44
0.0000000001
 40
0.0
 40
0.0
 40
0.0
 40
0.0
 40
0.1466296759
 40
0.2851389422
 40
0.5408710161
 40
0.6603725483
 40
0.7758041288
 40
0.8885272804
 40
1.0
 40
1.0
 40
1.0
 40
1.0
 10
4.6497348001
 20
3.78532426
 30
0.0
 10
4.6491252936
 20
3.7846693855
 30
0.0
 10
4.6479794113
 20
3.7833578441
 30
0.0
 10
4.6459928357
 20
3.780721022
 30
0.0
 10
4.6444049863
 20
3.777994862
 30
0.0
 10
4.6433034131
 20
3.775206165
 30
0.0
 10
4.6427374152
 20
3.7731573114
 30
0.0
 10
4.6424140584
 20
3.7711061228
 30
0.0
 10
4.642360467
 20
3.7697355413
 30
0.0
 10
4.6423740362
 20
3.7690555511
 30
0.0
  0
SPLINE
  5
654
100
AcDbEntity
  8
0
100
AcDbSpline
 62
7
  6
CONTINUOUS
 70
0
 71
3
 72
14
 73
10
 74
0
 42
0.0000001
 43
0.0000001
 44
0.0000000001
 40
0.0
 40
0.0
 40
0.0
 40
0.0
 40
0.2495991753
 40
0.3745335644
 40
0.4995339403
 40
0.6245942565
 40
0.7497000255
 40
0.8748466206
 40
1.0
 40
1.0
 40
1.0
 40
1.0
 10
4.8067396336
 20
5.7094970503
 30
0.0
 10
4.811461218
 20
5.70774456
 30
0.0
 10
4.8186397476
 20
5.7053531302
 30
0.0
 10
4.8283787797
 20
5.7027470344
 30
0.0
 10
4.8357679659
 20
5.7011064127
 30
0.0
 10
4.8432277465
 20
5.6998035625
 30
0.0
 10
4.8507445453
 20
5.698858493
 30
0.0
 10
4.8583006298
 20
5.6982852998
 30
0.0
 10
4.8633519984
 20
5.6981567013
 30
0.0
 10
4.8658773002
 20
5.698156254
 30
0.0
  0
SPLINE
  5
655
100
AcDbEntity
  8
0
100
AcDbSpline
 62
7
  6
CONTINUOUS
 70
0
 71
3
 72
15
 73
11
 74
0
 42
0.0000001
 43
0.0000001
 44
0.0000000001
 40
0.0
 40
0.0
 40
0.0
 40
0.0
 40
0.1267623711
 40
0.2526359918
 40
0.3778107516
 40
0.5024793985
 40
0.6268367059
 40
0.7510785903
 40
0.8754012008
 40
1.0
 40
1.0
 40
1.0
 40
1.0
 10
4.5915051483
 20
4.867251541
 30
0.0
 10
4.5908946123
 20
4.8646262886
 30
0.0
 10
4.5897811774
 20
4.8593694947
 30
0.0
 10
4.5884342103
 20
4.8514478163
 30
0.0
 10
4.5874168611
 20
4.8435218183
 30
0.0
 10
4.5867290354
 20
4.8355928226
 30
0.0
 10
4.5863705818
 20
4.8276619678
 30
0.0
 10
4.5863413583
 20
4.8197303899
 30
0.0
 10
4.5866411877
 20
4.8117994323
 30
0.0
 10
4.5870596913
 20
4.8065214841
 30
0.0
 10
4.5873232018
 20
4.8038853135
 30
0.0
  0
SPLINE
  5
656
100
AcDbEntity
  8
0
100
AcDbSpline
 62
7
  6
CONTINUOUS
 70
0
 71
3
 72
12
 73
8
 74
0
 42
0.0000001
 43
0.0000001
 44
0.0000000001
 40
0.0
 40
0.0
 40
0.0
 40
0.0
 40
0.249999558
 40
0.4999809122
 40
0.6249773908
 40
0.7499788006
 40
1.0
 40
1.0
 40
1.0
 40
1.0
 10
4.6496876024
 20
3.7875061594
 30
0.0
 10
4.6477372669
 20
3.8774976418
 30
0.0
 10
4.6431784098
 20
4.0574619497
 30
0.0
 10
4.6342521061
 20
4.2823212619
 30
0.0
 10
4.6243821167
 20
4.462072507
 30
0.0
 10
4.6124306419
 20
4.6417098257
 30
0.0
 10
4.6008268284
 20
4.7762628123
 30
0.0
 10
4.5916523765
 20
4.8658144898
 30
0.0
  0
SPLINE
  5
657
100
AcDbEntity
  8
0
100
AcDbSpline
 62
7
  6
CONTINUOUS
 70
0
 71
3
 72
20
 73
16
 74
0
 42
0.0000001
 43
0.0000001
 44
0.0000000001
 40
0.0
 40
0.0
 40
0.0
 40
0.0
 40
0.1451940518
 40
0.2814739928
 40
0.4102410134
 40
0.4723145423
 40
0.5331086969
 40
0.592839978
 40
0.6517305782
 40
0.7100062649
 40
0.7678939697
 40
0.8256192058
 40
0.8834034525
 40
0.9414616587
 40
1.0
 40
1.0
 40
1.0
 40
1.0
 10
4.5113572545
 20
5.4293386319
 30
0.0
 10
4.5100613805
 20
5.4277948813
 30
0.0
 10
4.5076654763
 20
5.4247009949
 30
0.0
 10
4.5046006123
 20
5.4198914304
 30
0.0
 10
4.5025579483
 20
5.4158249925
 30
0.0
 10
4.5012581499
 20
5.412580932
 30
0.0
 10
4.5004519006
 20
5.4101761991
 30
0.0
 10
4.4998013117
 20
5.4077705144
 30
0.0
 10
4.4993050889
 20
5.4053639442
 30
0.0
 10
4.4989619734
 20
5.4029566506
 30
0.0
 10
4.4987706696
 20
5.400548786
 30
0.0
 10
4.4987298572
 20
5.3981405222
 30
0.0
 10
4.4988381942
 20
5.3957319915
 30
0.0
 10
4.4990942902
 20
5.3933234465
 30
0.0
 10
4.4993612517
 20
5.3917259316
 30
0.0
 10
4.4995182172
 20
5.3909286185
 30
0.0
  0
SPLINE
  5
658
100
AcDbEntity
  8
0
100
AcDbSpline
 62
7
  6
CONTINUOUS
 70
0
 71
3
 72
14
 73
10
 74
0
 42
0.0000001
 43
0.0000001
 44
0.0000000001
 40
0.0
 40
0.0
 40
0.0
 40
0.0
 40
0.1219917085
 40
0.2458185004
 40
0.3707603476
 40
0.4963092446
 40
0.7480763227
 40
0.874038615
 40
1.0
 40
1.0
 40
1.0
 40
1.0
 10
4.5915051462
 20
4.8672515411
 30
0.0
 10
4.5891580539
 20
4.8901600113
 30
0.0
 10
4.5842175664
 20
4.9363002175
 30
0.0
 10
4.5761247326
 20
5.0058202085
 30
0.0
 10
4.567277267
 20
5.0759253393
 30
0.0
 10
4.5544750716
 20
5.1698694417
 30
0.0
 10
4.5402031737
 20
5.2638037447
 30
0.0
 10
4.5244094743
 20
5.357566006
 30
0.0
 10
4.5159932462
 20
5.4043722828
 30
0.0
 10
4.5116523546
 20
5.4277504347
 30
0.0
  0
SPLINE
  5
659
100
AcDbEntity
  8
0
100
AcDbSpline
 62
7
  6
CONTINUOUS
 70
0
 71
3
 72
27
 73
23
 74
0
 42
0.0000001
 43
0.0000001
 44
0.0000000001
 40
0.0
 40
0.0
 40
0.0
 40
0.0
 40
0.1157877492
 40
0.2235085912
 40
0.3232748912
 40
0.4152067942
 40
0.4994348542
 40
0.5761038345
 40
0.6453783361
 40
0.7074513486
 40
0.7625575959
 40
0.8109949031
 40
0.8531590736
 40
0.8896008915
 40
0.9059271033
 40
0.9211496149
 40
0.9354258964
 40
0.9489424619
 40
0.9619144206
 40
0.9745803672
 40
0.9871919926
 40
1.0
 40
1.0
 40
1.0
 40
1.0
 10
4.4391183488
 20
5.762567923
 30
0.0
 10
4.4381965702
 20
5.7623701788
 30
0.0
 10
4.4364198949
 20
5.7619758652
 30
0.0
 10
4.4338600407
 20
5.7613627379
 30
0.0
 10
4.4315003543
 20
5.7607495381
 30
0.0
 10
4.4293388339
 20
5.7601363211
 30
0.0
 10
4.4273734455
 20
5.7595231449
 30
0.0
 10
4.4256021204
 20
5.758910067
 30
0.0
 10
4.4240227389
 20
5.7582971402
 30
0.0
 10
4.4226330863
 20
5.7576843812
 30
0.0
 10
4.4214308608
 20
5.757071765
 30
0.0
 10
4.4204134631
 20
5.7564590012
 30
0.0
 10
4.4195784556
 20
5.7558456843
 30
0.0
 10
4.4190127467
 20
5.7553146755
 30
0.0
 10
4.4186591219
 20
5.7548878892
 30
0.0
 10
4.418448558
 20
5.754579121
 30
0.0
 10
4.4182827002
 20
5.754269808
 30
0.0
 10
4.4181615422
 20
5.7539598636
 30
0.0
 10
4.4180851239
 20
5.7536493505
 30
0.0
 10
4.4180534675
 20
5.7533384675
 30
0.0
 10
4.4180664326
 20
5.7530276336
 30
0.0
 10
4.4181041142
 20
5.7528233529
 30
0.0
 10
4.418129687
 20
5.7527222535
 30
0.0
  0
SPLINE
  5
65A
100
AcDbEntity
  8
0
100
AcDbSpline
 62
7
  6
CONTINUOUS
 70
0
 71
3
 72
9
 73
5
 74
0
 42
0.0000001
 43
0.0000001
 44
0.0000000001
 40
0.0
 40
0.0
 40
0.0
 40
0.0
 40
0.2500144929
 40
1.0
 40
1.0
 40
1.0
 40
1.0
 10
4.5113572545
 20
5.4293386319
 30
0.0
 10
4.5061624507
 20
5.4572779685
 30
0.0
 10
4.4845955352
 20
5.5688798912
 30
0.0
 10
4.4597589086
 20
5.6798565185
 30
0.0
 10
4.4391183488
 20
5.762567923
 30
0.0
  0
SPLINE
  5
65B
100
AcDbEntity
  8
0
100
AcDbSpline
 62
7
  6
CONTINUOUS
 70
0
 71
3
 72
29
 73
25
 74
0
 42
0.0000001
 43
0.0000001
 44
0.0000000001
 40
0.0
 40
0.0
 40
0.0
 40
0.0
 40
0.1182097555
 40
0.2281556688
 40
0.329941594
 40
0.4236768005
 40
0.5094778327
 40
0.5874712243
 40
0.6577975687
 40
0.7206178155
 40
0.7761233513
 40
0.8245527542
 40
0.8462131672
 40
0.866232165
 40
0.8846697915
 40
0.9015994965
 40
0.91711244
 40
0.9313230291
 40
0.9443755794
 40
0.9564512818
 40
0.9677733189
 40
0.9786063524
 40
0.9892463345
 40
1.0
 40
1.0
 40
1.0
 40
1.0
 10
4.4350494271
 20
5.7804112479
 30
0.0
 10
4.4341122201
 20
5.7802461799
 30
0.0
 10
4.4323051523
 20
5.779917046
 30
0.0
 10
4.4296986839
 20
5.7794052281
 30
0.0
 10
4.4272933011
 20
5.7788933674
 30
0.0
 10
4.4250870013
 20
5.7783815182
 30
0.0
 10
4.4230777594
 20
5.777869742
 30
0.0
 10
4.4212635184
 20
5.7773581086
 30
0.0
 10
4.4196421947
 20
5.7768466915
 30
0.0
 10
4.4182115757
 20
5.7763355754
 30
0.0
 10
4.4169695099
 20
5.7758247913
 30
0.0
 10
4.4160582566
 20
5.7753845279
 30
0.0
 10
4.4154256341
 20
5.7750291135
 30
0.0
 10
4.4150150373
 20
5.7747725401
 30
0.0
 10
4.4146500906
 20
5.7745159251
 30
0.0
 10
4.4143305088
 20
5.7742591913
 30
0.0
 10
4.4140560066
 20
5.7740022432
 30
0.0
 10
4.4138263304
 20
5.77374493
 30
0.0
 10
4.4136412999
 20
5.7734870521
 30
0.0
 10
4.4135008708
 20
5.7732283916
 30
0.0
 10
4.4134051782
 20
5.7729688289
 30
0.0
 10
4.4133544821
 20
5.7727084668
 30
0.0
 10
4.4133489113
 20
5.7724478555
 30
0.0
 10
4.4133747888
 20
5.7722766358
 30
0.0
 10
4.4133944735
 20
5.7721923325
 30
0.0
  0
SPLINE
  5
65C
100
AcDbEntity
  8
0
100
AcDbSpline
 62
7
  6
CONTINUOUS
 70
0
 71
3
 72
27
 73
23
 74
0
 42
0.0000001
 43
0.0000001
 44
0.0000000001
 40
0.0
 40
0.0
 40
0.0
 40
0.0
 40
0.0769291878
 40
0.1518347071
 40
0.188477373
 40
0.2245545973
 40
0.2950090828
 40
0.3632446009
 40
0.4293251558
 40
0.4932895849
 40
0.5551991659
 40
0.6151262837
 40
0.6731916383
 40
0.7296031388
 40
0.7846517061
 40
0.838694021
 40
0.8654860891
 40
0.8922064357
 40
0.9189298288
 40
0.9457399453
 40
0.9727299285
 40
1.0
 40
1.0
 40
1.0
 40
1.0
 10
4.657616206
 20
3.1730075494
 30
0.0
 10
4.6555720262
 20
3.1747365317
 30
0.0
 10
4.6515862175
 20
3.1782072056
 30
0.0
 10
4.6467708916
 20
3.1826629547
 30
0.0
 10
4.6430844444
 20
3.1862418424
 30
0.0
 10
4.6395661662
 20
3.1897705657
 30
0.0
 10
4.6353839737
 20
3.1941889721
 30
0.0
 10
4.63069628
 20
3.1995596242
 30
0.0
 10
4.6264015744
 20
3.2049644634
 30
0.0
 10
4.6225190425
 20
3.2104049598
 30
0.0
 10
4.6190707374
 20
3.2158798414
 30
0.0
 10
4.6160789889
 20
3.2213852663
 30
0.0
 10
4.6135667612
 20
3.2269169603
 30
0.0
 10
4.6115626794
 20
3.2324735973
 30
0.0
 10
4.6100963663
 20
3.2380521204
 30
0.0
 10
4.6093478388
 20
3.2427308815
 30
0.0
 10
4.6090552902
 20
3.2464641977
 30
0.0
 10
4.6089918487
 20
3.2492574113
 30
0.0
 10
4.6090884651
 20
3.2520503192
 30
0.0
 10
4.6093500093
 20
3.2548421881
 30
0.0
 10
4.6097817543
 20
3.2576320571
 30
0.0
 10
4.6101839763
 20
3.2594785302
 30
0.0
 10
4.6104141019
 20
3.2603992719
 30
0.0
  0
SPLINE
  5
65D
100
AcDbEntity
  8
0
100
AcDbSpline
 62
7
  6
CONTINUOUS
 70
0
 71
3
 72
26
 73
22
 74
0
 42
0.0000001
 43
0.0000001
 44
0.0000000001
 40
0.0
 40
0.0
 40
0.0
 40
0.0
 40
0.0987285825
 40
0.1921470417
 40
0.2802714102
 40
0.3631287481
 40
0.4407601842
 40
0.5132249924
 40
0.5806061081
 40
0.6430176688
 40
0.7006206414
 40
0.7536423915
 40
0.8023816113
 40
0.8472278084
 40
0.8886859909
 40
0.9083520837
 40
0.9274256098
 40
0.946010693
 40
0.9642202456
 40
0.9821746804
 40
1.0
 40
1.0
 40
1.0
 40
1.0
 10
4.6587662286
 20
3.1683045468
 30
0.0
 10
4.6558419594
 20
3.1672886839
 30
0.0
 10
4.6501708435
 20
3.1652528159
 30
0.0
 10
4.6419709743
 20
3.1620893002
 30
0.0
 10
4.6343164735
 20
3.1589021765
 30
0.0
 10
4.6272107988
 20
3.1556931307
 30
0.0
 10
4.620657283
 20
3.1524637979
 30
0.0
 10
4.6146591957
 20
3.1492157529
 30
0.0
 10
4.6092196975
 20
3.1459504762
 30
0.0
 10
4.6043417271
 20
3.1426691377
 30
0.0
 10
4.6000276617
 20
3.1393724098
 30
0.0
 10
4.5962786082
 20
3.1360613837
 30
0.0
 10
4.5930953968
 20
3.1327359591
 30
0.0
 10
4.5904797921
 20
3.1293961612
 30
0.0
 10
4.5887455024
 20
3.1265502014
 30
0.0
 10
4.5876658651
 20
3.1242770211
 30
0.0
 10
4.587014143
 20
3.1226000377
 30
0.0
 10
4.5865066758
 20
3.1209214832
 30
0.0
 10
4.5861438003
 20
3.1192415644
 30
0.0
 10
4.5859258634
 20
3.1175608354
 30
0.0
 10
4.5858773292
 20
3.116438347
 30
0.0
 10
4.5858773292
 20
3.1158794232
 30
0.0
  0
LINE
  5
65E
100
AcDbEntity
  8
0
100
AcDbLine
 62
7
  6
CONTINUOUS
 10
4.6588180354
 20
3.1647373333
 11
4.6587883945
 21
3.1668373993
  0
SPLINE
  5
65F
100
AcDbEntity
  8
0
100
AcDbSpline
 62
7
  6
CONTINUOUS
 70
0
 71
3
 72
24
 73
20
 74
0
 42
0.0000001
 43
0.0000001
 44
0.0000000001
 40
0.0
 40
0.0
 40
0.0
 40
0.0
 40
0.0964671865
 40
0.1880911633
 40
0.2748767182
 40
0.3568369245
 40
0.4339952812
 40
0.5063885383
 40
0.5740704615
 40
0.6371168942
 40
0.6956336307
 40
0.7497755897
 40
0.799752933
 40
0.8458385075
 40
0.8883861289
 40
0.9278514309
 40
0.9648112564
 40
0.9825806861
 40
1.0
 40
1.0
 40
1.0
 40
1.0
 10
4.6588180354
 20
3.1647373333
 30
0.0
 10
4.6560673535
 20
3.1637761687
 30
0.0
 10
4.6507217579
 20
3.1618509022
 30
0.0
 10
4.6429721823
 20
3.1588695053
 30
0.0
 10
4.6357011018
 20
3.1558705388
 30
0.0
 10
4.6289119425
 20
3.1528556354
 30
0.0
 10
4.6226080405
 20
3.1498263939
 30
0.0
 10
4.6167926873
 20
3.1467843872
 30
0.0
 10
4.611469115
 20
3.1437311163
 30
0.0
 10
4.6066404178
 20
3.1406680171
 30
0.0
 10
4.6023094293
 20
3.1375959968
 30
0.0
 10
4.5984780226
 20
3.1345161086
 30
0.0
 10
4.5951472932
 20
3.1314291122
 30
0.0
 10
4.5923184241
 20
3.1283351616
 30
0.0
 10
4.5899931036
 20
3.1252336117
 30
0.0
 10
4.5881742694
 20
3.1221243291
 30
0.0
 10
4.5870700443
 20
3.119490787
 30
0.0
 10
4.5864592657
 20
3.1173970437
 30
0.0
 10
4.5862416333
 20
3.1163553045
 30
0.0
 10
4.5861550634
 20
3.1158363277
 30
0.0
  0
SPLINE
  5
660
100
AcDbEntity
  8
0
100
AcDbSpline
 62
7
  6
CONTINUOUS
 70
0
 71
3
 72
30
 73
26
 74
0
 42
0.0000001
 43
0.0000001
 44
0.0000000001
 40
0.0
 40
0.0
 40
0.0
 40
0.0
 40
0.0631481656
 40
0.0949786196
 40
0.1269415675
 40
0.1911551125
 40
0.255649385
 40
0.3203104507
 40
0.3526726257
 40
0.3850211578
 40
0.4495668426
 40
0.4817388291
 40
0.5138090255
 40
0.5775660435
 40
0.6092519746
 40
0.6407826658
 40
0.7032793137
 40
0.7342177189
 40
0.7649107887
 40
0.7953381604
 40
0.8254945825
 40
0.8849466485
 40
0.914229615
 40
0.9431853008
 40
1.0
 40
1.0
 40
1.0
 40
1.0
 10
4.8658773292
 20
2.8383584998
 30
0.0
 10
4.8567312117
 20
2.8383584998
 30
0.0
 10
4.8429629842
 20
2.8390444182
 30
0.0
 10
4.8247100774
 20
2.8412916256
 30
0.0
 10
4.8064341186
 20
2.844448129
 30
0.0
 10
4.7838137833
 20
2.8500811334
 30
0.0
 10
4.7573952688
 20
2.8595153156
 30
0.0
 10
4.7362427797
 20
2.8696087157
 30
0.0
 10
4.7199754045
 20
2.8789210156
 30
0.0
 10
4.7042033442
 20
2.8890177351
 30
0.0
 10
4.6892186992
 20
2.9002546076
 30
0.0
 10
4.6751690771
 20
2.9125340463
 30
0.0
 10
4.6618382426
 20
2.9254268668
 30
0.0
 10
4.6495610076
 20
2.9392735105
 30
0.0
 10
4.6384144375
 20
2.9539082193
 30
0.0
 10
4.6281008817
 20
2.9689204666
 30
0.0
 10
4.6189441424
 20
2.9845720378
 30
0.0
 10
4.611016721
 20
3.0007140373
 30
0.0
 10
4.6057264972
 20
3.0129591765
 30
0.0
 10
4.6010851764
 20
3.0253436906
 30
0.0
 10
4.5957745612
 20
3.04190356
 30
0.0
 10
4.5916794806
 20
3.0586598768
 30
0.0
 10
4.5887871329
 20
3.0754634645
 30
0.0
 10
4.5867094545
 20
3.0920014372
 30
0.0
 10
4.5859927383
 20
3.1044256145
 30
0.0
 10
4.5858962424
 20
3.1126538533
 30
0.0
  0
SPLINE
  5
661
100
AcDbEntity
  8
0
100
AcDbSpline
 62
7
  6
CONTINUOUS
 70
0
 71
3
 72
39
 73
35
 74
0
 42
0.0000001
 43
0.0000001
 44
0.0000000001
 40
0.0
 40
0.0
 40
0.0
 40
0.0
 40
0.0312636376
 40
0.0468979094
 40
0.0625310491
 40
0.093791988
 40
0.1250504704
 40
0.1563058389
 40
0.1875573263
 40
0.2188047007
 40
0.2500478055
 40
0.2812868156
 40
0.3125227201
 40
0.3437566533
 40
0.3749898095
 40
0.4062233912
 40
0.4374584787
 40
0.468696041
 40
0.4999368026
 40
0.5624116346
 40
0.5936641339
 40
0.6249204958
 40
0.6561802823
 40
0.6874427591
 40
0.718707076
 40
0.749972134
 40
0.7812368359
 40
0.8124999667
 40
0.8437605078
 40
0.8750177431
 40
0.9062704629
 40
0.9375180376
 40
0.9687629015
 40
1.0
 40
1.0
 40
1.0
 40
1.0
 10
4.8658773194
 20
2.961214373
 30
0.0
 10
4.8625270052
 20
2.9612144866
 30
0.0
 10
4.8575001386
 20
2.9613354022
 30
0.0
 10
4.8508109391
 20
2.9617416146
 30
0.0
 10
4.8441339458
 20
2.9623124766
 30
0.0
 10
4.8358176646
 20
2.9633335844
 30
0.0
 10
4.8259115033
 20
2.9650463485
 30
0.0
 10
4.8161017367
 20
2.9672407686
 30
0.0
 10
4.8064116557
 20
2.9699098887
 30
0.0
 10
4.7968637309
 20
2.9730455271
 30
0.0
 10
4.7874800209
 20
2.9766391234
 30
0.0
 10
4.7782823965
 20
2.9806823132
 30
0.0
 10
4.7692929602
 20
2.9851672137
 30
0.0
 10
4.7605327115
 20
2.990083485
 30
0.0
 10
4.7520220303
 20
2.9954196684
 30
0.0
 10
4.7437805022
 20
3.001163052
 30
0.0
 10
4.7358267381
 20
3.0072993571
 30
0.0
 10
4.7281780482
 20
3.0138136137
 30
0.0
 10
4.7184099846
 20
3.0229782259
 30
0.0
 10
4.7093114255
 20
3.0328385524
 30
0.0
 10
4.7009605161
 20
3.043315041
 30
0.0
 10
4.695080963
 20
3.0514690671
 30
0.0
 10
4.6896019413
 20
3.0598983455
 30
0.0
 10
4.6845365803
 20
3.0685835879
 30
0.0
 10
4.6798966038
 20
3.0775039359
 30
0.0
 10
4.6756923316
 20
3.0866379776
 30
0.0
 10
4.6719329555
 20
3.0959638007
 30
0.0
 10
4.6686274558
 20
3.1054594876
 30
0.0
 10
4.6657845204
 20
3.1151029482
 30
0.0
 10
4.6634117284
 20
3.1248715946
 30
0.0
 10
4.6615158375
 20
3.1347424829
 30
0.0
 10
4.6601027423
 20
3.1446927071
 30
0.0
 10
4.6591758144
 20
3.1546980003
 30
0.0
 10
4.6588829919
 20
3.1613904934
 30
0.0
 10
4.6588180354
 20
3.1647373333
 30
0.0
  0
SPLINE
  5
662
100
AcDbEntity
  8
0
100
AcDbSpline
 62
7
  6
CONTINUOUS
 70
0
 71
3
 72
16
 73
12
 74
0
 42
0.0000001
 43
0.0000001
 44
0.0000000001
 40
0.0
 40
0.0
 40
0.0
 40
0.0
 40
0.1489005829
 40
0.2889058911
 40
0.420843015
 40
0.4841047627
 40
0.5457333446
 40
0.6646605982
 40
0.7789959688
 40
0.890235851
 40
1.0
 40
1.0
 40
1.0
 40
1.0
 10
4.6523886735
 20
3.6522370857
 30
0.0
 10
4.6517571612
 20
3.6516047575
 30
0.0
 10
4.6505697009
 20
3.6503390111
 30
0.0
 10
4.6489788884
 20
3.6483741164
 30
0.0
 10
4.6478440444
 20
3.6467094735
 30
0.0
 10
4.6470668025
 20
3.6453777153
 30
0.0
 10
4.6463912377
 20
3.6440791174
 30
0.0
 10
4.645694193
 20
3.6424483727
 30
0.0
 10
4.6450974449
 20
3.6404638913
 30
0.0
 10
4.6447511799
 20
3.638476382
 30
0.0
 10
4.6446877199
 20
3.6371473591
 30
0.0
 10
4.6446977751
 20
3.6364886542
 30
0.0
  0
SPLINE
  5
663
100
AcDbEntity
  8
0
100
AcDbSpline
 62
7
  6
CONTINUOUS
 70
0
 71
3
 72
17
 73
13
 74
0
 42
0.0000001
 43
0.0000001
 44
0.0000000001
 40
0.0
 40
0.0
 40
0.0
 40
0.0
 40
0.125448175
 40
0.1881880632
 40
0.2509566729
 40
0.3137608857
 40
0.3765909968
 40
0.5022215339
 40
0.6275875654
 40
0.7524505134
 40
0.8766302638
 40
1.0
 40
1.0
 40
1.0
 40
1.0
 10
4.6587078615
 20
3.1721096065
 30
0.0
 10
4.6584000437
 20
3.1921247211
 30
0.0
 10
4.6579351425
 20
3.2221498664
 30
0.0
 10
4.6573337921
 20
3.2621899406
 30
0.0
 10
4.6568980153
 20
3.2922354158
 30
0.0
 10
4.6564845966
 20
3.3222956064
 30
0.0
 10
4.6559669993
 20
3.3623860351
 30
0.0
 10
4.6553847358
 20
3.412459287
 30
0.0
 10
4.6547641435
 20
3.47243113
 30
0.0
 10
4.6541340594
 20
3.5321713681
 30
0.0
 10
4.6534018778
 20
3.5915919218
 30
0.0
 10
4.6527760531
 20
3.6310880226
 30
0.0
 10
4.6524156179
 20
3.6507705524
 30
0.0
  0
SPLINE
  5
664
100
AcDbEntity
  8
0
100
AcDbSpline
 62
7
  6
CONTINUOUS
 70
0
 71
3
 72
12
 73
8
 74
0
 42
0.0000001
 43
0.0000001
 44
0.0000000001
 40
0.0
 40
0.0
 40
0.0
 40
0.0
 40
0.2499924804
 40
0.4999859508
 40
0.6249845684
 40
0.7499857524
 40
1.0
 40
1.0
 40
1.0
 40
1.0
 10
4.6635197088
 20
3.7924967571
 30
0.0
 10
4.6616245386
 20
3.8826149289
 30
0.0
 10
4.657217809
 20
4.0628407622
 30
0.0
 10
4.6485267511
 20
4.2880318908
 30
0.0
 10
4.6388773028
 20
4.4680565136
 30
0.0
 10
4.6271684117
 20
4.6479645427
 30
0.0
 10
4.6157700073
 20
4.7827248619
 30
0.0
 10
4.6067394998
 20
4.8724173445
 30
0.0
  0
SPLINE
  5
665
100
AcDbEntity
  8
0
100
AcDbSpline
 62
7
  6
CONTINUOUS
 70
0
 71
3
 72
11
 73
7
 74
0
 42
0.0000001
 43
0.0000001
 44
0.0000000001
 40
0.0
 40
0.0
 40
0.0
 40
0.0
 40
0.2534214484
 40
0.5054645868
 40
0.7547751332
 40
1.0
 40
1.0
 40
1.0
 40
1.0
 10
4.8658773292
 20
3.7971087906
 30
0.0
 10
4.848777417
 20
3.7971260764
 30
0.0
 10
4.8146700518
 20
3.7969581561
 30
0.0
 10
4.7637466719
 20
3.7961046824
 30
0.0
 10
4.7133900132
 20
3.7946564113
 30
0.0
 10
4.6800477701
 20
3.7932849954
 30
0.0
 10
4.6635197088
 20
3.7924967571
 30
0.0
  0
SPLINE
  5
666
100
AcDbEntity
  8
0
100
AcDbSpline
 62
7
  6
CONTINUOUS
 70
0
 71
3
 72
11
 73
7
 74
0
 42
0.0000001
 43
0.0000001
 44
0.0000000001
 40
0.0
 40
0.0
 40
0.0
 40
0.0
 40
0.2534263497
 40
0.5054724611
 40
0.7547820455
 40
1.0
 40
1.0
 40
1.0
 40
1.0
 10
4.8658773292
 20
3.7923121331
 30
0.0
 10
4.8487856778
 20
3.7923287834
 30
0.0
 10
4.8146949288
 20
3.7921605166
 30
0.0
 10
4.7637966486
 20
3.7913092794
 30
0.0
 10
4.71346551
 20
3.7898659925
 30
0.0
 10
4.6801403755
 20
3.7884997569
 30
0.0
 10
4.6636209587
 20
3.787714579
 30
0.0
  0
SPLINE
  5
667
100
AcDbEntity
  8
0
100
AcDbSpline
 62
7
  6
CONTINUOUS
 70
0
 71
3
 72
11
 73
7
 74
0
 42
0.0000001
 43
0.0000001
 44
0.0000000001
 40
0.0
 40
0.0
 40
0.0
 40
0.0
 40
0.2535592137
 40
0.5056861018
 40
0.7549697258
 40
1.0
 40
1.0
 40
1.0
 40
1.0
 10
4.8658773292
 20
3.6584822874
 30
0.0
 10
4.8490031282
 20
3.6584822874
 30
0.0
 10
4.8153498031
 20
3.658311897
 30
0.0
 10
4.7651119951
 20
3.6575505516
 30
0.0
 10
4.715451994
 20
3.6562899721
 30
0.0
 10
4.6825761847
 20
3.6551086227
 30
0.0
 10
4.6662836273
 20
3.6544318955
 30
0.0
  0
SPLINE
  5
668
100
AcDbEntity
  8
0
100
AcDbSpline
 62
7
  6
CONTINUOUS
 70
0
 71
3
 72
16
 73
12
 74
0
 42
0.0000001
 43
0.0000001
 44
0.0000000001
 40
0.0
 40
0.0
 40
0.0
 40
0.0
 40
0.1220189177
 40
0.2458779814
 40
0.3708351157
 40
0.4963800128
 40
0.6221969065
 40
0.7481143759
 40
0.811085532
 40
0.8740578854
 40
1.0
 40
1.0
 40
1.0
 40
1.0
 10
4.6065946811
 20
4.8738268225
 30
0.0
 10
4.6042565837
 20
4.8965975667
 30
0.0
 10
4.5994887304
 20
4.9424767367
 30
0.0
 10
4.5919631956
 20
5.0116367195
 30
0.0
 10
4.5838725242
 20
5.0813991598
 30
0.0
 10
4.5751072505
 20
5.1514506515
 30
0.0
 10
4.565556029
 20
5.2215815115
 30
0.0
 10
4.556868748
 20
5.2799787119
 30
0.0
 10
4.5494437854
 20
5.3266405621
 30
0.0
 10
4.5416904582
 20
5.3732535608
 30
0.0
 10
4.5354946325
 20
5.4081494565
 30
0.0
 10
4.5311844371
 20
5.4313794232
 30
0.0
  0
SPLINE
  5
669
100
AcDbEntity
  8
0
100
AcDbSpline
 62
7
  6
CONTINUOUS
 70
0
 71
3
 72
43
 73
39
 74
0
 42
0.0000001
 43
0.0000001
 44
0.0000000001
 40
0.0
 40
0.0
 40
0.0
 40
0.0
 40
0.0078160579
 40
0.0156320969
 40
0.0312636697
 40
0.0468948678
 40
0.0625256418
 40
0.0781559356
 40
0.0937856767
 40
0.1250410304
 40
0.1562935373
 40
0.1875429222
 40
0.2187890173
 40
0.2500316953
 40
0.2812714166
 40
0.3125092
 40
0.3437465435
 40
0.3749844706
 40
0.4062236972
 40
0.4374650545
 40
0.4687094693
 40
0.4999577054
 40
0.5312100354
 40
0.5624666
 40
0.5937270837
 40
0.6249909268
 40
0.6562573635
 40
0.6875252684
 40
0.7187934491
 40
0.7500604018
 40
0.7813245741
 40
0.8125845141
 40
0.8438388886
 40
0.8750868845
 40
0.9063271013
 40
0.9375589308
 40
0.9687848763
 40
1.0
 40
1.0
 40
1.0
 40
1.0
 10
4.8658773292
 20
2.9740823947
 30
0.0
 10
4.8650904624
 20
2.9740823749
 30
0.0
 10
4.8635167136
 20
2.9740900164
 30
0.0
 10
4.8603696524
 20
2.9741406991
 30
0.0
 10
4.8564373542
 20
2.9742747302
 30
0.0
 10
4.8517238062
 20
2.9745465168
 30
0.0
 10
4.8470186903
 20
2.9749368567
 30
0.0
 10
4.8423246303
 20
2.975441603
 30
0.0
 10
4.8360846028
 20
2.9762649613
 30
0.0
 10
4.8283245831
 20
2.9775738475
 30
0.0
 10
4.8190995319
 20
2.9795878958
 30
0.0
 10
4.8099823074
 20
2.9820412676
 30
0.0
 10
4.8009943959
 20
2.9849293789
 30
0.0
 10
4.7921558867
 20
2.9882436827
 30
0.0
 10
4.7834846685
 20
2.9919716754
 30
0.0
 10
4.7750020769
 20
2.9961099584
 30
0.0
 10
4.7667291104
 20
3.0006525383
 30
0.0
 10
4.7586857417
 20
3.005590614
 30
0.0
 10
4.7508917823
 20
3.0109143912
 30
0.0
 10
4.7433658876
 20
3.0166119156
 30
0.0
 10
4.7361259186
 20
3.0226700223
 30
0.0
 10
4.7291882623
 20
3.0290737298
 30
0.0
 10
4.7225698351
 20
3.0358086015
 30
0.0
 10
4.7162873511
 20
3.0428595608
 30
0.0
 10
4.7103563532
 20
3.050210136
 30
0.0
 10
4.7047917581
 20
3.0578430898
 30
0.0
 10
4.6996077479
 20
3.0657403749
 30
0.0
 10
4.6948175649
 20
3.073883072
 30
0.0
 10
4.6904325623
 20
3.0822509763
 30
0.0
 10
4.6864627281
 20
3.0908232136
 30
0.0
 10
4.6829175882
 20
3.0995787288
 30
0.0
 10
4.6798051308
 20
3.1084958772
 30
0.0
 10
4.6771322018
 20
3.117552775
 30
0.0
 10
4.6749045303
 20
3.1267272966
 30
0.0
 10
4.6731274151
 20
3.1359973249
 30
0.0
 10
4.6718056638
 20
3.1453409488
 30
0.0
 10
4.6709386632
 20
3.1547348582
 30
0.0
 10
4.6706634371
 20
3.16101785
 30
0.0
 10
4.6706016254
 20
3.1641597652
 30
0.0
  0
SPLINE
  5
66A
100
AcDbEntity
  8
0
100
AcDbSpline
 62
7
  6
CONTINUOUS
 70
0
 71
3
 72
11
 73
7
 74
0
 42
0.0000001
 43
0.0000001
 44
0.0000000001
 40
0.0
 40
0.0
 40
0.0
 40
0.0
 40
0.2549168188
 40
0.5078714087
 40
0.7568783181
 40
1.0
 40
1.0
 40
1.0
 40
1.0
 10
4.8658773292
 20
3.1716731088
 30
0.0
 10
4.8492728213
 20
3.1716139598
 30
0.0
 10
4.8161919841
 20
3.1713023779
 30
0.0
 10
4.7669008586
 20
3.1702570354
 30
0.0
 10
4.7183939284
 20
3.1686379598
 30
0.0
 10
4.6863707657
 20
3.1671646205
 30
0.0
 10
4.6705565055
 20
3.1663292434
 30
0.0
  0
LINE
  5
66B
100
AcDbEntity
  8
0
100
AcDbLine
 62
7
  6
CONTINUOUS
 10
4.6705210044
 20
3.1677931231
 11
4.6704561709
 21
3.1715851499
  0
SPLINE
  5
66C
100
AcDbEntity
  8
0
100
AcDbSpline
 62
7
  6
CONTINUOUS
 70
0
 71
3
 72
20
 73
16
 74
0
 42
0.0000001
 43
0.0000001
 44
0.0000000001
 40
0.0
 40
0.0
 40
0.0
 40
0.0
 40
0.0626920515
 40
0.1253694787
 40
0.1880527833
 40
0.2507624052
 40
0.3135119125
 40
0.3763006099
 40
0.4391108231
 40
0.5019103209
 40
0.5646640328
 40
0.6273375998
 40
0.7523144012
 40
0.8766028977
 40
1.0
 40
1.0
 40
1.0
 40
1.0
 10
4.6704504136
 20
3.1715851761
 30
0.0
 10
4.6702484754
 20
3.1816738607
 30
0.0
 10
4.6698915983
 20
3.2018498443
 30
0.0
 10
4.6694876837
 20
3.2321155805
 30
0.0
 10
4.6691949921
 20
3.2623854049
 30
0.0
 10
4.6689917687
 20
3.292667538
 30
0.0
 10
4.6688497959
 20
3.3229669658
 30
0.0
 10
4.6687442757
 20
3.353282723
 30
0.0
 10
4.668645154
 20
3.3836065457
 30
0.0
 10
4.6685418809
 20
3.413924724
 30
0.0
 10
4.6684241416
 20
3.444220858
 30
0.0
 10
4.6682336166
 20
3.4845246233
 30
0.0
 10
4.6679009059
 20
3.5347322579
 30
0.0
 10
4.6672750854
 20
3.5947116808
 30
0.0
 10
4.6666544755
 20
3.6345737666
 30
0.0
 10
4.6662836309
 20
3.6544318939
 30
0.0
  0
SPLINE
  5
66D
100
AcDbEntity
  8
0
100
AcDbSpline
 62
7
  6
CONTINUOUS
 70
0
 71
3
 72
9
 73
5
 74
0
 42
0.0000001
 43
0.0000001
 44
0.0000000001
 40
0.0
 40
0.0
 40
0.0
 40
0.0
 40
0.2500053698
 40
1.0
 40
1.0
 40
1.0
 40
1.0
 10
4.5308882712
 20
5.4329723721
 30
0.0
 10
4.5276014381
 20
5.4506388045
 30
0.0
 10
4.5141398856
 20
5.5212440185
 30
0.0
 10
4.4993929456
 20
5.5916051385
 30
0.0
 10
4.4875668923
 20
5.6441991775
 30
0.0
  0
LINE
  5
66E
100
AcDbEntity
  8
0
100
AcDbLine
 62
7
  6
CONTINUOUS
 10
4.5311844371
 20
5.4313794232
 11
4.5308882712
 21
5.4329723721
  0
SPLINE
  5
66F
100
AcDbEntity
  8
0
100
AcDbSpline
 62
7
  6
CONTINUOUS
 70
0
 71
3
 72
21
 73
17
 74
0
 42
0.0000001
 43
0.0000001
 44
0.0000000001
 40
0.0
 40
0.0
 40
0.0
 40
0.0
 40
0.0058783066
 40
0.0132234834
 40
0.0221782041
 40
0.0328124822
 40
0.0592330713
 40
0.092591832
 40
0.1328597484
 40
0.1799553017
 40
0.2337757391
 40
0.2942070549
 40
0.4343931506
 40
0.5994598281
 40
0.7883404168
 40
1.0
 40
1.0
 40
1.0
 40
1.0
 10
4.9692721148
 20
5.7226150818
 30
0.0
 10
4.9692733944
 20
5.7226003139
 30
0.0
 10
4.9692711937
 20
5.7225666962
 30
0.0
 10
4.9692581263
 20
5.7225122014
 30
0.0
 10
4.9692350641
 20
5.7224482
 30
0.0
 10
4.9691873504
 20
5.7223423638
 30
0.0
 10
4.9691004864
 20
5.7221871941
 30
0.0
 10
4.9689638332
 20
5.7219750479
 30
0.0
 10
4.9687881783
 20
5.7217263166
 30
0.0
 10
4.9685739927
 20
5.7214418857
 30
0.0
 10
4.9683216856
 20
5.7211226568
 30
0.0
 10
4.9679145053
 20
5.7206267672
 30
0.0
 10
4.9673123364
 20
5.7199282178
 30
0.0
 10
4.9664771646
 20
5.7190033796
 30
0.0
 10
4.9655008487
 20
5.7179635177
 30
0.0
 10
4.9647969388
 20
5.7172390942
 30
0.0
 10
4.9644221265
 20
5.7168591035
 30
0.0
  0
SPLINE
  5
670
100
AcDbEntity
  8
0
100
AcDbSpline
 62
7
  6
CONTINUOUS
 70
0
 71
3
 72
11
 73
7
 74
0
 42
0.0000001
 43
0.0000001
 44
0.0000000001
 40
0.0
 40
0.0
 40
0.0
 40
0.0
 40
0.2500314082
 40
0.4999760378
 40
0.7499490396
 40
1.0
 40
1.0
 40
1.0
 40
1.0
 10
5.2441877708
 20
5.644199185
 30
0.0
 10
5.2481377088
 20
5.6540154657
 30
0.0
 10
5.2556649111
 20
5.6737960052
 30
0.0
 10
5.2658933464
 20
5.7038464167
 30
0.0
 10
5.2750905187
 20
5.7342288633
 30
0.0
 10
5.2805487336
 20
5.7546781634
 30
0.0
 10
5.2831093011
 20
5.7649457037
 30
0.0
  0
SPLINE
  5
671
100
AcDbEntity
  8
0
100
AcDbSpline
 62
7
  6
CONTINUOUS
 70
0
 71
3
 72
11
 73
7
 74
0
 42
0.0000001
 43
0.0000001
 44
0.0000000001
 40
0.0
 40
0.0
 40
0.0
 40
0.0
 40
0.2500508816
 40
0.5000239945
 40
0.7499687511
 40
1.0
 40
1.0
 40
1.0
 40
1.0
 10
4.4486453573
 20
5.7649457037
 30
0.0
 10
4.4512058441
 20
5.7546781445
 30
0.0
 10
4.4566631051
 20
5.7342285722
 30
0.0
 10
4.4658616219
 20
5.7038465149
 30
0.0
 10
4.4760893808
 20
5.6737958708
 30
0.0
 10
4.4836170664
 20
5.6540155077
 30
0.0
 10
4.4875668877
 20
5.6441991849
 30
0.0
  0
SPLINE
  5
672
100
AcDbEntity
  8
0
100
AcDbSpline
 62
7
  6
CONTINUOUS
 70
0
 71
3
 72
21
 73
17
 74
0
 42
0.0000001
 43
0.0000001
 44
0.0000000001
 40
0.0
 40
0.0
 40
0.0
 40
0.0
 40
0.0289267228
 40
0.0613407338
 40
0.0981317008
 40
0.1398355998
 40
0.1867131899
 40
0.2388397568
 40
0.2961564311
 40
0.3585060128
 40
0.4256568616
 40
0.4973129995
 40
0.5731315613
 40
0.6527279248
 40
0.8215106946
 40
1.0
 40
1.0
 40
1.0
 40
1.0
 10
4.5915051459
 20
4.8672515427
 30
0.0
 10
4.5915412468
 20
4.867411253
 30
0.0
 10
4.5916631518
 20
4.8677403378
 30
0.0
 10
4.5919607535
 20
4.8682126475
 30
0.0
 10
4.5923771497
 20
4.8686853052
 30
0.0
 10
4.5929094869
 20
4.8691566803
 30
0.0
 10
4.5935548985
 20
4.8696250803
 30
0.0
 10
4.5943098747
 20
4.8700879506
 30
0.0
 10
4.5951700596
 20
4.870542666
 30
0.0
 10
4.5961303654
 20
4.8709864797
 30
0.0
 10
4.5971850116
 20
4.8714166142
 30
0.0
 10
4.5983275516
 20
4.8718304206
 30
0.0
 10
4.5995509792
 20
4.8722253096
 30
0.0
 10
4.6013146931
 20
4.8727331779
 30
0.0
 10
4.6036651301
 20
4.8732989066
 30
0.0
 10
4.6055977796
 20
4.873662591
 30
0.0
 10
4.6065946804
 20
4.8738268232
 30
0.0
  0
SPLINE
  5
673
100
AcDbEntity
  8
0
100
AcDbSpline
 62
7
  6
CONTINUOUS
 70
0
 71
3
 72
21
 73
17
 74
0
 42
0.0000001
 43
0.0000001
 44
0.0000000001
 40
0.0
 40
0.0
 40
0.0
 40
0.0
 40
0.0290389216
 40
0.0615458196
 40
0.0984088836
 40
0.1401651562
 40
0.1870772374
 40
0.2392223041
 40
0.2965432342
 40
0.3588843809
 40
0.4260154835
 40
0.4976418232
 40
0.5734216935
 40
0.6529715652
 40
0.8216419751
 40
1.0
 40
1.0
 40
1.0
 40
1.0
 10
4.5916523765
 20
4.8658144898
 30
0.0
 10
4.5916884078
 20
4.8659749938
 30
0.0
 10
4.5918100967
 20
4.8663056622
 30
0.0
 10
4.5921074945
 20
4.8667804535
 30
0.0
 10
4.5925237217
 20
4.8672555374
 30
0.0
 10
4.5930559054
 20
4.8677292588
 30
0.0
 10
4.5937011675
 20
4.8681999101
 30
0.0
 10
4.594455994
 20
4.8686649273
 30
0.0
 10
4.5953160281
 20
4.8691216754
 30
0.0
 10
4.5962761828
 20
4.8695673975
 30
0.0
 10
4.5973306795
 20
4.8699993057
 30
0.0
 10
4.598473073
 20
4.8704147413
 30
0.0
 10
4.5996963592
 20
4.8708111057
 30
0.0
 10
4.6014598391
 20
4.8713207445
 30
0.0
 10
4.6038100475
 20
4.8718882337
 30
0.0
 10
4.6057426391
 20
4.8722528188
 30
0.0
 10
4.606739503
 20
4.8724173816
 30
0.0
  0
SPLINE
  5
674
100
AcDbEntity
  8
0
100
AcDbSpline
 62
7
  6
CONTINUOUS
 70
0
 71
3
 72
20
 73
16
 74
0
 42
0.0000001
 43
0.0000001
 44
0.0000000001
 40
0.0
 40
0.0
 40
0.0
 40
0.0
 40
0.0309463789
 40
0.0654430543
 40
0.1040958794
 40
0.147278991
 40
0.1951835075
 40
0.2478636159
 40
0.3052751123
 40
0.3673025013
 40
0.4337665583
 40
0.5044445363
 40
0.6573295054
 40
0.8234763388
 40
1.0
 40
1.0
 40
1.0
 40
1.0
 10
4.6496876035
 20
3.7875061594
 30
0.0
 10
4.6497514964
 20
3.7876481821
 30
0.0
 10
4.649919426
 20
3.7879341932
 30
0.0
 10
4.6502576968
 20
3.7883364747
 30
0.0
 10
4.650691777
 20
3.7887313959
 30
0.0
 10
4.6512193792
 20
3.7891176152
 30
0.0
 10
4.6518382076
 20
3.7894938242
 30
0.0
 10
4.6525454376
 20
3.789858316
 30
0.0
 10
4.6533377162
 20
3.7902094015
 30
0.0
 10
4.6542112205
 20
3.7905452971
 30
0.0
 10
4.6551616498
 20
3.7908643965
 30
0.0
 10
4.6565622237
 20
3.7912760036
 30
0.0
 10
4.6584712324
 20
3.7917313161
 30
0.0
 10
4.6609262164
 20
3.7921751518
 30
0.0
 10
4.6626366772
 20
3.7923998932
 30
0.0
 10
4.6635197089
 20
3.792496757
 30
0.0
  0
SPLINE
  5
675
100
AcDbEntity
  8
0
100
AcDbSpline
 62
7
  6
CONTINUOUS
 70
0
 71
3
 72
20
 73
16
 74
0
 42
0.0000001
 43
0.0000001
 44
0.0000000001
 40
0.0
 40
0.0
 40
0.0
 40
0.0
 40
0.0309383119
 40
0.0654286931
 40
0.104076804
 40
0.1472565461
 40
0.1951588305
 40
0.2478376803
 40
0.305248768
 40
0.3672765073
 40
0.4337416103
 40
0.5044212878
 40
0.657311543
 40
0.82346611
 40
1.0
 40
1.0
 40
1.0
 40
1.0
 10
4.6497348001
 20
3.78532426
 30
0.0
 10
4.6497987173
 20
3.7854661944
 30
0.0
 10
4.6499666908
 20
3.7857520217
 30
0.0
 10
4.6503049907
 20
3.7861540198
 30
0.0
 10
4.6507390778
 20
3.7865486568
 30
0.0
 10
4.6512666665
 20
3.7869345923
 30
0.0
 10
4.651885462
 20
3.7873105193
 30
0.0
 10
4.6525926406
 20
3.7876747326
 30
0.0
 10
4.6533848503
 20
3.7880255443
 30
0.0
 10
4.6542582694
 20
3.7883611724
 30
0.0
 10
4.6552085984
 20
3.7886800123
 30
0.0
 10
4.6566090212
 20
3.7890912787
 30
0.0
 10
4.6585178098
 20
3.7895461984
 30
0.0
 10
4.6609724968
 20
3.7899896278
 30
0.0
 10
4.6626827423
 20
3.7902141455
 30
0.0
 10
4.6635656648
 20
3.7903109081
 30
0.0
  0
SPLINE
  5
676
100
AcDbEntity
  8
0
100
AcDbSpline
 62
7
  6
CONTINUOUS
 70
0
 71
3
 72
20
 73
16
 74
0
 42
0.0000001
 43
0.0000001
 44
0.0000000001
 40
0.0
 40
0.0
 40
0.0
 40
0.0
 40
0.0309317926
 40
0.0654175448
 40
0.1040625836
 40
0.147240479
 40
0.1951418672
 40
0.2478205571
 40
0.3052320573
 40
0.3672606578
 40
0.4337269783
 40
0.5044081605
 40
0.657302117
 40
0.8234610943
 40
1.0
 40
1.0
 40
1.0
 40
1.0
 10
4.6497908965
 20
3.7827290162
 30
0.0
 10
4.6498548312
 20
3.7828708897
 30
0.0
 10
4.6500228369
 20
3.783156594
 30
0.0
 10
4.6503611564
 20
3.7835584121
 30
0.0
 10
4.6507952484
 20
3.7839528838
 30
0.0
 10
4.6513228286
 20
3.7843386696
 30
0.0
 10
4.651941603
 20
3.7847144629
 30
0.0
 10
4.6526487485
 20
3.7850785589
 30
0.0
 10
4.6534409136
 20
3.7854292704
 30
0.0
 10
4.6543142775
 20
3.7857648161
 30
0.0
 10
4.6552645412
 20
3.7860835917
 30
0.0
 10
4.6566648638
 20
3.7864947961
 30
0.0
 10
4.6585735056
 20
3.7869496896
 30
0.0
 10
4.6610279974
 20
3.7873931653
 30
0.0
 10
4.6627381058
 20
3.7876177635
 30
0.0
 10
4.6636209587
 20
3.787714579
 30
0.0
  0
SPLINE
  5
677
100
AcDbEntity
  8
0
100
AcDbSpline
 62
7
  6
CONTINUOUS
 70
0
 71
3
 72
20
 73
16
 74
0
 42
0.0000001
 43
0.0000001
 44
0.0000000001
 40
0.0
 40
0.0
 40
0.0
 40
0.0
 40
0.0259307315
 40
0.0564396676
 40
0.0920721735
 40
0.1330959562
 40
0.1795976461
 40
0.2315408459
 40
0.2888042641
 40
0.3512071874
 40
0.418513625
 40
0.4904511021
 40
0.6469365352
 40
0.8178465354
 40
1.0
 40
1.0
 40
1.0
 40
1.0
 10
4.6523886727
 20
3.6522370805
 30
0.0
 10
4.6524554642
 20
3.6523440518
 30
0.0
 10
4.6526312792
 20
3.6525579861
 30
0.0
 10
4.6529722081
 20
3.6528503359
 30
0.0
 10
4.6534080959
 20
3.653138005
 30
0.0
 10
4.6539372352
 20
3.6534200056
 30
0.0
 10
4.6545576286
 20
3.6536953521
 30
0.0
 10
4.6552665008
 20
3.6539626548
 30
0.0
 10
4.6560605047
 20
3.6542205948
 30
0.0
 10
4.6569357772
 20
3.6544677949
 30
0.0
 10
4.6578879908
 20
3.654703037
 30
0.0
 10
4.6592937791
 20
3.655007614
 30
0.0
 10
4.6612071441
 20
3.6553449749
 30
0.0
 10
4.6636637051
 20
3.6556751591
 30
0.0
 10
4.665372908
 20
3.6558434678
 30
0.0
 10
4.6662557744
 20
3.6559164887
 30
0.0
  0
SPLINE
  5
678
100
AcDbEntity
  8
0
100
AcDbSpline
 62
7
  6
CONTINUOUS
 70
0
 71
3
 72
20
 73
16
 74
0
 42
0.0000001
 43
0.0000001
 44
0.0000000001
 40
0.0
 40
0.0
 40
0.0
 40
0.0
 40
0.0258665966
 40
0.0563258268
 40
0.0919214475
 40
0.1329193118
 40
0.1794044796
 40
0.2313393035
 40
0.2886014849
 40
0.3510094877
 40
0.4183266206
 40
0.490279803
 40
0.646809614
 40
0.8177779115
 40
1.0
 40
1.0
 40
1.0
 40
1.0
 10
4.6524156179
 20
3.6507705524
 30
0.0
 10
4.6524824544
 20
3.6508770709
 30
0.0
 10
4.6526583848
 20
3.6510900569
 30
0.0
 10
4.652999341
 20
3.6513809729
 30
0.0
 10
4.6534352542
 20
3.6516672381
 30
0.0
 10
4.6539644235
 20
3.6519478648
 30
0.0
 10
4.6545848539
 20
3.6522218703
 30
0.0
 10
4.6552937698
 20
3.6524878688
 30
0.0
 10
4.656087823
 20
3.6527445464
 30
0.0
 10
4.6569631493
 20
3.6529905314
 30
0.0
 10
4.6579154204
 20
3.6532246112
 30
0.0
 10
4.659321324
 20
3.653527681
 30
0.0
 10
4.661234813
 20
3.6538633454
 30
0.0
 10
4.6636914836
 20
3.6541918311
 30
0.0
 10
4.665400733
 20
3.6543592452
 30
0.0
 10
4.6662836278
 20
3.6544318705
 30
0.0
  0
SPLINE
  5
679
100
AcDbEntity
  8
0
100
AcDbSpline
 62
7
  6
CONTINUOUS
 70
0
 71
3
 72
14
 73
10
 74
0
 42
0.0000001
 43
0.0000001
 44
0.0000000001
 40
0.0
 40
0.0
 40
0.0
 40
0.0
 40
0.0748214684
 40
0.1663701392
 40
0.2736694779
 40
0.3955592484
 40
0.5306990014
 40
0.6775879653
 40
1.0
 40
1.0
 40
1.0
 40
1.0
 10
4.6587078624
 20
3.1721095458
 30
0.0
 10
4.6589983593
 20
3.1720691299
 30
0.0
 10
4.6596465062
 20
3.1719952863
 30
0.0
 10
4.6607154059
 20
3.1719035348
 30
0.0
 10
4.6619700459
 20
3.1718211488
 30
0.0
 10
4.6633964157
 20
3.1717492082
 30
0.0
 10
4.6649786258
 20
3.1716887003
 30
0.0
 10
4.6673470872
 20
3.1716222368
 30
0.0
 10
4.6691866214
 20
3.1715952801
 30
0.0
 10
4.6704504137
 20
3.1715851761
 30
0.0
  0
SPLINE
  5
67A
100
AcDbEntity
  8
0
100
AcDbSpline
 62
7
  6
CONTINUOUS
 70
0
 71
3
 72
14
 73
10
 74
0
 42
0.0000001
 43
0.0000001
 44
0.0000000001
 40
0.0
 40
0.0
 40
0.0
 40
0.0
 40
0.0748569619
 40
0.1664373305
 40
0.2737607899
 40
0.3956640333
 40
0.5308038594
 40
0.6776769391
 40
1.0
 40
1.0
 40
1.0
 40
1.0
 10
4.6587662286
 20
3.1683045468
 30
0.0
 10
4.6590574104
 20
3.1682649056
 30
0.0
 10
4.6597069502
 20
3.1681925182
 30
0.0
 10
4.6607779595
 20
3.1681026653
 30
0.0
 10
4.6620348491
 20
3.1680220912
 30
0.0
 10
4.6634635637
 20
3.1679518533
 30
0.0
 10
4.6650481643
 20
3.1678929178
 30
0.0
 10
4.6674197704
 20
3.1678284168
 30
0.0
 10
4.6692616243
 20
3.1678025736
 30
0.0
 10
4.6705269401
 20
3.1677930991
 30
0.0
  0
SPLINE
  5
67B
100
AcDbEntity
  8
0
100
AcDbSpline
 62
7
  6
CONTINUOUS
 70
0
 71
3
 72
14
 73
10
 74
0
 42
0.0000001
 43
0.0000001
 44
0.0000000001
 40
0.0
 40
0.0
 40
0.0
 40
0.0
 40
0.0748660805
 40
0.1664557368
 40
0.2737870533
 40
0.3956953834
 40
0.5308362874
 40
0.67770525
 40
1.0
 40
1.0
 40
1.0
 40
1.0
 10
4.6587883928
 20
3.1668373992
 30
0.0
 10
4.6590798285
 20
3.1667980326
 30
0.0
 10
4.6597298937
 20
3.1667261426
 30
0.0
 10
4.660801713
 20
3.1666368965
 30
0.0
 10
4.6620594915
 20
3.1665568565
 30
0.0
 10
4.6634891549
 20
3.1664870738
 30
0.0
 10
4.6650747428
 20
3.166428509
 30
0.0
 10
4.6674476809
 20
3.1663643974
 30
0.0
 10
4.6692905294
 20
3.1663386846
 30
0.0
 10
4.6705565046
 20
3.1663292432
 30
0.0
  0
SPLINE
  5
67C
100
AcDbEntity
  8
0
100
AcDbSpline
 62
7
  6
CONTINUOUS
 70
0
 71
3
 72
14
 73
10
 74
0
 42
0.0000001
 43
0.0000001
 44
0.0000000001
 40
0.0
 40
0.0
 40
0.0
 40
0.0
 40
0.0749611875
 40
0.166613135
 40
0.2739790279
 40
0.3958967205
 40
0.5310229075
 40
0.6778534828
 40
1.0
 40
1.0
 40
1.0
 40
1.0
 10
4.658818028
 20
3.164737333
 30
0.0
 10
4.6591098335
 20
3.1646944438
 30
0.0
 10
4.6597608396
 20
3.1646157406
 30
0.0
 10
4.6608343915
 20
3.1645172315
 30
0.0
 10
4.6620940592
 20
3.1644280082
 30
0.0
 10
4.6635257344
 20
3.1643492366
 30
0.0
 10
4.6651134231
 20
3.1642819891
 30
0.0
 10
4.6674891454
 20
3.1642064981
 30
0.0
 10
4.6693341917
 20
3.1641735861
 30
0.0
 10
4.6706016266
 20
3.1641597654
 30
0.0
  0
SPLINE
  5
67D
100
AcDbEntity
  8
0
100
AcDbSpline
 62
7
  6
CONTINUOUS
 70
0
 71
3
 72
14
 73
10
 74
0
 42
0.0000001
 43
0.0000001
 44
0.0000000001
 40
0.0
 40
0.0
 40
0.0
 40
0.0
 40
0.0749608755
 40
0.1666125425
 40
0.2739782257
 40
0.3958958073
 40
0.5310220041
 40
0.6778527265
 40
1.0
 40
1.0
 40
1.0
 40
1.0
 10
5.0729365095
 20
3.1647373374
 30
0.0
 10
5.0726447087
 20
3.1646944442
 30
0.0
 10
5.0719937121
 20
3.164615735
 30
0.0
 10
5.0709201745
 20
3.1645172208
 30
0.0
 10
5.0696605217
 20
3.1644279953
 30
0.0
 10
5.0682288618
 20
3.1643492237
 30
0.0
 10
5.0666411884
 20
3.164281978
 30
0.0
 10
5.0642654858
 20
3.1642064913
 30
0.0
 10
5.0624204539
 20
3.1641735839
 30
0.0
 10
5.0611530285
 20
3.164159766
 30
0.0
  0
SPLINE
  5
67E
100
AcDbEntity
  8
0
100
AcDbSpline
 62
7
  6
CONTINUOUS
 70
0
 71
3
 72
14
 73
10
 74
0
 42
0.0000001
 43
0.0000001
 44
0.0000000001
 40
0.0
 40
0.0
 40
0.0
 40
0.0
 40
0.0748660864
 40
0.1664557518
 40
0.273787077
 40
0.395695413
 40
0.5308363184
 40
0.6777052769
 40
1.0
 40
1.0
 40
1.0
 40
1.0
 10
5.0729662658
 20
3.1668373992
 30
0.0
 10
5.07267483
 20
3.1667980332
 30
0.0
 10
5.0720247645
 20
3.1667261442
 30
0.0
 10
5.0709529449
 20
3.166636899
 30
0.0
 10
5.0696951661
 20
3.1665568593
 30
0.0
 10
5.0682655025
 20
3.1664870767
 30
0.0
 10
5.0666799144
 20
3.1664285115
 30
0.0
 10
5.0643069762
 20
3.1663643991
 30
0.0
 10
5.0624641276
 20
3.1663386855
 30
0.0
 10
5.0611981524
 20
3.1663292435
 30
0.0
  0
SPLINE
  5
67F
100
AcDbEntity
  8
0
100
AcDbSpline
 62
7
  6
CONTINUOUS
 70
0
 71
3
 72
14
 73
10
 74
0
 42
0.0000001
 43
0.0000001
 44
0.0000000001
 40
0.0
 40
0.0
 40
0.0
 40
0.0
 40
0.074856994
 40
0.1664373854
 40
0.2737608578
 40
0.3956641044
 40
0.5308039243
 40
0.6776769894
 40
1.0
 40
1.0
 40
1.0
 40
1.0
 10
5.0729884305
 20
3.1683045468
 30
0.0
 10
5.0726972487
 20
3.1682649047
 30
0.0
 10
5.0720477088
 20
3.1681925156
 30
0.0
 10
5.0709766992
 20
3.1681026604
 30
0.0
 10
5.0697198094
 20
3.1680220843
 30
0.0
 10
5.0682910947
 20
3.1679518452
 30
0.0
 10
5.0667064939
 20
3.1678929094
 30
0.0
 10
5.0643348877
 20
3.1678284097
 30
0.0
 10
5.0624930336
 20
3.16780257
 30
0.0
 10
5.0612277179
 20
3.1677930991
 30
0.0
  0
SPLINE
  5
680
100
AcDbEntity
  8
0
100
AcDbSpline
 62
7
  6
CONTINUOUS
 70
0
 71
3
 72
14
 73
10
 74
0
 42
0.0000001
 43
0.0000001
 44
0.0000000001
 40
0.0
 40
0.0
 40
0.0
 40
0.0
 40
0.0748231234
 40
0.166372947
 40
0.2736729375
 40
0.3955628679
 40
0.5307023163
 40
0.6775905449
 40
1.0
 40
1.0
 40
1.0
 40
1.0
 10
5.0730468088
 20
3.1721096336
 30
0.0
 10
5.0727563051
 20
3.1720692157
 30
0.0
 10
5.0721081468
 20
3.1719953672
 30
0.0
 10
5.0710392327
 20
3.1719036066
 30
0.0
 10
5.0697845837
 20
3.1718212102
 30
0.0
 10
5.0683582104
 20
3.1717492579
 30
0.0
 10
5.0667760019
 20
3.1716887376
 30
0.0
 10
5.0644075516
 20
3.1716222567
 30
0.0
 10
5.0625680278
 20
3.1715952877
 30
0.0
 10
5.0613042438
 20
3.1715851763
 30
0.0
  0
SPLINE
  5
681
100
AcDbEntity
  8
0
100
AcDbSpline
 62
7
  6
CONTINUOUS
 70
0
 71
3
 72
20
 73
16
 74
0
 42
0.0000001
 43
0.0000001
 44
0.0000000001
 40
0.0
 40
0.0
 40
0.0
 40
0.0
 40
0.025866842
 40
0.0563262713
 40
0.0919220462
 40
0.1329200241
 40
0.1794052691
 40
0.2313401374
 40
0.2886023332
 40
0.3510103231
 40
0.4183274183
 40
0.4902805399
 40
0.6468101684
 40
0.817778215
 40
1.0
 40
1.0
 40
1.0
 40
1.0
 10
5.0793390409
 20
3.6507705524
 30
0.0
 10
5.0792722042
 20
3.6508770724
 30
0.0
 10
5.0790962735
 20
3.6510900616
 30
0.0
 10
5.0787553166
 20
3.6513809822
 30
0.0
 10
5.0783194026
 20
3.6516672519
 30
0.0
 10
5.0777902327
 20
3.6519478829
 30
0.0
 10
5.0771698016
 20
3.6522218927
 30
0.0
 10
5.0764608853
 20
3.6524878951
 30
0.0
 10
5.0756668316
 20
3.6527445764
 30
0.0
 10
5.074791505
 20
3.6529905649
 30
0.0
 10
5.0738392336
 20
3.6532246478
 30
0.0
 10
5.0724333299
 20
3.6535277214
 30
0.0
 10
5.070519841
 20
3.6538633896
 30
0.0
 10
5.0680631704
 20
3.6541918781
 30
0.0
 10
5.0663539212
 20
3.6543592928
 30
0.0
 10
5.0654710265
 20
3.6544319181
 30
0.0
  0
SPLINE
  5
682
100
AcDbEntity
  8
0
100
AcDbSpline
 62
7
  6
CONTINUOUS
 70
0
 71
3
 72
20
 73
16
 74
0
 42
0.0000001
 43
0.0000001
 44
0.0000000001
 40
0.0
 40
0.0
 40
0.0
 40
0.0
 40
0.0259307315
 40
0.0564396642
 40
0.0920721651
 40
0.1330959422
 40
0.1795976265
 40
0.2315408214
 40
0.2888042357
 40
0.3512071561
 40
0.4185135922
 40
0.4904510692
 40
0.6469365067
 40
0.8178465179
 40
1.0
 40
1.0
 40
1.0
 40
1.0
 10
5.079365985
 20
3.6522370909
 30
0.0
 10
5.0792991935
 20
3.6523440622
 30
0.0
 10
5.0791233785
 20
3.6525579964
 30
0.0
 10
5.0787824497
 20
3.652850346
 30
0.0
 10
5.0783465619
 20
3.6531380149
 30
0.0
 10
5.0778174226
 20
3.653420015
 30
0.0
 10
5.0771970292
 20
3.6536953611
 30
0.0
 10
5.076488157
 20
3.6539626632
 30
0.0
 10
5.0756941532
 20
3.6542206026
 30
0.0
 10
5.0748188807
 20
3.654467802
 30
0.0
 10
5.0738666672
 20
3.6547030433
 30
0.0
 10
5.072460879
 20
3.6550076193
 30
0.0
 10
5.0705475141
 20
3.6553449787
 30
0.0
 10
5.0680909532
 20
3.655675161
 30
0.0
 10
5.0663817504
 20
3.6558434685
 30
0.0
 10
5.0654988842
 20
3.6559164888
 30
0.0
  0
SPLINE
  5
683
100
AcDbEntity
  8
0
100
AcDbSpline
 62
7
  6
CONTINUOUS
 70
0
 71
3
 72
20
 73
16
 74
0
 42
0.0000001
 43
0.0000001
 44
0.0000000001
 40
0.0
 40
0.0
 40
0.0
 40
0.0
 40
0.0309317928
 40
0.0654175452
 40
0.1040625842
 40
0.1472404799
 40
0.1951418682
 40
0.2478205583
 40
0.3052320586
 40
0.3672606591
 40
0.4337269796
 40
0.5044081617
 40
0.657302118
 40
0.8234610948
 40
1.0
 40
1.0
 40
1.0
 40
1.0
 10
5.0819637619
 20
3.7827290162
 30
0.0
 10
5.0818998272
 20
3.7828708897
 30
0.0
 10
5.0817318214
 20
3.783156594
 30
0.0
 10
5.0813935019
 20
3.7835584121
 30
0.0
 10
5.0809594099
 20
3.7839528838
 30
0.0
 10
5.0804318297
 20
3.7843386696
 30
0.0
 10
5.0798130554
 20
3.7847144629
 30
0.0
 10
5.0791059099
 20
3.7850785589
 30
0.0
 10
5.0783137447
 20
3.7854292704
 30
0.0
 10
5.0774403808
 20
3.785764816
 30
0.0
 10
5.0764901171
 20
3.7860835916
 30
0.0
 10
5.0750897945
 20
3.7864947961
 30
0.0
 10
5.0731811527
 20
3.7869496895
 30
0.0
 10
5.0707266609
 20
3.7873931652
 30
0.0
 10
5.0690165526
 20
3.7876177635
 30
0.0
 10
5.0681336997
 20
3.7877145789
 30
0.0
  0
SPLINE
  5
684
100
AcDbEntity
  8
0
100
AcDbSpline
 62
7
  6
CONTINUOUS
 70
0
 71
3
 72
20
 73
16
 74
0
 42
0.0000001
 43
0.0000001
 44
0.0000000001
 40
0.0
 40
0.0
 40
0.0
 40
0.0
 40
0.0309383119
 40
0.0654286932
 40
0.1040768041
 40
0.1472565462
 40
0.1951588305
 40
0.2478376803
 40
0.305248768
 40
0.3672765073
 40
0.4337416103
 40
0.5044212878
 40
0.6573115431
 40
0.82346611
 40
1.0
 40
1.0
 40
1.0
 40
1.0
 10
5.0820198583
 20
3.7853242611
 30
0.0
 10
5.0819559411
 20
3.7854661954
 30
0.0
 10
5.0817879676
 20
3.7857520228
 30
0.0
 10
5.0814496678
 20
3.7861540209
 30
0.0
 10
5.0810155806
 20
3.7865486578
 30
0.0
 10
5.0804879919
 20
3.7869345933
 30
0.0
 10
5.0798691964
 20
3.7873105204
 30
0.0
 10
5.0791620178
 20
3.7876747337
 30
0.0
 10
5.0783698081
 20
3.7880255453
 30
0.0
 10
5.077496389
 20
3.7883611734
 30
0.0
 10
5.0765460601
 20
3.7886800134
 30
0.0
 10
5.0751456372
 20
3.7890912798
 30
0.0
 10
5.0732368486
 20
3.7895461994
 30
0.0
 10
5.0707821616
 20
3.7899896288
 30
0.0
 10
5.0690719161
 20
3.7902141465
 30
0.0
 10
5.0681889936
 20
3.7903109092
 30
0.0
  0
SPLINE
  5
685
100
AcDbEntity
  8
0
100
AcDbSpline
 62
7
  6
CONTINUOUS
 70
0
 71
3
 72
20
 73
16
 74
0
 42
0.0000001
 43
0.0000001
 44
0.0000000001
 40
0.0
 40
0.0
 40
0.0
 40
0.0
 40
0.0309463806
 40
0.0654430573
 40
0.1040958835
 40
0.1472789958
 40
0.1951835128
 40
0.2478636215
 40
0.3052751181
 40
0.3673025071
 40
0.4337665639
 40
0.5044445416
 40
0.6573295096
 40
0.8234763413
 40
1.0
 40
1.0
 40
1.0
 40
1.0
 10
5.0820670559
 20
3.7875061594
 30
0.0
 10
5.082003163
 20
3.7876481821
 30
0.0
 10
5.0818352334
 20
3.7879341933
 30
0.0
 10
5.0814969626
 20
3.7883364748
 30
0.0
 10
5.0810628823
 20
3.788731396
 30
0.0
 10
5.0805352801
 20
3.7891176154
 30
0.0
 10
5.0799164516
 20
3.7894938243
 30
0.0
 10
5.0792092216
 20
3.7898583162
 30
0.0
 10
5.0784169429
 20
3.7902094017
 30
0.0
 10
5.0775434385
 20
3.7905452973
 30
0.0
 10
5.0765930091
 20
3.7908643967
 30
0.0
 10
5.0751924352
 20
3.7912760038
 30
0.0
 10
5.0732834263
 20
3.7917313163
 30
0.0
 10
5.0708284422
 20
3.7921751519
 30
0.0
 10
5.0691179813
 20
3.7923998933
 30
0.0
 10
5.0682349496
 20
3.7924967571
 30
0.0
  0
SPLINE
  5
686
100
AcDbEntity
  8
0
100
AcDbSpline
 62
7
  6
CONTINUOUS
 70
0
 71
3
 72
21
 73
17
 74
0
 42
0.0000001
 43
0.0000001
 44
0.0000000001
 40
0.0
 40
0.0
 40
0.0
 40
0.0
 40
0.0290385925
 40
0.0615452194
 40
0.098408074
 40
0.1401641951
 40
0.1870761769
 40
0.2392211905
 40
0.2965421087
 40
0.3588832803
 40
0.4260144404
 40
0.4976408668
 40
0.5734208496
 40
0.6529708566
 40
0.8216415937
 40
1.0
 40
1.0
 40
1.0
 40
1.0
 10
5.1401022821
 20
4.8658144898
 30
0.0
 10
5.1400662505
 20
4.8659749914
 30
0.0
 10
5.1399445608
 20
4.8663056549
 30
0.0
 10
5.1396471623
 20
4.8667804387
 30
0.0
 10
5.1392309346
 20
4.8672555152
 30
0.0
 10
5.1386987504
 20
4.8677292296
 30
0.0
 10
5.138053488
 20
4.8681998741
 30
0.0
 10
5.1372986613
 20
4.868664885
 30
0.0
 10
5.1364386271
 20
4.8691216271
 30
0.0
 10
5.1354784723
 20
4.8695673437
 30
0.0
 10
5.1344239758
 20
4.869999247
 30
0.0
 10
5.1332815824
 20
4.8704146782
 30
0.0
 10
5.1320582964
 20
4.870811039
 30
0.0
 10
5.1302948167
 20
4.8713206738
 30
0.0
 10
5.127944609
 20
4.8718881601
 30
0.0
 10
5.1260120184
 20
4.8722527453
 30
0.0
 10
5.125015155
 20
4.8724173087
 30
0.0
  0
SPLINE
  5
687
100
AcDbEntity
  8
0
100
AcDbSpline
 62
7
  6
CONTINUOUS
 70
0
 71
3
 72
21
 73
17
 74
0
 42
0.0000001
 43
0.0000001
 44
0.0000000001
 40
0.0
 40
0.0
 40
0.0
 40
0.0
 40
0.028926711
 40
0.0613407145
 40
0.0981316777
 40
0.1398355754
 40
0.1867131657
 40
0.2388397342
 40
0.2961564107
 40
0.358505995
 40
0.4256568466
 40
0.4973129873
 40
0.5731315517
 40
0.6527279178
 40
0.8215106917
 40
1.0
 40
1.0
 40
1.0
 40
1.0
 10
5.14024951
 20
4.8672515393
 30
0.0
 10
5.1402134091
 20
4.8674112496
 30
0.0
 10
5.140091504
 20
4.8677403342
 30
0.0
 10
5.1397939023
 20
4.8682126437
 30
0.0
 10
5.1393775061
 20
4.8686853012
 30
0.0
 10
5.138845169
 20
4.8691566763
 30
0.0
 10
5.1381997575
 20
4.8696250762
 30
0.0
 10
5.1374447813
 20
4.8700879465
 30
0.0
 10
5.1365845965
 20
4.870542662
 30
0.0
 10
5.1356242908
 20
4.8709864759
 30
0.0
 10
5.1345696448
 20
4.8714166106
 30
0.0
 10
5.133427105
 20
4.8718304172
 30
0.0
 10
5.1322036775
 20
4.8722253066
 30
0.0
 10
5.1304399639
 20
4.8727331753
 30
0.0
 10
5.1280895272
 20
4.8732989048
 30
0.0
 10
5.126156878
 20
4.8736625899
 30
0.0
 10
5.1251599773
 20
4.8738268225
 30
0.0
  0
SPLINE
  5
688
100
AcDbEntity
  8
0
100
AcDbSpline
 62
7
  6
CONTINUOUS
 70
0
 71
3
 72
28
 73
24
 74
0
 42
0.0000001
 43
0.0000001
 44
0.0000000001
 40
0.0
 40
0.0
 40
0.0
 40
0.0
 40
0.012238795
 40
0.0248945284
 40
0.0383308904
 40
0.0528483016
 40
0.0686768555
 40
0.0859802438
 40
0.1048667527
 40
0.1254046924
 40
0.1476276903
 40
0.1715466133
 40
0.2243995163
 40
0.2837131835
 40
0.3490355447
 40
0.419777414
 40
0.4952435316
 40
0.5746555636
 40
0.6571699106
 40
0.7418960736
 40
0.8279048173
 40
0.9142601507
 40
1.0
 40
1.0
 40
1.0
 40
1.0
 10
4.9444755886
 20
5.7181418351
 30
0.0
 10
4.9443839836
 20
5.718094075
 30
0.0
 10
4.9442068059
 20
5.7179782356
 30
0.0
 10
4.9439729905
 20
5.7177521668
 30
0.0
 10
4.943769951
 20
5.7174741433
 30
0.0
 10
4.9435979385
 20
5.7171457715
 30
0.0
 10
4.94345686
 20
5.7167681864
 30
0.0
 10
4.9433467414
 20
5.716342448
 30
0.0
 10
4.9432676382
 20
5.7158696703
 30
0.0
 10
4.9432197501
 20
5.7153511152
 30
0.0
 10
4.943203069
 20
5.7147882006
 30
0.0
 10
4.9432233729
 20
5.7139525014
 30
0.0
 10
4.9433334992
 20
5.7128076088
 30
0.0
 10
4.9435833328
 20
5.7113294605
 30
0.0
 10
4.9439526701
 20
5.7097213366
 30
0.0
 10
4.9444373335
 20
5.7080022151
 30
0.0
 10
4.9450318122
 20
5.7061923763
 30
0.0
 10
4.9457291752
 20
5.7043133382
 30
0.0
 10
4.9465212199
 20
5.7023874588
 30
0.0
 10
4.9473985756
 20
5.7004377236
 30
0.0
 10
4.9483508262
 20
5.6984873163
 30
0.0
 10
4.9493666278
 20
5.6965595938
 30
0.0
 10
4.9500832977
 20
5.6952957055
 30
0.0
 10
4.9504502919
 20
5.6946719252
 30
0.0
  0
SPLINE
  5
689
100
AcDbEntity
  8
0
100
AcDbSpline
 62
7
  6
CONTINUOUS
 70
0
 71
3
 72
17
 73
13
 74
0
 42
0.0000001
 43
0.0000001
 44
0.0000000001
 40
0.0
 40
0.0
 40
0.0
 40
0.0
 40
0.1519830646
 40
0.2975192857
 40
0.4363689574
 40
0.5682147842
 40
0.6922997636
 40
0.8074221061
 40
0.8609135334
 40
0.9111684959
 40
0.9577598794
 40
1.0
 40
1.0
 40
1.0
 40
1.0
 10
4.9504502919
 20
5.6946719252
 30
0.0
 10
4.9513689506
 20
5.6956428962
 30
0.0
 10
4.9531021467
 20
5.6976061308
 30
0.0
 10
4.9554702534
 20
5.7006285117
 30
0.0
 10
4.9575743297
 20
5.7036260151
 30
0.0
 10
4.9594345084
 20
5.7065591458
 30
0.0
 10
4.9610579143
 20
5.7093912806
 30
0.0
 10
4.9622381987
 20
5.711680142
 30
0.0
 10
4.9630582792
 20
5.7134218288
 30
0.0
 10
4.9635900639
 20
5.7146326066
 30
0.0
 10
4.9640448842
 20
5.7157684192
 30
0.0
 10
4.9643064474
 20
5.716504939
 30
0.0
 10
4.9644214919
 20
5.7168581761
 30
0.0
  0
SPLINE
  5
68A
100
AcDbEntity
  8
0
100
AcDbSpline
 62
7
  6
CONTINUOUS
 70
0
 71
3
 72
15
 73
11
 74
0
 42
0.0000001
 43
0.0000001
 44
0.0000000001
 40
0.0
 40
0.0
 40
0.0
 40
0.0
 40
0.1235055233
 40
0.2471859136
 40
0.3712133315
 40
0.4957226977
 40
0.6208185428
 40
0.7465626724
 40
0.8729648611
 40
1.0
 40
1.0
 40
1.0
 40
1.0
 10
4.7605468862
 20
5.7354406748
 30
0.0
 10
4.7612189474
 20
5.7349102835
 30
0.0
 10
4.7624918693
 20
5.7337534812
 30
0.0
 10
4.7641430711
 20
5.7317696148
 30
0.0
 10
4.7655089907
 20
5.729570834
 30
0.0
 10
4.7665647331
 20
5.7271969053
 30
0.0
 10
4.7672917589
 20
5.7246903238
 30
0.0
 10
4.7676771442
 20
5.722095799
 30
0.0
 10
4.767714393
 20
5.7194602045
 30
0.0
 10
4.7675069671
 20
5.7177096418
 30
0.0
 10
4.7673465953
 20
5.7168437574
 30
0.0
  0
SPLINE
  5
68B
100
AcDbEntity
  8
0
100
AcDbSpline
 62
7
  6
CONTINUOUS
 70
0
 71
3
 72
20
 73
16
 74
0
 42
0.0000001
 43
0.0000001
 44
0.0000000001
 40
0.0
 40
0.0
 40
0.0
 40
0.0
 40
0.0422249096
 40
0.0888020727
 40
0.1390572837
 40
0.1925564456
 40
0.2488921631
 40
0.3076844535
 40
0.3686853042
 40
0.4317578043
 40
0.4967742091
 40
0.5636193731
 40
0.7024676255
 40
0.8480101965
 40
1.0
 40
1.0
 40
1.0
 40
1.0
 10
4.7673465953
 20
5.7168437574
 30
0.0
 10
4.7674615485
 20
5.7164907682
 30
0.0
 10
4.7677228178
 20
5.715754709
 30
0.0
 10
4.7681776109
 20
5.7146196157
 30
0.0
 10
4.7687096537
 20
5.7134095269
 30
0.0
 10
4.7693088618
 20
5.7121358199
 30
0.0
 10
4.7699711091
 20
5.7108092548
 30
0.0
 10
4.7706951949
 20
5.7094403184
 30
0.0
 10
4.7714793681
 20
5.708036646
 30
0.0
 10
4.7723218028
 20
5.7066033051
 30
0.0
 10
4.7732223201
 20
5.7051449475
 30
0.0
 10
4.7745191279
 20
5.7031490214
 30
0.0
 10
4.7762958959
 20
5.7006216551
 30
0.0
 10
4.7786622603
 20
5.6975995766
 30
0.0
 10
4.7803956079
 20
5.6956374882
 30
0.0
 10
4.7813142001
 20
5.6946670181
 30
0.0
  0
SPLINE
  5
68C
100
AcDbEntity
  8
0
100
AcDbSpline
 62
7
  6
CONTINUOUS
 70
0
 71
3
 72
15
 73
11
 74
0
 42
0.0000001
 43
0.0000001
 44
0.0000000001
 40
0.0
 40
0.0
 40
0.0
 40
0.0
 40
0.1270354572
 40
0.2534378663
 40
0.3791821865
 40
0.5042781717
 40
0.6287875888
 40
0.7528149163
 40
0.8764950261
 40
1.0
 40
1.0
 40
1.0
 40
1.0
 10
4.9644222702
 20
5.7168571569
 30
0.0
 10
4.9642619776
 20
5.7177228909
 30
0.0
 10
4.9640546618
 20
5.719473136
 30
0.0
 10
4.9640919264
 20
5.7221082396
 30
0.0
 10
4.9644771777
 20
5.7247022891
 30
0.0
 10
4.9652039271
 20
5.7272084422
 30
0.0
 10
4.9662592633
 20
5.7295820173
 30
0.0
 10
4.9676246652
 20
5.7317805438
 30
0.0
 10
4.9692752603
 20
5.7337642756
 30
0.0
 10
4.9705477358
 20
5.7349210791
 30
0.0
 10
4.9712195687
 20
5.7354514954
 30
0.0
  0
SPLINE
  5
68D
100
AcDbEntity
  8
0
100
AcDbSpline
 62
7
  6
CONTINUOUS
 70
0
 71
3
 72
28
 73
24
 74
0
 42
0.0000001
 43
0.0000001
 44
0.0000000001
 40
0.0
 40
0.0
 40
0.0
 40
0.0
 40
0.085743248
 40
0.1721019614
 40
0.2581138247
 40
0.3428426418
 40
0.425359019
 40
0.5047723582
 40
0.5802390263
 40
0.650980718
 40
0.7163022564
 40
0.7756145755
 40
0.8284657393
 40
0.8523836835
 40
0.8746056466
 40
0.8951425031
 40
0.9140278836
 40
0.9313300951
 40
0.947157416
 40
0.9616735249
 40
0.9751085027
 40
0.9877627628
 40
1.0
 40
1.0
 40
1.0
 40
1.0
 10
4.7813142659
 20
5.694667043
 30
0.0
 10
4.7816812051
 20
5.6952908272
 30
0.0
 10
4.7823977668
 20
5.6965547199
 30
0.0
 10
4.7834134114
 20
5.6984824387
 30
0.0
 10
4.7843655094
 20
5.7004328289
 30
0.0
 10
4.7852427181
 20
5.7023825302
 30
0.0
 10
4.7860346222
 20
5.7043083567
 30
0.0
 10
4.7867318533
 20
5.7061873217
 30
0.0
 10
4.7873262113
 20
5.7079970677
 30
0.0
 10
4.7878107681
 20
5.7097160789
 30
0.0
 10
4.7881800165
 20
5.7113240783
 30
0.0
 10
4.7884297821
 20
5.7128020928
 30
0.0
 10
4.7885398704
 20
5.7139468693
 30
0.0
 10
4.7885601579
 20
5.7147824758
 30
0.0
 10
4.7885434717
 20
5.7153453227
 30
0.0
 10
4.7884955854
 20
5.715863812
 30
0.0
 10
4.7884164914
 20
5.7163365263
 30
0.0
 10
4.788306389
 20
5.7167622047
 30
0.0
 10
4.7881653341
 20
5.7171397334
 30
0.0
 10
4.7879933524
 20
5.7174680532
 30
0.0
 10
4.7877903506
 20
5.7177460292
 30
0.0
 10
4.7875565795
 20
5.7179720557
 30
0.0
 10
4.7873794347
 20
5.7180878706
 30
0.0
 10
4.7872878472
 20
5.7181356193
 30
0.0
  0
SPLINE
  5
68E
100
AcDbEntity
  8
0
100
AcDbSpline
 62
7
  6
CONTINUOUS
 70
0
 71
3
 72
14
 73
10
 74
0
 42
0.0000001
 43
0.0000001
 44
0.0000000001
 40
0.0
 40
0.0
 40
0.0
 40
0.0
 40
0.125153151
 40
0.2503002078
 40
0.3754062692
 40
0.5004664015
 40
0.6254666808
 40
0.7504006898
 40
1.0
 40
1.0
 40
1.0
 40
1.0
 10
4.8658773002
 20
5.6981563853
 30
0.0
 10
4.868402324
 20
5.6981568743
 30
0.0
 10
4.8734531425
 20
5.6982857814
 30
0.0
 10
4.881008418
 20
5.6988587243
 30
0.0
 10
4.8885245081
 20
5.6998029909
 30
0.0
 10
4.8959834781
 20
5.7011057663
 30
0.0
 10
4.9033718664
 20
5.7027461034
 30
0.0
 10
4.9131099715
 20
5.7053514425
 30
0.0
 10
4.9202876501
 20
5.7077428119
 30
0.0
 10
4.925008823
 20
5.7094948523
 30
0.0
  0
SPLINE
  5
68F
100
AcDbEntity
  8
0
100
AcDbSpline
 62
7
  6
CONTINUOUS
 70
0
 71
3
 72
17
 73
13
 74
0
 42
0.0000001
 43
0.0000001
 44
0.0000000001
 40
0.0
 40
0.0
 40
0.0
 40
0.0
 40
0.040174835
 40
0.0836405863
 40
0.180354534
 40
0.2899360532
 40
0.4117649935
 40
0.5449179457
 40
0.6882367764
 40
0.7633075471
 40
0.8404344997
 40
1.0
 40
1.0
 40
1.0
 40
1.0
 10
5.0449985947
 20
4.6644811698
 30
0.0
 10
5.0448586437
 20
4.6645638885
 30
0.0
 10
5.0445609124
 20
4.6647254627
 30
0.0
 10
5.0438992631
 20
4.6650342437
 30
0.0
 10
5.0429500529
 20
4.6653861317
 30
0.0
 10
5.0416716016
 20
4.6657481746
 30
0.0
 10
5.0402287924
 20
4.6660597107
 30
0.0
 10
5.0386371809
 20
4.6663173882
 30
0.0
 10
5.037223727
 20
4.6664817419
 30
0.0
 10
5.0360323316
 20
4.6665851483
 30
0.0
 10
5.0347737301
 20
4.6666720577
 30
0.0
 10
5.0338165381
 20
4.6667133283
 30
0.0
 10
5.033171018
 20
4.6667280448
 30
0.0
  0
SPLINE
  5
690
100
AcDbEntity
  8
0
100
AcDbSpline
 62
7
  6
CONTINUOUS
 70
0
 71
3
 72
25
 73
21
 74
0
 42
0.0000001
 43
0.0000001
 44
0.0000000001
 40
0.0
 40
0.0
 40
0.0
 40
0.0
 40
0.071270752
 40
0.1071327758
 40
0.1430643484
 40
0.2149435859
 40
0.2865445612
 40
0.3574876686
 40
0.4273962019
 40
0.4959066998
 40
0.5626697941
 40
0.6273523534
 40
0.6896403319
 40
0.7492437594
 40
0.8059062449
 40
0.8594286988
 40
0.9096562817
 40
0.9334937746
 40
0.9564713416
 40
1.0
 40
1.0
 40
1.0
 40
1.0
 10
5.033171018
 20
4.6667280448
 30
0.0
 10
5.0333531126
 20
4.6662328168
 30
0.0
 10
5.0336183539
 20
4.6654852093
 30
0.0
 10
5.0339502913
 20
4.664479365
 30
0.0
 10
5.0342665567
 20
4.6634637575
 30
0.0
 10
5.034629526
 20
4.6621857938
 30
0.0
 10
5.0350147428
 20
4.6606455172
 30
0.0
 10
5.0353468719
 20
4.6591078185
 30
0.0
 10
5.0356228753
 20
4.6575822945
 30
0.0
 10
5.0358413897
 20
4.6560787312
 30
0.0
 10
5.0360010566
 20
4.6546066673
 30
0.0
 10
5.0361007108
 20
4.6531754728
 30
0.0
 10
5.0361403552
 20
4.6517943501
 30
0.0
 10
5.0361201687
 20
4.6504721433
 30
0.0
 10
5.036040824
 20
4.6492170981
 30
0.0
 10
5.0359017334
 20
4.6480370242
 30
0.0
 10
5.0357331749
 20
4.6471068605
 30
0.0
 10
5.0355683882
 20
4.6464074014
 30
0.0
 10
5.0353910395
 20
4.6457624392
 30
0.0
 10
5.0352302639
 20
4.6452959228
 30
0.0
 10
5.0351076504
 20
4.6449979008
 30
0.0
  0
SPLINE
  5
691
100
AcDbEntity
  8
0
100
AcDbSpline
 62
7
  6
CONTINUOUS
 70
0
 71
3
 72
15
 73
11
 74
0
 42
0.0000001
 43
0.0000001
 44
0.0000000001
 40
0.0
 40
0.0
 40
0.0
 40
0.0
 40
0.124782779
 40
0.2506882247
 40
0.3772068165
 40
0.503772294
 40
0.6298213374
 40
0.7548270061
 40
0.8783312733
 40
1.0
 40
1.0
 40
1.0
 40
1.0
 10
5.0351076504
 20
4.6449979008
 30
0.0
 10
5.0359014116
 20
4.6455205777
 30
0.0
 10
5.0374273398
 20
4.6466791489
 30
0.0
 10
5.0394751896
 20
4.6487049906
 30
0.0
 10
5.0412548519
 20
4.6509878096
 30
0.0
 10
5.0427289302
 20
4.653480019
 30
0.0
 10
5.0438670563
 20
4.6561300446
 30
0.0
 10
5.0446453513
 20
4.6588832721
 30
0.0
 10
5.0450475071
 20
4.6616820233
 30
0.0
 10
5.0450588361
 20
4.6635564541
 30
0.0
 10
5.0449985947
 20
4.6644811698
 30
0.0
  0
SPLINE
  5
692
100
AcDbEntity
  8
0
100
AcDbSpline
 62
7
  6
CONTINUOUS
 70
0
 71
3
 72
18
 73
14
 74
0
 42
0.0000001
 43
0.0000001
 44
0.0000000001
 40
0.0
 40
0.0
 40
0.0
 40
0.0
 40
0.1215897856
 40
0.1831614859
 40
0.2451661468
 40
0.3701779958
 40
0.4962122701
 40
0.6227504921
 40
0.6860748904
 40
0.7493219625
 40
0.8124143015
 40
0.8752893928
 40
1.0
 40
1.0
 40
1.0
 40
1.0
 10
4.6865615478
 20
4.6645387678
 30
0.0
 10
4.6865006045
 20
4.66361475
 30
0.0
 10
4.6865119485
 20
4.6622138926
 30
0.0
 10
4.6867125137
 20
4.6603566439
 30
0.0
 10
4.6870414045
 20
4.6584908515
 30
0.0
 10
4.6876895101
 20
4.6561886388
 30
0.0
 10
4.6888251066
 20
4.6535382946
 30
0.0
 10
4.6900539767
 20
4.6514614015
 30
0.0
 10
4.691191823
 20
4.6499040116
 30
0.0
 10
4.6921179569
 20
4.6487941704
 30
0.0
 10
4.6931108107
 20
4.6477482866
 30
0.0
 10
4.6945121083
 20
4.6464501985
 30
0.0
 10
4.6956546631
 20
4.645584167
 30
0.0
 10
4.6964448261
 20
4.6450571469
 30
0.0
  0
SPLINE
  5
693
100
AcDbEntity
  8
0
100
AcDbSpline
 62
7
  6
CONTINUOUS
 70
0
 71
3
 72
19
 73
15
 74
0
 42
0.0000001
 43
0.0000001
 44
0.0000000001
 40
0.0
 40
0.0
 40
0.0
 40
0.0
 40
0.0434204587
 40
0.0902815483
 40
0.1405324821
 40
0.1940807401
 40
0.2507654481
 40
0.3103760497
 40
0.3726630155
 40
0.4373438403
 40
0.5726020884
 40
0.713450739
 40
0.856930798
 40
1.0
 40
1.0
 40
1.0
 40
1.0
 10
4.6964448261
 20
4.6450571469
 30
0.0
 10
4.6963257236
 20
4.6453556473
 30
0.0
 10
4.6961086335
 20
4.6459887326
 30
0.0
 10
4.6958515517
 20
4.6469975573
 30
0.0
 10
4.6956522445
 20
4.64809557
 30
0.0
 10
4.695511924
 20
4.6492757536
 30
0.0
 10
4.6954313863
 20
4.650530855
 30
0.0
 10
4.6954112292
 20
4.6518529828
 30
0.0
 10
4.6954515456
 20
4.6532338166
 30
0.0
 10
4.6955877241
 20
4.6551703959
 30
0.0
 10
4.6959104202
 20
4.6576745329
 30
0.0
 10
4.6965174465
 20
4.6607225215
 30
0.0
 10
4.697335011
 20
4.6637806494
 30
0.0
 10
4.6980126287
 20
4.665792279
 30
0.0
 10
4.6983837177
 20
4.6667840821
 30
0.0
  0
SPLINE
  5
694
100
AcDbEntity
  8
0
100
AcDbSpline
 62
7
  6
CONTINUOUS
 70
0
 71
3
 72
19
 73
15
 74
0
 42
0.0000001
 43
0.0000001
 44
0.0000000001
 40
0.0
 40
0.0
 40
0.0
 40
0.0
 40
0.1595937358
 40
0.2367155477
 40
0.3117961965
 40
0.3846593707
 40
0.4551349385
 40
0.5882827405
 40
0.7100993624
 40
0.8196718783
 40
0.8696659068
 40
0.9163643573
 40
0.9597638094
 40
1.0
 40
1.0
 40
1.0
 40
1.0
 10
4.6983837177
 20
4.6667840821
 30
0.0
 10
4.6977384469
 20
4.6667656686
 30
0.0
 10
4.6967815287
 20
4.6667274953
 30
0.0
 10
4.6955231663
 20
4.6666423305
 30
0.0
 10
4.6946162066
 20
4.6665630777
 30
0.0
 10
4.6937377003
 20
4.6664689087
 30
0.0
 10
4.6926283599
 20
4.6663268096
 30
0.0
 10
4.6913283416
 20
4.666116518
 30
0.0
 10
4.6898863336
 20
4.6658052795
 30
0.0
 10
4.6887901433
 20
4.6654948781
 30
0.0
 10
4.6880028932
 20
4.6652179295
 30
0.0
 10
4.6874769829
 20
4.6650063737
 30
0.0
 10
4.6869983438
 20
4.6647847981
 30
0.0
 10
4.6867009903
 20
4.6646226916
 30
0.0
 10
4.6865615478
 20
4.6645387678
 30
0.0
  0
SPLINE
  5
695
100
AcDbEntity
  8
0
100
AcDbSpline
 62
7
  6
CONTINUOUS
 70
0
 71
3
 72
15
 73
11
 74
0
 42
0.0000001
 43
0.0000001
 44
0.0000000001
 40
0.0
 40
0.0
 40
0.0
 40
0.0
 40
0.1579912798
 40
0.3053240124
 40
0.4426004986
 40
0.5701147642
 40
0.6885503957
 40
0.7988659164
 40
0.9022131472
 40
1.0
 40
1.0
 40
1.0
 40
1.0
 10
5.0352851155
 20
4.6042957288
 30
0.0
 10
5.0363116099
 20
4.6047968279
 30
0.0
 10
5.0382725272
 20
4.6058133022
 30
0.0
 10
5.0410263333
 20
4.6074469271
 30
0.0
 10
5.0434863193
 20
4.6091325844
 30
0.0
 10
5.0456487769
 20
4.6108697708
 30
0.0
 10
5.0475096853
 20
4.6126562141
 30
0.0
 10
5.0490667206
 20
4.6144904
 30
0.0
 10
5.0503161001
 20
4.6163703707
 30
0.0
 10
5.0509553163
 20
4.6176829157
 30
0.0
 10
5.0512161522
 20
4.6183400382
 30
0.0
  0
SPLINE
  5
696
100
AcDbEntity
  8
0
100
AcDbSpline
 62
7
  6
CONTINUOUS
 70
0
 71
3
 72
23
 73
19
 74
0
 42
0.0000001
 43
0.0000001
 44
0.0000000001
 40
0.0
 40
0.0
 40
0.0
 40
0.0
 40
0.0488813945
 40
0.0968260227
 40
0.1445459798
 40
0.1927753598
 40
0.2422308678
 40
0.2935799644
 40
0.3474096302
 40
0.4042117581
 40
0.4643870984
 40
0.5282574916
 40
0.5960791065
 40
0.6680584958
 40
0.744346679
 40
0.8250403417
 40
0.9102218555
 40
1.0
 40
1.0
 40
1.0
 40
1.0
 10
5.0512161522
 20
4.6183400382
 30
0.0
 10
5.0514182919
 20
4.6188495482
 30
0.0
 10
5.0517598992
 20
4.6198835503
 30
0.0
 10
5.0520720299
 20
4.6214784423
 30
0.0
 10
5.0521754602
 20
4.62309328
 30
0.0
 10
5.052069703
 20
4.624724754
 30
0.0
 10
5.0517549324
 20
4.6263702024
 30
0.0
 10
5.051232775
 20
4.6280274749
 30
0.0
 10
5.0505062568
 20
4.6296955562
 30
0.0
 10
5.0495778297
 20
4.6313737775
 30
0.0
 10
5.048449642
 20
4.6330614969
 30
0.0
 10
5.0471236544
 20
4.6347580891
 30
0.0
 10
5.0456006478
 20
4.6364620525
 30
0.0
 10
5.0438811747
 20
4.6381712013
 30
0.0
 10
5.0419677393
 20
4.6398846847
 30
0.0
 10
5.039864192
 20
4.6416033462
 30
0.0
 10
5.0375716584
 20
4.6433258765
 30
0.0
 10
5.0359578755
 20
4.6444426402
 30
0.0
 10
5.0351197984
 20
4.6450004656
 30
0.0
  0
SPLINE
  5
697
100
AcDbEntity
  8
0
100
AcDbSpline
 62
7
  6
CONTINUOUS
 70
0
 71
3
 72
15
 73
11
 74
0
 42
0.0000001
 43
0.0000001
 44
0.0000000001
 40
0.0
 40
0.0
 40
0.0
 40
0.0
 40
0.1191940495
 40
0.2405394312
 40
0.3638302434
 40
0.4888256228
 40
0.6152528157
 40
0.7428100575
 40
0.8711723294
 40
1.0
 40
1.0
 40
1.0
 40
1.0
 10
5.0351197984
 20
4.6450004656
 30
0.0
 10
5.028825083
 20
4.6431620431
 30
0.0
 10
5.0160442369
 20
4.6397137393
 30
0.0
 10
4.9965281584
 20
4.6352447683
 30
0.0
 10
4.9765478976
 20
4.6314341184
 30
0.0
 10
4.9561705398
 20
4.628282746
 30
0.0
 10
4.9354658623
 20
4.6257911938
 30
0.0
 10
4.9145066791
 20
4.62395729
 30
0.0
 10
4.8933682782
 20
4.6227874697
 30
0.0
 10
4.8792203475
 20
4.6224295694
 30
0.0
 10
4.8721329396
 20
4.6223655193
 30
0.0
  0
SPLINE
  5
698
100
AcDbEntity
  8
0
100
AcDbSpline
 62
7
  6
CONTINUOUS
 70
0
 71
3
 72
24
 73
20
 74
0
 42
0.0000001
 43
0.0000001
 44
0.0000000001
 40
0.0
 40
0.0
 40
0.0
 40
0.0
 40
0.0643346589
 40
0.0964994794
 40
0.1286515597
 40
0.1928895644
 40
0.2570004889
 40
0.3209360306
 40
0.3846465533
 40
0.4480846884
 40
0.5112049652
 40
0.5739637604
 40
0.6363195331
 40
0.6982337897
 40
0.7596681504
 40
0.8205847774
 40
0.8809616318
 40
0.9407839613
 40
1.0
 40
1.0
 40
1.0
 40
1.0
 10
4.8721329396
 20
4.6223655193
 30
0.0
 10
4.8683212365
 20
4.6223309319
 30
0.0
 10
4.8626032285
 20
4.6223292884
 30
0.0
 10
4.8549810713
 20
4.62242227
 30
0.0
 10
4.8473656217
 20
4.6225766236
 30
0.0
 10
4.8378603656
 20
4.6228839124
 30
0.0
 10
4.8264805708
 20
4.6234422207
 30
0.0
 10
4.8151430806
 20
4.6241918739
 30
0.0
 10
4.8038597551
 20
4.6251315616
 30
0.0
 10
4.7926424285
 20
4.6262615725
 30
0.0
 10
4.7815027211
 20
4.6275822957
 30
0.0
 10
4.770451988
 20
4.629093725
 30
0.0
 10
4.7595013071
 20
4.6307958687
 30
0.0
 10
4.7486616292
 20
4.632688881
 30
0.0
 10
4.737943777
 20
4.6347723568
 30
0.0
 10
4.7273574634
 20
4.637044526
 30
0.0
 10
4.7169119387
 20
4.6395075413
 30
0.0
 10
4.7066185701
 20
4.6421663266
 30
0.0
 10
4.6998279411
 20
4.6440747399
 30
0.0
 10
4.6964604502
 20
4.6450596934
 30
0.0
  0
SPLINE
  5
699
100
AcDbEntity
  8
0
100
AcDbSpline
 62
7
  6
CONTINUOUS
 70
0
 71
3
 72
23
 73
19
 74
0
 42
0.0000001
 43
0.0000001
 44
0.0000000001
 40
0.0
 40
0.0
 40
0.0
 40
0.0
 40
0.0896533251
 40
0.174807962
 40
0.2554627791
 40
0.3317070487
 40
0.403684223
 40
0.4715543787
 40
0.535507927
 40
0.5957901884
 40
0.6527147
 40
0.7066677558
 40
0.7581224447
 40
0.8076458688
 40
0.8558871301
 40
0.9035496356
 40
0.9513557476
 40
1.0
 40
1.0
 40
1.0
 40
1.0
 10
4.6964604502
 20
4.6450596934
 30
0.0
 10
4.6956299557
 20
4.644506743
 30
0.0
 10
4.6940274515
 20
4.6434029716
 30
0.0
 10
4.6917464299
 20
4.6417048366
 30
0.0
 10
4.6896552915
 20
4.6400052854
 30
0.0
 10
4.6877558719
 20
4.6383066799
 30
0.0
 10
4.6860473297
 20
4.6366126378
 30
0.0
 10
4.6845298486
 20
4.6349251282
 30
0.0
 10
4.6832053268
 20
4.6332447874
 30
0.0
 10
4.6820755576
 20
4.6315725189
 30
0.0
 10
4.6811419893
 20
4.6299093951
 30
0.0
 10
4.6804060961
 20
4.6282563491
 30
0.0
 10
4.6798702745
 20
4.6266139379
 30
0.0
 10
4.6795376252
 20
4.624982981
 30
0.0
 10
4.6794099985
 20
4.6233653488
 30
0.0
 10
4.6794880449
 20
4.6217634794
 30
0.0
 10
4.6797714678
 20
4.6201806928
 30
0.0
 10
4.6800920596
 20
4.6191530314
 30
0.0
 10
4.6802832307
 20
4.6186465569
 30
0.0
  0
SPLINE
  5
69A
100
AcDbEntity
  8
0
100
AcDbSpline
 62
7
  6
CONTINUOUS
 70
0
 71
3
 72
15
 73
11
 74
0
 42
0.0000001
 43
0.0000001
 44
0.0000000001
 40
0.0
 40
0.0
 40
0.0
 40
0.0
 40
0.097690977
 40
0.200879053
 40
0.3110375097
 40
0.4293526762
 40
0.5568474982
 40
0.6942354879
 40
0.8417204262
 40
1.0
 40
1.0
 40
1.0
 40
1.0
 10
4.6802832307
 20
4.6186465569
 30
0.0
 10
4.6805345222
 20
4.6179808513
 30
0.0
 10
4.6811573823
 20
4.6166502458
 30
0.0
 10
4.6823914115
 20
4.6147434023
 30
0.0
 10
4.6839407595
 20
4.61288325
 30
0.0
 10
4.685801168
 20
4.6110715743
 30
0.0
 10
4.6879704845
 20
4.6093101728
 30
0.0
 10
4.6904439552
 20
4.6076017041
 30
0.0
 10
4.6932172597
 20
4.605946308
 30
0.0
 10
4.6951938439
 20
4.6049173173
 30
0.0
 10
4.6962291352
 20
4.6044100947
 30
0.0
  0
SPLINE
  5
69B
100
AcDbEntity
  8
0
100
AcDbSpline
 62
7
  6
CONTINUOUS
 70
0
 71
3
 72
21
 73
17
 74
0
 42
0.0000001
 43
0.0000001
 44
0.0000000001
 40
0.0
 40
0.0
 40
0.0
 40
0.0
 40
0.211665721
 40
0.4005697143
 40
0.5656381098
 40
0.7058081174
 40
0.7662322969
 40
0.8200485205
 40
0.8671419795
 40
0.9074089648
 40
0.9407669699
 40
0.9671867794
 40
0.9778208266
 40
0.9867755303
 40
0.9941209974
 40
1.0
 40
1.0
 40
1.0
 40
1.0
 10
4.7673461713
 20
5.7168435812
 30
0.0
 10
4.7669713432
 20
5.7172235326
 30
0.0
 10
4.766267494
 20
5.7179480368
 30
0.0
 10
4.7652914429
 20
5.7189881366
 30
0.0
 10
4.7644563469
 20
5.7199129695
 30
0.0
 10
4.7638541504
 20
5.7206113494
 30
0.0
 10
4.763446984
 20
5.7211071109
 30
0.0
 10
4.7631946967
 20
5.7214262812
 30
0.0
 10
4.7629805311
 20
5.7217106776
 30
0.0
 10
4.7628048953
 20
5.7219593882
 30
0.0
 10
4.7626682556
 20
5.7221715175
 30
0.0
 10
4.7625813981
 20
5.7223266734
 30
0.0
 10
4.7625336883
 20
5.7224325009
 30
0.0
 10
4.7625106278
 20
5.7224964986
 30
0.0
 10
4.7624975614
 20
5.7225509927
 30
0.0
 10
4.7624953613
 20
5.7225846109
 30
0.0
 10
4.7624966408
 20
5.7225993797
 30
0.0
  0
SPLINE
  5
69C
100
AcDbEntity
  8
0
100
AcDbSpline
 62
7
  6
CONTINUOUS
 70
0
 71
3
 72
18
 73
14
 74
0
 42
0.0000001
 43
0.0000001
 44
0.0000000001
 40
0.0
 40
0.0
 40
0.0
 40
0.0
 40
0.1656230875
 40
0.3181494841
 40
0.4579519768
 40
0.5856332886
 40
0.7020957901
 40
0.7565348683
 40
0.8086937072
 40
0.8588146508
 40
0.9071833716
 40
0.9541253289
 40
1.0
 40
1.0
 40
1.0
 40
1.0
 10
4.6865615038
 20
4.6645383547
 30
0.0
 10
4.6852410162
 20
4.6636712224
 30
0.0
 10
4.682746403
 20
4.661939918
 30
0.0
 10
4.6793168278
 20
4.6592297146
 30
0.0
 10
4.6763598185
 20
4.6565205247
 30
0.0
 10
4.673879998
 20
4.6538188067
 30
0.0
 10
4.6721784593
 20
4.6515262021
 30
0.0
 10
4.671079957
 20
4.6497024642
 30
0.0
 10
4.6703981739
 20
4.648370705
 30
0.0
 10
4.6698406768
 20
4.6470447676
 30
0.0
 10
4.6694084058
 20
4.6457249127
 30
0.0
 10
4.6691023504
 20
4.6444117211
 30
0.0
 10
4.668981978
 20
4.6435330475
 30
0.0
 10
4.6689437538
 20
4.6430971578
 30
0.0
  0
LINE
  5
69D
100
AcDbEntity
  8
0
100
AcDbLine
 62
7
  6
CONTINUOUS
 10
4.6865615038
 20
4.6645383547
 11
4.7673461713
 21
5.7168435812
  0
LINE
  5
69E
100
AcDbEntity
  8
0
100
AcDbLine
 62
7
  6
CONTINUOUS
 10
5.0449986651
 20
4.6644796186
 11
4.9644221265
 21
5.7168591035
  0
SPLINE
  5
69F
100
AcDbEntity
  8
0
100
AcDbSpline
 62
7
  6
CONTINUOUS
 70
0
 71
3
 72
18
 73
14
 74
0
 42
0.0000001
 43
0.0000001
 44
0.0000000001
 40
0.0
 40
0.0
 40
0.0
 40
0.0
 40
0.0609837999
 40
0.1222009213
 40
0.1836512691
 40
0.2453356248
 40
0.3072507337
 40
0.3693899632
 40
0.4942960255
 40
0.6199722216
 40
0.7462758615
 40
0.8730224855
 40
1.0
 40
1.0
 40
1.0
 40
1.0
 10
4.9504484903
 20
5.6946845268
 30
0.0
 10
4.9488739685
 20
5.693826004
 30
0.0
 10
4.9456949482
 20
5.6921491408
 30
0.0
 10
4.9408455457
 20
5.6897701735
 30
0.0
 10
4.9359051454
 20
5.6875357228
 30
0.0
 10
4.9308787697
 20
5.6854481171
 30
0.0
 10
4.9257723409
 20
5.6835068977
 30
0.0
 10
4.9188518138
 20
5.6811150541
 30
0.0
 10
4.910023283
 20
5.6785171389
 30
0.0
 10
4.8992085324
 20
5.6760601481
 30
0.0
 10
4.8882061019
 20
5.6742829327
 30
0.0
 10
4.8770747944
 20
5.6732105924
 30
0.0
 10
4.8696113171
 20
5.6729693248
 30
0.0
 10
4.8658772463
 20
5.6729688842
 30
0.0
  0
SPLINE
  5
6A0
100
AcDbEntity
  8
0
100
AcDbSpline
 62
7
  6
CONTINUOUS
 70
0
 71
3
 72
13
 73
9
 74
0
 42
0.0000001
 43
0.0000001
 44
0.0000000001
 40
0.0
 40
0.0
 40
0.0
 40
0.0
 40
0.253664369
 40
0.38000319
 40
0.5057145662
 40
0.754611706
 40
0.8777693377
 40
1.0
 40
1.0
 40
1.0
 40
1.0
 10
4.8658772463
 20
5.6729688842
 30
0.0
 10
4.8584210626
 20
5.6729695035
 30
0.0
 10
4.8472340963
 20
5.6736878633
 30
0.0
 10
4.8325522038
 20
5.6760594918
 30
0.0
 10
4.8181851286
 20
5.6793225243
 30
0.0
 10
4.8042407894
 20
5.6838990507
 30
0.0
 10
4.7909060216
 20
5.6896829057
 30
0.0
 10
4.7844673709
 20
5.6929461165
 30
0.0
 10
4.7813129062
 20
5.6946659472
 30
0.0
  0
SPLINE
  5
6A1
100
AcDbEntity
  8
0
100
AcDbSpline
 62
7
  6
CONTINUOUS
 70
0
 71
3
 72
17
 73
13
 74
0
 42
0.0000001
 43
0.0000001
 44
0.0000000001
 40
0.0
 40
0.0
 40
0.0
 40
0.0
 40
0.1250207438
 40
0.2500389744
 40
0.3750537698
 40
0.5000639386
 40
0.5625666013
 40
0.625067233
 40
0.6875655236
 40
0.7500611283
 40
0.8750411623
 40
1.0
 40
1.0
 40
1.0
 40
1.0
 10
4.6983825843
 20
4.666771236
 30
0.0
 10
4.7017669791
 20
4.7096130418
 30
0.0
 10
4.7085453218
 20
4.7952950327
 30
0.0
 10
4.7187488129
 20
4.9238135504
 30
0.0
 10
4.7289953448
 20
5.0523249977
 30
0.0
 10
4.7375760675
 20
5.1594116336
 30
0.0
 10
4.744472813
 20
5.2450753774
 30
0.0
 10
4.7496630889
 20
5.309318821
 30
0.0
 10
4.7548729447
 20
5.3735582459
 30
0.0
 10
4.7618473417
 20
5.4592020685
 30
0.0
 10
4.7706256972
 20
5.5662405661
 30
0.0
 10
4.7777332677
 20
5.6518613672
 30
0.0
 10
4.7813129062
 20
5.6946659472
 30
0.0
  0
SPLINE
  5
6A2
100
AcDbEntity
  8
0
100
AcDbSpline
 62
7
  6
CONTINUOUS
 70
0
 71
3
 72
15
 73
11
 74
0
 42
0.0000001
 43
0.0000001
 44
0.0000000001
 40
0.0
 40
0.0
 40
0.0
 40
0.0
 40
0.1285993923
 40
0.2569042575
 40
0.3845194577
 40
0.5110669246
 40
0.6361929066
 40
0.7595737028
 40
0.8809228868
 40
1.0
 40
1.0
 40
1.0
 40
1.0
 10
4.8720654648
 20
4.6454748746
 30
0.0
 10
4.8645413465
 20
4.6454100789
 30
0.0
 10
4.8495071599
 20
4.6455046507
 30
0.0
 10
4.827021952
 20
4.6463767286
 30
0.0
 10
4.8046954102
 20
4.6479542021
 30
0.0
 10
4.7826177403
 20
4.6502479928
 30
0.0
 10
4.7608764051
 20
4.6532593601
 30
0.0
 10
4.7395543976
 20
4.6569871452
 30
0.0
 10
4.7187346791
 20
4.6614424491
 30
0.0
 10
4.7050953357
 20
4.6649053647
 30
0.0
 10
4.6983825843
 20
4.666771236
 30
0.0
  0
SPLINE
  5
6A3
100
AcDbEntity
  8
0
100
AcDbSpline
 62
7
  6
CONTINUOUS
 70
0
 71
3
 72
15
 73
11
 74
0
 42
0.0000001
 43
0.0000001
 44
0.0000000001
 40
0.0
 40
0.0
 40
0.0
 40
0.0
 40
0.1192592135
 40
0.2406543327
 40
0.3639759263
 40
0.4889806905
 40
0.6153950283
 40
0.7429193819
 40
0.8712330623
 40
1.0
 40
1.0
 40
1.0
 40
1.0
 10
5.0331710136
 20
4.6667294561
 30
0.0
 10
5.0269290955
 20
4.6649972806
 30
0.0
 10
5.0142639903
 20
4.6617476539
 30
0.0
 10
4.9949416119
 20
4.6575451479
 30
0.0
 10
4.975177216
 20
4.6539644835
 30
0.0
 10
4.9550349433
 20
4.6510058498
 30
0.0
 10
4.9345815526
 20
4.6486685033
 30
0.0
 10
4.9138866131
 20
4.6469521233
 30
0.0
 10
4.8930221904
 20
4.6458467451
 30
0.0
 10
4.8790594445
 20
4.6455349312
 30
0.0
 10
4.8720654648
 20
4.6454748746
 30
0.0
  0
SPLINE
  5
6A4
100
AcDbEntity
  8
0
100
AcDbSpline
 62
7
  6
CONTINUOUS
 70
0
 71
3
 72
16
 73
12
 74
0
 42
0.0000001
 43
0.0000001
 44
0.0000000001
 40
0.0
 40
0.0
 40
0.0
 40
0.0
 40
0.1250206544
 40
0.2500388058
 40
0.3750535293
 40
0.5000636377
 40
0.625066907
 40
0.6875652085
 40
0.7500608445
 40
0.8750409984
 40
1.0
 40
1.0
 40
1.0
 40
1.0
 10
5.0331710136
 20
4.6667294561
 30
0.0
 10
5.029795337
 20
4.7095737363
 30
0.0
 10
5.0230343973
 20
4.7952606789
 30
0.0
 10
5.0128570301
 20
4.9237866374
 30
0.0
 10
5.0026367624
 20
5.0523055557
 30
0.0
 10
4.9923665448
 20
5.180815361
 30
0.0
 10
4.9837542397
 20
5.2878985078
 30
0.0
 10
4.976824912
 20
5.3735576513
 30
0.0
 10
4.9698674817
 20
5.4592065444
 30
0.0
 10
4.9611099887
 20
5.5662514027
 30
0.0
 10
4.9540194035
 20
5.6518773442
 30
0.0
 10
4.9504484903
 20
5.6946845268
 30
0.0
  0
SPLINE
  5
6A5
100
AcDbEntity
  8
0
100
AcDbSpline
 62
7
  6
CONTINUOUS
 70
0
 71
3
 72
21
 73
17
 74
0
 42
0.0000001
 43
0.0000001
 44
0.0000000001
 40
0.0
 40
0.0
 40
0.0
 40
0.0
 40
0.0458535729
 40
0.0927786465
 40
0.1411332083
 40
0.191239958
 40
0.2433823985
 40
0.2978050765
 40
0.3547175736
 40
0.4142973962
 40
0.4766903105
 40
0.5420173285
 40
0.6103786411
 40
0.6818542765
 40
0.8343765154
 40
1.0
 40
1.0
 40
1.0
 40
1.0
 10
5.0626487066
 20
4.6430144411
 30
0.0
 10
5.0626103176
 20
4.643450774
 30
0.0
 10
5.0624895376
 20
4.6443303719
 30
0.0
 10
5.0621826418
 20
4.6456449377
 30
0.0
 10
5.0617493441
 20
4.6469661954
 30
0.0
 10
5.0611906406
 20
4.648293513
 30
0.0
 10
5.0605074565
 20
4.649626552
 30
0.0
 10
5.0597005624
 20
4.6509648826
 30
0.0
 10
5.0587706802
 20
4.6523080684
 30
0.0
 10
5.0577185274
 20
4.6536556281
 30
0.0
 10
5.0565447636
 20
4.6550069732
 30
0.0
 10
5.0552500582
 20
4.6563614316
 30
0.0
 10
5.0538351072
 20
4.6577183149
 30
0.0
 10
5.0517433515
 20
4.6595697158
 30
0.0
 10
5.0488199657
 20
4.6618782661
 30
0.0
 10
5.046321236
 20
4.6636113277
 30
0.0
 10
5.0449986651
 20
4.6644796186
 30
0.0
  0
SPLINE
  5
6A6
100
AcDbEntity
  8
0
100
AcDbSpline
 62
7
  6
CONTINUOUS
 70
0
 71
3
 72
39
 73
35
 74
0
 42
0.0000001
 43
0.0000001
 44
0.0000000001
 40
0.0
 40
0.0
 40
0.0
 40
0.0
 40
0.0298550885
 40
0.0597412507
 40
0.0896682373
 40
0.119645574
 40
0.1496828385
 40
0.1797891143
 40
0.2099730897
 40
0.2402430473
 40
0.2706067322
 40
0.3010712715
 40
0.3316431784
 40
0.3623282725
 40
0.3931315352
 40
0.4240571117
 40
0.4551082692
 40
0.486287276
 40
0.5175953207
 40
0.5490325279
 40
0.5805979048
 40
0.612289245
 40
0.6441031124
 40
0.6760348736
 40
0.7080786877
 40
0.7402274894
 40
0.77247302
 40
0.8048059468
 40
0.8372158936
 40
0.8696915597
 40
0.9022209426
 40
0.934790694
 40
0.9673890388
 40
1.0
 40
1.0
 40
1.0
 40
1.0
 10
5.1806235671
 20
5.8894319418
 30
0.0
 10
5.1801994642
 20
5.8940168115
 30
0.0
 10
5.1791400651
 20
5.9031732316
 30
0.0
 10
5.1769213989
 20
5.916827983
 30
0.0
 10
5.1740748416
 20
5.9303853555
 30
0.0
 10
5.170603566
 20
5.9438203734
 30
0.0
 10
5.1665114632
 20
5.9571084584
 30
0.0
 10
5.1618032217
 20
5.9702247989
 30
0.0
 10
5.1564843838
 20
5.9831444686
 30
0.0
 10
5.1505613377
 20
5.995842374
 30
0.0
 10
5.1440414253
 20
6.0082932762
 30
0.0
 10
5.1369330391
 20
6.0204718151
 30
0.0
 10
5.1292456187
 20
6.0323524979
 30
0.0
 10
5.1209897363
 20
6.0439097186
 30
0.0
 10
5.1121772501
 20
6.0551178467
 30
0.0
 10
5.1028213179
 20
6.0659512404
 30
0.0
 10
5.0929364625
 20
6.0763842981
 30
0.0
 10
5.082538688
 20
6.0863915546
 30
0.0
 10
5.0716455789
 20
6.095947804
 30
0.0
 10
5.0602763113
 20
6.1050281607
 30
0.0
 10
5.0484517143
 20
6.1136081778
 30
0.0
 10
5.0361943571
 20
6.1216640204
 30
0.0
 10
5.023528579
 20
6.1291726261
 30
0.0
 10
5.0104804661
 20
6.1361118266
 30
0.0
 10
4.9970778487
 20
6.1424605202
 30
0.0
 10
4.9833502913
 20
6.1481988719
 30
0.0
 10
4.9693290414
 20
6.153308532
 30
0.0
 10
4.9550469146
 20
6.15777276
 30
0.0
 10
4.940538188
 20
6.1615766195
 30
0.0
 10
4.925838429
 20
6.1647071393
 30
0.0
 10
4.9109844793
 20
6.1671534295
 30
0.0
 10
4.896013781
 20
6.1689071192
 30
0.0
 10
4.8809653746
 20
6.1699617385
 30
0.0
 10
4.8709068003
 20
6.1701963546
 30
0.0
 10
4.8658773292
 20
6.1701963925
 30
0.0
  0
SPLINE
  5
6A7
100
AcDbEntity
  8
0
100
AcDbSpline
 62
7
  6
CONTINUOUS
 70
0
 71
3
 72
39
 73
35
 74
0
 42
0.0000001
 43
0.0000001
 44
0.0000000001
 40
0.0
 40
0.0
 40
0.0
 40
0.0
 40
0.0326329404
 40
0.0652527419
 40
0.0978431665
 40
0.130391958
 40
0.1628854139
 40
0.1953112147
 40
0.2276577693
 40
0.259914484
 40
0.2920718634
 40
0.324121555
 40
0.3560564345
 40
0.3878706722
 40
0.4195597188
 40
0.4511202866
 40
0.4825503323
 40
0.5138490824
 40
0.5450169544
 40
0.5760554707
 40
0.606967209
 40
0.6377558039
 40
0.6684258253
 40
0.6989826768
 40
0.7294325636
 40
0.7597824596
 40
0.7900399637
 40
0.8202132389
 40
0.8503110105
 40
0.8803424208
 40
0.9103170307
 40
0.9402447936
 40
0.9701354173
 40
1.0
 40
1.0
 40
1.0
 40
1.0
 10
4.8658773292
 20
6.1701963925
 30
0.0
 10
4.8607715826
 20
6.1701963631
 30
0.0
 10
4.8505604942
 20
6.1699545655
 30
0.0
 10
4.8352851325
 20
6.1688677452
 30
0.0
 10
4.8200910621
 20
6.1670606628
 30
0.0
 10
4.805019086
 20
6.1645401382
 30
0.0
 10
4.7901083391
 20
6.1613150893
 30
0.0
 10
4.7753972836
 20
6.157397063
 30
0.0
 10
4.7609230258
 20
6.1527997904
 30
0.0
 10
4.74672128
 20
6.1475390997
 30
0.0
 10
4.7328261905
 20
6.1416327105
 30
0.0
 10
4.7192702224
 20
6.1351000365
 30
0.0
 10
4.7060840632
 20
6.1279620048
 30
0.0
 10
4.6932965379
 20
6.1202408919
 30
0.0
 10
4.68093461
 20
6.1119600733
 30
0.0
 10
4.6690233818
 20
6.1031438532
 30
0.0
 10
4.6575861133
 20
6.0938172839
 30
0.0
 10
4.6466442128
 20
6.0840060579
 30
0.0
 10
4.6362173274
 20
6.0737363124
 30
0.0
 10
4.6263234246
 20
6.0630345031
 30
0.0
 10
4.616978865
 20
6.051927291
 30
0.0
 10
4.6081984252
 20
6.0404414912
 30
0.0
 10
4.5999954358
 20
6.0286039455
 30
0.0
 10
4.5923818837
 20
6.0164414613
 30
0.0
 10
4.5853684718
 20
6.0039807744
 30
0.0
 10
4.5789646602
 20
5.9912485299
 30
0.0
 10
4.5731788146
 20
5.9782712199
 30
0.0
 10
4.5680182798
 20
5.9650751761
 30
0.0
 10
4.5634893839
 20
5.9516865949
 30
0.0
 10
4.5595975226
 20
5.938131502
 30
0.0
 10
4.5563472722
 20
5.924435789
 30
0.0
 10
4.55374241
 20
5.9106251468
 30
0.0
 10
4.5517858099
 20
5.8967255692
 30
0.0
 10
4.5509147684
 20
5.8874129218
 30
0.0
 10
4.5505881288
 20
5.8827517431
 30
0.0
  0
ENDSEC
  0
SECTION
  2
OBJECTS
  0
DICTIONARY
  5
C
100
AcDbDictionary
280
0
281
1
  3
ACAD_GROUP
350
D
  3
ACAD_MLINESTYLE
350
17
  3
ACAD_LAYOUT
350
1A
  3
ACAD_PLOTSETTINGS
350
19
  3
ACAD_PLOTSTYLENAME
350
E
  0
DICTIONARY
  5
D
102
{ACAD_REACTORS
330
C
102
}
100
AcDbDictionary
280
0
281
1
  0
ACDBDICTIONARYWDFLT
  5
E
102
{ACAD_REACTORS
330
C
102
}
100
AcDbDictionary
281
1
  3
Normal
350
F
100
AcDbDictionaryWithDefault
340
F
  0
DICTIONARY
  5
17
102
{ACAD_REACTORS
330
C
102
}
100
AcDbDictionary
280
0
281
1
  3
Standard
350
18
  0
DICTIONARY
  5
19
102
{ACAD_REACTORS
330
C
102
}
100
AcDbDictionary
281
1
  0
DICTIONARY
  5
1A
102
{ACAD_REACTORS
330
C
102
}
100
AcDbDictionary
281
1
  3
Model
350
6A8
  3
Layout1
350
6A9
  0
ACDBPLACEHOLDER
  5
F
102
{ACAD_REACTORS
330
E
102
}
  0
MLINESTYLE
  5
18
102
{ACAD_REACTORS
330
17
102
}
100
AcDbMlineStyle
  2
STANDARD
 70
0
  3

 62
256
 51
90.0
 52
90.0
 71
2
 49
0.5
 62
256
  6
BYLAYER
 49
-0.5
 62
256
  6
BYLAYER
  0
LAYOUT
  5
6A8
102
{ACAD_REACTORS
330
1A
102
}
100
AcDbPlotSettings
  1

  2
none_device
  4
ANSI_A_(11.00_x_8.50_Inches)
  6

 40
0.0
 41
0.0
 42
0.0
 43
0.0
 44
279.4
 45
215.9
 46
0.0
 47
0.0
 48
0.0
 49
0.0
140
0.0
141
0.0
142
1.0
143
1.0
 70
1024
 72
0
 73
0
 74
0
  7

 75
0
147
1.0
148
0.0
149
0.0
100
AcDbLayout
  1
Model
 70
0
 71
0
 10
0.0
 20
0.0
 11
11.0
 21
8.5
 12
0.0
 22
0.0
 32
0.0
 14
0.0
 24
0.0
 34
0.0
 15
0.0
 25
0.0
 35
0.0
146
0.0
 13
0.0
 23
0.0
 33
0.0
 16
1.0
 26
0.0
 36
0.0
 17
0.0
 27
1.0
 37
0.0
 76
0
330
202
345
0
346
0
  0
LAYOUT
  5
6A9
102
{ACAD_REACTORS
330
1A
102
}
100
AcDbPlotSettings
  1

  2
none_device
  4
ANSI_A_(11.00_x_8.50_Inches)
  6

 40
0.0
 41
0.0
 42
0.0
 43
0.0
 44
279.4
 45
215.9
 46
0.0
 47
0.0
 48
0.0
 49
0.0
140
0.0
141
0.0
142
1.0
143
1.0
 70
0
 72
0
 73
0
 74
0
  7

 75
0
147
1.0
148
0.0
149
0.0
100
AcDbLayout
  1
Layout1
 70
0
 71
1
 10
0.0
 20
0.0
 11
11.0
 21
8.5
 12
0.0
 22
0.0
 32
0.0
 14
0.0
 24
0.0
 34
0.0
 15
0.0
 25
0.0
 35
0.0
146
0.0
 13
0.0
 23
0.0
 33
0.0
 16
1.0
 26
0.0
 36
0.0
 17
0.0
 27
1.0
 37
0.0
 76
0
330
203
345
0
346
0
  0
ENDSEC
  0
EOF
