999
DXF file: 1628_right.dxf
999
Pro/ENGINEER 2018400 by Parametric Technology Corporation
  0
SECTION
  2
HEADER
  9
$ACADVER
  1
AC1027
  9
$DWGCODEPAGE
  3
ANSI_1252
  9
$EXTMAX
 10
11.0
 20
8.5
 30
0.0
  9
$EXTMIN
 10
0.0
 20
0.0
 30
0.0
  9
$LIMMIN
 10
0.0
 20
0.0
  9
$LIMMAX
 10
11.0
 20
8.5
  9
$VIEWCTR
 10
5.5
 20
4.25
  9
$VIEWSIZE
 40
8.5
  9
$CLAYER
  8
0
  9
$LTSCALE
 40
0.605
  9
$CELTYPE
  6
BYLAYER
  9
$DIMSCALE
 40
1.0
  9
$DIMASZ
 40
0.1
  9
$DIMEXO
 40
0.0625
  9
$DIMDLI
 40
0.418
  9
$DIMEXE
 40
0.125
  9
$DIMCEN
 40
0.099
  9
$DIMLFAC
 40
1.0
  9
$DIMBLK
  1
_FILLED
  9
$DIMALT
 70
1
  9
$DIMALTD
 70
1
  9
$DIMALTTD
 70
2
  9
$DIMALTF
 40
25.4
  9
$DIMTXT
 40
0.08
  9
$DIMTOL
 70
1
  9
$DIMLIM
 70
0
  9
$DIMTFAC
 40
1.0
  9
$DIMTP
 40
0.01
  9
$DIMTM
 40
0.01
  9
$DIMGAP
 40
0.09
  9
$DIMDSEP
 70
46
  9
$AUNITS
 70
0
  9
$PDMODE
 70
3
  9
$PDSIZE
 40
0.3125
  9
$HANDSEED
  5
28B
  9
$TILEMODE
 70
1
  9
$MEASUREMENT
 70
0
  9
$INSUNITS
 70
1
  0
ENDSEC
  0
SECTION
  2
CLASSES
  0
CLASS
  1
ACDBDICTIONARYWDFLT
  2
AcDbDictionaryWithDefault
  3
AutoCAD 2000
 90
0
 91
1
280
0
281
0
  0
CLASS
  1
ACDBPLACEHOLDER
  2
AcDbPlaceHolder
  3
AutoCAD 2000
 90
0
 91
1
280
0
281
0
  0
CLASS
  1
LAYOUT
  2
AcDbLayout
  3
AutoCAD 2000
 90
0
 91
0
280
0
281
0
  0
ENDSEC
  0
SECTION
  2
TABLES
  0
TABLE
  2
VPORT
  5
8
100
AcDbSymbolTable
 70
2
  0
VPORT
  5
1F4
100
AcDbSymbolTableRecord
100
AcDbViewportTableRecord
  2
*ACTIVE
 70
0
 10
0.0
 20
0.0
 11
1.0
 21
1.0
 12
5.5
 22
4.25
 13
0.0
 23
0.0
 14
1.0
 24
1.0
 15
0.0
 25
0.0
 16
0.0
 26
0.0
 36
1.0
 17
0.0
 27
0.0
 37
0.0
 40
8.5
 41
1.2941176471
 42
50.0
 43
0.0
 44
0.0
 50
0.0
 51
0.0
 71
0
 72
100
 73
1
 74
1
 75
0
 76
0
 77
0
 78
0
  0
ENDTAB
  0
TABLE
  2
LTYPE
  5
5
100
AcDbSymbolTable
 70
6
  0
LTYPE
  5
14
100
AcDbSymbolTableRecord
100
AcDbLinetypeTableRecord
  2
BYBLOCK
 70
0
  3

 72
65
 73
0
 40
0.0
  0
LTYPE
  5
15
100
AcDbSymbolTableRecord
100
AcDbLinetypeTableRecord
  2
BYLAYER
 70
0
  3

 72
65
 73
0
 40
0.0
  0
LTYPE
  5
16
100
AcDbSymbolTableRecord
100
AcDbLinetypeTableRecord
  2
CONTINUOUS
 70
64
  3
Solid line
 72
65
 73
0
 40
0.0
  0
LTYPE
  5
1F5
100
AcDbSymbolTableRecord
100
AcDbLinetypeTableRecord
  2
CENTER
 70
64
  3
____ _ ____ _ ____ _ ____ _ ____ _ ____ _ ____
 72
65
 73
4
 40
0.6
 49
0.375
 74
0
 49
-0.075
 74
0
 49
0.075
 74
0
 49
-0.075
 74
0
  0
LTYPE
  5
1F6
100
AcDbSymbolTableRecord
100
AcDbLinetypeTableRecord
  2
HIDDEN
 70
64
  3
- - - - - - - - - - - - - - - - - - - -
 72
65
 73
2
 40
0.2
 49
0.1
 74
0
 49
-0.1
 74
0
  0
LTYPE
  5
1F7
100
AcDbSymbolTableRecord
100
AcDbLinetypeTableRecord
  2
PHANTOM
 70
64
  3
_____ _ _ _____ _ _ _____ _ _ _____
 72
65
 73
6
 40
0.8
 49
0.45
 74
0
 49
-0.05
 74
0
 49
0.1
 74
0
 49
-0.05
 74
0
 49
0.1
 74
0
 49
-0.05
 74
0
  0
LTYPE
  5
1F8
100
AcDbSymbolTableRecord
100
AcDbLinetypeTableRecord
  2
DOT
 70
64
  3
. . . . . . . . . . . . . . . . . . . .
 72
65
 73
2
 40
0.2
 49
0.1
 74
0
 49
-0.1
 74
0
  0
LTYPE
  5
1F9
100
AcDbSymbolTableRecord
100
AcDbLinetypeTableRecord
  2
DASHED
 70
64
  3
- - - - - - - - - - - - - - - - - - - -
 72
65
 73
2
 40
0.2
 49
0.1
 74
0
 49
-0.1
 74
0
  0
ENDTAB
  0
TABLE
  2
LAYER
  5
2
100
AcDbSymbolTable
 70
36
  0
LAYER
  5
10
100
AcDbSymbolTableRecord
100
AcDbLayerTableRecord
  2
0
 70
0
 62
7
  6
CONTINUOUS
370
-3
390
F
  0
LAYER
  5
1FA
100
AcDbSymbolTableRecord
100
AcDbLayerTableRecord
  2
DEFAULT_1
 70
0
 62
7
  6
CENTER
370
-3
390
F
  0
LAYER
  5
1FB
100
AcDbSymbolTableRecord
100
AcDbLayerTableRecord
  2
DEFAULT_2
 70
0
 62
8
  6
HIDDEN
370
-3
390
F
  0
LAYER
  5
1FC
100
AcDbSymbolTableRecord
100
AcDbLayerTableRecord
  2
DEFAULT_3
 70
0
 62
7
  6
PHANTOM
370
-3
390
F
  0
LAYER
  5
1FD
100
AcDbSymbolTableRecord
100
AcDbLayerTableRecord
  2
DEFAULT_COORDINATE_SYSTEM
 70
0
 62
7
  6
CONTINUOUS
370
-3
390
F
  0
LAYER
  5
1FE
100
AcDbSymbolTableRecord
100
AcDbLayerTableRecord
  2
DEFAULT_DATUM_AXES
 70
0
 62
7
  6
CONTINUOUS
370
-3
390
F
  0
LAYER
  5
1FF
100
AcDbSymbolTableRecord
100
AcDbLayerTableRecord
  2
DEFAULT_DATUM_PLANES
 70
0
 62
7
  6
CONTINUOUS
370
-3
390
F
  0
ENDTAB
  0
TABLE
  2
STYLE
  5
3
100
AcDbSymbolTable
 70
1
  0
STYLE
  5
11
100
AcDbSymbolTableRecord
100
AcDbTextStyleTableRecord
  2
STANDARD
 70
0
 40
0.0
 41
0.8
 50
0.0
 71
0
 42
0.2
  3
txt
  4

  0
STYLE
  5
200
100
AcDbSymbolTableRecord
100
AcDbTextStyleTableRecord
  2
TEXTSTYLE_1
 70
0
 40
0.0
 41
0.8
 50
0.0
 71
0
 42
0.2
  3
gdt
  4

  0
ENDTAB
  0
TABLE
  2
VIEW
  5
6
100
AcDbSymbolTable
 70
0
  0
ENDTAB
  0
TABLE
  2
UCS
  5
7
100
AcDbSymbolTable
 70
0
  0
ENDTAB
  0
TABLE
  2
APPID
  5
9
100
AcDbSymbolTable
 70
1
  0
APPID
  5
201
100
AcDbSymbolTableRecord
100
AcDbRegAppTableRecord
  2
ACAD
 70
0
  0
ENDTAB
  0
TABLE
  2
BLOCK_RECORD
  5
1
100
AcDbSymbolTable
 70
0
  0
BLOCK_RECORD
  5
202
100
AcDbSymbolTableRecord
100
AcDbBlockTableRecord
  2
*Model_Space
  0
BLOCK_RECORD
  5
203
100
AcDbSymbolTableRecord
100
AcDbBlockTableRecord
  2
*Paper_Space
  0
BLOCK_RECORD
  5
204
100
AcDbSymbolTableRecord
100
AcDbBlockTableRecord
  2
_FILLED
  0
ENDTAB
  0
TABLE
  2
DIMSTYLE
  5
A
100
AcDbSymbolTable
 70
1
100
AcDbDimStyleTable
 71
0
  0
DIMSTYLE
105
205
100
AcDbSymbolTableRecord
100
AcDbDimStyleTableRecord
  2
STANDARD
 70
0
  3

  4

 40
1.0
 41
0.1
 42
0.0625
 43
0.38
 44
0.125
 45
0.0
 46
0.0
 47
0.01
 48
0.01
140
0.08
141
0.09
142
0.0
143
25.4
144
1.0
145
0.0
146
1.0
147
0.09
 71
1.0
 72
0.0
 73
1
 74
1
 75
0
 76
0
 77
0
 78
4
 79
1
170
1
171
1
172
0
173
0
174
0
175
0
176
0
177
0
178
0
270
2
179
2
271
2
272
2
273
2
274
2
275
0
280
0
281
0
282
0
283
1
284
4
285
0
286
0
287
3
288
0
340
11
278
46
341
204
342
204
343
204
344
204
  0
ENDTAB
  0
ENDSEC
  0
SECTION
  2
BLOCKS
  0
BLOCK
  5
20
100
AcDbEntity
  8
0
100
AcDbBlockBegin
  2
*Model_Space
 70
0
 10
0.0
 20
0.0
 30
0.0
  3
*Model_Space
  1

  0
ENDBLK
  5
21
100
AcDbEntity
  8
0
100
AcDbBlockEnd
  0
BLOCK
  5
1C
100
AcDbEntity
  8
0
100
AcDbBlockBegin
  2
*Paper_Space
 70
0
 10
0.0
 20
0.0
 30
0.0
  3
*Paper_Space
  1

  0
ENDBLK
  5
1D
100
AcDbEntity
  8
0
100
AcDbBlockEnd
  0
BLOCK
  5
206
100
AcDbEntity
  8
0
100
AcDbBlockBegin
  2
_FILLED
 70
64
 10
0.0
 20
0.0
  3
_FILLED
  1

  0
SOLID
  5
207
100
AcDbEntity
  8
0
  6
BYBLOCK
 62
0
100
AcDbTrace
 10
0.0
 20
0.0
 11
-1.0
 21
0.2
 12
-1.0
 22
-0.2
 13
-1.0
 23
-0.2
  0
ENDBLK
  5
208
100
AcDbEntity
  8
0
  6
BYBLOCK
 62
0
100
AcDbBlockEnd
  0
ENDSEC
  0
SECTION
  2
ENTITIES
  0
MTEXT
  5
209
100
AcDbEntity
  8
0
100
AcDbMText
 62
2
  6
CONTINUOUS
  7
STANDARD
 71
3
 72
1
 10
5.4375380065
 20
0.7064402174
 30
0.0
 11
1.0
 21
0.0
 31
0.0
 73
2
 44
0.9
  1
SCALE  .500
 40
0.08
 41
0.704
  0
LINE
  5
20A
100
AcDbEntity
  8
0
100
AcDbLine
 62
7
  6
CONTINUOUS
 10
0.0
 20
0.0
 11
0.0
 21
8.5
  0
LINE
  5
20B
100
AcDbEntity
  8
0
100
AcDbLine
 62
7
  6
CONTINUOUS
 10
0.0
 20
0.0
 11
11.0
 21
0.0
  0
LINE
  5
20C
100
AcDbEntity
  8
0
100
AcDbLine
 62
7
  6
CONTINUOUS
 10
0.0
 20
8.5
 11
11.0
 21
8.5
  0
LINE
  5
20D
100
AcDbEntity
  8
0
100
AcDbLine
 62
7
  6
CONTINUOUS
 10
11.0
 20
0.0
 11
11.0
 21
8.5
  0
LINE
  5
20E
100
AcDbEntity
  8
0
100
AcDbLine
 62
7
  6
CONTINUOUS
 10
6.8645613255
 20
1.1012072981
 11
5.7645613255
 21
1.1012072981
  0
LINE
  5
20F
100
AcDbEntity
  8
0
100
AcDbLine
 62
7
  6
CONTINUOUS
 10
5.7645613255
 20
1.2081515693
 11
6.8645613255
 21
1.2081515693
  0
LINE
  5
210
100
AcDbEntity
  8
0
100
AcDbLine
 62
7
  6
CONTINUOUS
 10
6.8406156532
 20
1.2508267612
 11
5.7885069978
 21
1.2508267612
  0
LINE
  5
211
100
AcDbEntity
  8
0
100
AcDbLine
 62
7
  6
CONTINUOUS
 10
5.9421971448
 20
1.3446586404
 11
6.6869255062
 21
1.3446586404
  0
LINE
  5
212
100
AcDbEntity
  8
0
100
AcDbLine
 62
7
  6
CONTINUOUS
 10
6.6270613255
 20
1.4513466203
 11
6.0020613255
 21
1.4513466203
  0
LINE
  5
213
100
AcDbEntity
  8
0
100
AcDbLine
 62
7
  6
CONTINUOUS
 10
3.5359553562
 20
6.4666515082
 11
3.5678128943
 21
6.4889583965
  0
LINE
  5
214
100
AcDbEntity
  8
0
100
AcDbLine
 62
7
  6
CONTINUOUS
 10
3.4696465315
 20
6.2244868901
 11
3.5130585759
 21
6.4706888283
  0
LINE
  5
215
100
AcDbEntity
  8
0
100
AcDbLine
 62
7
  6
CONTINUOUS
 10
3.5773635441
 20
6.543122823
 11
3.5678128943
 21
6.4889583965
  0
LINE
  5
216
100
AcDbEntity
  8
0
100
AcDbLine
 62
7
  6
CONTINUOUS
 10
6.0292693879
 20
2.6912072981
 11
6.0020613255
 21
2.6912072981
  0
LINE
  5
217
100
AcDbEntity
  8
0
100
AcDbLine
 62
7
  6
CONTINUOUS
 10
6.5998532631
 20
2.6912072981
 11
6.6270613255
 21
2.6912072981
  0
LINE
  5
218
100
AcDbEntity
  8
0
100
AcDbLine
 62
7
  6
CONTINUOUS
 10
6.8406156532
 20
1.2508267612
 11
6.6869255062
 21
1.3446586404
  0
LINE
  5
219
100
AcDbEntity
  8
0
100
AcDbLine
 62
7
  6
CONTINUOUS
 10
3.9250006809
 20
6.4818250162
 11
3.9154500311
 21
6.4276605898
  0
LINE
  5
21A
100
AcDbEntity
  8
0
100
AcDbLine
 62
7
  6
CONTINUOUS
 10
3.9172416553
 20
6.1455637933
 11
3.9606536997
 21
6.3917657316
  0
LINE
  5
21B
100
AcDbEntity
  8
0
100
AcDbLine
 62
7
  6
CONTINUOUS
 10
6.1938595711
 20
2.8412072981
 11
6.0021987408
 21
2.8412072981
  0
LINE
  5
21C
100
AcDbEntity
  8
0
100
AcDbLine
 62
7
  6
CONTINUOUS
 10
6.4352630799
 20
2.8412072981
 11
6.6269239101
 21
2.8412072981
  0
LINE
  5
21D
100
AcDbEntity
  8
0
100
AcDbLine
 62
7
  6
CONTINUOUS
 10
6.3145613255
 20
1.8903633799
 11
6.0020613255
 21
2.070785339
  0
LINE
  5
21E
100
AcDbEntity
  8
0
100
AcDbLine
 62
7
  6
CONTINUOUS
 10
6.1891578167
 20
2.9752072981
 11
6.0025613255
 21
2.9752072981
  0
LINE
  5
21F
100
AcDbEntity
  8
0
100
AcDbLine
 62
7
  6
CONTINUOUS
 10
6.4399648342
 20
2.9752072981
 11
6.6265613255
 21
2.9752072981
  0
LINE
  5
220
100
AcDbEntity
  8
0
100
AcDbLine
 62
7
  6
CONTINUOUS
 10
6.1880174658
 20
3.0077072981
 11
6.0025613255
 21
3.0077072981
  0
LINE
  5
221
100
AcDbEntity
  8
0
100
AcDbLine
 62
7
  6
CONTINUOUS
 10
6.4411051851
 20
3.0077072981
 11
6.6265613255
 21
3.0077072981
  0
LINE
  5
222
100
AcDbEntity
  8
0
100
AcDbLine
 62
7
  6
CONTINUOUS
 10
6.1874343165
 20
3.0243270534
 11
6.0073025188
 21
3.0243270534
  0
LINE
  5
223
100
AcDbEntity
  8
0
100
AcDbLine
 62
7
  6
CONTINUOUS
 10
6.4416883344
 20
3.0243270534
 11
6.6218201322
 21
3.0243270534
  0
LINE
  5
224
100
AcDbEntity
  8
0
100
AcDbLine
 62
7
  6
CONTINUOUS
 10
6.1797070264
 20
3.2445548206
 11
6.0806569043
 21
3.2445548206
  0
LINE
  5
225
100
AcDbEntity
  8
0
100
AcDbLine
 62
7
  6
CONTINUOUS
 10
6.4494156245
 20
3.2445548206
 11
6.5484657466
 21
3.2445548206
  0
LINE
  5
226
100
AcDbEntity
  8
0
100
AcDbLine
 62
7
  6
CONTINUOUS
 10
6.1731279601
 20
3.4320582121
 11
6.0970613255
 21
3.4320582121
  0
LINE
  5
227
100
AcDbEntity
  8
0
100
AcDbLine
 62
7
  6
CONTINUOUS
 10
6.4559946909
 20
3.4320582121
 11
6.5320613255
 21
3.4320582121
  0
LINE
  5
228
100
AcDbEntity
  8
0
100
AcDbLine
 62
7
  6
CONTINUOUS
 10
6.1726315009
 20
3.4462072981
 11
6.1125025433
 21
3.4462072981
  0
LINE
  5
229
100
AcDbEntity
  8
0
100
AcDbLine
 62
7
  6
CONTINUOUS
 10
6.45649115
 20
3.4462072981
 11
6.5166201077
 21
3.4462072981
  0
LINE
  5
22A
100
AcDbEntity
  8
0
100
AcDbLine
 62
7
  6
CONTINUOUS
 10
6.4249855522
 20
2.5482977594
 11
6.6270613255
 21
2.4316292573
  0
LINE
  5
22B
100
AcDbEntity
  8
0
100
AcDbLine
 62
7
  6
CONTINUOUS
 10
6.4438472634
 20
3.6762072981
 11
6.1852753876
 21
3.6762072981
  0
LINE
  5
22C
100
AcDbEntity
  8
0
100
AcDbLine
 62
7
  6
CONTINUOUS
 10
3.9377569194
 20
6.3958030517
 11
3.9154500311
 21
6.4276605898
  0
LINE
  5
22D
100
AcDbEntity
  8
0
100
AcDbLine
 62
7
  6
CONTINUOUS
 10
6.0029006876
 20
2.5909329343
 11
6.0152909743
 21
2.4392673986
  0
LINE
  5
22E
100
AcDbEntity
  8
0
100
AcDbLine
 62
7
  6
CONTINUOUS
 10
5.7645613255
 20
1.1012072981
 11
5.7645613255
 21
1.2081515693
  0
LINE
  5
22F
100
AcDbEntity
  8
0
100
AcDbLine
 62
7
  6
CONTINUOUS
 10
6.208075863
 20
2.4360429787
 11
6.1652876877
 21
3.6555059753
  0
LINE
  5
230
100
AcDbEntity
  8
0
100
AcDbLine
 62
7
  6
CONTINUOUS
 10
6.0020613255
 20
1.4513466203
 11
6.0020613255
 21
2.6912072981
  0
LINE
  5
231
100
AcDbEntity
  8
0
100
AcDbLine
 62
7
  6
CONTINUOUS
 10
6.0025613255
 20
3.0077072981
 11
6.0025613255
 21
2.9752072981
  0
LINE
  5
232
100
AcDbEntity
  8
0
100
AcDbLine
 62
7
  6
CONTINUOUS
 10
6.1380613255
 20
3.4462072981
 11
6.1380613255
 21
6.2882072981
  0
LINE
  5
233
100
AcDbEntity
  8
0
100
AcDbLine
 62
7
  6
CONTINUOUS
 10
6.0970613255
 20
3.4320582121
 11
6.0806569043
 21
3.2445548206
  0
LINE
  5
234
100
AcDbEntity
  8
0
100
AcDbLine
 62
7
  6
CONTINUOUS
 10
6.5320613255
 20
3.4320582121
 11
6.5484657466
 21
3.2445548206
  0
LINE
  5
235
100
AcDbEntity
  8
0
100
AcDbLine
 62
7
  6
CONTINUOUS
 10
6.3145613255
 20
1.8903633799
 11
6.3145613255
 21
1.8018603719
  0
LINE
  5
236
100
AcDbEntity
  8
0
100
AcDbLine
 62
7
  6
CONTINUOUS
 10
6.4910613255
 20
3.4462072981
 11
6.4910613255
 21
6.2882072981
  0
LINE
  5
237
100
AcDbEntity
  8
0
100
AcDbLine
 62
7
  6
CONTINUOUS
 10
6.6265613255
 20
3.0077072981
 11
6.6265613255
 21
2.9752072981
  0
LINE
  5
238
100
AcDbEntity
  8
0
100
AcDbLine
 62
7
  6
CONTINUOUS
 10
6.6270613255
 20
1.4513466203
 11
6.6270613255
 21
2.6912072981
  0
LINE
  5
239
100
AcDbEntity
  8
0
100
AcDbLine
 62
7
  6
CONTINUOUS
 10
6.421046788
 20
2.4360429787
 11
6.4638349633
 21
3.6555059753
  0
LINE
  5
23A
100
AcDbEntity
  8
0
100
AcDbLine
 62
7
  6
CONTINUOUS
 10
3.4765816394
 20
6.1374604947
 11
3.8809600053
 21
6.0661576784
  0
LINE
  5
23B
100
AcDbEntity
  8
0
100
AcDbLine
 62
7
  6
CONTINUOUS
 10
3.47259967
 20
6.1411698484
 11
3.8859705062
 21
6.0682814169
  0
LINE
  5
23C
100
AcDbEntity
  8
0
100
AcDbLine
 62
7
  6
CONTINUOUS
 10
3.9172416553
 20
6.1455637933
 11
3.4696465315
 21
6.2244868901
  0
LINE
  5
23D
100
AcDbEntity
  8
0
100
AcDbLine
 62
7
  6
CONTINUOUS
 10
6.8645613255
 20
1.1012072981
 11
6.8645613255
 21
1.2081515693
  0
LINE
  5
23E
100
AcDbEntity
  8
0
100
AcDbLine
 62
7
  6
CONTINUOUS
 10
6.6262219633
 20
2.5909329343
 11
6.6138316767
 21
2.4392673986
  0
LINE
  5
23F
100
AcDbEntity
  8
0
100
AcDbLine
 62
7
  6
CONTINUOUS
 10
3.9606536997
 20
6.3917657316
 11
3.5130585759
 21
6.4706888283
  0
LINE
  5
240
100
AcDbEntity
  8
0
100
AcDbLine
 62
7
  6
CONTINUOUS
 10
3.9154500311
 20
6.4276605898
 11
3.5678128943
 21
6.4889583965
  0
LINE
  5
241
100
AcDbEntity
  8
0
100
AcDbLine
 62
7
  6
CONTINUOUS
 10
6.1380613255
 20
6.2882072981
 11
6.4910613255
 21
6.2882072981
  0
LINE
  5
242
100
AcDbEntity
  8
0
100
AcDbLine
 62
7
  6
CONTINUOUS
 10
3.9250006809
 20
6.4818250162
 11
3.5773635441
 21
6.543122823
  0
LINE
  5
243
100
AcDbEntity
  8
0
100
AcDbLine
 62
7
  6
CONTINUOUS
 10
6.0020613255
 20
2.4316292573
 11
6.2041370988
 21
2.5482977594
  0
LINE
  5
244
100
AcDbEntity
  8
0
100
AcDbLine
 62
7
  6
CONTINUOUS
 10
6.6270613255
 20
2.070785339
 11
6.3145613255
 21
1.8903633799
  0
LINE
  5
245
100
AcDbEntity
  8
0
100
AcDbLine
 62
7
  6
CONTINUOUS
 10
5.7885069978
 20
1.2508267612
 11
5.9421971448
 21
1.3446586404
  0
ARC
  5
246
100
AcDbEntity
  8
0
100
AcDbCircle
 62
7
  6
CONTINUOUS
 10
4.7033737145
 20
2.7624120064
 40
1.5518533538
100
AcDbArc
 50
348.1842613244
 51
348.7779764251
  0
ARC
  5
247
100
AcDbEntity
  8
0
100
AcDbCircle
 62
7
  6
CONTINUOUS
 10
5.0230613255
 20
6.2882072981
 40
1.468
100
AcDbArc
 50
0.0
 51
170.0
  0
ARC
  5
248
100
AcDbEntity
  8
0
100
AcDbCircle
 62
7
  6
CONTINUOUS
 10
5.0230613255
 20
6.2882072981
 40
1.115
100
AcDbArc
 50
0.0
 51
170.0
  0
ARC
  5
249
100
AcDbEntity
  8
0
100
AcDbCircle
 62
7
  6
CONTINUOUS
 10
5.5825595553
 20
3.288132692
 40
0.5
100
AcDbArc
 50
328.1557999176
 51
355.0
  0
ARC
  5
24A
100
AcDbEntity
  8
0
100
AcDbCircle
 62
7
  6
CONTINUOUS
 10
3.7202801047
 20
6.1802934289
 40
0.2
100
AcDbArc
 50
325.9400486139
 51
350.0
  0
ARC
  5
24B
100
AcDbEntity
  8
0
100
AcDbCircle
 62
7
  6
CONTINUOUS
 10
3.6666080821
 20
6.1897572546
 40
0.2
100
AcDbArc
 50
170.0
 51
194.0599513861
  0
ARC
  5
24C
100
AcDbEntity
  8
0
100
AcDbCircle
 62
7
  6
CONTINUOUS
 10
3.8818282462
 20
6.0710817172
 40
0.005
100
AcDbArc
 50
260.0
 51
325.9400486134
  0
ARC
  5
24D
100
AcDbEntity
  8
0
100
AcDbCircle
 62
7
  6
CONTINUOUS
 10
3.4774498803
 20
6.1423845335
 40
0.005
100
AcDbArc
 50
194.0599513866
 51
260.0
  0
ARC
  5
24E
100
AcDbEntity
  8
0
100
AcDbCircle
 62
7
  6
CONTINUOUS
 10
6.3145636131
 20
-117.5808147989
 40
121.2364899027
100
AcDbArc
 50
89.9376440394
 51
90.0623581229
  0
ARC
  5
24F
100
AcDbEntity
  8
0
100
AcDbCircle
 62
7
  6
CONTINUOUS
 10
6.3145613255
 20
2.2512072981
 40
0.30375
100
AcDbArc
 50
111.2199816871
 51
68.7800183146
  0
ARC
  5
250
100
AcDbEntity
  8
0
100
AcDbCircle
 62
7
  6
CONTINUOUS
 10
6.3145613255
 20
2.2512072981
 40
0.28825
100
AcDbArc
 50
112.2956838305
 51
67.7043155626
  0
ARC
  5
251
100
AcDbEntity
  8
0
100
AcDbCircle
 62
7
  6
CONTINUOUS
 10
6.3145613255
 20
2.2512072981
 40
0.275
100
AcDbArc
 50
113.3208441408
 51
66.6791558592
  0
ARC
  5
252
100
AcDbEntity
  8
0
100
AcDbCircle
 62
7
  6
CONTINUOUS
 10
6.3144712414
 20
2.2624694713
 40
0.217059131
100
AcDbArc
 50
65.7662645422
 51
89.9762208256
  0
ARC
  5
253
100
AcDbEntity
  8
0
100
AcDbCircle
 62
7
  6
CONTINUOUS
 10
6.3146512963
 20
2.2624698905
 40
0.2170586996
100
AcDbArc
 50
90.0237493162
 51
114.2337556168
  0
CIRCLE
  5
254
100
AcDbEntity
  8
0
100
AcDbCircle
 62
7
  6
CONTINUOUS
 10
6.3145613255
 20
2.2512072981
 40
0.2
  0
CIRCLE
  5
255
100
AcDbEntity
  8
0
100
AcDbCircle
 62
7
  6
CONTINUOUS
 10
6.3145613255
 20
2.2512072981
 40
0.19375
  0
CIRCLE
  5
256
100
AcDbEntity
  8
0
100
AcDbCircle
 62
7
  6
CONTINUOUS
 10
6.3145613255
 20
2.2512072981
 40
0.15625
  0
CIRCLE
  5
257
100
AcDbEntity
  8
0
100
AcDbCircle
 62
7
  6
CONTINUOUS
 10
6.3145613255
 20
2.2512072981
 40
0.14125
  0
CIRCLE
  5
258
100
AcDbEntity
  8
0
100
AcDbCircle
 62
7
  6
CONTINUOUS
 10
6.3145613255
 20
2.2512072981
 40
0.13125
  0
ARC
  5
259
100
AcDbEntity
  8
0
100
AcDbCircle
 62
7
  6
CONTINUOUS
 10
5.8770613255
 20
1.4513466203
 40
0.125
100
AcDbArc
 50
301.4051636659
 51
360.0
  0
ARC
  5
25A
100
AcDbEntity
  8
0
100
AcDbCircle
 62
7
  6
CONTINUOUS
 10
6.7520613255
 20
1.4513466203
 40
0.125
100
AcDbArc
 50
180.0
 51
238.5948363341
  0
ARC
  5
25B
100
AcDbEntity
  8
0
100
AcDbCircle
 62
7
  6
CONTINUOUS
 10
5.8145613255
 20
1.2081515693
 40
0.05
100
AcDbArc
 50
121.4051636659
 51
180.0
  0
ARC
  5
25C
100
AcDbEntity
  8
0
100
AcDbCircle
 62
7
  6
CONTINUOUS
 10
6.8145613255
 20
1.2081515693
 40
0.05
100
AcDbArc
 50
0.0
 51
58.5948363341
  0
ARC
  5
25D
100
AcDbEntity
  8
0
100
AcDbCircle
 62
7
  6
CONTINUOUS
 10
6.4645613255
 20
2.6912072981
 40
0.4625
100
AcDbArc
 50
161.0753555839
 51
180.0
  0
ARC
  5
25E
100
AcDbEntity
  8
0
100
AcDbCircle
 62
7
  6
CONTINUOUS
 10
6.1645613255
 20
2.6912072981
 40
0.4625
100
AcDbArc
 50
0.0
 51
18.9246444161
  0
ARC
  5
25F
100
AcDbEntity
  8
0
100
AcDbCircle
 62
7
  6
CONTINUOUS
 10
6.5608113255
 20
2.9080288976
 40
0.094
100
AcDbArc
 50
314.6944113957
 51
45.615656042
  0
ARC
  5
260
100
AcDbEntity
  8
0
100
AcDbCircle
 62
7
  6
CONTINUOUS
 10
6.0683113255
 20
2.9080288976
 40
0.094
100
AcDbArc
 50
134.384343958
 51
225.3055886043
  0
ARC
  5
261
100
AcDbEntity
  8
0
100
AcDbCircle
 62
7
  6
CONTINUOUS
 10
6.5950613255
 20
3.0077072981
 40
0.0315
100
AcDbArc
 50
0.0
 51
31.8442000824
  0
ARC
  5
262
100
AcDbEntity
  8
0
100
AcDbCircle
 62
7
  6
CONTINUOUS
 10
6.0340613255
 20
3.0077072981
 40
0.0315
100
AcDbArc
 50
148.1557999176
 51
180.0
  0
ARC
  5
263
100
AcDbEntity
  8
0
100
AcDbCircle
 62
7
  6
CONTINUOUS
 10
6.1805927757
 20
2.4350786599
 40
0.0275
100
AcDbArc
 50
306.0770556093
 51
2.009553813
  0
ARC
  5
264
100
AcDbEntity
  8
0
100
AcDbCircle
 62
7
  6
CONTINUOUS
 10
6.4485298753
 20
2.4350786599
 40
0.0275
100
AcDbArc
 50
177.990446187
 51
233.9229443907
  0
ARC
  5
265
100
AcDbEntity
  8
0
100
AcDbCircle
 62
7
  6
CONTINUOUS
 10
6.1852753876
 20
3.6562072981
 40
0.02
100
AcDbArc
 50
90.0
 51
182.009553813
  0
ARC
  5
266
100
AcDbEntity
  8
0
100
AcDbCircle
 62
7
  6
CONTINUOUS
 10
6.4438472634
 20
3.6562072981
 40
0.02
100
AcDbArc
 50
357.990446187
 51
90.0
  0
ARC
  5
267
100
AcDbEntity
  8
0
100
AcDbCircle
 62
7
  6
CONTINUOUS
 10
6.5166203077
 20
3.4307072981
 40
0.0155
100
AcDbArc
 50
5.0
 51
90.0
  0
ARC
  5
268
100
AcDbEntity
  8
0
100
AcDbCircle
 62
7
  6
CONTINUOUS
 10
6.1125023433
 20
3.4307072981
 40
0.0155
100
AcDbArc
 50
90.0
 51
175.0
  0
ARC
  5
269
100
AcDbEntity
  8
0
100
AcDbCircle
 62
7
  6
CONTINUOUS
 10
7.9385594694
 20
2.7650278003
 40
1.5649280921
100
AcDbArc
 50
191.2246850901
 51
191.8134409386
  0
ARC
  5
26A
100
AcDbEntity
  8
0
100
AcDbCircle
 62
7
  6
CONTINUOUS
 10
7.0465630957
 20
3.288132692
 40
0.5
100
AcDbArc
 50
185.0
 51
211.8442000824
  0
SPLINE
  5
26B
100
AcDbEntity
  8
0
100
AcDbSpline
 62
7
  6
CONTINUOUS
 70
0
 71
3
 72
31
 73
27
 74
0
 42
0.0000001
 43
0.0000001
 44
0.0000000001
 40
0.0
 40
0.0
 40
0.0
 40
0.0
 40
0.0007381698
 40
0.001850235
 40
0.0034679088
 40
0.0056317436
 40
0.0083574327
 40
0.0116521585
 40
0.0155190315
 40
0.0199582579
 40
0.0305492255
 40
0.0434123735
 40
0.0585265803
 40
0.0758597755
 40
0.0953775192
 40
0.1170403117
 40
0.1666075355
 40
0.2241412872
 40
0.28914789
 40
0.3610677522
 40
0.4392831518
 40
0.5231200889
 40
0.6118569698
 40
0.7047270175
 40
0.8009258082
 40
1.0
 40
1.0
 40
1.0
 40
1.0
 10
6.2072249481
 20
2.4602941565
 30
0.0
 10
6.207225106
 20
2.4602896427
 30
0.0
 10
6.2072315541
 20
2.4602790159
 30
0.0
 10
6.2072498938
 20
2.4602680942
 30
0.0
 10
6.2072777621
 20
2.4602569223
 30
0.0
 10
6.2073161818
 20
2.4602462954
 30
0.0
 10
6.2073651702
 20
2.4602358461
 30
0.0
 10
6.2074248379
 20
2.460225784
 30
0.0
 10
6.2074951577
 20
2.4602160779
 30
0.0
 10
6.2076100313
 20
2.460202879
 30
0.0
 10
6.207780073
 20
2.4601879955
 30
0.0
 10
6.2080155585
 20
2.4601725685
 30
0.0
 10
6.2082924597
 20
2.4601588284
 30
0.0
 10
6.2086101864
 20
2.4601468129
 30
0.0
 10
6.2089680604
 20
2.4601365802
 30
0.0
 10
6.2095231802
 20
2.4601248396
 30
0.0
 10
6.2103109829
 20
2.4601155857
 30
0.0
 10
6.2113640255
 20
2.4601122238
 30
0.0
 10
6.2125538301
 20
2.4601163269
 30
0.0
 10
6.2138701293
 20
2.4601278857
 30
0.0
 10
6.2153015662
 20
2.4601468383
 30
0.0
 10
6.216835799
 20
2.4601730384
 30
0.0
 10
6.2184595793
 20
2.4602062725
 30
0.0
 10
6.2201588651
 20
2.4602462601
 30
0.0
 10
6.2225328942
 20
2.4603088569
 30
0.0
 10
6.2243386982
 20
2.4603637347
 30
0.0
 10
6.2255560771
 20
2.4604037068
 30
0.0
  0
SPLINE
  5
26C
100
AcDbEntity
  8
0
100
AcDbSpline
 62
7
  6
CONTINUOUS
 70
0
 71
3
 72
14
 73
10
 74
0
 42
0.0000001
 43
0.0000001
 44
0.0000000001
 40
0.0
 40
0.0
 40
0.0
 40
0.0
 40
0.1249998855
 40
0.2499987882
 40
0.3749973574
 40
0.4999961398
 40
0.6249954961
 40
0.7499957685
 40
1.0
 40
1.0
 40
1.0
 40
1.0
 10
6.2255560771
 20
2.4604037068
 30
0.0
 10
6.2237785829
 20
2.5102040663
 30
0.0
 10
6.2201966594
 20
2.6098034324
 30
0.0
 10
6.2147727532
 20
2.7592003037
 30
0.0
 10
6.2093282878
 20
2.9085959862
 30
0.0
 10
6.2038913266
 20
3.057992123
 30
0.0
 10
6.1984809609
 20
3.207389907
 30
0.0
 10
6.191330719
 20
3.4065916272
 30
0.0
 10
6.1860646178
 20
3.5559970301
 30
0.0
 10
6.1826153411
 20
3.6556032455
 30
0.0
  0
SPLINE
  5
26D
100
AcDbEntity
  8
0
100
AcDbSpline
 62
7
  6
CONTINUOUS
 70
0
 71
3
 72
21
 73
17
 74
0
 42
0.0000001
 43
0.0000001
 44
0.0000000001
 40
0.0
 40
0.0
 40
0.0
 40
0.0
 40
0.1239924905
 40
0.2479908336
 40
0.3100107782
 40
0.37204095
 40
0.434105307
 40
0.4962346201
 40
0.5584307277
 40
0.620710661
 40
0.6831386046
 40
0.745772125
 40
0.8086474273
 40
0.8718741409
 40
0.9356115995
 40
1.0
 40
1.0
 40
1.0
 40
1.0
 10
6.4323364014
 20
2.4128519512
 30
0.0
 10
6.4309467803
 20
2.4138644232
 30
0.0
 10
6.4282142368
 20
2.4159544688
 30
0.0
 10
6.424927852
 20
2.4187285162
 30
0.0
 10
6.4223876082
 20
2.4210480528
 30
0.0
 10
6.4205298298
 20
2.4228399308
 30
0.0
 10
6.4187247088
 20
2.4246870187
 30
0.0
 10
6.4169772672
 20
2.4265920051
 30
0.0
 10
6.4152968274
 20
2.4285604625
 30
0.0
 10
6.4136939393
 20
2.4305980315
 30
0.0
 10
6.412179282
 20
2.4327096848
 30
0.0
 10
6.4107673928
 20
2.4349016588
 30
0.0
 10
6.4094844157
 20
2.4371848162
 30
0.0
 10
6.4083582898
 20
2.4395670574
 30
0.0
 10
6.4074229893
 20
2.4420534788
 30
0.0
 10
6.4069591818
 20
2.4437727294
 30
0.0
 10
6.406777159
 20
2.4446468214
 30
0.0
  0
SPLINE
  5
26E
100
AcDbEntity
  8
0
100
AcDbSpline
 62
7
  6
CONTINUOUS
 70
0
 71
3
 72
21
 73
17
 74
0
 42
0.0000001
 43
0.0000001
 44
0.0000000001
 40
0.0
 40
0.0
 40
0.0
 40
0.0
 40
0.1724385514
 40
0.3348213678
 40
0.41129277
 40
0.4841558679
 40
0.5531406606
 40
0.6180392769
 40
0.678716525
 40
0.7351333634
 40
0.7873644947
 40
0.8356275052
 40
0.8803150447
 40
0.9220257514
 40
0.9615881663
 40
1.0
 40
1.0
 40
1.0
 40
1.0
 10
6.4067771094
 20
2.4446467528
 30
0.0
 10
6.4077880888
 20
2.4444904529
 30
0.0
 10
6.4097412164
 20
2.4441176536
 30
0.0
 10
6.4120975299
 20
2.4434719102
 30
0.0
 10
6.4138431891
 20
2.4428596548
 30
0.0
 10
6.4150428156
 20
2.4423697895
 30
0.0
 10
6.4161513826
 20
2.4418433276
 30
0.0
 10
6.4171618037
 20
2.4412836346
 30
0.0
 10
6.4180676011
 20
2.4406941786
 30
0.0
 10
6.418863056
 20
2.4400786279
 30
0.0
 10
6.4195431061
 20
2.4394405923
 30
0.0
 10
6.4201032521
 20
2.4387836039
 30
0.0
 10
6.4205395862
 20
2.4381112939
 30
0.0
 10
6.4208482872
 20
2.4374271137
 30
0.0
 10
6.4210256312
 20
2.4367357631
 30
0.0
 10
6.4210546629
 20
2.4362707205
 30
0.0
 10
6.4210466586
 20
2.4360429832
 30
0.0
  0
SPLINE
  5
26F
100
AcDbEntity
  8
0
100
AcDbSpline
 62
7
  6
CONTINUOUS
 70
0
 71
3
 72
21
 73
17
 74
0
 42
0.0000001
 43
0.0000001
 44
0.0000000001
 40
0.0
 40
0.0
 40
0.0
 40
0.0
 40
0.0384118097
 40
0.0779741374
 40
0.1196847221
 40
0.1643721313
 40
0.2126350227
 40
0.2648660576
 40
0.3212828287
 40
0.381960041
 40
0.4468586527
 40
0.515843471
 40
0.5887066226
 40
0.6651781041
 40
0.8275611465
 40
1.0
 40
1.0
 40
1.0
 40
1.0
 10
6.2080760184
 20
2.4360429842
 30
0.0
 10
6.2080680107
 20
2.4362707211
 30
0.0
 10
6.2080970358
 20
2.4367357633
 30
0.0
 10
6.2082743713
 20
2.4374271145
 30
0.0
 10
6.2085830651
 20
2.4381112955
 30
0.0
 10
6.2090193932
 20
2.4387836065
 30
0.0
 10
6.2095795342
 20
2.4394405961
 30
0.0
 10
6.2102595803
 20
2.4400786331
 30
0.0
 10
6.211055032
 20
2.4406941852
 30
0.0
 10
6.2119608272
 20
2.4412836429
 30
0.0
 10
6.2129712467
 20
2.4418433377
 30
0.0
 10
6.2140798128
 20
2.4423698014
 30
0.0
 10
6.215279439
 20
2.4428596687
 30
0.0
 10
6.2170250987
 20
2.4434719269
 30
0.0
 10
6.219381414
 20
2.4441176741
 30
0.0
 10
6.2213345434
 20
2.4444904766
 30
0.0
 10
6.222345524
 20
2.4446467781
 30
0.0
  0
SPLINE
  5
270
100
AcDbEntity
  8
0
100
AcDbSpline
 62
7
  6
CONTINUOUS
 70
0
 71
3
 72
28
 73
24
 74
0
 42
0.0000001
 43
0.0000001
 44
0.0000000001
 40
0.0
 40
0.0
 40
0.0
 40
0.0
 40
0.006346752
 40
0.0134391188
 40
0.0219600271
 40
0.0322674082
 40
0.0445058766
 40
0.0587472859
 40
0.075027643
 40
0.093358498
 40
0.1361190464
 40
0.1868053248
 40
0.2450351067
 40
0.3103072877
 40
0.3820176338
 40
0.4594783146
 40
0.5419438552
 40
0.6286175922
 40
0.7186553885
 40
0.8111688364
 40
0.8580762855
 40
0.9052702325
 40
1.0
 40
1.0
 40
1.0
 40
1.0
 10
6.1852753877
 20
3.6762072981
 30
0.0
 10
6.1852307248
 20
3.6762072981
 30
0.0
 10
6.1851354243
 20
3.6761881311
 30
0.0
 10
6.1850020285
 20
3.6761059959
 30
0.0
 10
6.1848724602
 20
3.6759761551
 30
0.0
 10
6.1847432237
 20
3.6757990943
 30
0.0
 10
6.184614499
 20
3.6755740387
 30
0.0
 10
6.1844872554
 20
3.6753010708
 30
0.0
 10
6.1843620038
 20
3.674980726
 30
0.0
 10
6.1841891709
 20
3.6744642282
 30
0.0
 10
6.1839858143
 20
3.6737036791
 30
0.0
 10
6.183765343
 20
3.6726590306
 30
0.0
 10
6.1835588663
 20
3.6714505106
 30
0.0
 10
6.1833671513
 20
3.6700900711
 30
0.0
 10
6.1831923181
 20
3.6685910371
 30
0.0
 10
6.1830382174
 20
3.6669681698
 30
0.0
 10
6.1829063912
 20
3.6652377406
 30
0.0
 10
6.1827975372
 20
3.663417052
 30
0.0
 10
6.1827129704
 20
3.6615243086
 30
0.0
 10
6.1826619801
 20
3.6599103294
 30
0.0
 10
6.1826347223
 20
3.6585973656
 30
0.0
 10
6.1826185194
 20
3.6572686189
 30
0.0
 10
6.182616288
 20
3.65626987
 30
0.0
 10
6.1826153258
 20
3.6556032446
 30
0.0
  0
SPLINE
  5
271
100
AcDbEntity
  8
0
100
AcDbSpline
 62
7
  6
CONTINUOUS
 70
0
 71
3
 72
20
 73
16
 74
0
 42
0.0000001
 43
0.0000001
 44
0.0000000001
 40
0.0
 40
0.0
 40
0.0
 40
0.0
 40
0.1469808005
 40
0.2888666087
 40
0.3576889458
 40
0.4249839845
 40
0.5546854962
 40
0.6169849295
 40
0.6774974437
 40
0.7361722434
 40
0.7929592554
 40
0.8478067289
 40
0.900653928
 40
0.9514253819
 40
1.0
 40
1.0
 40
1.0
 40
1.0
 10
6.4336646767
 20
2.795240616
 30
0.0
 10
6.4430832854
 20
2.7926312979
 30
0.0
 10
6.4614184333
 20
2.786840982
 30
0.0
 10
6.4835270868
 20
2.7780087754
 30
0.0
 10
6.500275462
 20
2.7701750962
 30
0.0
 10
6.5159897903
 20
2.762076114
 30
0.0
 10
6.5308533786
 20
2.7532959552
 30
0.0
 10
6.5447671497
 20
2.7438908716
 30
0.0
 10
6.5544826865
 20
2.7367264464
 30
0.0
 10
6.5636012601
 20
2.7293879286
 30
0.0
 10
6.5721099049
 20
2.7219090967
 30
0.0
 10
6.5799949649
 20
2.7143244186
 30
0.0
 10
6.5872482039
 20
2.706675731
 30
0.0
 10
6.5938589553
 20
2.6990085705
 30
0.0
 10
6.5979291507
 20
2.6938015681
 30
0.0
 10
6.5998532631
 20
2.6912072981
 30
0.0
  0
SPLINE
  5
272
100
AcDbEntity
  8
0
100
AcDbSpline
 62
7
  6
CONTINUOUS
 70
0
 71
3
 72
26
 73
22
 74
0
 42
0.0000001
 43
0.0000001
 44
0.0000000001
 40
0.0
 40
0.0
 40
0.0
 40
0.0
 40
0.0833304416
 40
0.1644919427
 40
0.2433055058
 40
0.3195949923
 40
0.3932238244
 40
0.4641012626
 40
0.5320881852
 40
0.5970514042
 40
0.6283948878
 40
0.6589800535
 40
0.7178015041
 40
0.7459855609
 40
0.7733224741
 40
0.8254893618
 40
0.8503472479
 40
0.874386074
 40
0.9198848821
 40
0.9617623675
 40
1.0
 40
1.0
 40
1.0
 40
1.0
 10
6.4305576612
 20
2.7068604721
 30
0.0
 10
6.4356272935
 20
2.7059100683
 30
0.0
 10
6.4456095504
 20
2.7038970588
 30
0.0
 10
6.4602846438
 20
2.7005052746
 30
0.0
 10
6.4744346791
 20
2.6968034546
 30
0.0
 10
6.4880247718
 20
2.692827029
 30
0.0
 10
6.5010259405
 20
2.6886075517
 30
0.0
 10
6.5134095557
 20
2.6841695467
 30
0.0
 10
6.5251554774
 20
2.6795595696
 30
0.0
 10
6.5345105064
 20
2.6755679053
 30
0.0
 10
6.5416607024
 20
2.6723168465
 30
0.0
 10
6.548414581
 20
2.6691150403
 30
0.0
 10
6.5549179296
 20
2.6658433214
 30
0.0
 10
6.5611659839
 20
2.6625182476
 30
0.0
 10
6.5670031619
 20
2.6592995429
 30
0.0
 10
6.5725880933
 20
2.6560507757
 30
0.0
 10
6.577911491
 20
2.6527648501
 30
0.0
 10
6.5828294322
 20
2.6496095849
 30
0.0
 10
6.5885421894
 20
2.6457442452
 30
0.0
 10
6.5948494364
 20
2.6411957796
 30
0.0
 10
6.598781584
 20
2.6381727063
 30
0.0
 10
6.6006332208
 20
2.6366985097
 30
0.0
  0
SPLINE
  5
273
100
AcDbEntity
  8
0
100
AcDbSpline
 62
7
  6
CONTINUOUS
 70
0
 71
3
 72
23
 73
19
 74
0
 42
0.0000001
 43
0.0000001
 44
0.0000000001
 40
0.0
 40
0.0
 40
0.0
 40
0.0
 40
0.1214556523
 40
0.2414649761
 40
0.3010213171
 40
0.3603384314
 40
0.4785907086
 40
0.5377333301
 40
0.5970558582
 40
0.6567531087
 40
0.7171442037
 40
0.7788456768
 40
0.8433008607
 40
0.877651178
 40
0.9146297472
 40
0.9555781497
 40
0.9775049791
 40
1.0
 40
1.0
 40
1.0
 40
1.0
 10
6.5998532631
 20
2.6912072981
 30
0.0
 10
6.6019208098
 20
2.6875137341
 30
0.0
 10
6.6058182005
 20
2.6800489393
 30
0.0
 10
6.6101170866
 20
2.6704723084
 30
0.0
 10
6.6131877204
 20
2.6627327546
 30
0.0
 10
6.6160078864
 20
2.6549637394
 30
0.0
 10
6.6184730288
 20
2.6470847111
 30
0.0
 10
6.6205762739
 20
2.6391064569
 30
0.0
 10
6.6219758865
 20
2.6330560437
 30
0.0
 10
6.6231984161
 20
2.6269230743
 30
0.0
 10
6.6242451433
 20
2.6206735125
 30
0.0
 10
6.6251172358
 20
2.614229808
 30
0.0
 10
6.6256855131
 20
2.6086636801
 30
0.0
 10
6.6260386325
 20
2.6039444071
 30
0.0
 10
6.6262534272
 20
2.6000370115
 30
0.0
 10
6.6263652021
 20
2.5965584762
 30
0.0
 10
6.6264152412
 20
2.5935836124
 30
0.0
 10
6.6264261742
 20
2.5920354743
 30
0.0
 10
6.6264289734
 20
2.5912515023
 30
0.0
  0
SPLINE
  5
274
100
AcDbEntity
  8
0
100
AcDbSpline
 62
7
  6
CONTINUOUS
 70
0
 71
3
 72
27
 73
23
 74
0
 42
0.0000001
 43
0.0000001
 44
0.0000000001
 40
0.0
 40
0.0
 40
0.0
 40
0.0
 40
0.0655677803
 40
0.1291177897
 40
0.1908143511
 40
0.2508112947
 40
0.3091653166
 40
0.3657678505
 40
0.4208133749
 40
0.4745842838
 40
0.5273875644
 40
0.5795997495
 40
0.6317039333
 40
0.6843959082
 40
0.7388633707
 40
0.7977320473
 40
0.8309094959
 40
0.8698054178
 40
0.8934434263
 40
0.9222811241
 40
0.9585611375
 40
1.0
 40
1.0
 40
1.0
 40
1.0
 10
6.6006337867
 20
2.6366987363
 30
0.0
 10
6.6015656315
 20
2.635956533
 30
0.0
 10
6.603378708
 20
2.6344671056
 30
0.0
 10
6.6059834634
 20
2.6321781515
 30
0.0
 10
6.6084309238
 20
2.6298666486
 30
0.0
 10
6.6107220891
 20
2.6275305261
 30
0.0
 10
6.6128561057
 20
2.6251735321
 30
0.0
 10
6.6148399982
 20
2.6228050393
 30
0.0
 10
6.6166703933
 20
2.6204199386
 30
0.0
 10
6.6183487776
 20
2.6180090167
 30
0.0
 10
6.6198773804
 20
2.6155607534
 30
0.0
 10
6.6212578749
 20
2.6130603637
 30
0.0
 10
6.6224921647
 20
2.6104866949
 30
0.0
 10
6.6235826026
 20
2.6078042683
 30
0.0
 10
6.6245338666
 20
2.6049392612
 30
0.0
 10
6.6251885315
 20
2.6023560312
 30
0.0
 10
6.6256310616
 20
2.600017801
 30
0.0
 10
6.6258714316
 20
2.5982946401
 30
0.0
 10
6.626034728
 20
2.5966423642
 30
0.0
 10
6.6261434563
 20
2.5950331416
 30
0.0
 10
6.6262118981
 20
2.5930980181
 30
0.0
 10
6.6262229073
 20
2.5916858369
 30
0.0
 10
6.6262219331
 20
2.5909329343
 30
0.0
  0
SPLINE
  5
275
100
AcDbEntity
  8
0
100
AcDbSpline
 62
7
  6
CONTINUOUS
 70
0
 71
3
 72
13
 73
9
 74
0
 42
0.0000001
 43
0.0000001
 44
0.0000000001
 40
0.0
 40
0.0
 40
0.0
 40
0.0
 40
0.2576599488
 40
0.5099845612
 40
0.6342517228
 40
0.7573042817
 40
0.8792085279
 40
1.0
 40
1.0
 40
1.0
 40
1.0
 10
6.5998532687
 20
2.6912072981
 30
0.0
 10
6.5989231412
 20
2.6865807356
 30
0.0
 10
6.5975430482
 20
2.6773232548
 30
0.0
 10
6.5970584917
 20
2.6656926583
 30
0.0
 10
6.5974420087
 20
2.6565453775
 30
0.0
 10
6.5981069126
 20
2.6498118055
 30
0.0
 10
6.5991492435
 20
2.643190986
 30
0.0
 10
6.6000974756
 20
2.6388450849
 30
0.0
 10
6.6006337867
 20
2.6366987363
 30
0.0
  0
LINE
  5
276
100
AcDbEntity
  8
0
100
AcDbLine
 62
7
  6
CONTINUOUS
 10
6.6264289734
 20
2.5912515023
 11
6.6266048391
 21
2.4318929273
  0
LINE
  5
277
100
AcDbEntity
  8
0
100
AcDbLine
 62
7
  6
CONTINUOUS
 10
6.6262219764
 20
2.5909329344
 11
6.6264517016
 21
2.4319812822
  0
LINE
  5
278
100
AcDbEntity
  8
0
100
AcDbLine
 62
7
  6
CONTINUOUS
 10
6.6264289767
 20
2.5912515023
 11
6.6262219764
 21
2.5909329344
  0
SPLINE
  5
279
100
AcDbEntity
  8
0
100
AcDbSpline
 62
7
  6
CONTINUOUS
 70
0
 71
3
 72
31
 73
27
 74
0
 42
0.0000001
 43
0.0000001
 44
0.0000000001
 40
0.0
 40
0.0
 40
0.0
 40
0.0
 40
0.1164386479
 40
0.1751309274
 40
0.2341992531
 40
0.2638962852
 40
0.2937108837
 40
0.3236528036
 40
0.3537320954
 40
0.4143348418
 40
0.4448896924
 40
0.4756262727
 40
0.5376924046
 40
0.600652362
 40
0.6325097719
 40
0.6646332267
 40
0.697030412
 40
0.7297108609
 40
0.7626764707
 40
0.7959242092
 40
0.8294428663
 40
0.8632113553
 40
0.897198745
 40
0.9313610091
 40
0.9656508591
 40
1.0
 40
1.0
 40
1.0
 40
1.0
 10
6.5914553425
 20
2.0502228664
 30
0.0
 10
6.5863389437
 20
2.0357223359
 30
0.0
 10
6.5777535861
 20
2.0142076889
 30
0.0
 10
6.5643999144
 20
1.9863026109
 30
0.0
 10
6.5551691696
 20
1.9691461743
 30
0.0
 10
6.5472345098
 20
1.9556441705
 30
0.0
 10
6.5409844561
 20
1.9456182214
 30
0.0
 10
6.5344375221
 20
1.9357227558
 30
0.0
 10
6.5252782274
 20
1.9226881314
 30
0.0
 10
6.5154986316
 20
1.9099968304
 30
0.0
 10
6.5050788932
 20
1.8977239048
 30
0.0
 10
6.4941267603
 20
1.885660978
 30
0.0
 10
6.4795108069
 20
1.8711606184
 30
0.0
 10
6.4637129165
 20
1.8577196461
 30
0.0
 10
6.450284192
 20
1.847677829
 30
0.0
 10
6.4397613319
 20
1.8405102587
 30
0.0
 10
6.4288225111
 20
1.8337844731
 30
0.0
 10
6.4174684298
 20
1.8275505174
 30
0.0
 10
6.4057082513
 20
1.8218574493
 30
0.0
 10
6.3935574101
 20
1.8167591583
 30
0.0
 10
6.3810382573
 20
1.8123173373
 30
0.0
 10
6.3681866427
 20
1.8085870679
 30
0.0
 10
6.3550499089
 20
1.8056203896
 30
0.0
 10
6.3416857247
 20
1.8034640392
 30
0.0
 10
6.3281644381
 20
1.8021544871
 30
0.0
 10
6.3190974177
 20
1.8018609402
 30
0.0
 10
6.3145613255
 20
1.8018603719
 30
0.0
  0
SPLINE
  5
27A
100
AcDbEntity
  8
0
100
AcDbSpline
 62
7
  6
CONTINUOUS
 70
0
 71
3
 72
28
 73
24
 74
0
 42
0.0000001
 43
0.0000001
 44
0.0000000001
 40
0.0
 40
0.0
 40
0.0
 40
0.0
 40
0.0063467687
 40
0.0134391499
 40
0.0219600693
 40
0.0322674585
 40
0.0445059328
 40
0.0587473463
 40
0.0750277064
 40
0.0933585633
 40
0.136119113
 40
0.1868053902
 40
0.2450351689
 40
0.3103073453
 40
0.3820176857
 40
0.4594783598
 40
0.5419438932
 40
0.6286176225
 40
0.718655411
 40
0.8111688511
 40
0.8580762963
 40
0.9052702397
 40
1.0
 40
1.0
 40
1.0
 40
1.0
 10
6.4438472632
 20
3.6762072981
 30
0.0
 10
6.4438919263
 20
3.6762072981
 30
0.0
 10
6.443987227
 20
3.6761881311
 30
0.0
 10
6.4441206232
 20
3.6761059959
 30
0.0
 10
6.4442501919
 20
3.6759761551
 30
0.0
 10
6.4443794286
 20
3.6757990943
 30
0.0
 10
6.4445081537
 20
3.6755740388
 30
0.0
 10
6.4446353975
 20
3.6753010708
 30
0.0
 10
6.4447606494
 20
3.674980726
 30
0.0
 10
6.4449334826
 20
3.6744642282
 30
0.0
 10
6.4451368395
 20
3.6737036792
 30
0.0
 10
6.445357311
 20
3.6726590307
 30
0.0
 10
6.4455637879
 20
3.6714505107
 30
0.0
 10
6.4457555029
 20
3.6700900711
 30
0.0
 10
6.4459303361
 20
3.6685910371
 30
0.0
 10
6.4460844366
 20
3.6669681698
 30
0.0
 10
6.4462162625
 20
3.6652377406
 30
0.0
 10
6.4463251162
 20
3.663417052
 30
0.0
 10
6.4464096825
 20
3.6615243086
 30
0.0
 10
6.4464606723
 20
3.6599103294
 30
0.0
 10
6.4464879297
 20
3.6585973656
 30
0.0
 10
6.4465041321
 20
3.6572686189
 30
0.0
 10
6.4465063632
 20
3.65626987
 30
0.0
 10
6.4465073252
 20
3.6556032446
 30
0.0
  0
SPLINE
  5
27B
100
AcDbEntity
  8
0
100
AcDbSpline
 62
7
  6
CONTINUOUS
 70
0
 71
3
 72
21
 73
17
 74
0
 42
0.0000001
 43
0.0000001
 44
0.0000000001
 40
0.0
 40
0.0
 40
0.0
 40
0.0
 40
0.1239931819
 40
0.2479904876
 40
0.3100103712
 40
0.3720408404
 40
0.4341054538
 40
0.4962347765
 40
0.5584309637
 40
0.6207110114
 40
0.6831385186
 40
0.7457719342
 40
0.8086484604
 40
0.8718742854
 40
0.9356105225
 40
1.0
 40
1.0
 40
1.0
 40
1.0
 10
6.1967862463
 20
2.4128519402
 30
0.0
 10
6.198175864
 20
2.4138644355
 30
0.0
 10
6.2009084566
 20
2.4159544128
 30
0.0
 10
6.2041947919
 20
2.4187285195
 30
0.0
 10
6.2067349988
 20
2.4210480824
 30
0.0
 10
6.2085928275
 20
2.42283992
 30
0.0
 10
6.2103979956
 20
2.424686977
 30
0.0
 10
6.2121453913
 20
2.4265920163
 30
0.0
 10
6.2138257897
 20
2.4285605129
 30
0.0
 10
6.2154287878
 20
2.4305979915
 30
0.0
 10
6.2169434496
 20
2.432709645
 30
0.0
 10
6.2183550996
 20
2.4349017812
 30
0.0
 10
6.2196383797
 20
2.4371847628
 30
0.0
 10
6.220764634
 20
2.4395669544
 30
0.0
 10
6.2216994489
 20
2.4420535409
 30
0.0
 10
6.2221634103
 20
2.4437727354
 30
0.0
 10
6.2223454847
 20
2.4446468325
 30
0.0
  0
SPLINE
  5
27C
100
AcDbEntity
  8
0
100
AcDbSpline
 62
7
  6
CONTINUOUS
 70
0
 71
3
 72
26
 73
22
 74
0
 42
0.0000001
 43
0.0000001
 44
0.0000000001
 40
0.0
 40
0.0
 40
0.0
 40
0.0
 40
0.0833304416
 40
0.1644919427
 40
0.2433055058
 40
0.3195949923
 40
0.3932238244
 40
0.4641012626
 40
0.5320881852
 40
0.5970514042
 40
0.6283948878
 40
0.6589800535
 40
0.7178015041
 40
0.7459855609
 40
0.7733224741
 40
0.8254893618
 40
0.8503472479
 40
0.874386074
 40
0.9198848821
 40
0.9617623675
 40
1.0
 40
1.0
 40
1.0
 40
1.0
 10
6.1985649897
 20
2.7068604721
 30
0.0
 10
6.1934953574
 20
2.7059100683
 30
0.0
 10
6.1835131005
 20
2.7038970588
 30
0.0
 10
6.1688380072
 20
2.7005052746
 30
0.0
 10
6.1546879719
 20
2.6968034546
 30
0.0
 10
6.1410978792
 20
2.692827029
 30
0.0
 10
6.1280967105
 20
2.6886075517
 30
0.0
 10
6.1157130953
 20
2.6841695467
 30
0.0
 10
6.1039671736
 20
2.6795595696
 30
0.0
 10
6.0946121446
 20
2.6755679053
 30
0.0
 10
6.0874619486
 20
2.6723168465
 30
0.0
 10
6.08070807
 20
2.6691150403
 30
0.0
 10
6.0742047214
 20
2.6658433214
 30
0.0
 10
6.067956667
 20
2.6625182476
 30
0.0
 10
6.062119489
 20
2.6592995429
 30
0.0
 10
6.0565345577
 20
2.6560507757
 30
0.0
 10
6.0512111599
 20
2.6527648501
 30
0.0
 10
6.0462932187
 20
2.6496095849
 30
0.0
 10
6.0405804615
 20
2.6457442452
 30
0.0
 10
6.0342732146
 20
2.6411957796
 30
0.0
 10
6.030341067
 20
2.6381727063
 30
0.0
 10
6.0284894302
 20
2.6366985097
 30
0.0
  0
SPLINE
  5
27D
100
AcDbEntity
  8
0
100
AcDbSpline
 62
7
  6
CONTINUOUS
 70
0
 71
3
 72
20
 73
16
 74
0
 42
0.0000001
 43
0.0000001
 44
0.0000000001
 40
0.0
 40
0.0
 40
0.0
 40
0.0
 40
0.1469808005
 40
0.2888666087
 40
0.3576889458
 40
0.4249839845
 40
0.5546854962
 40
0.6169849295
 40
0.6774974437
 40
0.7361722434
 40
0.7929592554
 40
0.8478067289
 40
0.900653928
 40
0.9514253819
 40
1.0
 40
1.0
 40
1.0
 40
1.0
 10
6.1954579742
 20
2.795240616
 30
0.0
 10
6.1860393656
 20
2.7926312979
 30
0.0
 10
6.1677042177
 20
2.786840982
 30
0.0
 10
6.1455955642
 20
2.7780087754
 30
0.0
 10
6.1288471889
 20
2.7701750962
 30
0.0
 10
6.1131328607
 20
2.762076114
 30
0.0
 10
6.0982692723
 20
2.7532959552
 30
0.0
 10
6.0843555013
 20
2.7438908716
 30
0.0
 10
6.0746399645
 20
2.7367264464
 30
0.0
 10
6.0655213909
 20
2.7293879286
 30
0.0
 10
6.0570127461
 20
2.7219090967
 30
0.0
 10
6.049127686
 20
2.7143244186
 30
0.0
 10
6.041874447
 20
2.706675731
 30
0.0
 10
6.0352636956
 20
2.6990085705
 30
0.0
 10
6.0311935002
 20
2.6938015681
 30
0.0
 10
6.0292693879
 20
2.6912072981
 30
0.0
  0
SPLINE
  5
27E
100
AcDbEntity
  8
0
100
AcDbSpline
 62
7
  6
CONTINUOUS
 70
0
 71
3
 72
23
 73
19
 74
0
 42
0.0000001
 43
0.0000001
 44
0.0000000001
 40
0.0
 40
0.0
 40
0.0
 40
0.0
 40
0.1214556523
 40
0.2414649761
 40
0.3010213171
 40
0.3603384314
 40
0.4785907086
 40
0.5377333301
 40
0.5970558582
 40
0.6567531087
 40
0.7171442037
 40
0.7788456768
 40
0.8433008607
 40
0.877651178
 40
0.9146297472
 40
0.9555781497
 40
0.9775049791
 40
1.0
 40
1.0
 40
1.0
 40
1.0
 10
6.0292693879
 20
2.6912072981
 30
0.0
 10
6.0272018412
 20
2.6875137341
 30
0.0
 10
6.0233044504
 20
2.6800489393
 30
0.0
 10
6.0190055644
 20
2.6704723084
 30
0.0
 10
6.0159349305
 20
2.6627327546
 30
0.0
 10
6.0131147645
 20
2.6549637394
 30
0.0
 10
6.0106496222
 20
2.6470847111
 30
0.0
 10
6.0085463771
 20
2.6391064569
 30
0.0
 10
6.0071467644
 20
2.6330560437
 30
0.0
 10
6.0059242348
 20
2.6269230743
 30
0.0
 10
6.0048775077
 20
2.6206735125
 30
0.0
 10
6.0040054151
 20
2.614229808
 30
0.0
 10
6.0034371379
 20
2.6086636801
 30
0.0
 10
6.0030840184
 20
2.6039444071
 30
0.0
 10
6.0028692238
 20
2.6000370115
 30
0.0
 10
6.0027574488
 20
2.5965584762
 30
0.0
 10
6.0027074097
 20
2.5935836124
 30
0.0
 10
6.0026964768
 20
2.5920354743
 30
0.0
 10
6.0026936775
 20
2.5912515023
 30
0.0
  0
SPLINE
  5
27F
100
AcDbEntity
  8
0
100
AcDbSpline
 62
7
  6
CONTINUOUS
 70
0
 71
3
 72
13
 73
9
 74
0
 42
0.0000001
 43
0.0000001
 44
0.0000000001
 40
0.0
 40
0.0
 40
0.0
 40
0.0
 40
0.2576599488
 40
0.5099845612
 40
0.6342517228
 40
0.7573042817
 40
0.8792085279
 40
1.0
 40
1.0
 40
1.0
 40
1.0
 10
6.0292693822
 20
2.6912072981
 30
0.0
 10
6.0301995097
 20
2.6865807356
 30
0.0
 10
6.0315796028
 20
2.6773232548
 30
0.0
 10
6.0320641593
 20
2.6656926583
 30
0.0
 10
6.0316806423
 20
2.6565453775
 30
0.0
 10
6.0310157384
 20
2.6498118055
 30
0.0
 10
6.0299734075
 20
2.643190986
 30
0.0
 10
6.0290251754
 20
2.6388450849
 30
0.0
 10
6.0284888642
 20
2.6366987363
 30
0.0
  0
SPLINE
  5
280
100
AcDbEntity
  8
0
100
AcDbSpline
 62
7
  6
CONTINUOUS
 70
0
 71
3
 72
27
 73
23
 74
0
 42
0.0000001
 43
0.0000001
 44
0.0000000001
 40
0.0
 40
0.0
 40
0.0
 40
0.0
 40
0.0655677803
 40
0.1291177897
 40
0.1908143511
 40
0.2508112947
 40
0.3091653166
 40
0.3657678505
 40
0.4208133749
 40
0.4745842838
 40
0.5273875644
 40
0.5795997495
 40
0.6317039333
 40
0.6843959082
 40
0.7388633707
 40
0.7977320473
 40
0.8309094959
 40
0.8698054178
 40
0.8934434263
 40
0.9222811241
 40
0.9585611375
 40
1.0
 40
1.0
 40
1.0
 40
1.0
 10
6.0284888642
 20
2.6366987363
 30
0.0
 10
6.0275570195
 20
2.635956533
 30
0.0
 10
6.025743943
 20
2.6344671056
 30
0.0
 10
6.0231391876
 20
2.6321781515
 30
0.0
 10
6.0206917271
 20
2.6298666486
 30
0.0
 10
6.0184005619
 20
2.6275305261
 30
0.0
 10
6.0162665453
 20
2.6251735321
 30
0.0
 10
6.0142826527
 20
2.6228050393
 30
0.0
 10
6.0124522577
 20
2.6204199386
 30
0.0
 10
6.0107738733
 20
2.6180090167
 30
0.0
 10
6.0092452706
 20
2.6155607534
 30
0.0
 10
6.0078647761
 20
2.6130603637
 30
0.0
 10
6.0066304863
 20
2.6104866949
 30
0.0
 10
6.0055400484
 20
2.6078042683
 30
0.0
 10
6.0045887843
 20
2.6049392612
 30
0.0
 10
6.0039341194
 20
2.6023560312
 30
0.0
 10
6.0034915894
 20
2.600017801
 30
0.0
 10
6.0032512193
 20
2.5982946401
 30
0.0
 10
6.003087923
 20
2.5966423642
 30
0.0
 10
6.0029791947
 20
2.5950331416
 30
0.0
 10
6.0029107529
 20
2.5930980181
 30
0.0
 10
6.0028997437
 20
2.5916858369
 30
0.0
 10
6.0029007178
 20
2.5909329343
 30
0.0
  0
LINE
  5
281
100
AcDbEntity
  8
0
100
AcDbLine
 62
7
  6
CONTINUOUS
 10
6.0026936775
 20
2.5912515023
 11
6.0025178119
 21
2.4318929273
  0
LINE
  5
282
100
AcDbEntity
  8
0
100
AcDbLine
 62
7
  6
CONTINUOUS
 10
6.0026936742
 20
2.5912515023
 11
6.0029006745
 21
2.5909329344
  0
LINE
  5
283
100
AcDbEntity
  8
0
100
AcDbLine
 62
7
  6
CONTINUOUS
 10
6.0029006745
 20
2.5909329344
 11
6.0026709494
 21
2.4319812822
  0
SPLINE
  5
284
100
AcDbEntity
  8
0
100
AcDbSpline
 62
7
  6
CONTINUOUS
 70
0
 71
3
 72
31
 73
27
 74
0
 42
0.0000001
 43
0.0000001
 44
0.0000000001
 40
0.0
 40
0.0
 40
0.0
 40
0.0
 40
0.1164386479
 40
0.1751309274
 40
0.2341992531
 40
0.2638962852
 40
0.2937108837
 40
0.3236528036
 40
0.3537320954
 40
0.4143348418
 40
0.4448896924
 40
0.4756262727
 40
0.5376924046
 40
0.600652362
 40
0.6325097719
 40
0.6646332267
 40
0.697030412
 40
0.7297108609
 40
0.7626764707
 40
0.7959242092
 40
0.8294428663
 40
0.8632113553
 40
0.897198745
 40
0.9313610091
 40
0.9656508591
 40
1.0
 40
1.0
 40
1.0
 40
1.0
 10
6.0376673085
 20
2.0502228664
 30
0.0
 10
6.0427837072
 20
2.0357223359
 30
0.0
 10
6.0513690649
 20
2.0142076889
 30
0.0
 10
6.0647227366
 20
1.9863026109
 30
0.0
 10
6.0739534813
 20
1.9691461743
 30
0.0
 10
6.0818881412
 20
1.9556441705
 30
0.0
 10
6.0881381948
 20
1.9456182214
 30
0.0
 10
6.0946851289
 20
1.9357227558
 30
0.0
 10
6.1038444236
 20
1.9226881314
 30
0.0
 10
6.1136240194
 20
1.9099968304
 30
0.0
 10
6.1240437577
 20
1.8977239048
 30
0.0
 10
6.1349958907
 20
1.885660978
 30
0.0
 10
6.149611844
 20
1.8711606184
 30
0.0
 10
6.1654097345
 20
1.8577196461
 30
0.0
 10
6.178838459
 20
1.847677829
 30
0.0
 10
6.1893613191
 20
1.8405102587
 30
0.0
 10
6.2003001399
 20
1.8337844731
 30
0.0
 10
6.2116542211
 20
1.8275505174
 30
0.0
 10
6.2234143997
 20
1.8218574493
 30
0.0
 10
6.2355652409
 20
1.8167591583
 30
0.0
 10
6.2480843936
 20
1.8123173373
 30
0.0
 10
6.2609360083
 20
1.8085870679
 30
0.0
 10
6.274072742
 20
1.8056203896
 30
0.0
 10
6.2874369262
 20
1.8034640392
 30
0.0
 10
6.3009582128
 20
1.8021544871
 30
0.0
 10
6.3100252332
 20
1.8018609402
 30
0.0
 10
6.3145613255
 20
1.8018603719
 30
0.0
  0
SPLINE
  5
285
100
AcDbEntity
  8
0
100
AcDbSpline
 62
7
  6
CONTINUOUS
 70
0
 71
3
 72
31
 73
27
 74
0
 42
0.0000001
 43
0.0000001
 44
0.0000000001
 40
0.0
 40
0.0
 40
0.0
 40
0.0
 40
0.1017549395
 40
0.1519285019
 40
0.201476052
 40
0.2983089516
 40
0.3915018541
 40
0.4803026591
 40
0.5639959205
 40
0.6419108046
 40
0.7134214628
 40
0.7779537743
 40
0.8349860976
 40
0.8840560311
 40
0.9247701104
 40
0.9568069153
 40
0.9694954837
 40
0.9799380078
 40
0.9843156452
 40
0.9881316977
 40
0.9913891066
 40
0.9940942727
 40
0.9962594713
 40
0.9979098473
 40
0.9991046013
 40
1.0
 40
1.0
 40
1.0
 40
1.0
 10
6.4465073252
 20
3.6556032446
 30
0.0
 10
6.447095693
 20
3.655584494
 30
0.0
 10
6.4479743292
 20
3.655561533
 30
0.0
 10
6.4491395219
 20
3.6555320533
 30
0.0
 10
6.4502761928
 20
3.6555010647
 30
0.0
 10
6.4516616049
 20
3.6554618989
 30
0.0
 10
6.4532741537
 20
3.6554215236
 30
0.0
 10
6.4548108287
 20
3.6553880683
 30
0.0
 10
6.4562592623
 20
3.6553626415
 30
0.0
 10
6.4576077992
 20
3.6553465631
 30
0.0
 10
6.4588455603
 20
3.6553391579
 30
0.0
 10
6.459962536
 20
3.6553393614
 30
0.0
 10
6.460949664
 20
3.6553457587
 30
0.0
 10
6.4617989667
 20
3.655355744
 30
0.0
 10
6.4625035932
 20
3.6553687333
 30
0.0
 10
6.4629977057
 20
3.6553830909
 30
0.0
 10
6.4633164554
 20
3.6553993539
 30
0.0
 10
6.4634751957
 20
3.6554110947
 30
0.0
 10
6.4635824151
 20
3.6554224957
 30
0.0
 10
6.463648076
 20
3.6554313613
 30
0.0
 10
6.4637038228
 20
3.6554411177
 30
0.0
 10
6.463749641
 20
3.6554517839
 30
0.0
 10
6.4637856683
 20
3.6554632457
 30
0.0
 10
6.463811958
 20
3.6554756341
 30
0.0
 10
6.4638294702
 20
3.6554889599
 30
0.0
 10
6.4638347816
 20
3.6555007985
 30
0.0
 10
6.4638349633
 20
3.6555059753
 30
0.0
  0
SPLINE
  5
286
100
AcDbEntity
  8
0
100
AcDbSpline
 62
7
  6
CONTINUOUS
 70
0
 71
3
 72
14
 73
10
 74
0
 42
0.0000001
 43
0.0000001
 44
0.0000000001
 40
0.0
 40
0.0
 40
0.0
 40
0.0
 40
0.1249998854
 40
0.2499987881
 40
0.3749973574
 40
0.4999961398
 40
0.6249954962
 40
0.7499957686
 40
1.0
 40
1.0
 40
1.0
 40
1.0
 10
6.4035665717
 20
2.4604037124
 30
0.0
 10
6.4053440655
 20
2.5102040717
 30
0.0
 10
6.408925989
 20
2.6098034373
 30
0.0
 10
6.4143498963
 20
2.7592003078
 30
0.0
 10
6.419794364
 20
2.9085959896
 30
0.0
 10
6.4252313254
 20
3.0579921257
 30
0.0
 10
6.4306416901
 20
3.2073899091
 30
0.0
 10
6.4377919315
 20
3.4065916284
 30
0.0
 10
6.4430580329
 20
3.5559970306
 30
0.0
 10
6.4465073096
 20
3.6556032455
 30
0.0
  0
SPLINE
  5
287
100
AcDbEntity
  8
0
100
AcDbSpline
 62
7
  6
CONTINUOUS
 70
0
 71
3
 72
31
 73
27
 74
0
 42
0.0000001
 43
0.0000001
 44
0.0000000001
 40
0.0
 40
0.0
 40
0.0
 40
0.0
 40
0.1990742009
 40
0.2952729967
 40
0.3881430494
 40
0.4768799351
 40
0.5607168763
 40
0.638932279
 40
0.7108521433
 40
0.775858747
 40
0.8333924982
 40
0.88295972
 40
0.9046225109
 40
0.9241402527
 40
0.9414734456
 40
0.9565876497
 40
0.9694507947
 40
0.9800417589
 40
0.9844809835
 40
0.9883478545
 40
0.9916425783
 40
0.9943682652
 40
0.9965320977
 40
0.9981497692
 40
0.9992618321
 40
1.0
 40
1.0
 40
1.0
 40
1.0
 10
6.4035665717
 20
2.4604037124
 30
0.0
 10
6.4047839508
 20
2.4603637402
 30
0.0
 10
6.4065897551
 20
2.4603088625
 30
0.0
 10
6.4089637848
 20
2.4602462656
 30
0.0
 10
6.4106630709
 20
2.4602062778
 30
0.0
 10
6.4122868515
 20
2.4601730436
 30
0.0
 10
6.4138210846
 20
2.4601468435
 30
0.0
 10
6.4152525218
 20
2.4601278908
 30
0.0
 10
6.4165688212
 20
2.460116332
 30
0.0
 10
6.417758626
 20
2.4601122288
 30
0.0
 10
6.4188116688
 20
2.4601155906
 30
0.0
 10
6.4195994716
 20
2.4601248445
 30
0.0
 10
6.4201545914
 20
2.460136585
 30
0.0
 10
6.4205124654
 20
2.4601468177
 30
0.0
 10
6.4208301921
 20
2.4601588332
 30
0.0
 10
6.4211070934
 20
2.4601725732
 30
0.0
 10
6.4213425788
 20
2.4601880002
 30
0.0
 10
6.4215126205
 20
2.4602028837
 30
0.0
 10
6.4216274941
 20
2.4602160825
 30
0.0
 10
6.4216978139
 20
2.4602257886
 30
0.0
 10
6.4217574815
 20
2.4602358507
 30
0.0
 10
6.4218064699
 20
2.4602463
 30
0.0
 10
6.4218448896
 20
2.4602569269
 30
0.0
 10
6.4218727578
 20
2.4602680987
 30
0.0
 10
6.4218910975
 20
2.4602790204
 30
0.0
 10
6.4218975455
 20
2.4602896473
 30
0.0
 10
6.4218977034
 20
2.460294161
 30
0.0
  0
SPLINE
  5
288
100
AcDbEntity
  8
0
100
AcDbSpline
 62
7
  6
CONTINUOUS
 70
0
 71
3
 72
30
 73
26
 74
0
 42
0.0000001
 43
0.0000001
 44
0.0000000001
 40
0.0
 40
0.0
 40
0.0
 40
0.0
 40
0.0019922566
 40
0.0036446373
 40
0.0058148656
 40
0.0085249724
 40
0.0117858316
 40
0.0156037094
 40
0.0199822433
 40
0.0304254192
 40
0.0431144992
 40
0.075154577
 40
0.1158723461
 40
0.1649463912
 40
0.2219835507
 40
0.2865211979
 40
0.3580377463
 40
0.435959073
 40
0.5196590944
 40
0.6084669692
 40
0.7016673891
 40
0.798507979
 40
0.8480593412
 40
0.8982367719
 40
1.0
 40
1.0
 40
1.0
 40
1.0
 10
6.1652876877
 20
3.6555059753
 30
0.0
 10
6.1652880918
 20
3.6554944579
 30
0.0
 10
6.1653072211
 20
3.6554776759
 30
0.0
 10
6.1653367397
 20
3.6554642446
 30
0.0
 10
6.1653730765
 20
3.6554521753
 30
0.0
 10
6.165418779
 20
3.6554413331
 30
0.0
 10
6.1654745802
 20
3.6554312727
 30
0.0
 10
6.1655402422
 20
3.6554223001
 30
0.0
 10
6.1656474744
 20
3.6554108492
 30
0.0
 10
6.1658062214
 20
3.6553992482
 30
0.0
 10
6.1661249818
 20
3.6553832115
 30
0.0
 10
6.1666190891
 20
3.6553687271
 30
0.0
 10
6.1673237225
 20
3.6553557215
 30
0.0
 10
6.168173027
 20
3.6553457662
 30
0.0
 10
6.1691601552
 20
3.6553393655
 30
0.0
 10
6.1702771304
 20
3.6553391541
 30
0.0
 10
6.1715148903
 20
3.6553465637
 30
0.0
 10
6.1728634248
 20
3.6553626441
 30
0.0
 10
6.1743118547
 20
3.6553880649
 30
0.0
 10
6.1758485244
 20
3.6554215331
 30
0.0
 10
6.1774610675
 20
3.655461894
 30
0.0
 10
6.1788464742
 20
3.6555010481
 30
0.0
 10
6.1799831382
 20
3.655532064
 30
0.0
 10
6.1811483251
 20
3.6555615725
 30
0.0
 10
6.1820269584
 20
3.6555845198
 30
0.0
 10
6.1826153258
 20
3.6556032446
 30
0.0
  0
ENDSEC
  0
SECTION
  2
OBJECTS
  0
DICTIONARY
  5
C
100
AcDbDictionary
280
0
281
1
  3
ACAD_GROUP
350
D
  3
ACAD_MLINESTYLE
350
17
  3
ACAD_LAYOUT
350
1A
  3
ACAD_PLOTSETTINGS
350
19
  3
ACAD_PLOTSTYLENAME
350
E
  0
DICTIONARY
  5
D
102
{ACAD_REACTORS
330
C
102
}
100
AcDbDictionary
280
0
281
1
  0
ACDBDICTIONARYWDFLT
  5
E
102
{ACAD_REACTORS
330
C
102
}
100
AcDbDictionary
281
1
  3
Normal
350
F
100
AcDbDictionaryWithDefault
340
F
  0
DICTIONARY
  5
17
102
{ACAD_REACTORS
330
C
102
}
100
AcDbDictionary
280
0
281
1
  3
Standard
350
18
  0
DICTIONARY
  5
19
102
{ACAD_REACTORS
330
C
102
}
100
AcDbDictionary
281
1
  0
DICTIONARY
  5
1A
102
{ACAD_REACTORS
330
C
102
}
100
AcDbDictionary
281
1
  3
Model
350
289
  3
Layout1
350
28A
  0
ACDBPLACEHOLDER
  5
F
102
{ACAD_REACTORS
330
E
102
}
  0
MLINESTYLE
  5
18
102
{ACAD_REACTORS
330
17
102
}
100
AcDbMlineStyle
  2
STANDARD
 70
0
  3

 62
256
 51
90.0
 52
90.0
 71
2
 49
0.5
 62
256
  6
BYLAYER
 49
-0.5
 62
256
  6
BYLAYER
  0
LAYOUT
  5
289
102
{ACAD_REACTORS
330
1A
102
}
100
AcDbPlotSettings
  1

  2
none_device
  4
ANSI_A_(11.00_x_8.50_Inches)
  6

 40
0.0
 41
0.0
 42
0.0
 43
0.0
 44
279.4
 45
215.9
 46
0.0
 47
0.0
 48
0.0
 49
0.0
140
0.0
141
0.0
142
1.0
143
1.0
 70
1024
 72
0
 73
0
 74
0
  7

 75
0
147
1.0
148
0.0
149
0.0
100
AcDbLayout
  1
Model
 70
0
 71
0
 10
0.0
 20
0.0
 11
11.0
 21
8.5
 12
0.0
 22
0.0
 32
0.0
 14
0.0
 24
0.0
 34
0.0
 15
0.0
 25
0.0
 35
0.0
146
0.0
 13
0.0
 23
0.0
 33
0.0
 16
1.0
 26
0.0
 36
0.0
 17
0.0
 27
1.0
 37
0.0
 76
0
330
202
345
0
346
0
  0
LAYOUT
  5
28A
102
{ACAD_REACTORS
330
1A
102
}
100
AcDbPlotSettings
  1

  2
none_device
  4
ANSI_A_(11.00_x_8.50_Inches)
  6

 40
0.0
 41
0.0
 42
0.0
 43
0.0
 44
279.4
 45
215.9
 46
0.0
 47
0.0
 48
0.0
 49
0.0
140
0.0
141
0.0
142
1.0
143
1.0
 70
0
 72
0
 73
0
 74
0
  7

 75
0
147
1.0
148
0.0
149
0.0
100
AcDbLayout
  1
Layout1
 70
0
 71
1
 10
0.0
 20
0.0
 11
11.0
 21
8.5
 12
0.0
 22
0.0
 32
0.0
 14
0.0
 24
0.0
 34
0.0
 15
0.0
 25
0.0
 35
0.0
146
0.0
 13
0.0
 23
0.0
 33
0.0
 16
1.0
 26
0.0
 36
0.0
 17
0.0
 27
1.0
 37
0.0
 76
0
330
203
345
0
346
0
  0
ENDSEC
  0
EOF
