999
DXF file: E:\BT Custom\CADOUTPUT\_RIGHT.dxf
999
Pro/ENGINEER 2018400 by Parametric Technology Corporation
  0
SECTION
  2
HEADER
  9
$ACADVER
  1
AC1018
  9
$DWGCODEPAGE
  3
ANSI_1252
  9
$EXTMAX
 10
22.0
 20
17.0
 30
0.0
  9
$EXTMIN
 10
0.0
 20
0.0
 30
0.0
  9
$LIMMIN
 10
0.0
 20
0.0
  9
$LIMMAX
 10
22.0
 20
17.0
  9
$VIEWCTR
 10
11.0
 20
8.5
  9
$VIEWSIZE
 40
17.0
  9
$CLAYER
  8
0
  9
$LTSCALE
 40
1.21
  9
$CELTYPE
  6
BYLAYER
  9
$DIMSCALE
 40
1.0
  9
$DIMASZ
 40
0.1
  9
$DIMEXO
 40
0.0625
  9
$DIMDLI
 40
0.836
  9
$DIMEXE
 40
0.125
  9
$DIMCEN
 40
0.198
  9
$DIMLFAC
 40
1.0
  9
$DIMBLK
  1
_FILLED
  9
$DIMALT
 70
1
  9
$DIMALTD
 70
2
  9
$DIMALTTD
 70
2
  9
$DIMALTF
 40
25.4
  9
$DIMTXT
 40
0.08
  9
$DIMTOL
 70
1
  9
$DIMLIM
 70
0
  9
$DIMTFAC
 40
1.0
  9
$DIMTP
 40
0.001
  9
$DIMTM
 40
0.001
  9
$DIMGAP
 40
0.09
  9
$DIMDSEP
 70
46
  9
$AUNITS
 70
0
  9
$PDMODE
 70
3
  9
$PDSIZE
 40
0.06
  9
$HANDSEED
  5
3B1
  9
$TILEMODE
 70
1
  9
$MEASUREMENT
 70
0
  9
$INSUNITS
 70
1
  0
ENDSEC
  0
SECTION
  2
CLASSES
  0
CLASS
  1
ACDBDICTIONARYWDFLT
  2
AcDbDictionaryWithDefault
  3
AutoCAD 2000
 90
0
 91
1
280
0
281
0
  0
CLASS
  1
ACDBPLACEHOLDER
  2
AcDbPlaceHolder
  3
AutoCAD 2000
 90
0
 91
1
280
0
281
0
  0
CLASS
  1
LAYOUT
  2
AcDbLayout
  3
AutoCAD 2000
 90
0
 91
0
280
0
281
0
  0
ENDSEC
  0
SECTION
  2
TABLES
  0
TABLE
  2
VPORT
  5
8
100
AcDbSymbolTable
 70
2
  0
VPORT
  5
1F4
100
AcDbSymbolTableRecord
100
AcDbViewportTableRecord
  2
*ACTIVE
 70
0
 10
0.0
 20
0.0
 11
1.0
 21
1.0
 12
11.0
 22
8.5
 13
0.0
 23
0.0
 14
1.0
 24
1.0
 15
0.0
 25
0.0
 16
0.0
 26
0.0
 36
1.0
 17
0.0
 27
0.0
 37
0.0
 40
17.0
 41
1.2941176471
 42
50.0
 43
0.0
 44
0.0
 50
0.0
 51
0.0
 71
0
 72
100
 73
1
 74
1
 75
0
 76
0
 77
0
 78
0
  0
ENDTAB
  0
TABLE
  2
LTYPE
  5
5
100
AcDbSymbolTable
 70
6
  0
LTYPE
  5
14
100
AcDbSymbolTableRecord
100
AcDbLinetypeTableRecord
  2
BYBLOCK
 70
0
  3

 72
65
 73
0
 40
0.0
  0
LTYPE
  5
15
100
AcDbSymbolTableRecord
100
AcDbLinetypeTableRecord
  2
BYLAYER
 70
0
  3

 72
65
 73
0
 40
0.0
  0
LTYPE
  5
16
100
AcDbSymbolTableRecord
100
AcDbLinetypeTableRecord
  2
CONTINUOUS
 70
64
  3
Solid line
 72
65
 73
0
 40
0.0
  0
LTYPE
  5
1F5
100
AcDbSymbolTableRecord
100
AcDbLinetypeTableRecord
  2
CENTER
 70
64
  3
____ _ ____ _ ____ _ ____ _ ____ _ ____ _ ____
 72
65
 73
4
 40
0.6
 49
0.375
 74
0
 49
-0.075
 74
0
 49
0.075
 74
0
 49
-0.075
 74
0
  0
LTYPE
  5
1F6
100
AcDbSymbolTableRecord
100
AcDbLinetypeTableRecord
  2
HIDDEN
 70
64
  3
- - - - - - - - - - - - - - - - - - - -
 72
65
 73
2
 40
0.2
 49
0.1
 74
0
 49
-0.1
 74
0
  0
LTYPE
  5
1F7
100
AcDbSymbolTableRecord
100
AcDbLinetypeTableRecord
  2
PHANTOM
 70
64
  3
_____ _ _ _____ _ _ _____ _ _ _____
 72
65
 73
6
 40
0.8
 49
0.45
 74
0
 49
-0.05
 74
0
 49
0.1
 74
0
 49
-0.05
 74
0
 49
0.1
 74
0
 49
-0.05
 74
0
  0
LTYPE
  5
1F8
100
AcDbSymbolTableRecord
100
AcDbLinetypeTableRecord
  2
DOT
 70
64
  3
. . . . . . . . . . . . . . . . . . . .
 72
65
 73
2
 40
0.2
 49
0.1
 74
0
 49
-0.1
 74
0
  0
LTYPE
  5
1F9
100
AcDbSymbolTableRecord
100
AcDbLinetypeTableRecord
  2
DASHED
 70
64
  3
- - - - - - - - - - - - - - - - - - - -
 72
65
 73
2
 40
0.2
 49
0.1
 74
0
 49
-0.1
 74
0
  0
ENDTAB
  0
TABLE
  2
LAYER
  5
2
100
AcDbSymbolTable
 70
36
  0
LAYER
  5
10
100
AcDbSymbolTableRecord
100
AcDbLayerTableRecord
  2
0
 70
0
 62
7
  6
CONTINUOUS
370
-3
390
F
  0
LAYER
  5
1FA
100
AcDbSymbolTableRecord
100
AcDbLayerTableRecord
  2
DEFAULT_1
 70
0
 62
7
  6
CENTER
370
-3
390
F
  0
LAYER
  5
1FB
100
AcDbSymbolTableRecord
100
AcDbLayerTableRecord
  2
DEFAULT_2
 70
0
 62
8
  6
HIDDEN
370
-3
390
F
  0
LAYER
  5
1FC
100
AcDbSymbolTableRecord
100
AcDbLayerTableRecord
  2
DEFAULT_3
 70
0
 62
7
  6
PHANTOM
370
-3
390
F
  0
LAYER
  5
1FD
100
AcDbSymbolTableRecord
100
AcDbLayerTableRecord
  2
ALL_FEATURES
 70
0
 62
7
  6
CONTINUOUS
370
-3
390
F
  0
LAYER
  5
1FE
100
AcDbSymbolTableRecord
100
AcDbLayerTableRecord
  2
AXES_FEATURES
 70
0
 62
7
  6
CONTINUOUS
370
-3
390
F
  0
LAYER
  5
1FF
100
AcDbSymbolTableRecord
100
AcDbLayerTableRecord
  2
DIMENSIONS
 70
0
 62
7
  6
CONTINUOUS
370
-3
390
F
  0
ENDTAB
  0
TABLE
  2
STYLE
  5
3
100
AcDbSymbolTable
 70
1
  0
STYLE
  5
11
100
AcDbSymbolTableRecord
100
AcDbTextStyleTableRecord
  2
STANDARD
 70
0
 40
0.0
 41
0.8
 50
0.0
 71
0
 42
0.2
  3
txt
  4

  0
STYLE
  5
200
100
AcDbSymbolTableRecord
100
AcDbTextStyleTableRecord
  2
TEXTSTYLE_1
 70
0
 40
0.0
 41
0.8
 50
0.0
 71
0
 42
0.2
  3
gdt
  4

  0
ENDTAB
  0
TABLE
  2
VIEW
  5
6
100
AcDbSymbolTable
 70
0
  0
ENDTAB
  0
TABLE
  2
UCS
  5
7
100
AcDbSymbolTable
 70
0
  0
ENDTAB
  0
TABLE
  2
APPID
  5
9
100
AcDbSymbolTable
 70
1
  0
APPID
  5
201
100
AcDbSymbolTableRecord
100
AcDbRegAppTableRecord
  2
ACAD
 70
0
  0
ENDTAB
  0
TABLE
  2
BLOCK_RECORD
  5
1
100
AcDbSymbolTable
 70
0
  0
BLOCK_RECORD
  5
202
100
AcDbSymbolTableRecord
100
AcDbBlockTableRecord
  2
*Model_Space
  0
BLOCK_RECORD
  5
203
100
AcDbSymbolTableRecord
100
AcDbBlockTableRecord
  2
*Paper_Space
  0
BLOCK_RECORD
  5
204
100
AcDbSymbolTableRecord
100
AcDbBlockTableRecord
  2
_FILLED
  0
ENDTAB
  0
TABLE
  2
DIMSTYLE
  5
A
100
AcDbSymbolTable
 70
1
100
AcDbDimStyleTable
 71
0
  0
DIMSTYLE
105
205
100
AcDbSymbolTableRecord
100
AcDbDimStyleTableRecord
  2
STANDARD
 70
0
  3

  4

 40
1.0
 41
0.1
 42
0.0625
 43
0.38
 44
0.125
 45
0.0
 46
0.0
 47
0.001
 48
0.001
140
0.08
141
0.09
142
0.0
143
25.4
144
1.0
145
0.0
146
1.0
147
0.09
 71
1.0
 72
0.0
 73
1
 74
1
 75
0
 76
0
 77
0
 78
4
 79
1
170
1
171
2
172
0
173
0
174
0
175
0
176
0
177
0
178
0
270
2
179
3
271
3
272
3
273
2
274
2
275
0
280
0
281
0
282
0
283
1
284
4
285
0
286
0
287
3
288
0
340
11
278
46
341
204
342
204
343
204
344
204
  0
ENDTAB
  0
ENDSEC
  0
SECTION
  2
BLOCKS
  0
BLOCK
  5
20
100
AcDbEntity
  8
0
100
AcDbBlockBegin
  2
*Model_Space
 70
0
 10
0.0
 20
0.0
 30
0.0
  3
*Model_Space
  1

  0
ENDBLK
  5
21
100
AcDbEntity
  8
0
100
AcDbBlockEnd
  0
BLOCK
  5
1C
100
AcDbEntity
  8
0
100
AcDbBlockBegin
  2
*Paper_Space
 70
0
 10
0.0
 20
0.0
 30
0.0
  3
*Paper_Space
  1

  0
ENDBLK
  5
1D
100
AcDbEntity
  8
0
100
AcDbBlockEnd
  0
BLOCK
  5
206
100
AcDbEntity
  8
0
100
AcDbBlockBegin
  2
_FILLED
 70
64
 10
0.0
 20
0.0
  3
_FILLED
  1

  0
SOLID
  5
207
100
AcDbEntity
  8
0
  6
BYBLOCK
 62
0
100
AcDbTrace
 10
0.0
 20
0.0
 11
-1.0
 21
0.2
 12
-1.0
 22
-0.2
 13
-1.0
 23
-0.2
  0
ENDBLK
  5
208
100
AcDbEntity
  8
0
  6
BYBLOCK
 62
0
100
AcDbBlockEnd
  0
ENDSEC
  0
SECTION
  2
ENTITIES
  0
LINE
  5
209
100
AcDbEntity
  8
0
100
AcDbLine
 62
7
  6
CONTINUOUS
 10
-0.3902653198
 20
6.833391804
 11
-0.3902653198
 21
6.913391804
  0
LINE
  5
20A
100
AcDbEntity
  8
0
100
AcDbLine
 62
7
  6
CONTINUOUS
 10
0.5347346802
 20
6.833391804
 11
0.5347346802
 21
6.913391804
  0
LINE
  5
20B
100
AcDbEntity
  8
0
100
AcDbLine
 62
7
  6
CONTINUOUS
 10
2.6703546802
 20
7.208391804
 11
2.6703546802
 21
6.833391804
  0
LINE
  5
20C
100
AcDbEntity
  8
0
100
AcDbLine
 62
7
  6
CONTINUOUS
 10
2.8078546802
 20
7.333391804
 11
2.8078546802
 21
7.283391804
  0
LINE
  5
20D
100
AcDbEntity
  8
0
100
AcDbLine
 62
7
  6
CONTINUOUS
 10
2.8328546802
 20
6.833391804
 11
2.8328546802
 21
6.583391804
  0
LINE
  5
20E
100
AcDbEntity
  8
0
100
AcDbLine
 62
7
  6
CONTINUOUS
 10
3.3078546802
 20
6.833391804
 11
3.3078546802
 21
6.583391804
  0
LINE
  5
20F
100
AcDbEntity
  8
0
100
AcDbLine
 62
7
  6
CONTINUOUS
 10
3.3328546802
 20
7.333391804
 11
3.3328546802
 21
7.283391804
  0
LINE
  5
210
100
AcDbEntity
  8
0
100
AcDbLine
 62
7
  6
CONTINUOUS
 10
3.4703546802
 20
7.208391804
 11
3.4703546802
 21
6.833391804
  0
LINE
  5
211
100
AcDbEntity
  8
0
100
AcDbLine
 62
7
  6
CONTINUOUS
 10
-0.7177653198
 20
6.333391804
 11
0.8622346802
 21
6.333391804
  0
LINE
  5
212
100
AcDbEntity
  8
0
100
AcDbLine
 62
7
  6
CONTINUOUS
 10
2.4143603096
 20
6.333391804
 11
3.7263490509
 21
6.333391804
  0
LINE
  5
213
100
AcDbEntity
  8
0
100
AcDbLine
 62
7
  6
CONTINUOUS
 10
10.8203710753
 20
6.333391804
 11
13.3203382851
 21
6.333391804
  0
LINE
  5
214
100
AcDbEntity
  8
0
100
AcDbLine
 62
7
  6
CONTINUOUS
 10
20.0598716017
 20
6.333391804
 11
22.0848377587
 21
6.333391804
  0
LINE
  5
215
100
AcDbEntity
  8
0
100
AcDbLine
 62
7
  6
CONTINUOUS
 10
3.5499256286
 20
6.458391804
 11
2.5907837318
 21
6.458391804
  0
LINE
  5
216
100
AcDbEntity
  8
0
100
AcDbLine
 62
7
  6
CONTINUOUS
 10
13.3203546802
 20
6.483391804
 11
10.8203546802
 21
6.483391804
  0
LINE
  5
217
100
AcDbEntity
  8
0
100
AcDbLine
 62
7
  6
CONTINUOUS
 10
10.8703546802
 20
6.533391804
 11
13.2703546802
 21
6.533391804
  0
LINE
  5
218
100
AcDbEntity
  8
0
100
AcDbLine
 62
9
  6
CONTINUOUS
 10
22.0848546802
 20
6.5823592717
 11
20.0598546802
 21
6.5823592717
  0
LINE
  5
219
100
AcDbEntity
  8
0
100
AcDbLine
 62
7
  6
CONTINUOUS
 10
3.3626771946
 20
6.583391804
 11
2.7780321659
 21
6.583391804
  0
LINE
  5
21A
100
AcDbEntity
  8
0
100
AcDbLine
 62
7
  6
CONTINUOUS
 10
22.0473546802
 20
6.653391804
 11
20.0973546802
 21
6.653391804
  0
LINE
  5
21B
100
AcDbEntity
  8
0
100
AcDbLine
 62
7
  6
CONTINUOUS
 10
13.3174661757
 20
6.733391804
 11
13.3203360957
 21
6.733391804
  0
LINE
  5
21C
100
AcDbEntity
  8
0
100
AcDbLine
 62
7
  6
CONTINUOUS
 10
10.8203732647
 20
6.733391804
 11
13.3168157282
 21
6.733391804
  0
LINE
  5
21D
100
AcDbEntity
  8
0
100
AcDbLine
 62
7
  6
CONTINUOUS
 10
10.8232431848
 20
6.808391804
 11
10.8203732647
 21
6.808391804
  0
LINE
  5
21E
100
AcDbEntity
  8
0
100
AcDbLine
 62
7
  6
CONTINUOUS
 10
10.8238936322
 20
6.808391804
 11
13.3203360957
 21
6.808391804
  0
LINE
  5
21F
100
AcDbEntity
  8
0
100
AcDbLine
 62
7
  6
CONTINUOUS
 10
0.5672342109
 20
6.833391804
 11
-0.4227648505
 21
6.833391804
  0
LINE
  5
220
100
AcDbEntity
  8
0
100
AcDbLine
 62
7
  6
CONTINUOUS
 10
2.6703551085
 20
6.833391804
 11
3.470354252
 21
6.833391804
  0
LINE
  5
221
100
AcDbEntity
  8
0
100
AcDbLine
 62
7
  6
CONTINUOUS
 10
13.1453535229
 20
6.908391804
 11
10.9953558376
 21
6.908391804
  0
LINE
  5
222
100
AcDbEntity
  8
0
100
AcDbLine
 62
9
  6
CONTINUOUS
 10
0.5347346802
 20
6.913391804
 11
-0.3902653198
 21
6.913391804
  0
LINE
  5
223
100
AcDbEntity
  8
0
100
AcDbLine
 62
7
  6
CONTINUOUS
 10
12.9953391658
 20
7.008391804
 11
11.1453701947
 21
7.008391804
  0
LINE
  5
224
100
AcDbEntity
  8
0
100
AcDbLine
 62
9
  6
CONTINUOUS
 10
-0.3550534068
 20
7.0774943681
 11
0.4995227673
 21
7.0774943681
  0
LINE
  5
225
100
AcDbEntity
  8
0
100
AcDbLine
 62
7
  6
CONTINUOUS
 10
-0.3459337046
 20
7.083391804
 11
0.4904027385
 21
7.083391804
  0
LINE
  5
226
100
AcDbEntity
  8
0
100
AcDbLine
 62
7
  6
CONTINUOUS
 10
3.470354252
 20
7.208391804
 11
2.6703551085
 21
7.208391804
  0
LINE
  5
227
100
AcDbEntity
  8
0
100
AcDbLine
 62
7
  6
CONTINUOUS
 10
3.3828496314
 20
7.283391804
 11
2.7578597291
 21
7.283391804
  0
LINE
  5
228
100
AcDbEntity
  8
0
100
AcDbLine
 62
7
  6
CONTINUOUS
 10
3.3328543216
 20
7.333391804
 11
2.8078550389
 21
7.333391804
  0
LINE
  5
229
100
AcDbEntity
  8
0
100
AcDbLine
 62
9
  6
CONTINUOUS
 10
20.3641624827
 20
7.4941369442
 11
21.7805468778
 21
7.4941369442
  0
LINE
  5
22A
100
AcDbEntity
  8
0
100
AcDbLine
 62
7
  6
CONTINUOUS
 10
12.9453546802
 20
7.533391804
 11
11.1953546802
 21
7.533391804
  0
LINE
  5
22B
100
AcDbEntity
  8
0
100
AcDbLine
 62
7
  6
CONTINUOUS
 10
11.1203546802
 20
7.608391804
 11
13.0203546802
 21
7.608391804
  0
LINE
  5
22C
100
AcDbEntity
  8
0
100
AcDbLine
 62
9
  6
CONTINUOUS
 10
20.4154840768
 20
7.6367325769
 11
21.7292252836
 21
7.6367325769
  0
LINE
  5
22D
100
AcDbEntity
  8
0
100
AcDbLine
 62
7
  6
CONTINUOUS
 10
11.0453557671
 20
7.708391804
 11
13.0953535934
 21
7.708391804
  0
LINE
  5
22E
100
AcDbEntity
  8
0
100
AcDbLine
 62
7
  6
CONTINUOUS
 10
13.0953535934
 20
7.908391804
 11
11.0453557671
 21
7.908391804
  0
LINE
  5
22F
100
AcDbEntity
  8
0
100
AcDbLine
 62
7
  6
CONTINUOUS
 10
13.0203546802
 20
7.958391804
 11
11.1203546802
 21
7.958391804
  0
LINE
  5
230
100
AcDbEntity
  8
0
100
AcDbLine
 62
7
  6
CONTINUOUS
 10
12.9203408578
 20
8.058391804
 11
11.2203685026
 21
8.058391804
  0
LINE
  5
231
100
AcDbEntity
  8
0
100
AcDbLine
 62
7
  6
CONTINUOUS
 10
12.8203536327
 20
8.108391804
 11
11.3203557277
 21
8.108391804
  0
LINE
  5
232
100
AcDbEntity
  8
0
100
AcDbLine
 62
7
  6
CONTINUOUS
 10
12.4703539288
 20
8.208391804
 11
11.6703554316
 21
8.208391804
  0
LINE
  5
233
100
AcDbEntity
  8
0
100
AcDbLine
 62
7
  6
CONTINUOUS
 10
11.7578672281
 20
8.238391804
 11
12.3828421323
 21
8.238391804
  0
LINE
  5
234
100
AcDbEntity
  8
0
100
AcDbLine
 62
7
  6
CONTINUOUS
 10
11.1953546802
 20
7.533391804
 11
11.1203546802
 21
7.608391804
  0
LINE
  5
235
100
AcDbEntity
  8
0
100
AcDbLine
 62
9
  6
CONTINUOUS
 10
12.3828546802
 20
8.531391804
 11
11.7578546802
 21
8.531391804
  0
LINE
  5
236
100
AcDbEntity
  8
0
100
AcDbLine
 62
7
  6
CONTINUOUS
 10
11.6703591995
 20
8.551391804
 11
12.470351472
 21
8.551391804
  0
LINE
  5
237
100
AcDbEntity
  8
0
100
AcDbLine
 62
9
  6
CONTINUOUS
 10
12.3689265561
 20
8.6510640443
 11
12.3289265561
 21
8.6510640443
  0
LINE
  5
238
100
AcDbEntity
  8
0
100
AcDbLine
 62
9
  6
CONTINUOUS
 10
11.7717828044
 20
8.6510640443
 11
11.8117828044
 21
8.6510640443
  0
LINE
  5
239
100
AcDbEntity
  8
0
100
AcDbLine
 62
9
  6
CONTINUOUS
 10
12.3689265561
 20
8.9853957452
 11
12.3289265561
 21
8.9853957452
  0
LINE
  5
23A
100
AcDbEntity
  8
0
100
AcDbLine
 62
9
  6
CONTINUOUS
 10
11.7717828044
 20
8.9853957452
 11
11.8117828044
 21
8.9853957452
  0
LINE
  5
23B
100
AcDbEntity
  8
0
100
AcDbLine
 62
7
  6
CONTINUOUS
 10
12.4703539288
 20
9.026391804
 11
12.3342461205
 21
9.026391804
  0
LINE
  5
23C
100
AcDbEntity
  8
0
100
AcDbLine
 62
7
  6
CONTINUOUS
 10
11.826706548
 20
9.026391804
 11
11.6703554316
 21
9.026391804
  0
LINE
  5
23D
100
AcDbEntity
  8
0
100
AcDbLine
 62
7
  6
CONTINUOUS
 10
12.3828421323
 20
9.101391804
 11
11.7578672281
 21
9.101391804
  0
LINE
  5
23E
100
AcDbEntity
  8
0
100
AcDbLine
 62
7
  6
CONTINUOUS
 10
13.2703546802
 20
6.533391804
 11
13.3203546802
 21
6.483391804
  0
LINE
  5
23F
100
AcDbEntity
  8
0
100
AcDbLine
 62
7
  6
CONTINUOUS
 10
10.8203546802
 20
6.333391804
 11
10.8203546802
 21
6.483391804
  0
LINE
  5
240
100
AcDbEntity
  8
0
100
AcDbLine
 62
7
  6
CONTINUOUS
 10
10.8203732647
 20
6.808391804
 11
10.8203732647
 21
6.733391804
  0
LINE
  5
241
100
AcDbEntity
  8
0
100
AcDbLine
 62
7
  6
CONTINUOUS
 10
10.8208968369
 20
6.733391804
 11
10.8208968369
 21
6.808391804
  0
LINE
  5
242
100
AcDbEntity
  8
0
100
AcDbLine
 62
7
  6
CONTINUOUS
 10
10.8213726023
 20
6.808391804
 11
10.8213726023
 21
6.733391804
  0
LINE
  5
243
100
AcDbEntity
  8
0
100
AcDbLine
 62
7
  6
CONTINUOUS
 10
10.822942681
 20
6.733391804
 11
10.822942681
 21
6.808391804
  0
LINE
  5
244
100
AcDbEntity
  8
0
100
AcDbLine
 62
7
  6
CONTINUOUS
 10
10.8238936322
 20
6.808391804
 11
10.8238936322
 21
6.733391804
  0
LINE
  5
245
100
AcDbEntity
  8
0
100
AcDbLine
 62
7
  6
CONTINUOUS
 10
10.8265083045
 20
6.733391804
 11
10.8265083045
 21
6.808391804
  0
LINE
  5
246
100
AcDbEntity
  8
0
100
AcDbLine
 62
7
  6
CONTINUOUS
 10
10.8279332829
 20
6.808391804
 11
10.8279332829
 21
6.733391804
  0
LINE
  5
247
100
AcDbEntity
  8
0
100
AcDbLine
 62
7
  6
CONTINUOUS
 10
10.8315893632
 20
6.733391804
 11
10.8315893632
 21
6.808391804
  0
LINE
  5
248
100
AcDbEntity
  8
0
100
AcDbLine
 62
7
  6
CONTINUOUS
 10
10.8334866327
 20
6.808391804
 11
10.8334866327
 21
6.733391804
  0
LINE
  5
249
100
AcDbEntity
  8
0
100
AcDbLine
 62
7
  6
CONTINUOUS
 10
10.8381796666
 20
6.733391804
 11
10.8381796666
 21
6.808391804
  0
LINE
  5
24A
100
AcDbEntity
  8
0
100
AcDbLine
 62
7
  6
CONTINUOUS
 10
10.8405469156
 20
6.808391804
 11
10.8405469156
 21
6.733391804
  0
LINE
  5
24B
100
AcDbEntity
  8
0
100
AcDbLine
 62
7
  6
CONTINUOUS
 10
10.8462711855
 20
6.733391804
 11
10.8462711855
 21
6.808391804
  0
LINE
  5
24C
100
AcDbEntity
  8
0
100
AcDbLine
 62
7
  6
CONTINUOUS
 10
10.8491055299
 20
6.808391804
 11
10.8491055299
 21
6.733391804
  0
LINE
  5
24D
100
AcDbEntity
  8
0
100
AcDbLine
 62
7
  6
CONTINUOUS
 10
10.8558540615
 20
6.733391804
 11
10.8558540615
 21
6.808391804
  0
LINE
  5
24E
100
AcDbEntity
  8
0
100
AcDbLine
 62
7
  6
CONTINUOUS
 10
10.8591520481
 20
6.808391804
 11
10.8591520481
 21
6.733391804
  0
LINE
  5
24F
100
AcDbEntity
  8
0
100
AcDbLine
 62
7
  6
CONTINUOUS
 10
10.8669166195
 20
6.733391804
 11
10.8669166195
 21
6.808391804
  0
LINE
  5
250
100
AcDbEntity
  8
0
100
AcDbLine
 62
7
  6
CONTINUOUS
 10
10.8703546802
 20
6.533391804
 11
10.8703546802
 21
6.733391804
  0
LINE
  5
251
100
AcDbEntity
  8
0
100
AcDbLine
 62
7
  6
CONTINUOUS
 10
10.8706742302
 20
6.808391804
 11
10.8706742302
 21
6.733391804
  0
LINE
  5
252
100
AcDbEntity
  8
0
100
AcDbLine
 62
7
  6
CONTINUOUS
 10
10.8794453814
 20
6.733391804
 11
10.8794453814
 21
6.808391804
  0
LINE
  5
253
100
AcDbEntity
  8
0
100
AcDbLine
 62
7
  6
CONTINUOUS
 10
10.8836580381
 20
6.808391804
 11
10.8836580381
 21
6.733391804
  0
LINE
  5
254
100
AcDbEntity
  8
0
100
AcDbLine
 62
7
  6
CONTINUOUS
 10
10.8934250828
 20
6.733391804
 11
10.8934250828
 21
6.808391804
  0
LINE
  5
255
100
AcDbEntity
  8
0
100
AcDbLine
 62
7
  6
CONTINUOUS
 10
10.8980876531
 20
6.808391804
 11
10.8980876531
 21
6.733391804
  0
LINE
  5
256
100
AcDbEntity
  8
0
100
AcDbLine
 62
7
  6
CONTINUOUS
 10
10.9088386916
 20
6.733391804
 11
10.9088386916
 21
6.808391804
  0
LINE
  5
257
100
AcDbEntity
  8
0
100
AcDbLine
 62
7
  6
CONTINUOUS
 10
10.9139454949
 20
6.808391804
 11
10.9139454949
 21
6.733391804
  0
LINE
  5
258
100
AcDbEntity
  8
0
100
AcDbLine
 62
7
  6
CONTINUOUS
 10
10.9256674288
 20
6.733391804
 11
10.9256674288
 21
6.808391804
  0
LINE
  5
259
100
AcDbEntity
  8
0
100
AcDbLine
 62
7
  6
CONTINUOUS
 10
10.9312122431
 20
6.808391804
 11
10.9312122431
 21
6.733391804
  0
LINE
  5
25A
100
AcDbEntity
  8
0
100
AcDbLine
 62
7
  6
CONTINUOUS
 10
10.943890791
 20
6.733391804
 11
10.943890791
 21
6.808391804
  0
LINE
  5
25B
100
AcDbEntity
  8
0
100
AcDbLine
 62
7
  6
CONTINUOUS
 10
10.949866861
 20
6.808391804
 11
10.949866861
 21
6.733391804
  0
LINE
  5
25C
100
AcDbEntity
  8
0
100
AcDbLine
 62
7
  6
CONTINUOUS
 10
10.963486576
 20
6.733391804
 11
10.963486576
 21
6.808391804
  0
LINE
  5
25D
100
AcDbEntity
  8
0
100
AcDbLine
 62
7
  6
CONTINUOUS
 10
10.9698866206
 20
6.808391804
 11
10.9698866206
 21
6.733391804
  0
LINE
  5
25E
100
AcDbEntity
  8
0
100
AcDbLine
 62
7
  6
CONTINUOUS
 10
10.9844309092
 20
6.733391804
 11
10.9844309092
 21
6.808391804
  0
LINE
  5
25F
100
AcDbEntity
  8
0
100
AcDbLine
 62
7
  6
CONTINUOUS
 10
10.9912471311
 20
6.808391804
 11
10.9912471311
 21
6.733391804
  0
LINE
  5
260
100
AcDbEntity
  8
0
100
AcDbLine
 62
7
  6
CONTINUOUS
 10
11.0066982733
 20
6.733391804
 11
11.0066982733
 21
6.808391804
  0
LINE
  5
261
100
AcDbEntity
  8
0
100
AcDbLine
 62
7
  6
CONTINUOUS
 10
11.0139223678
 20
6.808391804
 11
11.0139223678
 21
6.733391804
  0
LINE
  5
262
100
AcDbEntity
  8
0
100
AcDbLine
 62
7
  6
CONTINUOUS
 10
11.0302615389
 20
6.733391804
 11
11.0302615389
 21
6.808391804
  0
LINE
  5
263
100
AcDbEntity
  8
0
100
AcDbLine
 62
7
  6
CONTINUOUS
 10
11.0378847047
 20
6.808391804
 11
11.0378847047
 21
6.733391804
  0
LINE
  5
264
100
AcDbEntity
  8
0
100
AcDbLine
 62
7
  6
CONTINUOUS
 10
11.0453546802
 20
7.708391804
 11
11.0453546802
 21
7.908391804
  0
LINE
  5
265
100
AcDbEntity
  8
0
100
AcDbLine
 62
7
  6
CONTINUOUS
 10
11.0550919977
 20
6.733391804
 11
11.0550919977
 21
6.808391804
  0
LINE
  5
266
100
AcDbEntity
  8
0
100
AcDbLine
 62
7
  6
CONTINUOUS
 10
11.0631049471
 20
6.808391804
 11
11.0631049471
 21
6.733391804
  0
LINE
  5
267
100
AcDbEntity
  8
0
100
AcDbLine
 62
7
  6
CONTINUOUS
 10
11.0811593978
 20
6.733391804
 11
11.0811593978
 21
6.808391804
  0
LINE
  5
268
100
AcDbEntity
  8
0
100
AcDbLine
 62
7
  6
CONTINUOUS
 10
11.0895523682
 20
6.808391804
 11
11.0895523682
 21
6.733391804
  0
LINE
  5
269
100
AcDbEntity
  8
0
100
AcDbLine
 62
7
  6
CONTINUOUS
 10
11.1084319799
 20
6.733391804
 11
11.1084319799
 21
6.808391804
  0
LINE
  5
26A
100
AcDbEntity
  8
0
100
AcDbLine
 62
7
  6
CONTINUOUS
 10
11.1171947458
 20
6.808391804
 11
11.1171947458
 21
6.733391804
  0
LINE
  5
26B
100
AcDbEntity
  8
0
100
AcDbLine
 62
7
  6
CONTINUOUS
 10
11.1203546802
 20
7.608391804
 11
11.1203546802
 21
7.708391804
  0
LINE
  5
26C
100
AcDbEntity
  8
0
100
AcDbLine
 62
7
  6
CONTINUOUS
 10
11.1203546802
 20
7.908391804
 11
11.1203546802
 21
7.958391804
  0
LINE
  5
26D
100
AcDbEntity
  8
0
100
AcDbLine
 62
7
  6
CONTINUOUS
 10
11.1368765167
 20
6.733391804
 11
11.1368765167
 21
6.808391804
  0
LINE
  5
26E
100
AcDbEntity
  8
0
100
AcDbLine
 62
7
  6
CONTINUOUS
 10
11.145998402
 20
6.808391804
 11
11.145998402
 21
6.733391804
  0
LINE
  5
26F
100
AcDbEntity
  8
0
100
AcDbLine
 62
7
  6
CONTINUOUS
 10
11.1664583528
 20
6.733391804
 11
11.1664583528
 21
6.808391804
  0
LINE
  5
270
100
AcDbEntity
  8
0
100
AcDbLine
 62
7
  6
CONTINUOUS
 10
11.1759282439
 20
6.808391804
 11
11.1759282439
 21
6.733391804
  0
LINE
  5
271
100
AcDbEntity
  8
0
100
AcDbLine
 62
7
  6
CONTINUOUS
 10
11.1953546802
 20
7.008391804
 11
11.1953546802
 21
7.533391804
  0
LINE
  5
272
100
AcDbEntity
  8
0
100
AcDbLine
 62
7
  6
CONTINUOUS
 10
11.1971414474
 20
6.733391804
 11
11.1971414474
 21
6.808391804
  0
LINE
  5
273
100
AcDbEntity
  8
0
100
AcDbLine
 62
7
  6
CONTINUOUS
 10
11.2069478067
 20
6.808391804
 11
11.2069478067
 21
6.733391804
  0
LINE
  5
274
100
AcDbEntity
  8
0
100
AcDbLine
 62
7
  6
CONTINUOUS
 10
11.2281480876
 20
6.733391804
 11
11.2281480876
 21
6.808391804
  0
LINE
  5
275
100
AcDbEntity
  8
0
100
AcDbLine
 62
7
  6
CONTINUOUS
 10
11.2288884177
 20
6.733391804
 11
11.2288884177
 21
6.808391804
  0
LINE
  5
276
100
AcDbEntity
  8
0
100
AcDbLine
 62
7
  6
CONTINUOUS
 10
11.2390192977
 20
6.808391804
 11
11.2390192977
 21
6.733391804
  0
LINE
  5
277
100
AcDbEntity
  8
0
100
AcDbLine
 62
7
  6
CONTINUOUS
 10
11.2601808269
 20
6.733391804
 11
11.2601808269
 21
6.808391804
  0
LINE
  5
278
100
AcDbEntity
  8
0
100
AcDbLine
 62
7
  6
CONTINUOUS
 10
11.2616605851
 20
6.733391804
 11
11.2616605851
 21
6.808391804
  0
LINE
  5
279
100
AcDbEntity
  8
0
100
AcDbLine
 62
7
  6
CONTINUOUS
 10
11.2721036429
 20
6.808391804
 11
11.2721036429
 21
6.733391804
  0
LINE
  5
27A
100
AcDbEntity
  8
0
100
AcDbLine
 62
7
  6
CONTINUOUS
 10
11.2932006382
 20
6.733391804
 11
11.2932006382
 21
6.808391804
  0
LINE
  5
27B
100
AcDbEntity
  8
0
100
AcDbLine
 62
7
  6
CONTINUOUS
 10
11.2954180217
 20
6.733391804
 11
11.2954180217
 21
6.808391804
  0
LINE
  5
27C
100
AcDbEntity
  8
0
100
AcDbLine
 62
7
  6
CONTINUOUS
 10
11.3061605339
 20
6.808391804
 11
11.3061605339
 21
6.733391804
  0
LINE
  5
27D
100
AcDbEntity
  8
0
100
AcDbLine
 62
7
  6
CONTINUOUS
 10
11.3203546802
 20
8.058391804
 11
11.3203546802
 21
8.108391804
  0
LINE
  5
27E
100
AcDbEntity
  8
0
100
AcDbLine
 62
7
  6
CONTINUOUS
 10
11.3271672919
 20
6.733391804
 11
11.3271672919
 21
6.808391804
  0
LINE
  5
27F
100
AcDbEntity
  8
0
100
AcDbLine
 62
7
  6
CONTINUOUS
 10
11.3301195992
 20
6.733391804
 11
11.3301195992
 21
6.808391804
  0
LINE
  5
280
100
AcDbEntity
  8
0
100
AcDbLine
 62
7
  6
CONTINUOUS
 10
11.3411484779
 20
6.808391804
 11
11.3411484779
 21
6.733391804
  0
LINE
  5
281
100
AcDbEntity
  8
0
100
AcDbLine
 62
7
  6
CONTINUOUS
 10
11.3620394051
 20
6.733391804
 11
11.3620394051
 21
6.808391804
  0
LINE
  5
282
100
AcDbEntity
  8
0
100
AcDbLine
 62
7
  6
CONTINUOUS
 10
11.3657230392
 20
6.733391804
 11
11.3657230392
 21
6.808391804
  0
LINE
  5
283
100
AcDbEntity
  8
0
100
AcDbLine
 62
7
  6
CONTINUOUS
 10
11.3770248472
 20
6.808391804
 11
11.3770248472
 21
6.733391804
  0
LINE
  5
284
100
AcDbEntity
  8
0
100
AcDbLine
 62
7
  6
CONTINUOUS
 10
11.3977744913
 20
6.733391804
 11
11.3977744913
 21
6.808391804
  0
LINE
  5
285
100
AcDbEntity
  8
0
100
AcDbLine
 62
7
  6
CONTINUOUS
 10
11.4021849643
 20
6.733391804
 11
11.4021849643
 21
6.808391804
  0
LINE
  5
286
100
AcDbEntity
  8
0
100
AcDbLine
 62
7
  6
CONTINUOUS
 10
11.4137459322
 20
6.808391804
 11
11.4137459322
 21
6.733391804
  0
LINE
  5
287
100
AcDbEntity
  8
0
100
AcDbLine
 62
7
  6
CONTINUOUS
 10
11.4343290128
 20
6.733391804
 11
11.4343290128
 21
6.808391804
  0
LINE
  5
288
100
AcDbEntity
  8
0
100
AcDbLine
 62
7
  6
CONTINUOUS
 10
11.4394609512
 20
6.733391804
 11
11.4394609512
 21
6.808391804
  0
LINE
  5
289
100
AcDbEntity
  8
0
100
AcDbLine
 62
7
  6
CONTINUOUS
 10
11.4512669937
 20
6.808391804
 11
11.4512669937
 21
6.733391804
  0
LINE
  5
28A
100
AcDbEntity
  8
0
100
AcDbLine
 62
7
  6
CONTINUOUS
 10
11.4716584337
 20
6.733391804
 11
11.4716584337
 21
6.808391804
  0
LINE
  5
28B
100
AcDbEntity
  8
0
100
AcDbLine
 62
7
  6
CONTINUOUS
 10
11.477505585
 20
6.733391804
 11
11.477505585
 21
6.808391804
  0
LINE
  5
28C
100
AcDbEntity
  8
0
100
AcDbLine
 62
7
  6
CONTINUOUS
 10
11.4895423183
 20
6.808391804
 11
11.4895423183
 21
6.733391804
  0
LINE
  5
28D
100
AcDbEntity
  8
0
100
AcDbLine
 62
7
  6
CONTINUOUS
 10
11.5097172737
 20
6.733391804
 11
11.5097172737
 21
6.808391804
  0
LINE
  5
28E
100
AcDbEntity
  8
0
100
AcDbLine
 62
7
  6
CONTINUOUS
 10
11.516272514
 20
6.733391804
 11
11.516272514
 21
6.808391804
  0
LINE
  5
28F
100
AcDbEntity
  8
0
100
AcDbLine
 62
7
  6
CONTINUOUS
 10
11.5285252733
 20
6.808391804
 11
11.5285252733
 21
6.733391804
  0
LINE
  5
290
100
AcDbEntity
  8
0
100
AcDbLine
 62
7
  6
CONTINUOUS
 10
11.548459164
 20
6.733391804
 11
11.548459164
 21
6.808391804
  0
LINE
  5
291
100
AcDbEntity
  8
0
100
AcDbLine
 62
7
  6
CONTINUOUS
 10
11.5557145069
 20
6.733391804
 11
11.5557145069
 21
6.808391804
  0
LINE
  5
292
100
AcDbEntity
  8
0
100
AcDbLine
 62
7
  6
CONTINUOUS
 10
11.5681683639
 20
6.808391804
 11
11.5681683639
 21
6.733391804
  0
LINE
  5
293
100
AcDbEntity
  8
0
100
AcDbLine
 62
7
  6
CONTINUOUS
 10
11.5878369036
 20
6.733391804
 11
11.5878369036
 21
6.808391804
  0
LINE
  5
294
100
AcDbEntity
  8
0
100
AcDbLine
 62
7
  6
CONTINUOUS
 10
11.5957835095
 20
6.733391804
 11
11.5957835095
 21
6.808391804
  0
LINE
  5
295
100
AcDbEntity
  8
0
100
AcDbLine
 62
9
  6
CONTINUOUS
 10
11.8078546802
 20
9.121391804
 11
12.3328546802
 21
9.121391804
  0
LINE
  5
296
100
AcDbEntity
  8
0
100
AcDbLine
 62
7
  6
CONTINUOUS
 10
12.3328538822
 20
9.151391804
 11
11.8078554782
 21
9.151391804
  0
LINE
  5
297
100
AcDbEntity
  8
0
100
AcDbLine
 62
7
  6
CONTINUOUS
 10
20.3323556821
 20
9.801391804
 11
21.8123536783
 21
9.801391804
  0
LINE
  5
298
100
AcDbEntity
  8
0
100
AcDbLine
 62
9
  6
CONTINUOUS
 10
20.3123546802
 20
9.8762249518
 11
21.8323546802
 21
9.8762249518
  0
LINE
  5
299
100
AcDbEntity
  8
0
100
AcDbLine
 62
7
  6
CONTINUOUS
 10
11.6084232912
 20
6.808391804
 11
11.6084232912
 21
6.733391804
  0
LINE
  5
29A
100
AcDbEntity
  8
0
100
AcDbLine
 62
7
  6
CONTINUOUS
 10
11.6278025168
 20
6.733391804
 11
11.6278025168
 21
6.808391804
  0
LINE
  5
29B
100
AcDbEntity
  8
0
100
AcDbLine
 62
7
  6
CONTINUOUS
 10
11.636430704
 20
6.733391804
 11
11.636430704
 21
6.808391804
  0
LINE
  5
29C
100
AcDbEntity
  8
0
100
AcDbLine
 62
7
  6
CONTINUOUS
 10
11.6492410107
 20
6.808391804
 11
11.6492410107
 21
6.733391804
  0
LINE
  5
29D
100
AcDbEntity
  8
0
100
AcDbLine
 62
7
  6
CONTINUOUS
 10
11.6683073117
 20
6.733391804
 11
11.6683073117
 21
6.808391804
  0
LINE
  5
29E
100
AcDbEntity
  8
0
100
AcDbLine
 62
7
  6
CONTINUOUS
 10
11.6703546802
 20
9.026391804
 11
11.6703546802
 21
8.551391804
  0
LINE
  5
29F
100
AcDbEntity
  8
0
100
AcDbLine
 62
7
  6
CONTINUOUS
 10
11.6703546802
 20
8.108391804
 11
11.6703546802
 21
8.208391804
  0
LINE
  5
2A0
100
AcDbEntity
  8
0
100
AcDbLine
 62
7
  6
CONTINUOUS
 10
11.677606568
 20
6.733391804
 11
11.677606568
 21
6.808391804
  0
LINE
  5
2A1
100
AcDbEntity
  8
0
100
AcDbLine
 62
7
  6
CONTINUOUS
 10
11.6905717924
 20
6.808391804
 11
11.6905717924
 21
6.733391804
  0
LINE
  5
2A2
100
AcDbEntity
  8
0
100
AcDbLine
 62
7
  6
CONTINUOUS
 10
11.7093019393
 20
6.733391804
 11
11.7093019393
 21
6.808391804
  0
LINE
  5
2A3
100
AcDbEntity
  8
0
100
AcDbLine
 62
7
  6
CONTINUOUS
 10
11.7192609351
 20
6.733391804
 11
11.7192609351
 21
6.808391804
  0
LINE
  5
2A4
100
AcDbEntity
  8
0
100
AcDbLine
 62
7
  6
CONTINUOUS
 10
11.732365281
 20
6.808391804
 11
11.732365281
 21
6.733391804
  0
LINE
  5
2A5
100
AcDbEntity
  8
0
100
AcDbLine
 62
7
  6
CONTINUOUS
 10
11.7507364541
 20
6.733391804
 11
11.7507364541
 21
6.808391804
  0
LINE
  5
2A6
100
AcDbEntity
  8
0
100
AcDbLine
 62
7
  6
CONTINUOUS
 10
11.7578546802
 20
8.531391804
 11
11.7578546802
 21
8.238391804
  0
LINE
  5
2A7
100
AcDbEntity
  8
0
100
AcDbLine
 62
7
  6
CONTINUOUS
 10
11.7613430558
 20
6.733391804
 11
11.7613430558
 21
6.808391804
  0
LINE
  5
2A8
100
AcDbEntity
  8
0
100
AcDbLine
 62
7
  6
CONTINUOUS
 10
11.7717828044
 20
8.9853957452
 11
11.7717828044
 21
8.6510640443
  0
LINE
  5
2A9
100
AcDbEntity
  8
0
100
AcDbLine
 62
7
  6
CONTINUOUS
 10
11.7745705576
 20
6.808391804
 11
11.7745705576
 21
6.733391804
  0
LINE
  5
2AA
100
AcDbEntity
  8
0
100
AcDbLine
 62
7
  6
CONTINUOUS
 10
11.7925603744
 20
6.733391804
 11
11.7925603744
 21
6.808391804
  0
LINE
  5
2AB
100
AcDbEntity
  8
0
100
AcDbLine
 62
7
  6
CONTINUOUS
 10
11.8038016596
 20
6.733391804
 11
11.8038016596
 21
6.808391804
  0
LINE
  5
2AC
100
AcDbEntity
  8
0
100
AcDbLine
 62
7
  6
CONTINUOUS
 10
11.8078546802
 20
9.151391804
 11
11.8078546802
 21
9.121391804
  0
LINE
  5
2AD
100
AcDbEntity
  8
0
100
AcDbLine
 62
9
  6
CONTINUOUS
 10
11.8117828185
 20
8.9853963784
 11
11.8117828184
 21
8.6510634045
  0
LINE
  5
2AE
100
AcDbEntity
  8
0
100
AcDbLine
 62
7
  6
CONTINUOUS
 10
11.8171362017
 20
6.808391804
 11
11.8171362017
 21
6.733391804
  0
LINE
  5
2AF
100
AcDbEntity
  8
0
100
AcDbLine
 62
7
  6
CONTINUOUS
 10
11.8347227444
 20
6.733391804
 11
11.8347227444
 21
6.808391804
  0
LINE
  5
2B0
100
AcDbEntity
  8
0
100
AcDbLine
 62
9
  6
CONTINUOUS
 10
11.8348053295
 20
8.608894788
 11
11.8348053295
 21
8.5671838922
  0
LINE
  5
2B1
100
AcDbEntity
  8
0
100
AcDbLine
 62
7
  6
CONTINUOUS
 10
11.8465850172
 20
6.733391804
 11
11.8465850172
 21
6.808391804
  0
LINE
  5
2B2
100
AcDbEntity
  8
0
100
AcDbLine
 62
7
  6
CONTINUOUS
 10
11.8600103534
 20
6.808391804
 11
11.8600103534
 21
6.733391804
  0
LINE
  5
2B3
100
AcDbEntity
  8
0
100
AcDbLine
 62
7
  6
CONTINUOUS
 10
11.8703546802
 20
8.208391804
 11
11.8703546802
 21
8.238391804
  0
LINE
  5
2B4
100
AcDbEntity
  8
0
100
AcDbLine
 62
7
  6
CONTINUOUS
 10
11.8771721955
 20
6.733391804
 11
11.8771721955
 21
6.808391804
  0
LINE
  5
2B5
100
AcDbEntity
  8
0
100
AcDbLine
 62
7
  6
CONTINUOUS
 10
11.8896410036
 20
6.733391804
 11
11.8896410036
 21
6.808391804
  0
LINE
  5
2B6
100
AcDbEntity
  8
0
100
AcDbLine
 62
7
  6
CONTINUOUS
 10
11.9031407773
 20
6.808391804
 11
11.9031407773
 21
6.733391804
  0
LINE
  5
2B7
100
AcDbEntity
  8
0
100
AcDbLine
 62
7
  6
CONTINUOUS
 10
11.9198570098
 20
6.733391804
 11
11.9198570098
 21
6.808391804
  0
LINE
  5
2B8
100
AcDbEntity
  8
0
100
AcDbLine
 62
7
  6
CONTINUOUS
 10
11.9329171619
 20
6.733391804
 11
11.9329171619
 21
6.808391804
  0
LINE
  5
2B9
100
AcDbEntity
  8
0
100
AcDbLine
 62
7
  6
CONTINUOUS
 10
11.9464749256
 20
6.808391804
 11
11.9464749256
 21
6.733391804
  0
LINE
  5
2BA
100
AcDbEntity
  8
0
100
AcDbLine
 62
7
  6
CONTINUOUS
 10
11.9627251822
 20
6.733391804
 11
11.9627251822
 21
6.808391804
  0
LINE
  5
2BB
100
AcDbEntity
  8
0
100
AcDbLine
 62
7
  6
CONTINUOUS
 10
11.9763607666
 20
6.733391804
 11
11.9763607666
 21
6.808391804
  0
LINE
  5
2BC
100
AcDbEntity
  8
0
100
AcDbLine
 62
7
  6
CONTINUOUS
 10
11.9899600023
 20
6.808391804
 11
11.9899600023
 21
6.733391804
  0
LINE
  5
2BD
100
AcDbEntity
  8
0
100
AcDbLine
 62
7
  6
CONTINUOUS
 10
12.0057244847
 20
6.733391804
 11
12.0057244847
 21
6.808391804
  0
LINE
  5
2BE
100
AcDbEntity
  8
0
100
AcDbLine
 62
7
  6
CONTINUOUS
 10
12.0199188883
 20
6.733391804
 11
12.0199188883
 21
6.808391804
  0
LINE
  5
2BF
100
AcDbEntity
  8
0
100
AcDbLine
 62
7
  6
CONTINUOUS
 10
12.0335430275
 20
6.808391804
 11
12.0335430275
 21
6.733391804
  0
LINE
  5
2C0
100
AcDbEntity
  8
0
100
AcDbLine
 62
7
  6
CONTINUOUS
 10
12.048802529
 20
6.733391804
 11
12.048802529
 21
6.808391804
  0
LINE
  5
2C1
100
AcDbEntity
  8
0
100
AcDbLine
 62
7
  6
CONTINUOUS
 10
12.0635384584
 20
6.733391804
 11
12.0635384584
 21
6.808391804
  0
LINE
  5
2C2
100
AcDbEntity
  8
0
100
AcDbLine
 62
9
  6
CONTINUOUS
 10
12.0703544894
 20
8.595768403
 11
12.0703546802
 21
8.5513918043
  0
LINE
  5
2C3
100
AcDbEntity
  8
0
100
AcDbLine
 62
7
  6
CONTINUOUS
 10
12.0771709021
 20
6.808391804
 11
12.0771709021
 21
6.733391804
  0
LINE
  5
2C4
100
AcDbEntity
  8
0
100
AcDbLine
 62
7
  6
CONTINUOUS
 10
12.0919068314
 20
6.733391804
 11
12.0919068314
 21
6.808391804
  0
LINE
  5
2C5
100
AcDbEntity
  8
0
100
AcDbLine
 62
7
  6
CONTINUOUS
 10
12.1071663329
 20
6.733391804
 11
12.1071663329
 21
6.808391804
  0
LINE
  5
2C6
100
AcDbEntity
  8
0
100
AcDbLine
 62
7
  6
CONTINUOUS
 10
12.1207904721
 20
6.808391804
 11
12.1207904721
 21
6.733391804
  0
LINE
  5
2C7
100
AcDbEntity
  8
0
100
AcDbLine
 62
7
  6
CONTINUOUS
 10
12.1349848758
 20
6.733391804
 11
12.1349848758
 21
6.808391804
  0
LINE
  5
2C8
100
AcDbEntity
  8
0
100
AcDbLine
 62
7
  6
CONTINUOUS
 10
12.1507493581
 20
6.733391804
 11
12.1507493581
 21
6.808391804
  0
LINE
  5
2C9
100
AcDbEntity
  8
0
100
AcDbLine
 62
7
  6
CONTINUOUS
 10
12.1643485939
 20
6.808391804
 11
12.1643485939
 21
6.733391804
  0
LINE
  5
2CA
100
AcDbEntity
  8
0
100
AcDbLine
 62
7
  6
CONTINUOUS
 10
12.1779841782
 20
6.733391804
 11
12.1779841782
 21
6.808391804
  0
LINE
  5
2CB
100
AcDbEntity
  8
0
100
AcDbLine
 62
7
  6
CONTINUOUS
 10
12.1942344348
 20
6.733391804
 11
12.1942344348
 21
6.808391804
  0
LINE
  5
2CC
100
AcDbEntity
  8
0
100
AcDbLine
 62
7
  6
CONTINUOUS
 10
12.2077921986
 20
6.808391804
 11
12.2077921986
 21
6.733391804
  0
LINE
  5
2CD
100
AcDbEntity
  8
0
100
AcDbLine
 62
7
  6
CONTINUOUS
 10
12.2208523507
 20
6.733391804
 11
12.2208523507
 21
6.808391804
  0
LINE
  5
2CE
100
AcDbEntity
  8
0
100
AcDbLine
 62
7
  6
CONTINUOUS
 10
12.2375685831
 20
6.733391804
 11
12.2375685831
 21
6.808391804
  0
LINE
  5
2CF
100
AcDbEntity
  8
0
100
AcDbLine
 62
7
  6
CONTINUOUS
 10
12.2510683568
 20
6.808391804
 11
12.2510683568
 21
6.733391804
  0
LINE
  5
2D0
100
AcDbEntity
  8
0
100
AcDbLine
 62
7
  6
CONTINUOUS
 10
12.2635371649
 20
6.733391804
 11
12.2635371649
 21
6.808391804
  0
LINE
  5
2D1
100
AcDbEntity
  8
0
100
AcDbLine
 62
7
  6
CONTINUOUS
 10
12.2703546802
 20
8.208391804
 11
12.2703546802
 21
8.238391804
  0
LINE
  5
2D2
100
AcDbEntity
  8
0
100
AcDbLine
 62
7
  6
CONTINUOUS
 10
12.280699007
 20
6.733391804
 11
12.280699007
 21
6.808391804
  0
LINE
  5
2D3
100
AcDbEntity
  8
0
100
AcDbLine
 62
7
  6
CONTINUOUS
 10
12.2941243433
 20
6.808391804
 11
12.2941243433
 21
6.733391804
  0
LINE
  5
2D4
100
AcDbEntity
  8
0
100
AcDbLine
 62
9
  6
CONTINUOUS
 10
12.3059043095
 20
8.5671845398
 11
12.3059043095
 21
8.6088948101
  0
LINE
  5
2D5
100
AcDbEntity
  8
0
100
AcDbLine
 62
7
  6
CONTINUOUS
 10
12.3059866161
 20
6.733391804
 11
12.3059866161
 21
6.808391804
  0
LINE
  5
2D6
100
AcDbEntity
  8
0
100
AcDbLine
 62
7
  6
CONTINUOUS
 10
12.3235731588
 20
6.733391804
 11
12.3235731588
 21
6.808391804
  0
LINE
  5
2D7
100
AcDbEntity
  8
0
100
AcDbLine
 62
9
  6
CONTINUOUS
 10
12.3289265421
 20
8.6510631629
 11
12.3289265421
 21
8.9853966163
  0
LINE
  5
2D8
100
AcDbEntity
  8
0
100
AcDbLine
 62
7
  6
CONTINUOUS
 10
12.3328546802
 20
9.151391804
 11
12.3328546802
 21
9.121391804
  0
LINE
  5
2D9
100
AcDbEntity
  8
0
100
AcDbLine
 62
7
  6
CONTINUOUS
 10
12.3369077009
 20
6.808391804
 11
12.3369077009
 21
6.733391804
  0
LINE
  5
2DA
100
AcDbEntity
  8
0
100
AcDbLine
 62
7
  6
CONTINUOUS
 10
12.348148986
 20
6.733391804
 11
12.348148986
 21
6.808391804
  0
LINE
  5
2DB
100
AcDbEntity
  8
0
100
AcDbLine
 62
7
  6
CONTINUOUS
 10
12.3661388028
 20
6.733391804
 11
12.3661388028
 21
6.808391804
  0
LINE
  5
2DC
100
AcDbEntity
  8
0
100
AcDbLine
 62
7
  6
CONTINUOUS
 10
12.3689265561
 20
8.6510640443
 11
12.3689265561
 21
8.9853957452
  0
LINE
  5
2DD
100
AcDbEntity
  8
0
100
AcDbLine
 62
7
  6
CONTINUOUS
 10
12.3793663047
 20
6.808391804
 11
12.3793663047
 21
6.733391804
  0
LINE
  5
2DE
100
AcDbEntity
  8
0
100
AcDbLine
 62
9
  6
CONTINUOUS
 10
21.8323546802
 20
10.4356525729
 11
20.3123546802
 21
10.4356525729
  0
LINE
  5
2DF
100
AcDbEntity
  8
0
100
AcDbLine
 62
9
  6
CONTINUOUS
 10
20.2838859015
 20
10.5055330736
 11
21.860823459
 21
10.5055330736
  0
LINE
  5
2E0
100
AcDbEntity
  8
0
100
AcDbLine
 62
7
  6
CONTINUOUS
 10
12.3828546802
 20
8.531391804
 11
12.3828546802
 21
8.238391804
  0
LINE
  5
2E1
100
AcDbEntity
  8
0
100
AcDbLine
 62
7
  6
CONTINUOUS
 10
12.3899729064
 20
6.733391804
 11
12.3899729064
 21
6.808391804
  0
LINE
  5
2E2
100
AcDbEntity
  8
0
100
AcDbLine
 62
7
  6
CONTINUOUS
 10
12.4083440794
 20
6.733391804
 11
12.4083440794
 21
6.808391804
  0
LINE
  5
2E3
100
AcDbEntity
  8
0
100
AcDbLine
 62
7
  6
CONTINUOUS
 10
12.4214484254
 20
6.808391804
 11
12.4214484254
 21
6.733391804
  0
LINE
  5
2E4
100
AcDbEntity
  8
0
100
AcDbLine
 62
7
  6
CONTINUOUS
 10
12.4314074212
 20
6.733391804
 11
12.4314074212
 21
6.808391804
  0
LINE
  5
2E5
100
AcDbEntity
  8
0
100
AcDbLine
 62
7
  6
CONTINUOUS
 10
12.4501375681
 20
6.733391804
 11
12.4501375681
 21
6.808391804
  0
LINE
  5
2E6
100
AcDbEntity
  8
0
100
AcDbLine
 62
7
  6
CONTINUOUS
 10
12.4631027925
 20
6.808391804
 11
12.4631027925
 21
6.733391804
  0
LINE
  5
2E7
100
AcDbEntity
  8
0
100
AcDbLine
 62
7
  6
CONTINUOUS
 10
12.4703546802
 20
9.026391804
 11
12.4703546802
 21
8.551391804
  0
LINE
  5
2E8
100
AcDbEntity
  8
0
100
AcDbLine
 62
7
  6
CONTINUOUS
 10
12.4703546802
 20
8.108391804
 11
12.4703546802
 21
8.208391804
  0
LINE
  5
2E9
100
AcDbEntity
  8
0
100
AcDbLine
 62
7
  6
CONTINUOUS
 10
12.4724020488
 20
6.733391804
 11
12.4724020488
 21
6.808391804
  0
LINE
  5
2EA
100
AcDbEntity
  8
0
100
AcDbLine
 62
7
  6
CONTINUOUS
 10
12.4914683497
 20
6.733391804
 11
12.4914683497
 21
6.808391804
  0
LINE
  5
2EB
100
AcDbEntity
  8
0
100
AcDbLine
 62
7
  6
CONTINUOUS
 10
12.5042786565
 20
6.808391804
 11
12.5042786565
 21
6.733391804
  0
LINE
  5
2EC
100
AcDbEntity
  8
0
100
AcDbLine
 62
7
  6
CONTINUOUS
 10
12.5129068436
 20
6.733391804
 11
12.5129068436
 21
6.808391804
  0
LINE
  5
2ED
100
AcDbEntity
  8
0
100
AcDbLine
 62
7
  6
CONTINUOUS
 10
12.5322860693
 20
6.733391804
 11
12.5322860693
 21
6.808391804
  0
LINE
  5
2EE
100
AcDbEntity
  8
0
100
AcDbLine
 62
7
  6
CONTINUOUS
 10
12.544925851
 20
6.808391804
 11
12.544925851
 21
6.733391804
  0
LINE
  5
2EF
100
AcDbEntity
  8
0
100
AcDbLine
 62
7
  6
CONTINUOUS
 10
12.5528724568
 20
6.733391804
 11
12.5528724568
 21
6.808391804
  0
LINE
  5
2F0
100
AcDbEntity
  8
0
100
AcDbLine
 62
7
  6
CONTINUOUS
 10
12.5725409966
 20
6.733391804
 11
12.5725409966
 21
6.808391804
  0
LINE
  5
2F1
100
AcDbEntity
  8
0
100
AcDbLine
 62
7
  6
CONTINUOUS
 10
12.5849948536
 20
6.808391804
 11
12.5849948536
 21
6.733391804
  0
LINE
  5
2F2
100
AcDbEntity
  8
0
100
AcDbLine
 62
7
  6
CONTINUOUS
 10
12.5922501965
 20
6.733391804
 11
12.5922501965
 21
6.808391804
  0
LINE
  5
2F3
100
AcDbEntity
  8
0
100
AcDbLine
 62
7
  6
CONTINUOUS
 10
12.6121840872
 20
6.733391804
 11
12.6121840872
 21
6.808391804
  0
LINE
  5
2F4
100
AcDbEntity
  8
0
100
AcDbLine
 62
7
  6
CONTINUOUS
 10
12.6244368464
 20
6.808391804
 11
12.6244368464
 21
6.733391804
  0
LINE
  5
2F5
100
AcDbEntity
  8
0
100
AcDbLine
 62
7
  6
CONTINUOUS
 10
12.6309920868
 20
6.733391804
 11
12.6309920868
 21
6.808391804
  0
LINE
  5
2F6
100
AcDbEntity
  8
0
100
AcDbLine
 62
7
  6
CONTINUOUS
 10
12.6511670421
 20
6.733391804
 11
12.6511670421
 21
6.808391804
  0
LINE
  5
2F7
100
AcDbEntity
  8
0
100
AcDbLine
 62
7
  6
CONTINUOUS
 10
12.6632037755
 20
6.808391804
 11
12.6632037755
 21
6.733391804
  0
LINE
  5
2F8
100
AcDbEntity
  8
0
100
AcDbLine
 62
7
  6
CONTINUOUS
 10
12.6690509268
 20
6.733391804
 11
12.6690509268
 21
6.808391804
  0
LINE
  5
2F9
100
AcDbEntity
  8
0
100
AcDbLine
 62
7
  6
CONTINUOUS
 10
12.6894423667
 20
6.733391804
 11
12.6894423667
 21
6.808391804
  0
LINE
  5
2FA
100
AcDbEntity
  8
0
100
AcDbLine
 62
7
  6
CONTINUOUS
 10
12.7012484093
 20
6.808391804
 11
12.7012484093
 21
6.733391804
  0
LINE
  5
2FB
100
AcDbEntity
  8
0
100
AcDbLine
 62
7
  6
CONTINUOUS
 10
12.7063803476
 20
6.733391804
 11
12.7063803476
 21
6.808391804
  0
LINE
  5
2FC
100
AcDbEntity
  8
0
100
AcDbLine
 62
7
  6
CONTINUOUS
 10
12.7269634283
 20
6.733391804
 11
12.7269634283
 21
6.808391804
  0
LINE
  5
2FD
100
AcDbEntity
  8
0
100
AcDbLine
 62
7
  6
CONTINUOUS
 10
12.7385243962
 20
6.808391804
 11
12.7385243962
 21
6.733391804
  0
LINE
  5
2FE
100
AcDbEntity
  8
0
100
AcDbLine
 62
7
  6
CONTINUOUS
 10
12.7429348692
 20
6.733391804
 11
12.7429348692
 21
6.808391804
  0
LINE
  5
2FF
100
AcDbEntity
  8
0
100
AcDbLine
 62
7
  6
CONTINUOUS
 10
12.7636845132
 20
6.733391804
 11
12.7636845132
 21
6.808391804
  0
LINE
  5
300
100
AcDbEntity
  8
0
100
AcDbLine
 62
7
  6
CONTINUOUS
 10
12.7749863213
 20
6.808391804
 11
12.7749863213
 21
6.733391804
  0
LINE
  5
301
100
AcDbEntity
  8
0
100
AcDbLine
 62
7
  6
CONTINUOUS
 10
12.7786699554
 20
6.733391804
 11
12.7786699554
 21
6.808391804
  0
LINE
  5
302
100
AcDbEntity
  8
0
100
AcDbLine
 62
7
  6
CONTINUOUS
 10
12.7995608826
 20
6.733391804
 11
12.7995608826
 21
6.808391804
  0
LINE
  5
303
100
AcDbEntity
  8
0
100
AcDbLine
 62
7
  6
CONTINUOUS
 10
12.8105897612
 20
6.808391804
 11
12.8105897612
 21
6.733391804
  0
LINE
  5
304
100
AcDbEntity
  8
0
100
AcDbLine
 62
7
  6
CONTINUOUS
 10
12.8135420685
 20
6.733391804
 11
12.8135420685
 21
6.808391804
  0
LINE
  5
305
100
AcDbEntity
  8
0
100
AcDbLine
 62
7
  6
CONTINUOUS
 10
12.8203546802
 20
8.058391804
 11
12.8203546802
 21
8.108391804
  0
LINE
  5
306
100
AcDbEntity
  8
0
100
AcDbLine
 62
7
  6
CONTINUOUS
 10
12.8345488265
 20
6.733391804
 11
12.8345488265
 21
6.808391804
  0
LINE
  5
307
100
AcDbEntity
  8
0
100
AcDbLine
 62
7
  6
CONTINUOUS
 10
12.8452913387
 20
6.808391804
 11
12.8452913387
 21
6.733391804
  0
LINE
  5
308
100
AcDbEntity
  8
0
100
AcDbLine
 62
7
  6
CONTINUOUS
 10
12.8475087223
 20
6.733391804
 11
12.8475087223
 21
6.808391804
  0
LINE
  5
309
100
AcDbEntity
  8
0
100
AcDbLine
 62
7
  6
CONTINUOUS
 10
12.8686057176
 20
6.733391804
 11
12.8686057176
 21
6.808391804
  0
LINE
  5
30A
100
AcDbEntity
  8
0
100
AcDbLine
 62
7
  6
CONTINUOUS
 10
12.8790487753
 20
6.808391804
 11
12.8790487753
 21
6.733391804
  0
LINE
  5
30B
100
AcDbEntity
  8
0
100
AcDbLine
 62
7
  6
CONTINUOUS
 10
12.8805285336
 20
6.733391804
 11
12.8805285336
 21
6.808391804
  0
LINE
  5
30C
100
AcDbEntity
  8
0
100
AcDbLine
 62
7
  6
CONTINUOUS
 10
12.9016900627
 20
6.733391804
 11
12.9016900627
 21
6.808391804
  0
LINE
  5
30D
100
AcDbEntity
  8
0
100
AcDbLine
 62
7
  6
CONTINUOUS
 10
12.9118209427
 20
6.808391804
 11
12.9118209427
 21
6.733391804
  0
LINE
  5
30E
100
AcDbEntity
  8
0
100
AcDbLine
 62
7
  6
CONTINUOUS
 10
12.9125612728
 20
6.733391804
 11
12.9125612728
 21
6.808391804
  0
LINE
  5
30F
100
AcDbEntity
  8
0
100
AcDbLine
 62
7
  6
CONTINUOUS
 10
12.9337615538
 20
6.733391804
 11
12.9337615538
 21
6.808391804
  0
LINE
  5
310
100
AcDbEntity
  8
0
100
AcDbLine
 62
7
  6
CONTINUOUS
 10
12.9435679131
 20
6.808391804
 11
12.9435679131
 21
6.733391804
  0
LINE
  5
311
100
AcDbEntity
  8
0
100
AcDbLine
 62
7
  6
CONTINUOUS
 10
12.9453546802
 20
7.008391804
 11
12.9453546802
 21
7.533391804
  0
LINE
  5
312
100
AcDbEntity
  8
0
100
AcDbLine
 62
7
  6
CONTINUOUS
 10
12.9647811165
 20
6.733391804
 11
12.9647811165
 21
6.808391804
  0
LINE
  5
313
100
AcDbEntity
  8
0
100
AcDbLine
 62
7
  6
CONTINUOUS
 10
12.9742510076
 20
6.808391804
 11
12.9742510076
 21
6.733391804
  0
LINE
  5
314
100
AcDbEntity
  8
0
100
AcDbLine
 62
7
  6
CONTINUOUS
 10
12.9947109584
 20
6.733391804
 11
12.9947109584
 21
6.808391804
  0
LINE
  5
315
100
AcDbEntity
  8
0
100
AcDbLine
 62
7
  6
CONTINUOUS
 10
13.0038328438
 20
6.808391804
 11
13.0038328438
 21
6.733391804
  0
LINE
  5
316
100
AcDbEntity
  8
0
100
AcDbLine
 62
7
  6
CONTINUOUS
 10
13.0203546802
 20
7.608391804
 11
13.0203546802
 21
7.708391804
  0
LINE
  5
317
100
AcDbEntity
  8
0
100
AcDbLine
 62
7
  6
CONTINUOUS
 10
13.0203546802
 20
7.908391804
 11
13.0203546802
 21
7.958391804
  0
LINE
  5
318
100
AcDbEntity
  8
0
100
AcDbLine
 62
7
  6
CONTINUOUS
 10
13.0235146146
 20
6.733391804
 11
13.0235146146
 21
6.808391804
  0
LINE
  5
319
100
AcDbEntity
  8
0
100
AcDbLine
 62
7
  6
CONTINUOUS
 10
13.0322773805
 20
6.808391804
 11
13.0322773805
 21
6.733391804
  0
LINE
  5
31A
100
AcDbEntity
  8
0
100
AcDbLine
 62
7
  6
CONTINUOUS
 10
13.0511569923
 20
6.733391804
 11
13.0511569923
 21
6.808391804
  0
LINE
  5
31B
100
AcDbEntity
  8
0
100
AcDbLine
 62
7
  6
CONTINUOUS
 10
13.0595499627
 20
6.808391804
 11
13.0595499627
 21
6.733391804
  0
LINE
  5
31C
100
AcDbEntity
  8
0
100
AcDbLine
 62
7
  6
CONTINUOUS
 10
13.0776044133
 20
6.733391804
 11
13.0776044133
 21
6.808391804
  0
LINE
  5
31D
100
AcDbEntity
  8
0
100
AcDbLine
 62
7
  6
CONTINUOUS
 10
13.0856173627
 20
6.808391804
 11
13.0856173627
 21
6.733391804
  0
LINE
  5
31E
100
AcDbEntity
  8
0
100
AcDbLine
 62
7
  6
CONTINUOUS
 10
13.0953546802
 20
7.708391804
 11
13.0953546802
 21
7.908391804
  0
LINE
  5
31F
100
AcDbEntity
  8
0
100
AcDbLine
 62
7
  6
CONTINUOUS
 10
13.1028246558
 20
6.733391804
 11
13.1028246558
 21
6.808391804
  0
LINE
  5
320
100
AcDbEntity
  8
0
100
AcDbLine
 62
7
  6
CONTINUOUS
 10
13.1104478216
 20
6.808391804
 11
13.1104478216
 21
6.733391804
  0
LINE
  5
321
100
AcDbEntity
  8
0
100
AcDbLine
 62
7
  6
CONTINUOUS
 10
13.1267869926
 20
6.733391804
 11
13.1267869926
 21
6.808391804
  0
LINE
  5
322
100
AcDbEntity
  8
0
100
AcDbLine
 62
7
  6
CONTINUOUS
 10
13.1340110871
 20
6.808391804
 11
13.1340110871
 21
6.733391804
  0
LINE
  5
323
100
AcDbEntity
  8
0
100
AcDbLine
 62
7
  6
CONTINUOUS
 10
13.1494622294
 20
6.733391804
 11
13.1494622294
 21
6.808391804
  0
LINE
  5
324
100
AcDbEntity
  8
0
100
AcDbLine
 62
7
  6
CONTINUOUS
 10
13.1562784512
 20
6.808391804
 11
13.1562784512
 21
6.733391804
  0
LINE
  5
325
100
AcDbEntity
  8
0
100
AcDbLine
 62
7
  6
CONTINUOUS
 10
10.8703546802
 20
6.533391804
 11
10.8203546802
 21
6.483391804
  0
LINE
  5
326
100
AcDbEntity
  8
0
100
AcDbLine
 62
7
  6
CONTINUOUS
 10
20.0069770761
 20
10.801391804
 11
20.2050522669
 21
10.801391804
  0
LINE
  5
327
100
AcDbEntity
  8
0
100
AcDbLine
 62
7
  6
CONTINUOUS
 10
20.4329856367
 20
10.801391804
 11
20.9111814488
 21
10.801391804
  0
LINE
  5
328
100
AcDbEntity
  8
0
100
AcDbLine
 62
7
  6
CONTINUOUS
 10
21.2335279117
 20
10.801391804
 11
21.7117237237
 21
10.801391804
  0
LINE
  5
329
100
AcDbEntity
  8
0
100
AcDbLine
 62
7
  6
CONTINUOUS
 10
21.9396570936
 20
10.801391804
 11
22.1377322844
 21
10.801391804
  0
LINE
  5
32A
100
AcDbEntity
  8
0
100
AcDbLine
 62
9
  6
CONTINUOUS
 10
22.1377322844
 20
11.411391804
 11
21.9396570936
 21
11.411391804
  0
LINE
  5
32B
100
AcDbEntity
  8
0
100
AcDbLine
 62
9
  6
CONTINUOUS
 10
21.7117237237
 20
11.411391804
 11
21.2335279117
 21
11.411391804
  0
LINE
  5
32C
100
AcDbEntity
  8
0
100
AcDbLine
 62
9
  6
CONTINUOUS
 10
20.9111814488
 20
11.411391804
 11
20.4329856367
 21
11.411391804
  0
LINE
  5
32D
100
AcDbEntity
  8
0
100
AcDbLine
 62
9
  6
CONTINUOUS
 10
20.2050522669
 20
11.411391804
 11
20.0069770761
 21
11.411391804
  0
LINE
  5
32E
100
AcDbEntity
  8
0
100
AcDbLine
 62
7
  6
CONTINUOUS
 10
13.1708227398
 20
6.733391804
 11
13.1708227398
 21
6.808391804
  0
LINE
  5
32F
100
AcDbEntity
  8
0
100
AcDbLine
 62
7
  6
CONTINUOUS
 10
13.1772227845
 20
6.808391804
 11
13.1772227845
 21
6.733391804
  0
LINE
  5
330
100
AcDbEntity
  8
0
100
AcDbLine
 62
7
  6
CONTINUOUS
 10
13.1908424995
 20
6.733391804
 11
13.1908424995
 21
6.808391804
  0
LINE
  5
331
100
AcDbEntity
  8
0
100
AcDbLine
 62
7
  6
CONTINUOUS
 10
13.1968185695
 20
6.808391804
 11
13.1968185695
 21
6.733391804
  0
LINE
  5
332
100
AcDbEntity
  8
0
100
AcDbLine
 62
7
  6
CONTINUOUS
 10
13.2094971173
 20
6.733391804
 11
13.2094971173
 21
6.808391804
  0
LINE
  5
333
100
AcDbEntity
  8
0
100
AcDbLine
 62
7
  6
CONTINUOUS
 10
13.2150419317
 20
6.808391804
 11
13.2150419317
 21
6.733391804
  0
LINE
  5
334
100
AcDbEntity
  8
0
100
AcDbLine
 62
7
  6
CONTINUOUS
 10
13.2267638655
 20
6.733391804
 11
13.2267638655
 21
6.808391804
  0
LINE
  5
335
100
AcDbEntity
  8
0
100
AcDbLine
 62
7
  6
CONTINUOUS
 10
13.2318706688
 20
6.808391804
 11
13.2318706688
 21
6.733391804
  0
LINE
  5
336
100
AcDbEntity
  8
0
100
AcDbLine
 62
7
  6
CONTINUOUS
 10
13.2426217073
 20
6.733391804
 11
13.2426217073
 21
6.808391804
  0
LINE
  5
337
100
AcDbEntity
  8
0
100
AcDbLine
 62
7
  6
CONTINUOUS
 10
13.2472842777
 20
6.808391804
 11
13.2472842777
 21
6.733391804
  0
LINE
  5
338
100
AcDbEntity
  8
0
100
AcDbLine
 62
7
  6
CONTINUOUS
 10
13.2570513223
 20
6.733391804
 11
13.2570513223
 21
6.808391804
  0
LINE
  5
339
100
AcDbEntity
  8
0
100
AcDbLine
 62
7
  6
CONTINUOUS
 10
13.2612639791
 20
6.808391804
 11
13.2612639791
 21
6.733391804
  0
LINE
  5
33A
100
AcDbEntity
  8
0
100
AcDbLine
 62
7
  6
CONTINUOUS
 10
13.2700351302
 20
6.733391804
 11
13.2700351302
 21
6.808391804
  0
LINE
  5
33B
100
AcDbEntity
  8
0
100
AcDbLine
 62
7
  6
CONTINUOUS
 10
13.2703546802
 20
6.533391804
 11
13.2703546802
 21
6.733391804
  0
LINE
  5
33C
100
AcDbEntity
  8
0
100
AcDbLine
 62
7
  6
CONTINUOUS
 10
13.273792741
 20
6.808391804
 11
13.273792741
 21
6.733391804
  0
LINE
  5
33D
100
AcDbEntity
  8
0
100
AcDbLine
 62
7
  6
CONTINUOUS
 10
13.2815573123
 20
6.733391804
 11
13.2815573123
 21
6.808391804
  0
LINE
  5
33E
100
AcDbEntity
  8
0
100
AcDbLine
 62
7
  6
CONTINUOUS
 10
13.2848552989
 20
6.808391804
 11
13.2848552989
 21
6.733391804
  0
LINE
  5
33F
100
AcDbEntity
  8
0
100
AcDbLine
 62
7
  6
CONTINUOUS
 10
13.2916038306
 20
6.733391804
 11
13.2916038306
 21
6.808391804
  0
LINE
  5
340
100
AcDbEntity
  8
0
100
AcDbLine
 62
7
  6
CONTINUOUS
 10
13.294438175
 20
6.808391804
 11
13.294438175
 21
6.733391804
  0
LINE
  5
341
100
AcDbEntity
  8
0
100
AcDbLine
 62
7
  6
CONTINUOUS
 10
13.3001624448
 20
6.733391804
 11
13.3001624448
 21
6.808391804
  0
LINE
  5
342
100
AcDbEntity
  8
0
100
AcDbLine
 62
7
  6
CONTINUOUS
 10
13.3025296938
 20
6.808391804
 11
13.3025296938
 21
6.733391804
  0
LINE
  5
343
100
AcDbEntity
  8
0
100
AcDbLine
 62
7
  6
CONTINUOUS
 10
13.3072227278
 20
6.733391804
 11
13.3072227278
 21
6.808391804
  0
LINE
  5
344
100
AcDbEntity
  8
0
100
AcDbLine
 62
7
  6
CONTINUOUS
 10
13.3091199973
 20
6.808391804
 11
13.3091199973
 21
6.733391804
  0
LINE
  5
345
100
AcDbEntity
  8
0
100
AcDbLine
 62
7
  6
CONTINUOUS
 10
13.3127760776
 20
6.733391804
 11
13.3127760776
 21
6.808391804
  0
LINE
  5
346
100
AcDbEntity
  8
0
100
AcDbLine
 62
7
  6
CONTINUOUS
 10
13.3142010559
 20
6.808391804
 11
13.3142010559
 21
6.733391804
  0
LINE
  5
347
100
AcDbEntity
  8
0
100
AcDbLine
 62
7
  6
CONTINUOUS
 10
13.3168157282
 20
6.733391804
 11
13.3168157282
 21
6.808391804
  0
LINE
  5
348
100
AcDbEntity
  8
0
100
AcDbLine
 62
7
  6
CONTINUOUS
 10
13.3177666794
 20
6.808391804
 11
13.3177666794
 21
6.733391804
  0
LINE
  5
349
100
AcDbEntity
  8
0
100
AcDbLine
 62
7
  6
CONTINUOUS
 10
13.3193367581
 20
6.733391804
 11
13.3193367581
 21
6.808391804
  0
LINE
  5
34A
100
AcDbEntity
  8
0
100
AcDbLine
 62
7
  6
CONTINUOUS
 10
13.3198125235
 20
6.808391804
 11
13.3198125235
 21
6.733391804
  0
LINE
  5
34B
100
AcDbEntity
  8
0
100
AcDbLine
 62
7
  6
CONTINUOUS
 10
13.3203360957
 20
6.733391804
 11
13.3203360957
 21
6.808391804
  0
LINE
  5
34C
100
AcDbEntity
  8
0
100
AcDbLine
 62
7
  6
CONTINUOUS
 10
13.3203546802
 20
6.333391804
 11
13.3203546802
 21
6.483391804
  0
LINE
  5
34D
100
AcDbEntity
  8
0
100
AcDbLine
 62
7
  6
CONTINUOUS
 10
12.9453546802
 20
7.533391804
 11
13.0203546802
 21
7.608391804
  0
LINE
  5
34E
100
AcDbEntity
  8
0
100
AcDbLine
 62
7
  6
CONTINUOUS
 10
21.9998396386
 20
11.561391804
 11
20.1448697219
 21
11.561391804
  0
LINE
  5
34F
100
AcDbEntity
  8
0
100
AcDbLine
 62
9
  6
CONTINUOUS
 10
20.1632182472
 20
11.621391804
 11
21.9814911133
 21
11.621391804
  0
LINE
  5
350
100
AcDbEntity
  8
0
100
AcDbLine
 62
7
  6
CONTINUOUS
 10
21.860823459
 20
10.5055330736
 11
22.0623546802
 21
10.7118248749
  0
LINE
  5
351
100
AcDbEntity
  8
0
100
AcDbLine
 62
7
  6
CONTINUOUS
 10
20.2838859015
 20
10.5055330736
 11
20.0823546802
 21
10.7118248749
  0
LINE
  5
352
100
AcDbEntity
  8
0
100
AcDbLine
 62
7
  6
CONTINUOUS
 10
20.0069770761
 20
10.801391804
 11
20.0069770761
 21
11.411391804
  0
LINE
  5
353
100
AcDbEntity
  8
0
100
AcDbLine
 62
7
  6
CONTINUOUS
 10
20.0598546802
 20
6.5823592717
 11
20.0598546802
 21
6.333391804
  0
LINE
  5
354
100
AcDbEntity
  8
0
100
AcDbLine
 62
7
  6
CONTINUOUS
 10
20.4338265428
 20
10.7854668363
 11
20.4329856367
 21
10.801391804
  0
LINE
  5
355
100
AcDbEntity
  8
0
100
AcDbLine
 62
7
  6
CONTINUOUS
 10
20.2050522669
 20
10.801391804
 11
20.2050522669
 21
11.411391804
  0
LINE
  5
356
100
AcDbEntity
  8
0
100
AcDbLine
 62
7
  6
CONTINUOUS
 10
20.3123546802
 20
10.4356525729
 11
20.3123546802
 21
9.8762249518
  0
LINE
  5
357
100
AcDbEntity
  8
0
100
AcDbLine
 62
7
  6
CONTINUOUS
 10
20.4329856367
 20
10.801391804
 11
20.4329856367
 21
11.411391804
  0
LINE
  5
358
100
AcDbEntity
  8
0
100
AcDbLine
 62
7
  6
CONTINUOUS
 10
20.9111814488
 20
10.801391804
 11
20.9111814488
 21
11.411391804
  0
LINE
  5
359
100
AcDbEntity
  8
0
100
AcDbLine
 62
7
  6
CONTINUOUS
 10
20.4967657474
 20
9.801391804
 11
20.4154840768
 21
7.6367325769
  0
LINE
  5
35A
100
AcDbEntity
  8
0
100
AcDbLine
 62
7
  6
CONTINUOUS
 10
21.647943613
 20
9.801391804
 11
21.7292252836
 21
7.6367325769
  0
LINE
  5
35B
100
AcDbEntity
  8
0
100
AcDbLine
 62
7
  6
CONTINUOUS
 10
21.2335279117
 20
10.801391804
 11
21.2335279117
 21
11.411391804
  0
LINE
  5
35C
100
AcDbEntity
  8
0
100
AcDbLine
 62
7
  6
CONTINUOUS
 10
21.7117237237
 20
10.801391804
 11
21.7117237237
 21
11.411391804
  0
LINE
  5
35D
100
AcDbEntity
  8
0
100
AcDbLine
 62
7
  6
CONTINUOUS
 10
21.8323546802
 20
10.4356525729
 11
21.8323546802
 21
9.8762249518
  0
LINE
  5
35E
100
AcDbEntity
  8
0
100
AcDbLine
 62
7
  6
CONTINUOUS
 10
21.9396570936
 20
10.801391804
 11
21.9396570936
 21
11.411391804
  0
LINE
  5
35F
100
AcDbEntity
  8
0
100
AcDbLine
 62
7
  6
CONTINUOUS
 10
22.0848546802
 20
6.5823592717
 11
22.0848546802
 21
6.333391804
  0
LINE
  5
360
100
AcDbEntity
  8
0
100
AcDbLine
 62
7
  6
CONTINUOUS
 10
22.1377322844
 20
10.801391804
 11
22.1377322844
 21
11.411391804
  0
LINE
  5
361
100
AcDbEntity
  8
0
100
AcDbLine
 62
7
  6
CONTINUOUS
 10
21.7117237237
 20
10.801391804
 11
21.7108828177
 21
10.7854665906
  0
ARC
  5
362
100
AcDbEntity
  8
0
100
AcDbCircle
 62
7
  6
CONTINUOUS
 10
0.1634550865
 20
6.1504967643
 40
0.9
100
AcDbArc
 50
130.6439171763
 51
168.2748731243
  0
ARC
  5
363
100
AcDbEntity
  8
0
100
AcDbCircle
 62
7
  6
CONTINUOUS
 10
-0.0189857261
 20
6.1504967643
 40
0.9
100
AcDbArc
 50
11.7251268757
 51
49.3560828237
  0
ARC
  5
364
100
AcDbEntity
  8
0
100
AcDbCircle
 62
7
  6
CONTINUOUS
 10
0.0097346802
 20
6.913391804
 40
0.4
100
AcDbArc
 50
155.7790568908
 51
180.0
  0
ARC
  5
365
100
AcDbEntity
  8
0
100
AcDbCircle
 62
7
  6
CONTINUOUS
 10
0.1347346802
 20
6.913391804
 40
0.4
100
AcDbArc
 50
0.0
 51
24.2209431092
  0
ARC
  5
366
100
AcDbEntity
  8
0
100
AcDbCircle
 62
7
  6
CONTINUOUS
 10
2.5907774679
 20
6.271391804
 40
0.187
100
AcDbArc
 50
90.0
 51
160.6370700781
  0
ARC
  5
367
100
AcDbEntity
  8
0
100
AcDbCircle
 62
7
  6
CONTINUOUS
 10
3.5499318926
 20
6.271391804
 40
0.187
100
AcDbArc
 50
19.3629299219
 51
90.0
  0
ARC
  5
368
100
AcDbEntity
  8
0
100
AcDbCircle
 62
7
  6
CONTINUOUS
 10
3.3626818926
 20
6.396391804
 40
0.187
100
AcDbArc
 50
19.3629299219
 51
90.0
  0
ARC
  5
369
100
AcDbEntity
  8
0
100
AcDbCircle
 62
7
  6
CONTINUOUS
 10
2.7780274679
 20
6.396391804
 40
0.187
100
AcDbArc
 50
90.0
 51
160.6370700781
  0
ARC
  5
36A
100
AcDbEntity
  8
0
100
AcDbCircle
 62
7
  6
CONTINUOUS
 10
10.8953546802
 20
6.908391804
 40
0.1
100
AcDbArc
 50
274.1983587504
 51
360.0
  0
ARC
  5
36B
100
AcDbEntity
  8
0
100
AcDbCircle
 62
7
  6
CONTINUOUS
 10
11.0453546802
 20
7.008391804
 40
0.1
100
AcDbArc
 50
270.0
 51
360.0
  0
ARC
  5
36C
100
AcDbEntity
  8
0
100
AcDbCircle
 62
7
  6
CONTINUOUS
 10
11.1203546802
 20
8.058391804
 40
0.1
100
AcDbArc
 50
270.0
 51
360.0
  0
ARC
  5
36D
100
AcDbEntity
  8
0
100
AcDbCircle
 62
7
  6
CONTINUOUS
 10
2.6828546802
 20
7.283391804
 40
0.075
100
AcDbArc
 50
270.0
 51
360.0
  0
ARC
  5
36E
100
AcDbEntity
  8
0
100
AcDbCircle
 62
7
  6
CONTINUOUS
 10
3.4578546802
 20
7.283391804
 40
0.075
100
AcDbArc
 50
180.0
 51
270.0
  0
ARC
  5
36F
100
AcDbEntity
  8
0
100
AcDbCircle
 62
7
  6
CONTINUOUS
 10
-0.3459337046
 20
7.073391804
 40
0.01
100
AcDbArc
 50
90.0
 51
155.7790568908
  0
ARC
  5
370
100
AcDbEntity
  8
0
100
AcDbCircle
 62
7
  6
CONTINUOUS
 10
0.4904030651
 20
7.073391804
 40
0.01
100
AcDbArc
 50
24.2209431092
 51
90.0
  0
ARC
  5
371
100
AcDbEntity
  8
0
100
AcDbCircle
 62
7
  6
CONTINUOUS
 10
11.6828546802
 20
9.101391804
 40
0.075
100
AcDbArc
 50
270.0
 51
360.0
  0
ARC
  5
372
100
AcDbEntity
  8
0
100
AcDbCircle
 62
7
  6
CONTINUOUS
 10
11.8117828044
 20
8.9853957452
 40
0.04
100
AcDbArc
 50
97.6423323209
 51
180.0
  0
ARC
  5
373
100
AcDbEntity
  8
0
100
AcDbCircle
 62
7
  6
CONTINUOUS
 10
11.8117828044
 20
8.6510640443
 40
0.04
100
AcDbArc
 50
180.0009463119
 51
262.357442254
  0
ARC
  5
374
100
AcDbEntity
  8
0
100
AcDbCircle
 62
7
  6
CONTINUOUS
 10
11.7378546802
 20
8.531391804
 40
0.02
100
AcDbArc
 50
0.0
 51
90.0
  0
ARC
  5
375
100
AcDbEntity
  8
0
100
AcDbCircle
 62
7
  6
CONTINUOUS
 10
11.7878546802
 20
9.121391804
 40
0.02
100
AcDbArc
 50
270.0
 51
360.0
  0
ARC
  5
376
100
AcDbEntity
  8
0
100
AcDbCircle
 62
7
  6
CONTINUOUS
 10
21.0723546802
 20
5.2959760049
 40
6.3904157991
100
AcDbArc
 50
81.821031102
 51
98.178968898
  0
ARC
  5
377
100
AcDbEntity
  8
0
100
AcDbCircle
 62
7
  6
CONTINUOUS
 10
12.0703546935
 20
7.0570378318
 40
1.9856167035
100
AcDbArc
 50
82.3627111174
 51
97.6372891743
  0
ARC
  5
378
100
AcDbEntity
  8
0
100
AcDbCircle
 62
9
  6
CONTINUOUS
 10
12.0703546938
 20
7.0570397893
 40
1.9456124186
100
AcDbArc
 50
82.362808651
 51
97.6371930677
  0
ARC
  5
379
100
AcDbEntity
  8
0
100
AcDbCircle
 62
7
  6
CONTINUOUS
 10
20.7483346722
 20
6.7038598012
 40
1.3
100
AcDbArc
 50
357.7751307226
 51
37.4382101818
  0
ARC
  5
37A
100
AcDbEntity
  8
0
100
AcDbCircle
 62
7
  6
CONTINUOUS
 10
21.3963746883
 20
6.7038598012
 40
1.3
100
AcDbArc
 50
142.5617898181
 51
182.2248692774
  0
ARC
  5
37B
100
AcDbEntity
  8
0
100
AcDbCircle
 62
7
  6
CONTINUOUS
 10
20.1656601354
 20
7.6461133178
 40
0.25
100
AcDbArc
 50
322.5617898181
 51
357.849587733
  0
ARC
  5
37C
100
AcDbEntity
  8
0
100
AcDbCircle
 62
7
  6
CONTINUOUS
 10
21.979049225
 20
7.6461133178
 40
0.25
100
AcDbArc
 50
182.150412267
 51
217.4382101818
  0
ARC
  5
37D
100
AcDbEntity
  8
0
100
AcDbCircle
 62
7
  6
CONTINUOUS
 10
13.2453546802
 20
6.908391804
 40
0.1
100
AcDbArc
 50
180.0
 51
265.8016412497
  0
ARC
  5
37E
100
AcDbEntity
  8
0
100
AcDbCircle
 62
7
  6
CONTINUOUS
 10
13.0953546802
 20
7.008391804
 40
0.1
100
AcDbArc
 50
180.0
 51
270.0
  0
ARC
  5
37F
100
AcDbEntity
  8
0
100
AcDbCircle
 62
7
  6
CONTINUOUS
 10
13.0203546802
 20
8.058391804
 40
0.1
100
AcDbArc
 50
180.0
 51
270.0
  0
ARC
  5
380
100
AcDbEntity
  8
0
100
AcDbCircle
 62
7
  6
CONTINUOUS
 10
20.1458796223
 20
6.5823592717
 40
0.0860249421
100
AcDbArc
 50
124.3384233779
 51
180.0
  0
ARC
  5
381
100
AcDbEntity
  8
0
100
AcDbCircle
 62
7
  6
CONTINUOUS
 10
21.9988297382
 20
6.5823592717
 40
0.0860249421
100
AcDbArc
 50
0.0
 51
55.6615766221
  0
ARC
  5
382
100
AcDbEntity
  8
0
100
AcDbCircle
 62
7
  6
CONTINUOUS
 10
24.2588916825
 20
8.9397640644
 40
2.8222287351
100
AcDbArc
 50
138.7283124199
 51
141.0996765127
  0
ARC
  5
383
100
AcDbEntity
  8
0
100
AcDbCircle
 62
7
  6
CONTINUOUS
 10
17.9263398845
 20
8.9738700191
 40
2.7692755366
100
AcDbArc
 50
38.8776444505
 51
41.2943631307
  0
ARC
  5
384
100
AcDbEntity
  8
0
100
AcDbCircle
 62
7
  6
CONTINUOUS
 10
12.0703546848
 20
10.5798633341
 40
1.9860541692
100
AcDbArc
 50
262.3643901329
 51
277.6356090516
  0
ARC
  5
385
100
AcDbEntity
  8
0
100
AcDbCircle
 62
9
  6
CONTINUOUS
 10
12.070354685
 20
10.5798613229
 40
1.9460498418
100
AcDbArc
 50
262.3645340384
 51
277.6354647386
  0
ARC
  5
386
100
AcDbEntity
  8
0
100
AcDbCircle
 62
9
  6
CONTINUOUS
 10
12.0696369704
 20
10.2152340217
 40
1.6646982619
100
AcDbArc
 50
261.8904843998
 51
268.1593153455
  0
ARC
  5
387
100
AcDbEntity
  8
0
100
AcDbCircle
 62
9
  6
CONTINUOUS
 10
12.0710734024
 20
10.2152224526
 40
1.6646866358
100
AcDbArc
 50
271.8406629627
 51
278.1095486432
  0
ARC
  5
388
100
AcDbEntity
  8
0
100
AcDbCircle
 62
7
  6
CONTINUOUS
 10
21.6823546802
 20
9.8762249518
 40
0.15
100
AcDbArc
 50
330.0735651336
 51
360.0
  0
ARC
  5
389
100
AcDbEntity
  8
0
100
AcDbCircle
 62
7
  6
CONTINUOUS
 10
20.4623546802
 20
9.8762249518
 40
0.15
100
AcDbArc
 50
180.0
 51
209.9264348664
  0
ARC
  5
38A
100
AcDbEntity
  8
0
100
AcDbCircle
 62
7
  6
CONTINUOUS
 10
20.1448546802
 20
11.411391804
 40
0.15
100
AcDbArc
 50
90.0
 51
114.6243183522
  0
ARC
  5
38B
100
AcDbEntity
  8
0
100
AcDbCircle
 62
7
  6
CONTINUOUS
 10
21.9998546802
 20
11.411391804
 40
0.15
100
AcDbArc
 50
65.3756816478
 51
90.0
  0
ARC
  5
38C
100
AcDbEntity
  8
0
100
AcDbCircle
 62
7
  6
CONTINUOUS
 10
21.9323546802
 20
10.4356525729
 40
0.1
100
AcDbArc
 50
135.6687919533
 51
180.0
  0
ARC
  5
38D
100
AcDbEntity
  8
0
100
AcDbCircle
 62
7
  6
CONTINUOUS
 10
20.2123546802
 20
10.4356525729
 40
0.1
100
AcDbArc
 50
0.0
 51
44.3312080467
  0
ARC
  5
38E
100
AcDbEntity
  8
0
100
AcDbCircle
 62
7
  6
CONTINUOUS
 10
12.4578546802
 20
9.101391804
 40
0.075
100
AcDbArc
 50
180.0
 51
270.0
  0
ARC
  5
38F
100
AcDbEntity
  8
0
100
AcDbCircle
 62
7
  6
CONTINUOUS
 10
12.3289265561
 20
8.6510640443
 40
0.04
100
AcDbArc
 50
277.6425313947
 51
360.0
  0
ARC
  5
390
100
AcDbEntity
  8
0
100
AcDbCircle
 62
7
  6
CONTINUOUS
 10
12.3289265561
 20
8.9853957452
 40
0.04
100
AcDbArc
 50
0.0007161529
 51
82.3576441033
  0
ARC
  5
391
100
AcDbEntity
  8
0
100
AcDbCircle
 62
7
  6
CONTINUOUS
 10
20.1675080324
 20
11.5915451562
 40
0.0301533521
100
AcDbArc
 50
98.1789688981
 51
270.0
  0
ARC
  5
392
100
AcDbEntity
  8
0
100
AcDbCircle
 62
7
  6
CONTINUOUS
 10
21.9772013281
 20
11.5915451562
 40
0.0301533521
100
AcDbArc
 50
270.0
 51
81.8210311019
  0
ARC
  5
393
100
AcDbEntity
  8
0
100
AcDbCircle
 62
7
  6
CONTINUOUS
 10
12.4028546802
 20
8.531391804
 40
0.02
100
AcDbArc
 50
90.0
 51
180.0
  0
ARC
  5
394
100
AcDbEntity
  8
0
100
AcDbCircle
 62
7
  6
CONTINUOUS
 10
12.3528546802
 20
9.121391804
 40
0.02
100
AcDbArc
 50
180.0
 51
270.0
  0
SPLINE
  5
395
100
AcDbEntity
  8
0
100
AcDbSpline
 62
9
  6
CONTINUOUS
 70
0
 71
3
 72
10
 73
6
 74
0
 42
0.0000001
 43
0.0000001
 44
0.0000000001
 40
0.0
 40
0.0
 40
0.0
 40
0.0
 40
0.2415510669
 40
0.4895378714
 40
1.0
 40
1.0
 40
1.0
 40
1.0
 10
12.2900305268
 20
8.6075428208
 30
0.0
 10
12.2910800307
 20
8.6042102627
 30
0.0
 10
12.2933448536
 20
8.5974991688
 30
0.0
 10
12.2984357443
 20
8.5839583628
 30
0.0
 10
12.3027877631
 20
8.5738781479
 30
0.0
 10
12.3059043095
 20
8.5671845545
 30
0.0
  0
SPLINE
  5
396
100
AcDbEntity
  8
0
100
AcDbSpline
 62
9
  6
CONTINUOUS
 70
0
 71
3
 72
16
 73
12
 74
0
 42
0.0000001
 43
0.0000001
 44
0.0000000001
 40
0.0
 40
0.0
 40
0.0
 40
0.0
 40
0.2917427118
 40
0.4305119832
 40
0.5632565209
 40
0.6889790601
 40
0.8056630342
 40
0.8597555351
 40
0.9105507719
 40
0.9575031657
 40
1.0
 40
1.0
 40
1.0
 40
1.0
 10
11.8348062516
 20
8.5671823968
 30
0.0
 10
11.8399311301
 20
8.5703996528
 30
0.0
 10
11.8474332228
 20
8.5752460381
 30
0.0
 10
11.8570639338
 20
8.5818601569
 30
0.0
 10
11.8637500961
 20
8.5866759814
 30
0.0
 10
11.8699420669
 20
8.5913896058
 30
0.0
 10
11.8747039388
 20
8.5952846317
 30
0.0
 10
11.8781420936
 20
8.5983349365
 30
0.0
 10
11.8804299391
 20
8.6005002528
 30
0.0
 10
11.882459165
 20
8.6025855764
 30
0.0
 10
11.8836791964
 20
8.6039854623
 30
0.0
 10
11.8842309104
 20
8.6046728681
 30
0.0
  0
SPLINE
  5
397
100
AcDbEntity
  8
0
100
AcDbSpline
 62
9
  6
CONTINUOUS
 70
0
 71
3
 72
13
 73
9
 74
0
 42
0.0000001
 43
0.0000001
 44
0.0000000001
 40
0.0
 40
0.0
 40
0.0
 40
0.0
 40
0.0971005329
 40
0.2078998316
 40
0.3299172345
 40
0.4599751341
 40
0.731611459
 40
1.0
 40
1.0
 40
1.0
 40
1.0
 10
12.0143373001
 20
8.5958403596
 30
0.0
 10
12.0145636209
 20
8.5944167168
 30
0.0
 10
12.0149745224
 20
8.5913567411
 30
0.0
 10
12.0154527445
 20
8.5864816044
 30
0.0
 10
12.0158312655
 20
8.5811072494
 30
0.0
 10
12.0162051117
 20
8.5733408834
 30
0.0
 10
12.0163833825
 20
8.5633923451
 30
0.0
 10
12.0162771206
 20
8.555374792
 30
0.0
 10
12.0161659803
 20
8.5513919414
 30
0.0
  0
LINE
  5
398
100
AcDbEntity
  8
0
100
AcDbLine
 62
9
  6
CONTINUOUS
 10
11.8064632911
 20
9.0250401847
 11
11.8117828185
 21
8.9853941055
  0
SPLINE
  5
399
100
AcDbEntity
  8
0
100
AcDbSpline
 62
9
  6
CONTINUOUS
 70
0
 71
3
 72
16
 73
12
 74
0
 42
0.0000001
 43
0.0000001
 44
0.0000000001
 40
0.0
 40
0.0
 40
0.0
 40
0.0
 40
0.0425067943
 40
0.0894677034
 40
0.1402692216
 40
0.1943659655
 40
0.3110546431
 40
0.4367799772
 40
0.5695264746
 40
0.7082930561
 40
1.0
 40
1.0
 40
1.0
 40
1.0
 10
12.2564818851
 20
8.6046686264
 30
0.0
 10
12.257033801
 20
8.603981198
 30
0.0
 10
12.2582541572
 20
8.6025812657
 30
0.0
 10
12.260283743
 20
8.6004958649
 30
0.0
 10
12.262571832
 20
8.5983305568
 30
0.0
 10
12.2660101592
 20
8.5952804615
 30
0.0
 10
12.2707721003
 20
8.5913858271
 30
0.0
 10
12.2769639357
 20
8.5866726166
 30
0.0
 10
12.2836496924
 20
8.5818571574
 30
0.0
 10
12.293279136
 20
8.5752439952
 30
0.0
 10
12.3007801802
 20
8.5703986097
 30
0.0
 10
12.3059043348
 20
8.5671824034
 30
0.0
  0
SPLINE
  5
39A
100
AcDbEntity
  8
0
100
AcDbSpline
 62
9
  6
CONTINUOUS
 70
0
 71
3
 72
13
 73
9
 74
0
 42
0.0000001
 43
0.0000001
 44
0.0000000001
 40
0.0
 40
0.0
 40
0.0
 40
0.0
 40
0.0972726727
 40
0.208182302
 40
0.3302399939
 40
0.4602821779
 40
0.7317836458
 40
1.0
 40
1.0
 40
1.0
 40
1.0
 10
12.1263613952
 20
8.5957732544
 30
0.0
 10
12.1261361274
 20
8.5943490824
 30
0.0
 10
12.1257271674
 20
8.5912893737
 30
0.0
 10
12.1252512915
 20
8.5864166974
 30
0.0
 10
12.1248746763
 20
8.5810484291
 30
0.0
 10
12.1245029894
 20
8.573295446
 30
0.0
 10
12.1243261357
 20
8.5633668275
 30
0.0
 10
12.1244324096
 20
8.5553660362
 30
0.0
 10
12.1245433116
 20
8.5513917986
 30
0.0
  0
SPLINE
  5
39B
100
AcDbEntity
  8
0
100
AcDbSpline
 62
9
  6
CONTINUOUS
 70
0
 71
3
 72
10
 73
6
 74
0
 42
0.0000001
 43
0.0000001
 44
0.0000000001
 40
0.0
 40
0.0
 40
0.0
 40
0.0
 40
0.2415499546
 40
0.4895370052
 40
1.0
 40
1.0
 40
1.0
 40
1.0
 10
11.8506787406
 20
8.6075428711
 30
0.0
 10
11.8496291864
 20
8.6042102573
 30
0.0
 10
11.8473643164
 20
8.5974990175
 30
0.0
 10
11.842273648
 20
8.5839577407
 30
0.0
 10
11.8379210488
 20
8.5738775039
 30
0.0
 10
11.8348053295
 20
8.5671833151
 30
0.0
  0
LINE
  5
39C
100
AcDbEntity
  8
0
100
AcDbLine
 62
9
  6
CONTINUOUS
 10
11.8064630905
 20
8.6114191756
 11
11.8117828184
 21
8.6510656797
  0
LINE
  5
39D
100
AcDbEntity
  8
0
100
AcDbLine
 62
9
  6
CONTINUOUS
 10
12.3342462411
 20
8.6114193665
 11
12.3289265421
 21
8.6510652741
  0
LINE
  5
39E
100
AcDbEntity
  8
0
100
AcDbLine
 62
9
  6
CONTINUOUS
 10
12.3342460127
 20
9.0250403732
 11
12.3289265259
 21
8.9853943898
  0
LINE
  5
39F
100
AcDbEntity
  8
0
100
AcDbLine
 62
7
  6
CONTINUOUS
 10
22.0651296601
 20
11.5461644448
 11
22.0623548417
 21
11.5477515509
  0
SPLINE
  5
3A0
100
AcDbEntity
  8
0
100
AcDbSpline
 62
7
  6
CONTINUOUS
 70
0
 71
3
 72
11
 73
7
 74
0
 42
0.0000001
 43
0.0000001
 44
0.0000000001
 40
0.0
 40
0.0
 40
0.0
 40
0.0
 40
0.2620305132
 40
0.5197018538
 40
0.7673427353
 40
1.0
 40
1.0
 40
1.0
 40
1.0
 10
20.4329856367
 20
11.411391804
 30
0.0
 10
20.4329856367
 20
11.4172029342
 30
0.0
 10
20.433065264
 20
11.4287285463
 30
0.0
 10
20.4333386466
 20
11.4457441107
 30
0.0
 10
20.4336878989
 20
11.4621063849
 30
0.0
 10
20.4338276606
 20
11.4727578586
 30
0.0
 10
20.4338265651
 20
11.4779175692
 30
0.0
  0
SPLINE
  5
3A1
100
AcDbEntity
  8
0
100
AcDbSpline
 62
7
  6
CONTINUOUS
 70
0
 71
3
 72
42
 73
38
 74
0
 42
0.0000001
 43
0.0000001
 44
0.0000000001
 40
0.0
 40
0.0
 40
0.0
 40
0.0
 40
0.0984094
 40
0.1963664361
 40
0.2929015355
 40
0.3871105017
 40
0.4330550895
 40
0.478044026
 40
0.5645231917
 40
0.6452369633
 40
0.7190616289
 40
0.7850197214
 40
0.8147934606
 40
0.8423901389
 40
0.8677805748
 40
0.890923486
 40
0.9117965086
 40
0.930420163
 40
0.9468133211
 40
0.9609885075
 40
0.9729525997
 40
0.9781079946
 40
0.9827145707
 40
0.9867740373
 40
0.9902880343
 40
0.9932581317
 40
0.9956858296
 40
0.9966967294
 40
0.9975725607
 40
0.9983134922
 40
0.9989196894
 40
0.9993913153
 40
0.9997285341
 40
0.9998467765
 40
0.999931431
 40
0.9999824913
 40
1.0
 40
1.0
 40
1.0
 40
1.0
 10
20.0069770761
 20
11.411391804
 30
0.0
 10
20.0069770761
 20
11.416741715
 30
0.0
 10
20.0074992404
 20
11.4274234375
 30
0.0
 10
20.009777673
 20
11.4432062796
 30
0.0
 10
20.0135096605
 20
11.4584753764
 30
0.0
 10
20.0177251869
 20
11.4706536773
 30
0.0
 10
20.0216752161
 20
11.4799147267
 30
0.0
 10
20.0258682829
 20
11.4886035667
 30
0.0
 10
20.0315599162
 20
11.498655012
 30
0.0
 10
20.0389846915
 20
11.509469977
 30
0.0
 10
20.0465731429
 20
11.5187653109
 30
0.0
 10
20.0529316081
 20
11.5254512794
 30
0.0
 10
20.0578136101
 20
11.5300483515
 30
0.0
 10
20.0611916466
 20
11.5330214222
 30
0.0
 10
20.0643835496
 20
11.53565693
 30
0.0
 10
20.0673613329
 20
11.5379749769
 30
0.0
 10
20.0701025263
 20
11.5399960273
 30
0.0
 10
20.0725928356
 20
11.5417372786
 30
0.0
 10
20.0748195506
 20
11.5432186993
 30
0.0
 10
20.0767707287
 20
11.5444596176
 30
0.0
 10
20.078220433
 20
11.5453500973
 30
0.0
 10
20.0792325802
 20
11.5459588637
 30
0.0
 10
20.0798789058
 20
11.5463420767
 30
0.0
 10
20.0804505293
 20
11.5466762907
 30
0.0
 10
20.0809470847
 20
11.5469626153
 30
0.0
 10
20.0813681902
 20
11.5472021811
 30
0.0
 10
20.0816719648
 20
11.5473727893
 30
0.0
 10
20.0818769081
 20
11.5474868493
 30
0.0
 10
20.0820018937
 20
11.5475560391
 30
0.0
 10
20.0821076867
 20
11.5476143997
 30
0.0
 10
20.0821944269
 20
11.5476620077
 30
0.0
 10
20.0822615771
 20
11.5476991604
 30
0.0
 10
20.082306217
 20
11.5477233731
 30
0.0
 10
20.0823311003
 20
11.5477379887
 30
0.0
 10
20.0823442678
 20
11.547744456
 30
0.0
 10
20.0823493543
 20
11.5477493478
 30
0.0
 10
20.0823547199
 20
11.5477506205
 30
0.0
 10
20.0823545187
 20
11.5477515509
 30
0.0
  0
LINE
  5
3A2
100
AcDbEntity
  8
0
100
AcDbLine
 62
7
  6
CONTINUOUS
 10
20.0821878486
 20
10.7120318508
 11
20.0823545104
 21
10.7118251081
  0
LINE
  5
3A3
100
AcDbEntity
  8
0
100
AcDbLine
 62
7
  6
CONTINUOUS
 10
22.0625215119
 20
10.7120318508
 11
22.0623548501
 21
10.7118251081
  0
SPLINE
  5
3A4
100
AcDbEntity
  8
0
100
AcDbSpline
 62
7
  6
CONTINUOUS
 70
0
 71
3
 72
11
 73
7
 74
0
 42
0.0000001
 43
0.0000001
 44
0.0000000001
 40
0.0
 40
0.0
 40
0.0
 40
0.0
 40
0.232654413
 40
0.480280825
 40
0.7379515952
 40
1.0
 40
1.0
 40
1.0
 40
1.0
 10
21.7108829189
 20
11.4779173904
 30
0.0
 10
21.7108821953
 20
11.4727577571
 30
0.0
 10
21.7110216624
 20
11.4621067
 30
0.0
 10
21.7113706314
 20
11.4457448582
 30
0.0
 10
21.7116443153
 20
11.4287292822
 30
0.0
 10
21.7117237237
 20
11.4172033151
 30
0.0
 10
21.7117237237
 20
11.411391804
 30
0.0
  0
LINE
  5
3A5
100
AcDbEntity
  8
0
100
AcDbLine
 62
7
  6
CONTINUOUS
 10
20.0823545187
 20
11.5477515509
 11
20.0790133429
 21
11.5458246708
  0
SPLINE
  5
3A6
100
AcDbEntity
  8
0
100
AcDbSpline
 62
7
  6
CONTINUOUS
 70
0
 71
3
 72
42
 73
38
 74
0
 42
0.0000001
 43
0.0000001
 44
0.0000000001
 40
0.0
 40
0.0
 40
0.0
 40
0.0
 40
0.0000163538
 40
0.0000662701
 40
0.0001498284
 40
0.0002670532
 40
0.0006025747
 40
0.0010729708
 40
0.0016783727
 40
0.0024189113
 40
0.0032947192
 40
0.0043059301
 40
0.0067351031
 40
0.009707537
 40
0.0132243648
 40
0.0172867478
 40
0.0218958758
 40
0.027052899
 40
0.039014548
 40
0.0531819242
 40
0.0695699541
 40
0.0881988001
 40
0.1090936183
 40
0.1322564435
 40
0.1576503804
 40
0.2150165466
 40
0.2810144057
 40
0.3548586364
 40
0.3944211755
 40
0.4355924827
 40
0.5220715199
 40
0.5670576596
 40
0.612994931
 40
0.707177017
 40
0.8036806485
 40
0.9016113723
 40
1.0
 40
1.0
 40
1.0
 40
1.0
 10
22.0623548417
 20
11.5477515509
 30
0.0
 10
22.0623550296
 20
11.5477524199
 30
0.0
 10
22.0623599698
 20
11.5477481899
 30
0.0
 10
22.0623656039
 20
11.5477471509
 30
0.0
 10
22.0623786205
 20
11.5477393479
 30
0.0
 10
22.0624038108
 20
11.547726607
 30
0.0
 10
22.0624484077
 20
11.5477021019
 30
0.0
 10
22.0625155609
 20
11.547665694
 30
0.0
 10
22.0626021465
 20
11.5476179494
 30
0.0
 10
22.0627077444
 20
11.5475594146
 30
0.0
 10
22.0628324733
 20
11.5474897557
 30
0.0
 10
22.0630370314
 20
11.5473748117
 30
0.0
 10
22.063340275
 20
11.5472027947
 30
0.0
 10
22.0637608626
 20
11.5469615868
 30
0.0
 10
22.064257162
 20
11.5466739306
 30
0.0
 10
22.0648289523
 20
11.5463390974
 30
0.0
 10
22.0654760131
 20
11.5459563571
 30
0.0
 10
22.0664900618
 20
11.545350558
 30
0.0
 10
22.0679412216
 20
11.5444632742
 30
0.0
 10
22.0698911248
 20
11.5432218153
 30
0.0
 10
22.0721160826
 20
11.5417384602
 30
0.0
 10
22.0746058956
 20
11.5399943916
 30
0.0
 10
22.0773495963
 20
11.5379724383
 30
0.0
 10
22.0803307459
 20
11.5356545885
 30
0.0
 10
22.0847720163
 20
11.5319880939
 30
0.0
 10
22.0907505899
 20
11.5265321166
 30
0.0
 10
22.0981436416
 20
11.518755047
 30
0.0
 10
22.1043175482
 20
11.5111903347
 30
0.0
 10
22.109229351
 20
11.5043689296
 30
0.0
 10
22.1142180899
 20
11.4967669417
 30
0.0
 10
22.1188490573
 20
11.4885873909
 30
0.0
 10
22.1230408028
 20
11.4798986521
 30
0.0
 10
22.126990476
 20
11.4706394564
 30
0.0
 10
22.1312031318
 20
11.4584637686
 30
0.0
 10
22.1349330461
 20
11.4431987795
 30
0.0
 10
22.1372104736
 20
11.4274199316
 30
0.0
 10
22.1377322844
 20
11.4167406464
 30
0.0
 10
22.1377322844
 20
11.411391804
 30
0.0
  0
SPLINE
  5
3A7
100
AcDbEntity
  8
0
100
AcDbSpline
 62
7
  6
CONTINUOUS
 70
0
 71
3
 72
30
 73
26
 74
0
 42
0.0000001
 43
0.0000001
 44
0.0000000001
 40
0.0
 40
0.0
 40
0.0
 40
0.0
 40
0.0503501042
 40
0.0983957476
 40
0.144414003
 40
0.1668860968
 40
0.1891621773
 40
0.2114333333
 40
0.2339413579
 40
0.2569715641
 40
0.2808299519
 40
0.3058176021
 40
0.3321959499
 40
0.3601537687
 40
0.3897908859
 40
0.4211158906
 40
0.4540554784
 40
0.48847627
 40
0.5242102409
 40
0.5988626876
 40
0.6766468445
 40
0.7564110553
 40
0.837285086
 40
0.9186418793
 40
1.0
 40
1.0
 40
1.0
 40
1.0
 10
21.7108827652
 20
10.7854649767
 30
0.0
 10
21.7108828806
 20
10.780400089
 30
0.0
 10
21.7114151058
 20
10.7704879672
 30
0.0
 10
21.7141260365
 20
10.7561672436
 30
0.0
 10
21.7181999416
 20
10.7450943651
 30
0.0
 10
21.72264686
 20
10.7371013442
 30
0.0
 10
21.7265779133
 20
10.731604678
 30
0.0
 10
21.7311591445
 20
10.7266289461
 30
0.0
 10
21.7364124341
 20
10.7222457976
 30
0.0
 10
21.7423495119
 20
10.7185322815
 30
0.0
 10
21.7489658027
 20
10.715562033
 30
0.0
 10
21.7562393817
 20
10.7133995249
 30
0.0
 10
21.7641308929
 20
10.7120949103
 30
0.0
 10
21.7725842667
 20
10.7116767701
 30
0.0
 10
21.7815302709
 20
10.7121511495
 30
0.0
 10
21.7908903844
 20
10.7135024415
 30
0.0
 10
21.8005815914
 20
10.7156945954
 30
0.0
 10
21.8105224629
 20
10.7186741736
 30
0.0
 10
21.8242067881
 20
10.7236873954
 30
0.0
 10
21.8414392431
 20
10.7315919409
 30
0.0
 10
21.8618449011
 20
10.7429944823
 30
0.0
 10
21.8820136044
 20
10.7559973336
 30
0.0
 10
21.901776268
 20
10.770225854
 30
0.0
 10
21.9210316567
 20
10.7853901428
 30
0.0
 10
21.9335084797
 20
10.7959905205
 30
0.0
 10
21.9396570936
 20
10.801391804
 30
0.0
  0
SPLINE
  5
3A8
100
AcDbEntity
  8
0
100
AcDbSpline
 62
7
  6
CONTINUOUS
 70
0
 71
3
 72
24
 73
20
 74
0
 42
0.0000001
 43
0.0000001
 44
0.0000000001
 40
0.0
 40
0.0
 40
0.0
 40
0.0
 40
0.1318126332
 40
0.1968421684
 40
0.2607472529
 40
0.3233053678
 40
0.3844467655
 40
0.4442207469
 40
0.4737091686
 40
0.5030156655
 40
0.5613659534
 40
0.590631342
 40
0.6200791578
 40
0.6798037128
 40
0.7410225545
 40
0.8039085472
 40
0.8683442241
 40
0.9339376187
 40
1.0
 40
1.0
 40
1.0
 40
1.0
 10
21.0723546802
 20
11.5477507055
 30
0.0
 10
21.0616861161
 20
11.5477507055
 30
0.0
 10
21.0457384647
 20
11.5471045596
 30
0.0
 10
21.0247656598
 20
11.5446832925
 30
0.0
 10
21.00948847
 20
11.5420045258
 30
0.0
 10
20.9947494365
 20
11.5382851987
 30
0.0
 10
20.9807121891
 20
11.5333707756
 30
0.0
 10
20.9696974266
 20
11.5281128238
 30
0.0
 10
20.9614754142
 20
11.5231500185
 30
0.0
 10
20.9537093346
 20
11.5177007731
 30
0.0
 10
20.9465512176
 20
11.511451086
 30
0.0
 10
20.9401407201
 20
11.5044643998
 30
0.0
 10
20.9342007754
 20
11.4969302094
 30
0.0
 10
20.9277211008
 20
11.4865762343
 30
0.0
 10
20.921520649
 20
11.4730108194
 30
0.0
 10
20.9168239285
 20
11.4584598293
 30
0.0
 10
20.9135429925
 20
11.4431707357
 30
0.0
 10
20.9116055217
 20
11.4273997821
 30
0.0
 10
20.9111814488
 20
11.4167387175
 30
0.0
 10
20.9111814488
 20
11.411391804
 30
0.0
  0
SPLINE
  5
3A9
100
AcDbEntity
  8
0
100
AcDbSpline
 62
7
  6
CONTINUOUS
 70
0
 71
3
 72
38
 73
34
 74
0
 42
0.0000001
 43
0.0000001
 44
0.0000000001
 40
0.0
 40
0.0
 40
0.0
 40
0.0
 40
0.0394052605
 40
0.0788922164
 40
0.1183792766
 40
0.1578378963
 40
0.1972838255
 40
0.2367397889
 40
0.2761749681
 40
0.2958683436
 40
0.3155265097
 40
0.3546808518
 40
0.3935026458
 40
0.4693242993
 40
0.5415962575
 40
0.5759676247
 40
0.6089200669
 40
0.6403077554
 40
0.6700168748
 40
0.6979297053
 40
0.723966097
 40
0.7480917514
 40
0.7703291789
 40
0.7908396107
 40
0.8099660574
 40
0.828280509
 40
0.8466388673
 40
0.8660309243
 40
0.8873707153
 40
0.9112517876
 40
0.9380090071
 40
0.9676752702
 40
1.0
 40
1.0
 40
1.0
 40
1.0
 10
21.9396570936
 20
11.411391804
 30
0.0
 10
21.9396570936
 20
11.416017126
 30
0.0
 10
21.9391533467
 20
11.425284931
 30
0.0
 10
21.9369078907
 20
11.4390236704
 30
0.0
 10
21.9331727673
 20
11.4524437228
 30
0.0
 10
21.9279749775
 20
11.4653622757
 30
0.0
 10
21.9213748648
 20
11.4776211001
 30
0.0
 10
21.9134311088
 20
11.4890503941
 30
0.0
 10
21.9058086606
 20
11.4977895365
 30
0.0
 10
21.8991832393
 20
11.5042469227
 30
0.0
 10
21.8922442124
 20
11.5103161325
 30
0.0
 10
21.8830454418
 20
11.5171859207
 30
0.0
 10
21.8676067052
 20
11.5265855679
 30
0.0
 10
21.8474375861
 20
11.5354759237
 30
0.0
 10
21.8267864612
 20
11.5413510838
 30
0.0
 10
21.8106989395
 20
11.5444918386
 30
0.0
 10
21.7992277504
 20
11.5461549158
 30
0.0
 10
21.7882368521
 20
11.5472296963
 30
0.0
 10
21.7777985173
 20
11.5477556775
 30
0.0
 10
21.7679748714
 20
11.5477884411
 30
0.0
 10
21.7588171743
 20
11.5473117461
 30
0.0
 10
21.7503727871
 20
11.5462902885
 30
0.0
 10
21.7426747549
 20
11.5446954355
 30
0.0
 10
21.7357543207
 20
11.5424274537
 30
0.0
 10
21.7296444076
 20
11.5393668568
 30
0.0
 10
21.7243936533
 20
11.5353799055
 30
0.0
 10
21.7200561552
 20
11.5303667944
 30
0.0
 10
21.7166613447
 20
11.5242685183
 30
0.0
 10
21.7141873002
 20
11.5170681255
 30
0.0
 10
21.7124855808
 20
11.5087762599
 30
0.0
 10
21.7114521723
 20
11.4993978298
 30
0.0
 10
21.7109561514
 20
11.4889886729
 30
0.0
 10
21.7108834511
 20
11.4817116118
 30
0.0
 10
21.7108829189
 20
11.4779173904
 30
0.0
  0
SPLINE
  5
3AA
100
AcDbEntity
  8
0
100
AcDbSpline
 62
7
  6
CONTINUOUS
 70
0
 71
3
 72
30
 73
26
 74
0
 42
0.0000001
 43
0.0000001
 44
0.0000000001
 40
0.0
 40
0.0
 40
0.0
 40
0.0
 40
0.0813579607
 40
0.162714565
 40
0.2435885448
 40
0.3233527156
 40
0.4011369207
 40
0.4757894229
 40
0.511523561
 40
0.545944389
 40
0.5788839026
 40
0.6102089684
 40
0.6398461315
 40
0.6678039266
 40
0.6941822524
 40
0.7191699652
 40
0.7430283562
 40
0.7660584652
 40
0.7885664861
 40
0.8108376385
 40
0.8331137254
 40
0.8555858017
 40
0.9016040889
 40
0.949649769
 40
1.0
 40
1.0
 40
1.0
 40
1.0
 10
20.2050522669
 20
10.801391804
 30
0.0
 10
20.2112008686
 20
10.7959905311
 30
0.0
 10
20.2236776665
 20
10.7853901783
 30
0.0
 10
20.2429330208
 20
10.7702259111
 30
0.0
 10
20.2626956576
 20
10.7559974021
 30
0.0
 10
20.2828643524
 20
10.7429945455
 30
0.0
 10
20.3032700128
 20
10.7315919962
 30
0.0
 10
20.3205024872
 20
10.7236874269
 30
0.0
 10
20.3341868376
 20
10.7186741988
 30
0.0
 10
20.3441277175
 20
10.7156946029
 30
0.0
 10
20.3538189282
 20
10.7135024548
 30
0.0
 10
20.3631790432
 20
10.712151152
 30
0.0
 10
20.3721250561
 20
10.7116767699
 30
0.0
 10
20.3805784292
 20
10.7120949092
 30
0.0
 10
20.3884699448
 20
10.7133995111
 30
0.0
 10
20.3957435249
 20
10.7155620294
 30
0.0
 10
20.4023598206
 20
10.7185322588
 30
0.0
 10
20.408296889
 20
10.7222457723
 30
0.0
 10
20.4135501735
 20
10.7266289096
 30
0.0
 10
20.418131413
 20
10.7316046337
 30
0.0
 10
20.4220624705
 20
10.7371012953
 30
0.0
 10
20.426509395
 20
10.745094315
 30
0.0
 10
20.4305833116
 20
10.7561671946
 30
0.0
 10
20.4332942565
 20
10.770487936
 30
0.0
 10
20.4338264806
 20
10.7804000744
 30
0.0
 10
20.4338265972
 20
10.7854649749
 30
0.0
  0
SPLINE
  5
3AB
100
AcDbEntity
  8
0
100
AcDbSpline
 62
7
  6
CONTINUOUS
 70
0
 71
3
 72
38
 73
34
 74
0
 42
0.0000001
 43
0.0000001
 44
0.0000000001
 40
0.0
 40
0.0
 40
0.0
 40
0.0
 40
0.0323246025
 40
0.0619885093
 40
0.088745936
 40
0.1126232603
 40
0.1339530452
 40
0.1533362161
 40
0.1716887551
 40
0.1899999087
 40
0.2091140841
 40
0.2296108729
 40
0.2518427054
 40
0.2759571498
 40
0.3019852331
 40
0.3298954601
 40
0.3595983157
 40
0.3909902882
 40
0.4583073843
 40
0.4939259323
 40
0.5306522195
 40
0.5682615057
 40
0.6065622118
 40
0.6454051234
 40
0.6845753747
 40
0.7042389857
 40
0.7239363247
 40
0.7633773649
 40
0.8028374402
 40
0.8422827969
 40
0.8817376781
 40
0.9212217092
 40
1.0
 40
1.0
 40
1.0
 40
1.0
 10
20.4338265651
 20
11.4779175692
 30
0.0
 10
20.4338257596
 20
11.4817116152
 30
0.0
 10
20.4337526037
 20
11.4889880718
 30
0.0
 10
20.4332565459
 20
11.4993964985
 30
0.0
 10
20.4322249902
 20
11.5087739779
 30
0.0
 10
20.4305254648
 20
11.5170643864
 30
0.0
 10
20.4280509939
 20
11.5242615902
 30
0.0
 10
20.4246586189
 20
11.5303570195
 30
0.0
 10
20.4203278888
 20
11.5353728697
 30
0.0
 10
20.4150790874
 20
11.5393583751
 30
0.0
 10
20.4089724581
 20
11.5424169918
 30
0.0
 10
20.4020567462
 20
11.5446853998
 30
0.0
 10
20.3943649063
 20
11.5462912037
 30
0.0
 10
20.3859229104
 20
11.5473081836
 30
0.0
 10
20.3767683821
 20
11.5477813998
 30
0.0
 10
20.3669471822
 20
11.5477635543
 30
0.0
 10
20.3565094822
 20
11.5472322135
 30
0.0
 10
20.3415061217
 20
11.5457603009
 30
0.0
 10
20.3259272194
 20
11.5431372758
 30
0.0
 10
20.3100310284
 20
11.5391019117
 30
0.0
 10
20.297731219
 20
11.5351631435
 30
0.0
 10
20.2854393028
 20
11.5302635784
 30
0.0
 10
20.2733461621
 20
11.5242967394
 30
0.0
 10
20.2616698135
 20
11.5171869197
 30
0.0
 10
20.2524669161
 20
11.5103158325
 30
0.0
 10
20.2455248836
 20
11.5042460552
 30
0.0
 10
20.2388979547
 20
11.4977881751
 30
0.0
 10
20.2312760725
 20
11.4890469906
 30
0.0
 10
20.2233325297
 20
11.4776168453
 30
0.0
 10
20.2167321968
 20
11.4653595164
 30
0.0
 10
20.2115356004
 20
11.4524393864
 30
0.0
 10
20.2065636233
 20
11.4345810418
 30
0.0
 10
20.2050522669
 20
11.420638274
 30
0.0
 10
20.2050522669
 20
11.411391804
 30
0.0
  0
SPLINE
  5
3AC
100
AcDbEntity
  8
0
100
AcDbSpline
 62
7
  6
CONTINUOUS
 70
0
 71
3
 72
13
 73
9
 74
0
 42
0.0000001
 43
0.0000001
 44
0.0000000001
 40
0.0
 40
0.0
 40
0.0
 40
0.0
 40
0.1361919371
 40
0.2704629396
 40
0.401487326
 40
0.5286684104
 40
0.7711438751
 40
1.0
 40
1.0
 40
1.0
 40
1.0
 10
21.0723546802
 20
10.7118248749
 30
0.0
 10
21.0636783708
 20
10.7118248749
 30
0.0
 10
21.0464191193
 20
10.7131595143
 30
0.0
 10
21.0214182161
 20
10.7189541389
 30
0.0
 10
20.9980173845
 20
10.7279796922
 30
0.0
 10
20.9698959108
 20
10.7431793178
 30
0.0
 10
20.9396441463
 20
10.7668722981
 30
0.0
 10
20.9197983918
 20
10.7896311245
 30
0.0
 10
20.9111814488
 20
10.801391804
 30
0.0
  0
SPLINE
  5
3AD
100
AcDbEntity
  8
0
100
AcDbSpline
 62
7
  6
CONTINUOUS
 70
0
 71
3
 72
13
 73
9
 74
0
 42
0.0000001
 43
0.0000001
 44
0.0000000001
 40
0.0
 40
0.0
 40
0.0
 40
0.0
 40
0.1361907684
 40
0.2704613412
 40
0.4014854646
 40
0.528666645
 40
0.7711427152
 40
1.0
 40
1.0
 40
1.0
 40
1.0
 10
21.0723546802
 20
10.7118248749
 30
0.0
 10
21.0810309153
 20
10.7118248749
 30
0.0
 10
21.0982900656
 20
10.713159484
 30
0.0
 10
21.1232908583
 20
10.7189540598
 30
0.0
 10
21.1466916709
 20
10.7279795542
 30
0.0
 10
21.1748131968
 20
10.7431791428
 30
0.0
 10
21.2050650969
 20
10.766872149
 30
0.0
 10
21.224910925
 20
10.7896310648
 30
0.0
 10
21.2335279117
 20
10.801391804
 30
0.0
  0
SPLINE
  5
3AE
100
AcDbEntity
  8
0
100
AcDbSpline
 62
7
  6
CONTINUOUS
 70
0
 71
3
 72
23
 73
19
 74
0
 42
0.0000001
 43
0.0000001
 44
0.0000000001
 40
0.0
 40
0.0
 40
0.0
 40
0.0
 40
0.0661013632
 40
0.1317116784
 40
0.1961463289
 40
0.259033149
 40
0.3202583571
 40
0.3799707534
 40
0.438635773
 40
0.46781622
 40
0.4970065382
 40
0.55576022
 40
0.6155326834
 40
0.676655798
 40
0.7392262855
 40
0.8031277459
 40
0.8681465997
 40
1.0
 40
1.0
 40
1.0
 40
1.0
 10
21.2335279117
 20
11.411391804
 30
0.0
 10
21.2335279117
 20
11.4167417049
 30
0.0
 10
21.2331031246
 20
11.4274069711
 30
0.0
 10
21.2311645972
 20
11.4431816898
 30
0.0
 10
21.2278828911
 20
11.4584717627
 30
0.0
 10
21.2231817652
 20
11.4730208259
 30
0.0
 10
21.2169851017
 20
11.4865882283
 30
0.0
 10
21.2092500517
 20
11.4989496099
 30
0.0
 10
21.2014836208
 20
11.5080837924
 30
0.0
 10
21.1945856472
 20
11.5145860882
 30
0.0
 10
21.1872209524
 20
11.5205668492
 30
0.0
 10
21.1771483751
 20
11.5270819871
 30
0.0
 10
21.164004489
 20
11.5333756878
 30
0.0
 10
21.1499640121
 20
11.538284177
 30
0.0
 10
21.1352258198
 20
11.5419980866
 30
0.0
 10
21.1199505754
 20
11.5446853155
 30
0.0
 10
21.0989753122
 20
11.5470988325
 30
0.0
 10
21.0830262092
 20
11.5477507055
 30
0.0
 10
21.0723546802
 20
11.5477507055
 30
0.0
  0
ENDSEC
  0
SECTION
  2
OBJECTS
  0
DICTIONARY
  5
C
100
AcDbDictionary
280
0
281
1
  3
ACAD_GROUP
350
D
  3
ACAD_MLINESTYLE
350
17
  3
ACAD_LAYOUT
350
1A
  3
ACAD_PLOTSETTINGS
350
19
  3
ACAD_PLOTSTYLENAME
350
E
  0
DICTIONARY
  5
D
102
{ACAD_REACTORS
330
C
102
}
100
AcDbDictionary
280
0
281
1
  0
ACDBDICTIONARYWDFLT
  5
E
102
{ACAD_REACTORS
330
C
102
}
100
AcDbDictionary
281
1
  3
Normal
350
F
100
AcDbDictionaryWithDefault
340
F
  0
DICTIONARY
  5
17
102
{ACAD_REACTORS
330
C
102
}
100
AcDbDictionary
280
0
281
1
  3
Standard
350
18
  0
DICTIONARY
  5
19
102
{ACAD_REACTORS
330
C
102
}
100
AcDbDictionary
281
1
  0
DICTIONARY
  5
1A
102
{ACAD_REACTORS
330
C
102
}
100
AcDbDictionary
281
1
  3
Model
350
3AF
  3
Layout1
350
3B0
  0
ACDBPLACEHOLDER
  5
F
102
{ACAD_REACTORS
330
E
102
}
  0
MLINESTYLE
  5
18
102
{ACAD_REACTORS
330
17
102
}
100
AcDbMlineStyle
  2
STANDARD
 70
0
  3

 62
256
 51
90.0
 52
90.0
 71
2
 49
0.5
 62
256
  6
BYLAYER
 49
-0.5
 62
256
  6
BYLAYER
  0
LAYOUT
  5
3AF
102
{ACAD_REACTORS
330
1A
102
}
100
AcDbPlotSettings
  1

  2
none_device
  4
ANSI_C_(22.00_x_17.00_Inches)
  6

 40
0.0
 41
0.0
 42
0.0
 43
0.0
 44
558.8
 45
431.8
 46
0.0
 47
0.0
 48
0.0
 49
0.0
140
0.0
141
0.0
142
1.0
143
1.0
 70
1024
 72
0
 73
0
 74
0
  7

 75
0
147
1.0
148
0.0
149
0.0
100
AcDbLayout
  1
Model
 70
0
 71
0
 10
0.0
 20
0.0
 11
22.0
 21
17.0
 12
0.0
 22
0.0
 32
0.0
 14
0.0
 24
0.0
 34
0.0
 15
0.0
 25
0.0
 35
0.0
146
0.0
 13
0.0
 23
0.0
 33
0.0
 16
1.0
 26
0.0
 36
0.0
 17
0.0
 27
1.0
 37
0.0
 76
0
330
202
345
0
346
0
  0
LAYOUT
  5
3B0
102
{ACAD_REACTORS
330
1A
102
}
100
AcDbPlotSettings
  1

  2
none_device
  4
ANSI_C_(22.00_x_17.00_Inches)
  6

 40
0.0
 41
0.0
 42
0.0
 43
0.0
 44
558.8
 45
431.8
 46
0.0
 47
0.0
 48
0.0
 49
0.0
140
0.0
141
0.0
142
1.0
143
1.0
 70
0
 72
0
 73
0
 74
0
  7

 75
0
147
1.0
148
0.0
149
0.0
100
AcDbLayout
  1
Layout1
 70
0
 71
1
 10
0.0
 20
0.0
 11
22.0
 21
17.0
 12
0.0
 22
0.0
 32
0.0
 14
0.0
 24
0.0
 34
0.0
 15
0.0
 25
0.0
 35
0.0
146
0.0
 13
0.0
 23
0.0
 33
0.0
 16
1.0
 26
0.0
 36
0.0
 17
0.0
 27
1.0
 37
0.0
 76
0
330
203
345
0
346
0
  0
ENDSEC
  0
EOF
