999
DXF file: E:\BT Custom\CADOUTPUT\_TOP.dxf
999
Pro/ENGINEER 2018400 by Parametric Technology Corporation
  0
SECTION
  2
HEADER
  9
$ACADVER
  1
AC1018
  9
$DWGCODEPAGE
  3
ANSI_1252
  9
$EXTMAX
 10
22.0
 20
17.0
 30
0.0
  9
$EXTMIN
 10
0.0
 20
0.0
 30
0.0
  9
$LIMMIN
 10
0.0
 20
0.0
  9
$LIMMAX
 10
22.0
 20
17.0
  9
$VIEWCTR
 10
11.0
 20
8.5
  9
$VIEWSIZE
 40
17.0
  9
$CLAYER
  8
0
  9
$LTSCALE
 40
1.21
  9
$CELTYPE
  6
BYLAYER
  9
$DIMSCALE
 40
1.0
  9
$DIMASZ
 40
0.1
  9
$DIMEXO
 40
0.0625
  9
$DIMDLI
 40
0.836
  9
$DIMEXE
 40
0.125
  9
$DIMCEN
 40
0.198
  9
$DIMLFAC
 40
1.0
  9
$DIMBLK
  1
_FILLED
  9
$DIMALT
 70
1
  9
$DIMALTD
 70
2
  9
$DIMALTTD
 70
2
  9
$DIMALTF
 40
25.4
  9
$DIMTXT
 40
0.08
  9
$DIMTOL
 70
1
  9
$DIMLIM
 70
0
  9
$DIMTFAC
 40
1.0
  9
$DIMTP
 40
0.001
  9
$DIMTM
 40
0.001
  9
$DIMGAP
 40
0.09
  9
$DIMDSEP
 70
46
  9
$AUNITS
 70
0
  9
$PDMODE
 70
3
  9
$PDSIZE
 40
0.06
  9
$HANDSEED
  5
58D
  9
$TILEMODE
 70
1
  9
$MEASUREMENT
 70
0
  9
$INSUNITS
 70
1
  0
ENDSEC
  0
SECTION
  2
CLASSES
  0
CLASS
  1
ACDBDICTIONARYWDFLT
  2
AcDbDictionaryWithDefault
  3
AutoCAD 2000
 90
0
 91
1
280
0
281
0
  0
CLASS
  1
ACDBPLACEHOLDER
  2
AcDbPlaceHolder
  3
AutoCAD 2000
 90
0
 91
1
280
0
281
0
  0
CLASS
  1
LAYOUT
  2
AcDbLayout
  3
AutoCAD 2000
 90
0
 91
0
280
0
281
0
  0
ENDSEC
  0
SECTION
  2
TABLES
  0
TABLE
  2
VPORT
  5
8
100
AcDbSymbolTable
 70
2
  0
VPORT
  5
1F4
100
AcDbSymbolTableRecord
100
AcDbViewportTableRecord
  2
*ACTIVE
 70
0
 10
0.0
 20
0.0
 11
1.0
 21
1.0
 12
11.0
 22
8.5
 13
0.0
 23
0.0
 14
1.0
 24
1.0
 15
0.0
 25
0.0
 16
0.0
 26
0.0
 36
1.0
 17
0.0
 27
0.0
 37
0.0
 40
17.0
 41
1.2941176471
 42
50.0
 43
0.0
 44
0.0
 50
0.0
 51
0.0
 71
0
 72
100
 73
1
 74
1
 75
0
 76
0
 77
0
 78
0
  0
ENDTAB
  0
TABLE
  2
LTYPE
  5
5
100
AcDbSymbolTable
 70
6
  0
LTYPE
  5
14
100
AcDbSymbolTableRecord
100
AcDbLinetypeTableRecord
  2
BYBLOCK
 70
0
  3

 72
65
 73
0
 40
0.0
  0
LTYPE
  5
15
100
AcDbSymbolTableRecord
100
AcDbLinetypeTableRecord
  2
BYLAYER
 70
0
  3

 72
65
 73
0
 40
0.0
  0
LTYPE
  5
16
100
AcDbSymbolTableRecord
100
AcDbLinetypeTableRecord
  2
CONTINUOUS
 70
64
  3
Solid line
 72
65
 73
0
 40
0.0
  0
LTYPE
  5
1F5
100
AcDbSymbolTableRecord
100
AcDbLinetypeTableRecord
  2
CENTER
 70
64
  3
____ _ ____ _ ____ _ ____ _ ____ _ ____ _ ____
 72
65
 73
4
 40
0.6
 49
0.375
 74
0
 49
-0.075
 74
0
 49
0.075
 74
0
 49
-0.075
 74
0
  0
LTYPE
  5
1F6
100
AcDbSymbolTableRecord
100
AcDbLinetypeTableRecord
  2
HIDDEN
 70
64
  3
- - - - - - - - - - - - - - - - - - - -
 72
65
 73
2
 40
0.2
 49
0.1
 74
0
 49
-0.1
 74
0
  0
LTYPE
  5
1F7
100
AcDbSymbolTableRecord
100
AcDbLinetypeTableRecord
  2
PHANTOM
 70
64
  3
_____ _ _ _____ _ _ _____ _ _ _____
 72
65
 73
6
 40
0.8
 49
0.45
 74
0
 49
-0.05
 74
0
 49
0.1
 74
0
 49
-0.05
 74
0
 49
0.1
 74
0
 49
-0.05
 74
0
  0
LTYPE
  5
1F8
100
AcDbSymbolTableRecord
100
AcDbLinetypeTableRecord
  2
DOT
 70
64
  3
. . . . . . . . . . . . . . . . . . . .
 72
65
 73
2
 40
0.2
 49
0.1
 74
0
 49
-0.1
 74
0
  0
LTYPE
  5
1F9
100
AcDbSymbolTableRecord
100
AcDbLinetypeTableRecord
  2
DASHED
 70
64
  3
- - - - - - - - - - - - - - - - - - - -
 72
65
 73
2
 40
0.2
 49
0.1
 74
0
 49
-0.1
 74
0
  0
ENDTAB
  0
TABLE
  2
LAYER
  5
2
100
AcDbSymbolTable
 70
36
  0
LAYER
  5
10
100
AcDbSymbolTableRecord
100
AcDbLayerTableRecord
  2
0
 70
0
 62
7
  6
CONTINUOUS
370
-3
390
F
  0
LAYER
  5
1FA
100
AcDbSymbolTableRecord
100
AcDbLayerTableRecord
  2
DEFAULT_1
 70
0
 62
7
  6
CENTER
370
-3
390
F
  0
LAYER
  5
1FB
100
AcDbSymbolTableRecord
100
AcDbLayerTableRecord
  2
DEFAULT_2
 70
0
 62
8
  6
HIDDEN
370
-3
390
F
  0
LAYER
  5
1FC
100
AcDbSymbolTableRecord
100
AcDbLayerTableRecord
  2
DEFAULT_3
 70
0
 62
7
  6
PHANTOM
370
-3
390
F
  0
LAYER
  5
1FD
100
AcDbSymbolTableRecord
100
AcDbLayerTableRecord
  2
ALL_FEATURES
 70
0
 62
7
  6
CONTINUOUS
370
-3
390
F
  0
LAYER
  5
1FE
100
AcDbSymbolTableRecord
100
AcDbLayerTableRecord
  2
AXES_FEATURES
 70
0
 62
7
  6
CONTINUOUS
370
-3
390
F
  0
LAYER
  5
1FF
100
AcDbSymbolTableRecord
100
AcDbLayerTableRecord
  2
DIMENSIONS
 70
0
 62
7
  6
CONTINUOUS
370
-3
390
F
  0
ENDTAB
  0
TABLE
  2
STYLE
  5
3
100
AcDbSymbolTable
 70
1
  0
STYLE
  5
11
100
AcDbSymbolTableRecord
100
AcDbTextStyleTableRecord
  2
STANDARD
 70
0
 40
0.0
 41
0.8
 50
0.0
 71
0
 42
0.2
  3
txt
  4

  0
STYLE
  5
200
100
AcDbSymbolTableRecord
100
AcDbTextStyleTableRecord
  2
TEXTSTYLE_1
 70
0
 40
0.0
 41
0.8
 50
0.0
 71
0
 42
0.2
  3
gdt
  4

  0
ENDTAB
  0
TABLE
  2
VIEW
  5
6
100
AcDbSymbolTable
 70
0
  0
ENDTAB
  0
TABLE
  2
UCS
  5
7
100
AcDbSymbolTable
 70
0
  0
ENDTAB
  0
TABLE
  2
APPID
  5
9
100
AcDbSymbolTable
 70
1
  0
APPID
  5
201
100
AcDbSymbolTableRecord
100
AcDbRegAppTableRecord
  2
ACAD
 70
0
  0
ENDTAB
  0
TABLE
  2
BLOCK_RECORD
  5
1
100
AcDbSymbolTable
 70
0
  0
BLOCK_RECORD
  5
202
100
AcDbSymbolTableRecord
100
AcDbBlockTableRecord
  2
*Model_Space
  0
BLOCK_RECORD
  5
203
100
AcDbSymbolTableRecord
100
AcDbBlockTableRecord
  2
*Paper_Space
  0
BLOCK_RECORD
  5
204
100
AcDbSymbolTableRecord
100
AcDbBlockTableRecord
  2
_FILLED
  0
ENDTAB
  0
TABLE
  2
DIMSTYLE
  5
A
100
AcDbSymbolTable
 70
1
100
AcDbDimStyleTable
 71
0
  0
DIMSTYLE
105
205
100
AcDbSymbolTableRecord
100
AcDbDimStyleTableRecord
  2
STANDARD
 70
0
  3

  4

 40
1.0
 41
0.1
 42
0.0625
 43
0.38
 44
0.125
 45
0.0
 46
0.0
 47
0.001
 48
0.001
140
0.08
141
0.09
142
0.0
143
25.4
144
1.0
145
0.0
146
1.0
147
0.09
 71
1.0
 72
0.0
 73
1
 74
1
 75
0
 76
0
 77
0
 78
4
 79
1
170
1
171
2
172
0
173
0
174
0
175
0
176
0
177
0
178
0
270
2
179
3
271
3
272
3
273
2
274
2
275
0
280
0
281
0
282
0
283
1
284
4
285
0
286
0
287
3
288
0
340
11
278
46
341
204
342
204
343
204
344
204
  0
ENDTAB
  0
ENDSEC
  0
SECTION
  2
BLOCKS
  0
BLOCK
  5
20
100
AcDbEntity
  8
0
100
AcDbBlockBegin
  2
*Model_Space
 70
0
 10
0.0
 20
0.0
 30
0.0
  3
*Model_Space
  1

  0
ENDBLK
  5
21
100
AcDbEntity
  8
0
100
AcDbBlockEnd
  0
BLOCK
  5
1C
100
AcDbEntity
  8
0
100
AcDbBlockBegin
  2
*Paper_Space
 70
0
 10
0.0
 20
0.0
 30
0.0
  3
*Paper_Space
  1

  0
ENDBLK
  5
1D
100
AcDbEntity
  8
0
100
AcDbBlockEnd
  0
BLOCK
  5
206
100
AcDbEntity
  8
0
100
AcDbBlockBegin
  2
_FILLED
 70
64
 10
0.0
 20
0.0
  3
_FILLED
  1

  0
SOLID
  5
207
100
AcDbEntity
  8
0
  6
BYBLOCK
 62
0
100
AcDbTrace
 10
0.0
 20
0.0
 11
-1.0
 21
0.2
 12
-1.0
 22
-0.2
 13
-1.0
 23
-0.2
  0
ENDBLK
  5
208
100
AcDbEntity
  8
0
  6
BYBLOCK
 62
0
100
AcDbBlockEnd
  0
ENDSEC
  0
SECTION
  2
ENTITIES
  0
LINE
  5
209
100
AcDbEntity
  8
0
100
AcDbLine
 62
7
  6
CONTINUOUS
 10
10.6767502453
 20
-3.0421229129
 11
10.705439388
 21
-3.0508940641
  0
LINE
  5
20A
100
AcDbEntity
  8
0
100
AcDbLine
 62
7
  6
CONTINUOUS
 10
11.3891972885
 20
-3.2599398329
 11
11.4178864312
 21
-3.2687109841
  0
LINE
  5
20B
100
AcDbEntity
  8
0
100
AcDbLine
 62
7
  6
CONTINUOUS
 10
10.7051761461
 20
-2.9734967179
 11
10.7316645738
 21
-2.9875808648
  0
LINE
  5
20C
100
AcDbEntity
  8
0
100
AcDbLine
 62
7
  6
CONTINUOUS
 10
11.3629721027
 20
-3.3232530322
 11
11.3894605305
 21
-3.3373371791
  0
LINE
  5
20D
100
AcDbEntity
  8
0
100
AcDbLine
 62
7
  6
CONTINUOUS
 10
4.1973183383
 20
9.1012749133
 11
4.1973183383
 21
8.5841311896
  0
LINE
  5
20E
100
AcDbEntity
  8
0
100
AcDbLine
 62
9
  6
CONTINUOUS
 10
4.2385263923
 20
9.1065935539
 11
4.2385263227
 21
8.5788125297
  0
LINE
  5
20F
100
AcDbEntity
  8
0
100
AcDbLine
 62
7
  6
CONTINUOUS
 10
6.2723816798
 20
7.8619007395
 11
6.2701642962
 21
7.8829977348
  0
LINE
  5
210
100
AcDbEntity
  8
0
100
AcDbLine
 62
7
  6
CONTINUOUS
 10
6.0876130215
 20
9.6198570936
 11
6.085395638
 21
9.6409540889
  0
LINE
  5
211
100
AcDbEntity
  8
0
100
AcDbLine
 62
7
  6
CONTINUOUS
 10
6.2386242432
 20
7.8895431171
 11
6.2371444849
 21
7.9107046462
  0
LINE
  5
212
100
AcDbEntity
  8
0
100
AcDbLine
 62
7
  6
CONTINUOUS
 10
6.115319933
 20
9.6528769049
 11
6.1138401747
 21
9.674038434
  0
LINE
  5
213
100
AcDbEntity
  8
0
100
AcDbLine
 62
7
  6
CONTINUOUS
 10
6.1434220109
 20
9.706109925
 11
6.144162341
 21
9.6849096441
  0
LINE
  5
214
100
AcDbEntity
  8
0
100
AcDbLine
 62
7
  6
CONTINUOUS
 10
6.2051117457
 20
7.9395470542
 11
6.2058520758
 21
7.9183467733
  0
LINE
  5
215
100
AcDbEntity
  8
0
100
AcDbLine
 62
7
  6
CONTINUOUS
 10
6.1741051054
 20
9.7371294878
 11
6.1741051054
 21
9.7159162844
  0
LINE
  5
216
100
AcDbEntity
  8
0
100
AcDbLine
 62
7
  6
CONTINUOUS
 10
6.1741051054
 20
7.9694898186
 11
6.1741051054
 21
7.9482766152
  0
LINE
  5
217
100
AcDbEntity
  8
0
100
AcDbLine
 62
7
  6
CONTINUOUS
 10
6.2058520758
 20
9.7670593297
 11
6.2051117457
 21
9.7458590488
  0
LINE
  5
218
100
AcDbEntity
  8
0
100
AcDbLine
 62
7
  6
CONTINUOUS
 10
6.144162341
 20
8.0004964589
 11
6.1434220109
 21
7.979296178
  0
LINE
  5
219
100
AcDbEntity
  8
0
100
AcDbLine
 62
7
  6
CONTINUOUS
 10
6.1138401747
 20
8.011367669
 11
6.115319933
 21
8.0325291981
  0
LINE
  5
21A
100
AcDbEntity
  8
0
100
AcDbLine
 62
7
  6
CONTINUOUS
 10
6.2371444849
 20
9.7747014568
 11
6.2386242432
 21
9.7958629859
  0
LINE
  5
21B
100
AcDbEntity
  8
0
100
AcDbLine
 62
7
  6
CONTINUOUS
 10
6.085395638
 20
8.0444520141
 11
6.0876130215
 21
8.0655490094
  0
LINE
  5
21C
100
AcDbEntity
  8
0
100
AcDbLine
 62
7
  6
CONTINUOUS
 10
6.2701642962
 20
9.8024083682
 11
6.2723816798
 21
9.8235053635
  0
LINE
  5
21D
100
AcDbEntity
  8
0
100
AcDbLine
 62
7
  6
CONTINUOUS
 10
6.0581230559
 20
8.0785089052
 11
6.0610753632
 21
8.0995156632
  0
LINE
  5
21E
100
AcDbEntity
  8
0
100
AcDbLine
 62
7
  6
CONTINUOUS
 10
6.30413095
 20
9.8289460266
 11
6.3070832573
 21
9.8499527846
  0
LINE
  5
21F
100
AcDbEntity
  8
0
100
AcDbLine
 62
7
  6
CONTINUOUS
 10
6.0320556558
 20
8.1134968491
 11
6.0357392899
 21
8.1343877763
  0
LINE
  5
220
100
AcDbEntity
  8
0
100
AcDbLine
 62
7
  6
CONTINUOUS
 10
6.3390030631
 20
9.8542820999
 11
6.3426866972
 21
9.8751730271
  0
LINE
  5
221
100
AcDbEntity
  8
0
100
AcDbLine
 62
7
  6
CONTINUOUS
 10
6.0072251969
 20
8.1493732185
 11
6.0116356699
 21
8.1701228625
  0
LINE
  5
222
100
AcDbEntity
  8
0
100
AcDbLine
 62
7
  6
CONTINUOUS
 10
6.3747381493
 20
9.8783857198
 11
6.3791486223
 21
9.8991353639
  0
LINE
  5
223
100
AcDbEntity
  8
0
100
AcDbLine
 62
7
  6
CONTINUOUS
 10
5.9836619314
 20
8.1860943034
 11
5.9887938697
 21
8.2066773841
  0
LINE
  5
224
100
AcDbEntity
  8
0
100
AcDbLine
 62
7
  6
CONTINUOUS
 10
6.4112926709
 20
9.90122752
 11
6.4164246093
 21
9.9218106007
  0
LINE
  5
225
100
AcDbEntity
  8
0
100
AcDbLine
 62
7
  6
CONTINUOUS
 10
5.9613945673
 20
8.223615365
 11
5.9672417186
 21
8.2440068049
  0
LINE
  5
226
100
AcDbEntity
  8
0
100
AcDbLine
 62
7
  6
CONTINUOUS
 10
6.4486220917
 20
9.9227796712
 11
6.454469243
 21
9.9431711111
  0
LINE
  5
227
100
AcDbEntity
  8
0
100
AcDbLine
 62
7
  6
CONTINUOUS
 10
5.940450234
 20
8.2618906896
 11
5.9470054744
 21
8.2820656449
  0
LINE
  5
228
100
AcDbEntity
  8
0
100
AcDbLine
 62
7
  6
CONTINUOUS
 10
6.4866809317
 20
9.9430159154
 11
6.4932361721
 21
9.9631908708
  0
LINE
  5
229
100
AcDbEntity
  8
0
100
AcDbLine
 62
7
  6
CONTINUOUS
 10
5.9208544491
 20
8.3008736445
 11
5.9281097919
 21
8.3208075353
  0
LINE
  5
22A
100
AcDbEntity
  8
0
100
AcDbLine
 62
7
  6
CONTINUOUS
 10
6.525422822
 20
9.9619115978
 11
6.5326781649
 21
9.9818454886
  0
LINE
  5
22B
100
AcDbEntity
  8
0
100
AcDbLine
 62
7
  6
CONTINUOUS
 10
5.9026310868
 20
8.3405167352
 11
5.9105776927
 21
8.3601852749
  0
LINE
  5
22C
100
AcDbEntity
  8
0
100
AcDbLine
 62
7
  6
CONTINUOUS
 10
6.5648005617
 20
9.9794436971
 11
6.5727471675
 21
9.9991122368
  0
LINE
  5
22D
100
AcDbEntity
  8
0
100
AcDbLine
 62
7
  6
CONTINUOUS
 10
5.8858023497
 20
8.3807716624
 11
5.8944305368
 21
8.4001508881
  0
LINE
  5
22E
100
AcDbEntity
  8
0
100
AcDbLine
 62
7
  6
CONTINUOUS
 10
6.6047661749
 20
9.995590853
 11
6.613394362
 21
10.0149700786
  0
LINE
  5
22F
100
AcDbEntity
  8
0
100
AcDbLine
 62
7
  6
CONTINUOUS
 10
5.8703887408
 20
8.421589382
 11
5.8796879972
 21
8.4406556829
  0
LINE
  5
230
100
AcDbEntity
  8
0
100
AcDbLine
 62
7
  6
CONTINUOUS
 10
6.6452709697
 20
10.0103333926
 11
6.654570226
 21
10.0293996936
  0
LINE
  5
231
100
AcDbEntity
  8
0
100
AcDbLine
 62
7
  6
CONTINUOUS
 10
5.8564090394
 20
8.4629201637
 11
5.8663680352
 21
8.4816503106
  0
LINE
  5
232
100
AcDbEntity
  8
0
100
AcDbLine
 62
7
  6
CONTINUOUS
 10
6.6862655974
 20
10.0236533546
 11
6.6962245931
 21
10.0423835015
  0
LINE
  5
233
100
AcDbEntity
  8
0
100
AcDbLine
 62
7
  6
CONTINUOUS
 10
5.8438802776
 20
8.5047136523
 11
5.8544868793
 21
8.5230848253
  0
LINE
  5
234
100
AcDbEntity
  8
0
100
AcDbLine
 62
7
  6
CONTINUOUS
 10
6.7277001121
 20
10.0355345105
 11
6.7383067139
 21
10.0539056836
  0
LINE
  5
235
100
AcDbEntity
  8
0
100
AcDbLine
 62
7
  6
CONTINUOUS
 10
5.8328177196
 20
8.5469189289
 11
5.8440590047
 21
8.5649087457
  0
LINE
  5
236
100
AcDbEntity
  8
0
100
AcDbLine
 62
7
  6
CONTINUOUS
 10
6.7695240325
 20
10.045962385
 11
6.7807653176
 21
10.0639522018
  0
LINE
  5
237
100
AcDbEntity
  8
0
100
AcDbLine
 62
7
  6
CONTINUOUS
 10
5.8232348435
 20
8.589484573
 11
5.830328709
 21
8.600001661
  0
LINE
  5
238
100
AcDbEntity
  8
0
100
AcDbLine
 62
7
  6
CONTINUOUS
 10
6.8116864024
 20
10.0549242734
 11
6.8235486752
 21
10.0725108161
  0
LINE
  5
239
100
AcDbEntity
  8
0
100
AcDbLine
 62
7
  6
CONTINUOUS
 10
6.8541358536
 20
10.062409257
 11
6.8666046617
 21
10.0795710991
  0
LINE
  5
23A
100
AcDbEntity
  8
0
100
AcDbLine
 62
7
  6
CONTINUOUS
 10
6.8968206678
 20
10.0684082164
 11
6.9098808199
 21
10.0851244488
  0
LINE
  5
23B
100
AcDbEntity
  8
0
100
AcDbLine
 62
7
  6
CONTINUOUS
 10
6.9396888403
 20
10.0729138429
 11
6.9533244246
 21
10.0891640995
  0
LINE
  5
23C
100
AcDbEntity
  8
0
100
AcDbLine
 62
7
  6
CONTINUOUS
 10
6.9826881427
 20
10.075920647
 11
6.9968825464
 21
10.0916851294
  0
LINE
  5
23D
100
AcDbEntity
  8
0
100
AcDbLine
 62
7
  6
CONTINUOUS
 10
7.0257661871
 20
10.0774249655
 11
7.0405021164
 21
10.092684467
  0
LINE
  5
23E
100
AcDbEntity
  8
0
100
AcDbLine
 62
7
  6
CONTINUOUS
 10
7.0688704895
 20
10.0774249655
 11
7.084129991
 21
10.0921608948
  0
LINE
  5
23F
100
AcDbEntity
  8
0
100
AcDbLine
 62
7
  6
CONTINUOUS
 10
7.1119485338
 20
10.075920647
 11
7.1277130162
 21
10.0901150507
  0
LINE
  5
240
100
AcDbEntity
  8
0
100
AcDbLine
 62
7
  6
CONTINUOUS
 10
7.1549478363
 20
10.0729138429
 11
7.1711980929
 21
10.0865494272
  0
LINE
  5
241
100
AcDbEntity
  8
0
100
AcDbLine
 62
7
  6
CONTINUOUS
 10
7.1978160088
 20
10.0684082164
 11
7.2145322412
 21
10.0814683685
  0
LINE
  5
242
100
AcDbEntity
  8
0
100
AcDbLine
 62
7
  6
CONTINUOUS
 10
7.240500823
 20
10.062409257
 11
7.2576626651
 21
10.0748780651
  0
LINE
  5
243
100
AcDbEntity
  8
0
100
AcDbLine
 62
7
  6
CONTINUOUS
 10
10.8653981077
 20
-2.8132747563
 11
10.8794822546
 21
-2.8397631841
  0
LINE
  5
244
100
AcDbEntity
  8
0
100
AcDbLine
 62
7
  6
CONTINUOUS
 10
11.215154422
 20
-3.471070713
 11
11.2292385689
 21
-3.4975591407
  0
LINE
  5
245
100
AcDbEntity
  8
0
100
AcDbLine
 62
7
  6
CONTINUOUS
 10
6.454469243
 20
7.7422349919
 11
6.4486220917
 21
7.7626264318
  0
LINE
  5
246
100
AcDbEntity
  8
0
100
AcDbLine
 62
7
  6
CONTINUOUS
 10
5.9672417186
 20
9.4413992981
 11
5.9613945673
 21
9.461790738
  0
LINE
  5
247
100
AcDbEntity
  8
0
100
AcDbLine
 62
7
  6
CONTINUOUS
 10
6.4164246093
 20
7.7635955023
 11
6.4112926709
 21
7.784178583
  0
LINE
  5
248
100
AcDbEntity
  8
0
100
AcDbLine
 62
7
  6
CONTINUOUS
 10
5.9887938697
 20
9.4787287189
 11
5.9836619314
 21
9.4993117995
  0
LINE
  5
249
100
AcDbEntity
  8
0
100
AcDbLine
 62
7
  6
CONTINUOUS
 10
6.3791486223
 20
7.7862707391
 11
6.3747381493
 21
7.8070203832
  0
LINE
  5
24A
100
AcDbEntity
  8
0
100
AcDbLine
 62
7
  6
CONTINUOUS
 10
6.0116356699
 20
9.5152832405
 11
6.0072251969
 21
9.5360328845
  0
LINE
  5
24B
100
AcDbEntity
  8
0
100
AcDbLine
 62
7
  6
CONTINUOUS
 10
6.3426866972
 20
7.8102330759
 11
6.3390030631
 21
7.8311240031
  0
LINE
  5
24C
100
AcDbEntity
  8
0
100
AcDbLine
 62
7
  6
CONTINUOUS
 10
6.0357392899
 20
9.5510183267
 11
6.0320556558
 21
9.5719092539
  0
LINE
  5
24D
100
AcDbEntity
  8
0
100
AcDbLine
 62
7
  6
CONTINUOUS
 10
6.3070832573
 20
7.8354533184
 11
6.30413095
 21
7.8564600764
  0
LINE
  5
24E
100
AcDbEntity
  8
0
100
AcDbLine
 62
7
  6
CONTINUOUS
 10
6.0610753632
 20
9.5858904398
 11
6.0581230559
 21
9.6068971978
  0
LINE
  5
24F
100
AcDbEntity
  8
0
100
AcDbLine
 62
7
  6
CONTINUOUS
 10
7.2829502741
 20
10.0549242734
 11
7.3005368168
 21
10.0667865462
  0
LINE
  5
250
100
AcDbEntity
  8
0
100
AcDbLine
 62
7
  6
CONTINUOUS
 10
5.8260691879
 20
9.1092560721
 11
5.8440590047
 21
9.1204973573
  0
LINE
  5
251
100
AcDbEntity
  8
0
100
AcDbLine
 62
7
  6
CONTINUOUS
 10
7.3251126441
 20
10.045962385
 11
7.3431024609
 21
10.0572036702
  0
LINE
  5
252
100
AcDbEntity
  8
0
100
AcDbLine
 62
7
  6
CONTINUOUS
 10
5.8361157062
 20
9.1517146759
 11
5.8544868793
 21
9.1623212776
  0
LINE
  5
253
100
AcDbEntity
  8
0
100
AcDbLine
 62
7
  6
CONTINUOUS
 10
7.3669365644
 20
10.0355345105
 11
7.3853077375
 21
10.0461411122
  0
LINE
  5
254
100
AcDbEntity
  8
0
100
AcDbLine
 62
7
  6
CONTINUOUS
 10
5.8476378883
 20
9.1937967967
 11
5.8663680352
 21
9.2037557924
  0
LINE
  5
255
100
AcDbEntity
  8
0
100
AcDbLine
 62
7
  6
CONTINUOUS
 10
7.4083710792
 20
10.0236533546
 11
7.4271012261
 21
10.0336123504
  0
LINE
  5
256
100
AcDbEntity
  8
0
100
AcDbLine
 62
7
  6
CONTINUOUS
 10
5.8606216962
 20
9.2354511637
 11
5.8796879972
 21
9.2447504201
  0
LINE
  5
257
100
AcDbEntity
  8
0
100
AcDbLine
 62
7
  6
CONTINUOUS
 10
7.4493657068
 20
10.0103333926
 11
7.4684320078
 21
10.0196326489
  0
LINE
  5
258
100
AcDbEntity
  8
0
100
AcDbLine
 62
7
  6
CONTINUOUS
 10
5.8750513112
 20
9.2766270278
 11
5.8944305368
 21
9.2852552149
  0
LINE
  5
259
100
AcDbEntity
  8
0
100
AcDbLine
 62
7
  6
CONTINUOUS
 10
7.4898705017
 20
9.995590853
 11
7.5092497273
 21
10.0042190401
  0
LINE
  5
25A
100
AcDbEntity
  8
0
100
AcDbLine
 62
7
  6
CONTINUOUS
 10
5.890909153
 20
9.3172742222
 11
5.9105776927
 21
9.3252208281
  0
LINE
  5
25B
100
AcDbEntity
  8
0
100
AcDbLine
 62
7
  6
CONTINUOUS
 10
7.5298361149
 20
9.9794436971
 11
7.5495046546
 21
9.987390303
  0
LINE
  5
25C
100
AcDbEntity
  8
0
100
AcDbLine
 62
7
  6
CONTINUOUS
 10
5.9081759012
 20
9.3573432249
 11
5.9281097919
 21
9.3645985677
  0
LINE
  5
25D
100
AcDbEntity
  8
0
100
AcDbLine
 62
7
  6
CONTINUOUS
 10
7.5692138545
 20
9.9619115978
 11
7.5891477453
 21
9.9691669407
  0
LINE
  5
25E
100
AcDbEntity
  8
0
100
AcDbLine
 62
7
  6
CONTINUOUS
 10
6.7807653176
 20
7.6214539012
 11
6.7695240325
 21
7.639443718
  0
LINE
  5
25F
100
AcDbEntity
  8
0
100
AcDbLine
 62
7
  6
CONTINUOUS
 10
5.8440590047
 20
9.1204973573
 11
5.8328177196
 21
9.1384871741
  0
LINE
  5
260
100
AcDbEntity
  8
0
100
AcDbLine
 62
7
  6
CONTINUOUS
 10
6.7383067139
 20
7.6315004194
 11
6.7277001121
 21
7.6498715925
  0
LINE
  5
261
100
AcDbEntity
  8
0
100
AcDbLine
 62
7
  6
CONTINUOUS
 10
5.8544868793
 20
9.1623212776
 11
5.8438802776
 21
9.1806924507
  0
LINE
  5
262
100
AcDbEntity
  8
0
100
AcDbLine
 62
7
  6
CONTINUOUS
 10
6.6962245931
 20
7.6430226015
 11
6.6862655974
 21
7.6617527484
  0
LINE
  5
263
100
AcDbEntity
  8
0
100
AcDbLine
 62
7
  6
CONTINUOUS
 10
5.8663680352
 20
9.2037557924
 11
5.8564090394
 21
9.2224859393
  0
LINE
  5
264
100
AcDbEntity
  8
0
100
AcDbLine
 62
7
  6
CONTINUOUS
 10
6.654570226
 20
7.6560064094
 11
6.6452709697
 21
7.6750727104
  0
LINE
  5
265
100
AcDbEntity
  8
0
100
AcDbLine
 62
7
  6
CONTINUOUS
 10
5.8796879972
 20
9.2447504201
 11
5.8703887408
 21
9.263816721
  0
LINE
  5
266
100
AcDbEntity
  8
0
100
AcDbLine
 62
7
  6
CONTINUOUS
 10
6.613394362
 20
7.6704360244
 11
6.6047661749
 21
7.68981525
  0
LINE
  5
267
100
AcDbEntity
  8
0
100
AcDbLine
 62
7
  6
CONTINUOUS
 10
5.8944305368
 20
9.2852552149
 11
5.8858023497
 21
9.3046344405
  0
LINE
  5
268
100
AcDbEntity
  8
0
100
AcDbLine
 62
7
  6
CONTINUOUS
 10
6.5727471675
 20
7.6862938662
 11
6.5648005617
 21
7.7059624059
  0
LINE
  5
269
100
AcDbEntity
  8
0
100
AcDbLine
 62
7
  6
CONTINUOUS
 10
5.9105776927
 20
9.3252208281
 11
5.9026310868
 21
9.3448893678
  0
LINE
  5
26A
100
AcDbEntity
  8
0
100
AcDbLine
 62
7
  6
CONTINUOUS
 10
6.5326781649
 20
7.7035606144
 11
6.525422822
 21
7.7234945051
  0
LINE
  5
26B
100
AcDbEntity
  8
0
100
AcDbLine
 62
7
  6
CONTINUOUS
 10
5.9281097919
 20
9.3645985677
 11
5.9208544491
 21
9.3845324585
  0
LINE
  5
26C
100
AcDbEntity
  8
0
100
AcDbLine
 62
7
  6
CONTINUOUS
 10
6.4932361721
 20
7.7222152322
 11
6.4866809317
 21
7.7423901876
  0
LINE
  5
26D
100
AcDbEntity
  8
0
100
AcDbLine
 62
7
  6
CONTINUOUS
 10
5.9470054744
 20
9.4033404581
 11
5.940450234
 21
9.4235154134
  0
LINE
  5
26E
100
AcDbEntity
  8
0
100
AcDbLine
 62
7
  6
CONTINUOUS
 10
7.8222549968
 20
9.8235053635
 11
7.8244723804
 21
9.8024083682
  0
LINE
  5
26F
100
AcDbEntity
  8
0
100
AcDbLine
 62
7
  6
CONTINUOUS
 10
8.007023655
 20
8.0655490094
 11
8.0092410386
 21
8.0444520141
  0
LINE
  5
270
100
AcDbEntity
  8
0
100
AcDbLine
 62
7
  6
CONTINUOUS
 10
7.8560124334
 20
9.7958629859
 11
7.8574921916
 21
9.7747014568
  0
LINE
  5
271
100
AcDbEntity
  8
0
100
AcDbLine
 62
7
  6
CONTINUOUS
 10
7.9793167435
 20
8.0325291981
 11
7.9807965018
 21
8.011367669
  0
LINE
  5
272
100
AcDbEntity
  8
0
100
AcDbLine
 62
7
  6
CONTINUOUS
 10
7.9512146657
 20
7.979296178
 11
7.9504743356
 21
8.0004964589
  0
LINE
  5
273
100
AcDbEntity
  8
0
100
AcDbLine
 62
7
  6
CONTINUOUS
 10
7.8895249309
 20
9.7458590488
 11
7.8887846008
 21
9.7670593297
  0
LINE
  5
274
100
AcDbEntity
  8
0
100
AcDbLine
 62
7
  6
CONTINUOUS
 10
7.9205315711
 20
7.9482766152
 11
7.9205315711
 21
7.9694898186
  0
LINE
  5
275
100
AcDbEntity
  8
0
100
AcDbLine
 62
7
  6
CONTINUOUS
 10
7.9205315711
 20
9.7159162844
 11
7.9205315711
 21
9.7371294878
  0
LINE
  5
276
100
AcDbEntity
  8
0
100
AcDbLine
 62
7
  6
CONTINUOUS
 10
7.8887846008
 20
7.9183467733
 11
7.8895249309
 21
7.9395470542
  0
LINE
  5
277
100
AcDbEntity
  8
0
100
AcDbLine
 62
7
  6
CONTINUOUS
 10
7.9504743356
 20
9.6849096441
 11
7.9512146657
 21
9.706109925
  0
LINE
  5
278
100
AcDbEntity
  8
0
100
AcDbLine
 62
7
  6
CONTINUOUS
 10
7.9807965018
 20
9.674038434
 11
7.9793167436
 21
9.6528769049
  0
LINE
  5
279
100
AcDbEntity
  8
0
100
AcDbLine
 62
7
  6
CONTINUOUS
 10
7.8574921916
 20
7.9107046462
 11
7.8560124334
 21
7.8895431171
  0
LINE
  5
27A
100
AcDbEntity
  8
0
100
AcDbLine
 62
7
  6
CONTINUOUS
 10
8.0092410386
 20
9.6409540889
 11
8.007023655
 21
9.6198570936
  0
LINE
  5
27B
100
AcDbEntity
  8
0
100
AcDbLine
 62
7
  6
CONTINUOUS
 10
7.8244723804
 20
7.8829977348
 11
7.8222549968
 21
7.8619007395
  0
LINE
  5
27C
100
AcDbEntity
  8
0
100
AcDbLine
 62
7
  6
CONTINUOUS
 10
8.0365136207
 20
9.6068971978
 11
8.0335613134
 21
9.5858904398
  0
LINE
  5
27D
100
AcDbEntity
  8
0
100
AcDbLine
 62
7
  6
CONTINUOUS
 10
7.7905057266
 20
7.8564600764
 11
7.7875534193
 21
7.8354533184
  0
LINE
  5
27E
100
AcDbEntity
  8
0
100
AcDbLine
 62
7
  6
CONTINUOUS
 10
8.0625810208
 20
9.5719092539
 11
8.0588973866
 21
9.5510183267
  0
LINE
  5
27F
100
AcDbEntity
  8
0
100
AcDbLine
 62
7
  6
CONTINUOUS
 10
7.7556336134
 20
7.8311240031
 11
7.7519499793
 21
7.8102330759
  0
LINE
  5
280
100
AcDbEntity
  8
0
100
AcDbLine
 62
7
  6
CONTINUOUS
 10
8.0874114796
 20
9.5360328845
 11
8.0830010066
 21
9.5152832405
  0
LINE
  5
281
100
AcDbEntity
  8
0
100
AcDbLine
 62
7
  6
CONTINUOUS
 10
7.7198985272
 20
7.8070203832
 11
7.7154880543
 21
7.7862707391
  0
LINE
  5
282
100
AcDbEntity
  8
0
100
AcDbLine
 62
7
  6
CONTINUOUS
 10
8.1109747452
 20
9.4993117995
 11
8.1058428068
 21
9.4787287189
  0
LINE
  5
283
100
AcDbEntity
  8
0
100
AcDbLine
 62
7
  6
CONTINUOUS
 10
7.6833440057
 20
7.784178583
 11
7.6782120673
 21
7.7635955023
  0
LINE
  5
284
100
AcDbEntity
  8
0
100
AcDbLine
 62
7
  6
CONTINUOUS
 10
8.1332421093
 20
9.461790738
 11
8.127394958
 21
9.4413992981
  0
LINE
  5
285
100
AcDbEntity
  8
0
100
AcDbLine
 62
7
  6
CONTINUOUS
 10
7.6460145849
 20
7.7626264318
 11
7.6401674335
 21
7.7422349919
  0
LINE
  5
286
100
AcDbEntity
  8
0
100
AcDbLine
 62
7
  6
CONTINUOUS
 10
8.1541864425
 20
9.4235154134
 11
8.1476312022
 21
9.4033404581
  0
LINE
  5
287
100
AcDbEntity
  8
0
100
AcDbLine
 62
7
  6
CONTINUOUS
 10
7.6079557448
 20
7.7423901876
 11
7.6014005045
 21
7.7222152322
  0
LINE
  5
288
100
AcDbEntity
  8
0
100
AcDbLine
 62
7
  6
CONTINUOUS
 10
8.1737822275
 20
9.3845324585
 11
8.1665268846
 21
9.3645985677
  0
LINE
  5
289
100
AcDbEntity
  8
0
100
AcDbLine
 62
7
  6
CONTINUOUS
 10
7.5692138545
 20
7.7234945051
 11
7.5619585116
 21
7.7035606144
  0
LINE
  5
28A
100
AcDbEntity
  8
0
100
AcDbLine
 62
7
  6
CONTINUOUS
 10
8.1920055898
 20
9.3448893678
 11
8.1840589839
 21
9.3252208281
  0
LINE
  5
28B
100
AcDbEntity
  8
0
100
AcDbLine
 62
7
  6
CONTINUOUS
 10
7.5298361149
 20
7.7059624059
 11
7.521889509
 21
7.6862938662
  0
LINE
  5
28C
100
AcDbEntity
  8
0
100
AcDbLine
 62
7
  6
CONTINUOUS
 10
8.2088343269
 20
9.3046344405
 11
8.2002061397
 21
9.2852552149
  0
LINE
  5
28D
100
AcDbEntity
  8
0
100
AcDbLine
 62
7
  6
CONTINUOUS
 10
7.4898705017
 20
7.68981525
 11
7.4812423145
 21
7.6704360244
  0
LINE
  5
28E
100
AcDbEntity
  8
0
100
AcDbLine
 62
7
  6
CONTINUOUS
 10
8.2242479357
 20
9.263816721
 11
8.2149486794
 21
9.2447504201
  0
LINE
  5
28F
100
AcDbEntity
  8
0
100
AcDbLine
 62
7
  6
CONTINUOUS
 10
7.4493657068
 20
7.6750727104
 11
7.4400664505
 21
7.6560064094
  0
LINE
  5
290
100
AcDbEntity
  8
0
100
AcDbLine
 62
7
  6
CONTINUOUS
 10
8.2382276371
 20
9.2224859393
 11
8.2282686414
 21
9.2037557924
  0
LINE
  5
291
100
AcDbEntity
  8
0
100
AcDbLine
 62
7
  6
CONTINUOUS
 10
7.4083710792
 20
7.6617527484
 11
7.3984120834
 21
7.6430226015
  0
LINE
  5
292
100
AcDbEntity
  8
0
100
AcDbLine
 62
7
  6
CONTINUOUS
 10
8.250756399
 20
9.1806924507
 11
8.2401497973
 21
9.1623212776
  0
LINE
  5
293
100
AcDbEntity
  8
0
100
AcDbLine
 62
7
  6
CONTINUOUS
 10
7.3669365644
 20
7.6498715925
 11
7.3563299627
 21
7.6315004194
  0
LINE
  5
294
100
AcDbEntity
  8
0
100
AcDbLine
 62
7
  6
CONTINUOUS
 10
8.261818957
 20
9.1384871741
 11
8.2505776718
 21
9.1204973573
  0
LINE
  5
295
100
AcDbEntity
  8
0
100
AcDbLine
 62
7
  6
CONTINUOUS
 10
7.3251126441
 20
7.639443718
 11
7.3138713589
 21
7.6214539012
  0
LINE
  5
296
100
AcDbEntity
  8
0
100
AcDbLine
 62
7
  6
CONTINUOUS
 10
8.271401833
 20
9.09592153
 11
8.2595395602
 21
9.0783349874
  0
LINE
  5
297
100
AcDbEntity
  8
0
100
AcDbLine
 62
7
  6
CONTINUOUS
 10
7.2829502741
 20
7.6304818296
 11
7.2710880013
 21
7.6128952869
  0
LINE
  5
298
100
AcDbEntity
  8
0
100
AcDbLine
 62
7
  6
CONTINUOUS
 10
8.2794933519
 20
9.0530473783
 11
8.2670245438
 21
9.0358855362
  0
LINE
  5
299
100
AcDbEntity
  8
0
100
AcDbLine
 62
7
  6
CONTINUOUS
 10
7.240500823
 20
7.622996846
 11
7.2280320149
 21
7.6058350039
  0
LINE
  5
29A
100
AcDbEntity
  8
0
100
AcDbLine
 62
7
  6
CONTINUOUS
 10
8.2860836553
 20
9.0099169544
 11
8.2730235032
 21
8.993200722
  0
LINE
  5
29B
100
AcDbEntity
  8
0
100
AcDbLine
 62
7
  6
CONTINUOUS
 10
7.1978160088
 20
7.6169978866
 11
7.1847558566
 21
7.6002816542
  0
LINE
  5
29C
100
AcDbEntity
  8
0
100
AcDbLine
 62
7
  6
CONTINUOUS
 10
8.291164714
 20
8.9665828061
 11
8.2775291297
 21
8.9503325495
  0
LINE
  5
29D
100
AcDbEntity
  8
0
100
AcDbLine
 62
7
  6
CONTINUOUS
 10
7.1549478363
 20
7.6124922601
 11
7.1413122519
 21
7.5962420035
  0
LINE
  5
29E
100
AcDbEntity
  8
0
100
AcDbLine
 62
7
  6
CONTINUOUS
 10
8.2947303375
 20
8.9230977294
 11
8.2805359338
 21
8.9073332471
  0
LINE
  5
29F
100
AcDbEntity
  8
0
100
AcDbLine
 62
7
  6
CONTINUOUS
 10
7.1119485338
 20
7.609485456
 11
7.0977541302
 21
7.5937209736
  0
LINE
  5
2A0
100
AcDbEntity
  8
0
100
AcDbLine
 62
7
  6
CONTINUOUS
 10
8.2967761816
 20
8.8795147042
 11
8.2820402523
 21
8.8642552027
  0
LINE
  5
2A1
100
AcDbEntity
  8
0
100
AcDbLine
 62
7
  6
CONTINUOUS
 10
7.0688704895
 20
7.6079811375
 11
7.0541345601
 21
7.592721636
  0
LINE
  5
2A2
100
AcDbEntity
  8
0
100
AcDbLine
 62
7
  6
CONTINUOUS
 10
8.2972997538
 20
8.8358868297
 11
8.2820402523
 21
8.8211509003
  0
LINE
  5
2A3
100
AcDbEntity
  8
0
100
AcDbLine
 62
7
  6
CONTINUOUS
 10
7.0257661871
 20
7.6079811375
 11
7.0105066856
 21
7.5932452082
  0
LINE
  5
2A4
100
AcDbEntity
  8
0
100
AcDbLine
 62
7
  6
CONTINUOUS
 10
8.2963004162
 20
8.7922672596
 11
8.2805359338
 21
8.7780728559
  0
LINE
  5
2A5
100
AcDbEntity
  8
0
100
AcDbLine
 62
7
  6
CONTINUOUS
 10
6.9826881427
 20
7.609485456
 11
6.9669236604
 21
7.5952910523
  0
LINE
  5
2A6
100
AcDbEntity
  8
0
100
AcDbLine
 62
7
  6
CONTINUOUS
 10
8.2937793863
 20
8.7487091378
 11
8.2775291297
 21
8.7350735535
  0
LINE
  5
2A7
100
AcDbEntity
  8
0
100
AcDbLine
 62
7
  6
CONTINUOUS
 10
6.9396888403
 20
7.6124922601
 11
6.9234385837
 21
7.5988566758
  0
LINE
  5
2A8
100
AcDbEntity
  8
0
100
AcDbLine
 62
7
  6
CONTINUOUS
 10
8.2897397356
 20
8.7052655332
 11
8.2730235032
 21
8.692205381
  0
LINE
  5
2A9
100
AcDbEntity
  8
0
100
AcDbLine
 62
7
  6
CONTINUOUS
 10
6.8968206678
 20
7.6169978866
 11
6.8801044354
 21
7.6039377345
  0
LINE
  5
2AA
100
AcDbEntity
  8
0
100
AcDbLine
 62
7
  6
CONTINUOUS
 10
8.2841863859
 20
8.6619893749
 11
8.2670245438
 21
8.6495205668
  0
LINE
  5
2AB
100
AcDbEntity
  8
0
100
AcDbLine
 62
7
  6
CONTINUOUS
 10
6.8541358536
 20
7.622996846
 11
6.8369740115
 21
7.6105280379
  0
LINE
  5
2AC
100
AcDbEntity
  8
0
100
AcDbLine
 62
7
  6
CONTINUOUS
 10
5.926830519
 20
9.3967852177
 11
5.9470054744
 21
9.4033404581
  0
LINE
  5
2AD
100
AcDbEntity
  8
0
100
AcDbLine
 62
7
  6
CONTINUOUS
 10
7.6079557448
 20
9.9430159154
 11
7.6281307002
 21
9.9495711558
  0
LINE
  5
2AE
100
AcDbEntity
  8
0
100
AcDbLine
 62
7
  6
CONTINUOUS
 10
5.9468502787
 20
9.4355521468
 11
5.9672417186
 21
9.4413992981
  0
LINE
  5
2AF
100
AcDbEntity
  8
0
100
AcDbLine
 62
7
  6
CONTINUOUS
 10
7.6460145849
 20
9.9227796712
 11
7.6664060248
 21
9.9286268225
  0
LINE
  5
2B0
100
AcDbEntity
  8
0
100
AcDbLine
 62
7
  6
CONTINUOUS
 10
7.084129991
 20
7.5932452082
 11
7.0688704895
 21
7.6079811375
  0
LINE
  5
2B1
100
AcDbEntity
  8
0
100
AcDbLine
 62
7
  6
CONTINUOUS
 10
7.0405021164
 20
7.592721636
 11
7.0257661871
 21
7.6079811375
  0
LINE
  5
2B2
100
AcDbEntity
  8
0
100
AcDbLine
 62
7
  6
CONTINUOUS
 10
6.9968825464
 20
7.5937209736
 11
6.9826881427
 21
7.609485456
  0
LINE
  5
2B3
100
AcDbEntity
  8
0
100
AcDbLine
 62
7
  6
CONTINUOUS
 10
6.9533244246
 20
7.5962420035
 11
6.9396888403
 21
7.6124922601
  0
LINE
  5
2B4
100
AcDbEntity
  8
0
100
AcDbLine
 62
7
  6
CONTINUOUS
 10
6.9098808199
 20
7.6002816542
 11
6.8968206678
 21
7.6169978866
  0
LINE
  5
2B5
100
AcDbEntity
  8
0
100
AcDbLine
 62
7
  6
CONTINUOUS
 10
6.8666046617
 20
7.6058350039
 11
6.8541358536
 21
7.622996846
  0
LINE
  5
2B6
100
AcDbEntity
  8
0
100
AcDbLine
 62
7
  6
CONTINUOUS
 10
6.8235486752
 20
7.6128952869
 11
6.8116864024
 21
7.6304818296
  0
LINE
  5
2B7
100
AcDbEntity
  8
0
100
AcDbLine
 62
7
  6
CONTINUOUS
 10
5.830328709
 20
9.085404442
 11
5.8232348435
 21
9.09592153
  0
LINE
  5
2B8
100
AcDbEntity
  8
0
100
AcDbLine
 62
7
  6
CONTINUOUS
 10
10.9340243027
 20
-2.7848488556
 11
10.9427954538
 21
-2.8135379982
  0
LINE
  5
2B9
100
AcDbEntity
  8
0
100
AcDbLine
 62
7
  6
CONTINUOUS
 10
11.1518412227
 20
-3.4972958988
 11
11.1606123739
 21
-3.5259850414
  0
LINE
  5
2BA
100
AcDbEntity
  8
0
100
AcDbLine
 62
7
  6
CONTINUOUS
 10
7.6401674335
 20
9.9431711111
 11
7.6460145849
 21
9.9227796712
  0
LINE
  5
2BB
100
AcDbEntity
  8
0
100
AcDbLine
 62
7
  6
CONTINUOUS
 10
8.127394958
 20
8.2440068049
 11
8.1332421093
 21
8.223615365
  0
LINE
  5
2BC
100
AcDbEntity
  8
0
100
AcDbLine
 62
7
  6
CONTINUOUS
 10
7.6782120673
 20
9.9218106007
 11
7.6833440057
 21
9.90122752
  0
LINE
  5
2BD
100
AcDbEntity
  8
0
100
AcDbLine
 62
7
  6
CONTINUOUS
 10
8.1058428068
 20
8.2066773841
 11
8.1109747452
 21
8.1860943034
  0
LINE
  5
2BE
100
AcDbEntity
  8
0
100
AcDbLine
 62
7
  6
CONTINUOUS
 10
7.7154880543
 20
9.8991353639
 11
7.7198985272
 21
9.8783857198
  0
LINE
  5
2BF
100
AcDbEntity
  8
0
100
AcDbLine
 62
7
  6
CONTINUOUS
 10
8.0830010066
 20
8.1701228625
 11
8.0874114796
 21
8.1493732185
  0
LINE
  5
2C0
100
AcDbEntity
  8
0
100
AcDbLine
 62
7
  6
CONTINUOUS
 10
7.7519499793
 20
9.8751730271
 11
7.7556336134
 21
9.8542820999
  0
LINE
  5
2C1
100
AcDbEntity
  8
0
100
AcDbLine
 62
7
  6
CONTINUOUS
 10
8.0588973866
 20
8.1343877763
 11
8.0625810208
 21
8.1134968491
  0
LINE
  5
2C2
100
AcDbEntity
  8
0
100
AcDbLine
 62
7
  6
CONTINUOUS
 10
7.7875534193
 20
9.8499527846
 11
7.7905057266
 21
9.8289460266
  0
LINE
  5
2C3
100
AcDbEntity
  8
0
100
AcDbLine
 62
7
  6
CONTINUOUS
 10
8.0335613134
 20
8.0995156632
 11
8.0365136207
 21
8.0785089052
  0
LINE
  5
2C4
100
AcDbEntity
  8
0
100
AcDbLine
 62
7
  6
CONTINUOUS
 10
8.2771261029
 20
8.6189333885
 11
8.2595395602
 21
8.6070711156
  0
LINE
  5
2C5
100
AcDbEntity
  8
0
100
AcDbLine
 62
7
  6
CONTINUOUS
 10
6.8116864024
 20
7.6304818296
 11
6.7940998597
 21
7.6186195567
  0
LINE
  5
2C6
100
AcDbEntity
  8
0
100
AcDbLine
 62
7
  6
CONTINUOUS
 10
8.2685674886
 20
8.5761500309
 11
8.2505776718
 21
8.5649087457
  0
LINE
  5
2C7
100
AcDbEntity
  8
0
100
AcDbLine
 62
7
  6
CONTINUOUS
 10
6.7695240325
 20
7.639443718
 11
6.7515342157
 21
7.6282024328
  0
LINE
  5
2C8
100
AcDbEntity
  8
0
100
AcDbLine
 62
7
  6
CONTINUOUS
 10
8.2585209704
 20
8.5336914271
 11
8.2401497973
 21
8.5230848253
  0
LINE
  5
2C9
100
AcDbEntity
  8
0
100
AcDbLine
 62
7
  6
CONTINUOUS
 10
6.7277001121
 20
7.6498715925
 11
6.7093289391
 21
7.6392649908
  0
LINE
  5
2CA
100
AcDbEntity
  8
0
100
AcDbLine
 62
7
  6
CONTINUOUS
 10
8.2469987883
 20
8.4916093063
 11
8.2282686414
 21
8.4816503106
  0
LINE
  5
2CB
100
AcDbEntity
  8
0
100
AcDbLine
 62
7
  6
CONTINUOUS
 10
6.6862655974
 20
7.6617527484
 11
6.6675354504
 21
7.6517937526
  0
LINE
  5
2CC
100
AcDbEntity
  8
0
100
AcDbLine
 62
7
  6
CONTINUOUS
 10
8.2340149804
 20
8.4499549392
 11
8.2149486794
 21
8.4406556829
  0
LINE
  5
2CD
100
AcDbEntity
  8
0
100
AcDbLine
 62
7
  6
CONTINUOUS
 10
6.6452709697
 20
7.6750727104
 11
6.6262046688
 21
7.6657734541
  0
LINE
  5
2CE
100
AcDbEntity
  8
0
100
AcDbLine
 62
7
  6
CONTINUOUS
 10
8.2195853654
 20
8.4087790752
 11
8.2002061397
 21
8.4001508881
  0
LINE
  5
2CF
100
AcDbEntity
  8
0
100
AcDbLine
 62
7
  6
CONTINUOUS
 10
6.6047661749
 20
7.68981525
 11
6.5853869492
 21
7.6811870629
  0
LINE
  5
2D0
100
AcDbEntity
  8
0
100
AcDbLine
 62
7
  6
CONTINUOUS
 10
8.2037275236
 20
8.3681318808
 11
8.1840589839
 21
8.3601852749
  0
LINE
  5
2D1
100
AcDbEntity
  8
0
100
AcDbLine
 62
7
  6
CONTINUOUS
 10
6.5648005617
 20
7.7059624059
 11
6.5451320219
 21
7.6980158
  0
LINE
  5
2D2
100
AcDbEntity
  8
0
100
AcDbLine
 62
7
  6
CONTINUOUS
 10
8.1864607754
 20
8.3280628781
 11
8.1665268846
 21
8.3208075353
  0
LINE
  5
2D3
100
AcDbEntity
  8
0
100
AcDbLine
 62
7
  6
CONTINUOUS
 10
6.525422822
 20
7.7234945051
 11
6.5054889313
 21
7.7162391623
  0
LINE
  5
2D4
100
AcDbEntity
  8
0
100
AcDbLine
 62
7
  6
CONTINUOUS
 10
7.3853077375
 20
7.6392649908
 11
7.3669365644
 21
7.6498715925
  0
LINE
  5
2D5
100
AcDbEntity
  8
0
100
AcDbLine
 62
7
  6
CONTINUOUS
 10
5.8544868793
 20
8.5230848253
 11
5.8361157062
 21
8.5336914271
  0
LINE
  5
2D6
100
AcDbEntity
  8
0
100
AcDbLine
 62
7
  6
CONTINUOUS
 10
7.3431024609
 20
7.6282024328
 11
7.3251126441
 21
7.639443718
  0
LINE
  5
2D7
100
AcDbEntity
  8
0
100
AcDbLine
 62
7
  6
CONTINUOUS
 10
5.8440590047
 20
8.5649087457
 11
5.8260691879
 21
8.5761500309
  0
LINE
  5
2D8
100
AcDbEntity
  8
0
100
AcDbLine
 62
7
  6
CONTINUOUS
 10
7.3005368168
 20
7.6186195567
 11
7.2829502741
 21
7.6304818296
  0
LINE
  5
2D9
100
AcDbEntity
  8
0
100
AcDbLine
 62
7
  6
CONTINUOUS
 10
7.2576626651
 20
7.6105280379
 11
7.240500823
 21
7.622996846
  0
LINE
  5
2DA
100
AcDbEntity
  8
0
100
AcDbLine
 62
7
  6
CONTINUOUS
 10
7.2145322412
 20
7.6039377345
 11
7.1978160088
 21
7.6169978866
  0
LINE
  5
2DB
100
AcDbEntity
  8
0
100
AcDbLine
 62
7
  6
CONTINUOUS
 10
7.1711980929
 20
7.5988566758
 11
7.1549478363
 21
7.6124922601
  0
LINE
  5
2DC
100
AcDbEntity
  8
0
100
AcDbLine
 62
7
  6
CONTINUOUS
 10
7.1277130162
 20
7.5952910523
 11
7.1119485338
 21
7.609485456
  0
LINE
  5
2DD
100
AcDbEntity
  8
0
100
AcDbLine
 62
7
  6
CONTINUOUS
 10
7.2710880013
 20
10.0725108161
 11
7.2829502741
 21
10.0549242734
  0
LINE
  5
2DE
100
AcDbEntity
  8
0
100
AcDbLine
 62
7
  6
CONTINUOUS
 10
8.2595395602
 20
8.6070711156
 11
8.271401833
 21
8.589484573
  0
LINE
  5
2DF
100
AcDbEntity
  8
0
100
AcDbLine
 62
7
  6
CONTINUOUS
 10
7.3138713589
 20
10.0639522018
 11
7.3251126441
 21
10.045962385
  0
LINE
  5
2E0
100
AcDbEntity
  8
0
100
AcDbLine
 62
7
  6
CONTINUOUS
 10
8.2505776718
 20
8.5649087457
 11
8.261818957
 21
8.5469189289
  0
LINE
  5
2E1
100
AcDbEntity
  8
0
100
AcDbLine
 62
7
  6
CONTINUOUS
 10
7.3563299627
 20
10.0539056836
 11
7.3669365644
 21
10.0355345105
  0
LINE
  5
2E2
100
AcDbEntity
  8
0
100
AcDbLine
 62
7
  6
CONTINUOUS
 10
8.2401497973
 20
8.5230848253
 11
8.250756399
 21
8.5047136523
  0
LINE
  5
2E3
100
AcDbEntity
  8
0
100
AcDbLine
 62
7
  6
CONTINUOUS
 10
7.3984120834
 20
10.0423835015
 11
7.4083710792
 21
10.0236533546
  0
LINE
  5
2E4
100
AcDbEntity
  8
0
100
AcDbLine
 62
7
  6
CONTINUOUS
 10
8.2282686414
 20
8.4816503106
 11
8.2382276371
 21
8.4629201637
  0
LINE
  5
2E5
100
AcDbEntity
  8
0
100
AcDbLine
 62
7
  6
CONTINUOUS
 10
7.4400664505
 20
10.0293996936
 11
7.4493657068
 21
10.0103333926
  0
LINE
  5
2E6
100
AcDbEntity
  8
0
100
AcDbLine
 62
7
  6
CONTINUOUS
 10
8.2149486794
 20
8.4406556829
 11
8.2242479357
 21
8.421589382
  0
LINE
  5
2E7
100
AcDbEntity
  8
0
100
AcDbLine
 62
7
  6
CONTINUOUS
 10
7.4812423145
 20
10.0149700786
 11
7.4898705017
 21
9.995590853
  0
LINE
  5
2E8
100
AcDbEntity
  8
0
100
AcDbLine
 62
7
  6
CONTINUOUS
 10
8.2002061397
 20
8.4001508881
 11
8.2088343269
 21
8.3807716624
  0
LINE
  5
2E9
100
AcDbEntity
  8
0
100
AcDbLine
 62
7
  6
CONTINUOUS
 10
7.521889509
 20
9.9991122368
 11
7.5298361149
 21
9.9794436971
  0
LINE
  5
2EA
100
AcDbEntity
  8
0
100
AcDbLine
 62
7
  6
CONTINUOUS
 10
8.1840589839
 20
8.3601852749
 11
8.1920055898
 21
8.3405167352
  0
LINE
  5
2EB
100
AcDbEntity
  8
0
100
AcDbLine
 62
7
  6
CONTINUOUS
 10
7.5619585116
 20
9.9818454886
 11
7.5692138545
 21
9.9619115978
  0
LINE
  5
2EC
100
AcDbEntity
  8
0
100
AcDbLine
 62
7
  6
CONTINUOUS
 10
8.1665268846
 20
8.3208075353
 11
8.1737822275
 21
8.3008736445
  0
LINE
  5
2ED
100
AcDbEntity
  8
0
100
AcDbLine
 62
7
  6
CONTINUOUS
 10
7.6014005045
 20
9.9631908708
 11
7.6079557448
 21
9.9430159154
  0
LINE
  5
2EE
100
AcDbEntity
  8
0
100
AcDbLine
 62
7
  6
CONTINUOUS
 10
8.1476312022
 20
8.2820656449
 11
8.1541864425
 21
8.2618906896
  0
LINE
  5
2EF
100
AcDbEntity
  8
0
100
AcDbLine
 62
7
  6
CONTINUOUS
 10
13.9081759012
 20
9.3573432249
 11
13.9281097919
 21
9.3645985677
  0
LINE
  5
2F0
100
AcDbEntity
  8
0
100
AcDbLine
 62
7
  6
CONTINUOUS
 10
15.5692138545
 20
9.9619115978
 11
15.5891477453
 21
9.9691669407
  0
LINE
  5
2F1
100
AcDbEntity
  8
0
100
AcDbLine
 62
7
  6
CONTINUOUS
 10
8.1678061575
 20
8.2886208853
 11
8.1476312022
 21
8.2820656449
  0
LINE
  5
2F2
100
AcDbEntity
  8
0
100
AcDbLine
 62
7
  6
CONTINUOUS
 10
6.4866809317
 20
7.7423901876
 11
6.4665059764
 21
7.7358349472
  0
LINE
  5
2F3
100
AcDbEntity
  8
0
100
AcDbLine
 62
7
  6
CONTINUOUS
 10
13.926830519
 20
9.3967852177
 11
13.9470054744
 21
9.4033404581
  0
LINE
  5
2F4
100
AcDbEntity
  8
0
100
AcDbLine
 62
7
  6
CONTINUOUS
 10
15.6079557448
 20
9.9430159154
 11
15.6281307002
 21
9.9495711558
  0
LINE
  5
2F5
100
AcDbEntity
  8
0
100
AcDbLine
 62
7
  6
CONTINUOUS
 10
8.1477863979
 20
8.2498539562
 11
8.127394958
 21
8.2440068049
  0
LINE
  5
2F6
100
AcDbEntity
  8
0
100
AcDbLine
 62
7
  6
CONTINUOUS
 10
6.4486220917
 20
7.7626264318
 11
6.4282306518
 21
7.7567792805
  0
LINE
  5
2F7
100
AcDbEntity
  8
0
100
AcDbLine
 62
7
  6
CONTINUOUS
 10
13.9468502787
 20
9.4355521468
 11
13.9672417186
 21
9.4413992981
  0
LINE
  5
2F8
100
AcDbEntity
  8
0
100
AcDbLine
 62
7
  6
CONTINUOUS
 10
15.6460145849
 20
9.9227796712
 11
15.6664060248
 21
9.9286268225
  0
LINE
  5
2F9
100
AcDbEntity
  8
0
100
AcDbLine
 62
7
  6
CONTINUOUS
 10
7.6281307002
 20
7.7358349472
 11
7.6079557448
 21
7.7423901876
  0
LINE
  5
2FA
100
AcDbEntity
  8
0
100
AcDbLine
 62
7
  6
CONTINUOUS
 10
5.9470054744
 20
8.2820656449
 11
5.926830519
 21
8.2886208853
  0
LINE
  5
2FB
100
AcDbEntity
  8
0
100
AcDbLine
 62
7
  6
CONTINUOUS
 10
7.5891477453
 20
7.7162391623
 11
7.5692138545
 21
7.7234945051
  0
LINE
  5
2FC
100
AcDbEntity
  8
0
100
AcDbLine
 62
7
  6
CONTINUOUS
 10
5.9281097919
 20
8.3208075353
 11
5.9081759012
 21
8.3280628781
  0
LINE
  5
2FD
100
AcDbEntity
  8
0
100
AcDbLine
 62
7
  6
CONTINUOUS
 10
7.5495046546
 20
7.6980158
 11
7.5298361149
 21
7.7059624059
  0
LINE
  5
2FE
100
AcDbEntity
  8
0
100
AcDbLine
 62
7
  6
CONTINUOUS
 10
5.9105776927
 20
8.3601852749
 11
5.890909153
 21
8.3681318808
  0
LINE
  5
2FF
100
AcDbEntity
  8
0
100
AcDbLine
 62
7
  6
CONTINUOUS
 10
7.5092497273
 20
7.6811870629
 11
7.4898705017
 21
7.68981525
  0
LINE
  5
300
100
AcDbEntity
  8
0
100
AcDbLine
 62
7
  6
CONTINUOUS
 10
5.8944305368
 20
8.4001508881
 11
5.8750513112
 21
8.4087790752
  0
LINE
  5
301
100
AcDbEntity
  8
0
100
AcDbLine
 62
7
  6
CONTINUOUS
 10
7.4684320078
 20
7.6657734541
 11
7.4493657068
 21
7.6750727104
  0
LINE
  5
302
100
AcDbEntity
  8
0
100
AcDbLine
 62
7
  6
CONTINUOUS
 10
5.8796879972
 20
8.4406556829
 11
5.8606216962
 21
8.4499549392
  0
LINE
  5
303
100
AcDbEntity
  8
0
100
AcDbLine
 62
7
  6
CONTINUOUS
 10
7.4271012261
 20
7.6517937526
 11
7.4083710792
 21
7.6617527484
  0
LINE
  5
304
100
AcDbEntity
  8
0
100
AcDbLine
 62
7
  6
CONTINUOUS
 10
5.8663680352
 20
8.4816503106
 11
5.8476378883
 21
8.4916093063
  0
LINE
  5
305
100
AcDbEntity
  8
0
100
AcDbLine
 62
7
  6
CONTINUOUS
 10
6.9669236604
 20
10.0901150507
 11
6.9826881427
 21
10.075920647
  0
LINE
  5
306
100
AcDbEntity
  8
0
100
AcDbLine
 62
7
  6
CONTINUOUS
 10
8.2805359338
 20
8.9073332471
 11
8.2963004162
 21
8.8931388434
  0
LINE
  5
307
100
AcDbEntity
  8
0
100
AcDbLine
 62
7
  6
CONTINUOUS
 10
7.0105066856
 20
10.0921608948
 11
7.0257661871
 21
10.0774249655
  0
LINE
  5
308
100
AcDbEntity
  8
0
100
AcDbLine
 62
7
  6
CONTINUOUS
 10
8.2820402523
 20
8.8642552027
 11
8.2972997538
 21
8.8495192733
  0
LINE
  5
309
100
AcDbEntity
  8
0
100
AcDbLine
 62
7
  6
CONTINUOUS
 10
7.0541345601
 20
10.092684467
 11
7.0688704895
 21
10.0774249655
  0
LINE
  5
30A
100
AcDbEntity
  8
0
100
AcDbLine
 62
7
  6
CONTINUOUS
 10
8.2820402523
 20
8.8211509003
 11
8.2967761816
 21
8.8058913988
  0
LINE
  5
30B
100
AcDbEntity
  8
0
100
AcDbLine
 62
7
  6
CONTINUOUS
 10
7.0977541302
 20
10.0916851294
 11
7.1119485338
 21
10.075920647
  0
LINE
  5
30C
100
AcDbEntity
  8
0
100
AcDbLine
 62
7
  6
CONTINUOUS
 10
8.2805359338
 20
8.7780728559
 11
8.2947303375
 21
8.7623083736
  0
LINE
  5
30D
100
AcDbEntity
  8
0
100
AcDbLine
 62
7
  6
CONTINUOUS
 10
7.1413122519
 20
10.0891640995
 11
7.1549478363
 21
10.0729138429
  0
LINE
  5
30E
100
AcDbEntity
  8
0
100
AcDbLine
 62
7
  6
CONTINUOUS
 10
8.2775291297
 20
8.7350735535
 11
8.291164714
 21
8.7188232969
  0
LINE
  5
30F
100
AcDbEntity
  8
0
100
AcDbLine
 62
7
  6
CONTINUOUS
 10
7.1847558566
 20
10.0851244488
 11
7.1978160088
 21
10.0684082164
  0
LINE
  5
310
100
AcDbEntity
  8
0
100
AcDbLine
 62
7
  6
CONTINUOUS
 10
8.2730235032
 20
8.692205381
 11
8.2860836553
 21
8.6754891486
  0
LINE
  5
311
100
AcDbEntity
  8
0
100
AcDbLine
 62
7
  6
CONTINUOUS
 10
7.2280320149
 20
10.0795710991
 11
7.240500823
 21
10.062409257
  0
LINE
  5
312
100
AcDbEntity
  8
0
100
AcDbLine
 62
7
  6
CONTINUOUS
 10
8.2670245438
 20
8.6495205668
 11
8.2794933519
 21
8.6323587247
  0
LINE
  5
313
100
AcDbEntity
  8
0
100
AcDbLine
 62
7
  6
CONTINUOUS
 10
13.8260691879
 20
9.1092560721
 11
13.8440590047
 21
9.1204973573
  0
LINE
  5
314
100
AcDbEntity
  8
0
100
AcDbLine
 62
7
  6
CONTINUOUS
 10
15.3251126441
 20
10.045962385
 11
15.3431024609
 21
10.0572036702
  0
LINE
  5
315
100
AcDbEntity
  8
0
100
AcDbLine
 62
7
  6
CONTINUOUS
 10
13.8361157062
 20
9.1517146759
 11
13.8544868793
 21
9.1623212776
  0
LINE
  5
316
100
AcDbEntity
  8
0
100
AcDbLine
 62
7
  6
CONTINUOUS
 10
15.3669365644
 20
10.0355345105
 11
15.3853077375
 21
10.0461411122
  0
LINE
  5
317
100
AcDbEntity
  8
0
100
AcDbLine
 62
7
  6
CONTINUOUS
 10
13.8476378883
 20
9.1937967967
 11
13.8663680352
 21
9.2037557924
  0
LINE
  5
318
100
AcDbEntity
  8
0
100
AcDbLine
 62
7
  6
CONTINUOUS
 10
15.4083710792
 20
10.0236533546
 11
15.4271012261
 21
10.0336123504
  0
LINE
  5
319
100
AcDbEntity
  8
0
100
AcDbLine
 62
7
  6
CONTINUOUS
 10
13.8606216962
 20
9.2354511637
 11
13.8796879972
 21
9.2447504201
  0
LINE
  5
31A
100
AcDbEntity
  8
0
100
AcDbLine
 62
7
  6
CONTINUOUS
 10
15.4493657068
 20
10.0103333926
 11
15.4684320078
 21
10.0196326489
  0
LINE
  5
31B
100
AcDbEntity
  8
0
100
AcDbLine
 62
7
  6
CONTINUOUS
 10
13.8750513112
 20
9.2766270278
 11
13.8944305368
 21
9.2852552149
  0
LINE
  5
31C
100
AcDbEntity
  8
0
100
AcDbLine
 62
7
  6
CONTINUOUS
 10
15.4898705017
 20
9.995590853
 11
15.5092497273
 21
10.0042190401
  0
LINE
  5
31D
100
AcDbEntity
  8
0
100
AcDbLine
 62
7
  6
CONTINUOUS
 10
13.890909153
 20
9.3172742222
 11
13.9105776927
 21
9.3252208281
  0
LINE
  5
31E
100
AcDbEntity
  8
0
100
AcDbLine
 62
7
  6
CONTINUOUS
 10
15.5298361149
 20
9.9794436971
 11
15.5495046546
 21
9.987390303
  0
LINE
  5
31F
100
AcDbEntity
  8
0
100
AcDbLine
 62
7
  6
CONTINUOUS
 10
16.1264258874
 20
8.2118093225
 11
16.1058428068
 21
8.2066773841
  0
LINE
  5
320
100
AcDbEntity
  8
0
100
AcDbLine
 62
7
  6
CONTINUOUS
 10
14.4112926709
 20
7.784178583
 11
14.3907095902
 21
7.7790466446
  0
LINE
  5
321
100
AcDbEntity
  8
0
100
AcDbLine
 62
7
  6
CONTINUOUS
 10
16.1037506507
 20
8.1745333355
 11
16.0830010066
 21
8.1701228625
  0
LINE
  5
322
100
AcDbEntity
  8
0
100
AcDbLine
 62
7
  6
CONTINUOUS
 10
14.3747381493
 20
7.8070203832
 11
14.3539885053
 21
7.8026099102
  0
LINE
  5
323
100
AcDbEntity
  8
0
100
AcDbLine
 62
7
  6
CONTINUOUS
 10
16.0797883139
 20
8.1380714105
 11
16.0588973866
 21
8.1343877763
  0
LINE
  5
324
100
AcDbEntity
  8
0
100
AcDbLine
 62
7
  6
CONTINUOUS
 10
14.3390030631
 20
7.8311240031
 11
14.3181121359
 21
7.827440369
  0
LINE
  5
325
100
AcDbEntity
  8
0
100
AcDbLine
 62
7
  6
CONTINUOUS
 10
16.0545680714
 20
8.1024679705
 11
16.0335613134
 21
8.0995156632
  0
LINE
  5
326
100
AcDbEntity
  8
0
100
AcDbLine
 62
7
  6
CONTINUOUS
 10
14.30413095
 20
7.8564600764
 11
14.283124192
 21
7.8535077691
  0
LINE
  5
327
100
AcDbEntity
  8
0
100
AcDbLine
 62
7
  6
CONTINUOUS
 10
16.0281206503
 20
8.067766393
 11
16.007023655
 21
8.0655490094
  0
LINE
  5
328
100
AcDbEntity
  8
0
100
AcDbLine
 62
7
  6
CONTINUOUS
 10
14.2701642962
 20
7.8829977348
 11
14.2490673009
 21
7.8807803512
  0
LINE
  5
329
100
AcDbEntity
  8
0
100
AcDbLine
 62
7
  6
CONTINUOUS
 10
7.8455693756
 20
7.8807803512
 11
7.8244723804
 21
7.8829977348
  0
LINE
  5
32A
100
AcDbEntity
  8
0
100
AcDbLine
 62
7
  6
CONTINUOUS
 10
6.0876130215
 20
8.0655490094
 11
6.0665160263
 21
8.067766393
  0
LINE
  5
32B
100
AcDbEntity
  8
0
100
AcDbLine
 62
7
  6
CONTINUOUS
 10
7.8115124846
 20
7.8535077691
 11
7.7905057266
 21
7.8564600764
  0
LINE
  5
32C
100
AcDbEntity
  8
0
100
AcDbLine
 62
7
  6
CONTINUOUS
 10
6.0610753632
 20
8.0995156632
 11
6.0400686052
 21
8.1024679705
  0
LINE
  5
32D
100
AcDbEntity
  8
0
100
AcDbLine
 62
7
  6
CONTINUOUS
 10
7.7765245406
 20
7.827440369
 11
7.7556336134
 21
7.8311240031
  0
LINE
  5
32E
100
AcDbEntity
  8
0
100
AcDbLine
 62
7
  6
CONTINUOUS
 10
6.0357392899
 20
8.1343877763
 11
6.0148483627
 21
8.1380714105
  0
LINE
  5
32F
100
AcDbEntity
  8
0
100
AcDbLine
 62
7
  6
CONTINUOUS
 10
7.7406481713
 20
7.8026099102
 11
7.7198985272
 21
7.8070203832
  0
LINE
  5
330
100
AcDbEntity
  8
0
100
AcDbLine
 62
7
  6
CONTINUOUS
 10
6.0116356699
 20
8.1701228625
 11
5.9908860259
 21
8.1745333355
  0
LINE
  5
331
100
AcDbEntity
  8
0
100
AcDbLine
 62
7
  6
CONTINUOUS
 10
7.7039270863
 20
7.7790466446
 11
7.6833440057
 21
7.784178583
  0
LINE
  5
332
100
AcDbEntity
  8
0
100
AcDbLine
 62
7
  6
CONTINUOUS
 10
5.9887938697
 20
8.2066773841
 11
5.9682107891
 21
8.2118093225
  0
LINE
  5
333
100
AcDbEntity
  8
0
100
AcDbLine
 62
7
  6
CONTINUOUS
 10
7.6664060248
 20
7.7567792805
 11
7.6460145849
 21
7.7626264318
  0
LINE
  5
334
100
AcDbEntity
  8
0
100
AcDbLine
 62
7
  6
CONTINUOUS
 10
5.9672417186
 20
8.2440068049
 11
5.9468502787
 21
8.2498539562
  0
LINE
  5
335
100
AcDbEntity
  8
0
100
AcDbLine
 62
7
  6
CONTINUOUS
 10
6.7093289391
 20
10.0461411122
 11
6.7277001121
 21
10.0355345105
  0
LINE
  5
336
100
AcDbEntity
  8
0
100
AcDbLine
 62
7
  6
CONTINUOUS
 10
8.2401497973
 20
9.1623212776
 11
8.2585209704
 21
9.1517146759
  0
LINE
  5
337
100
AcDbEntity
  8
0
100
AcDbLine
 62
7
  6
CONTINUOUS
 10
6.7515342157
 20
10.0572036702
 11
6.7695240325
 21
10.045962385
  0
LINE
  5
338
100
AcDbEntity
  8
0
100
AcDbLine
 62
7
  6
CONTINUOUS
 10
8.2505776718
 20
9.1204973573
 11
8.2685674886
 21
9.1092560721
  0
LINE
  5
339
100
AcDbEntity
  8
0
100
AcDbLine
 62
7
  6
CONTINUOUS
 10
6.7940998597
 20
10.0667865462
 11
6.8116864024
 21
10.0549242734
  0
LINE
  5
33A
100
AcDbEntity
  8
0
100
AcDbLine
 62
7
  6
CONTINUOUS
 10
8.2595395602
 20
9.0783349874
 11
8.2771261029
 21
9.0664727145
  0
LINE
  5
33B
100
AcDbEntity
  8
0
100
AcDbLine
 62
7
  6
CONTINUOUS
 10
6.8369740115
 20
10.0748780651
 11
6.8541358536
 21
10.062409257
  0
LINE
  5
33C
100
AcDbEntity
  8
0
100
AcDbLine
 62
7
  6
CONTINUOUS
 10
8.2670245438
 20
9.0358855362
 11
8.2841863859
 21
9.0234167281
  0
LINE
  5
33D
100
AcDbEntity
  8
0
100
AcDbLine
 62
7
  6
CONTINUOUS
 10
6.8801044354
 20
10.0814683685
 11
6.8968206678
 21
10.0684082164
  0
LINE
  5
33E
100
AcDbEntity
  8
0
100
AcDbLine
 62
7
  6
CONTINUOUS
 10
8.2730235032
 20
8.993200722
 11
8.2897397356
 21
8.9801405698
  0
LINE
  5
33F
100
AcDbEntity
  8
0
100
AcDbLine
 62
7
  6
CONTINUOUS
 10
6.9234385837
 20
10.0865494272
 11
6.9396888403
 21
10.0729138429
  0
LINE
  5
340
100
AcDbEntity
  8
0
100
AcDbLine
 62
7
  6
CONTINUOUS
 10
8.2775291297
 20
8.9503325495
 11
8.2937793863
 21
8.9366969652
  0
LINE
  5
341
100
AcDbEntity
  8
0
100
AcDbLine
 62
7
  6
CONTINUOUS
 10
13.7973369228
 20
8.8495192733
 11
13.8125964243
 21
8.8642552027
  0
LINE
  5
342
100
AcDbEntity
  8
0
100
AcDbLine
 62
7
  6
CONTINUOUS
 10
15.0688704895
 20
10.0774249655
 11
15.084129991
 21
10.0921608948
  0
LINE
  5
343
100
AcDbEntity
  8
0
100
AcDbLine
 62
7
  6
CONTINUOUS
 10
13.7983362604
 20
8.8931388434
 11
13.8141007428
 21
8.9073332471
  0
LINE
  5
344
100
AcDbEntity
  8
0
100
AcDbLine
 62
7
  6
CONTINUOUS
 10
15.1119485338
 20
10.075920647
 11
15.1277130162
 21
10.0901150507
  0
LINE
  5
345
100
AcDbEntity
  8
0
100
AcDbLine
 62
7
  6
CONTINUOUS
 10
13.8008572903
 20
8.9366969652
 11
13.8171075469
 21
8.9503325495
  0
LINE
  5
346
100
AcDbEntity
  8
0
100
AcDbLine
 62
7
  6
CONTINUOUS
 10
15.1549478363
 20
10.0729138429
 11
15.1711980929
 21
10.0865494272
  0
LINE
  5
347
100
AcDbEntity
  8
0
100
AcDbLine
 62
7
  6
CONTINUOUS
 10
13.8048969409
 20
8.9801405698
 11
13.8216131734
 21
8.993200722
  0
LINE
  5
348
100
AcDbEntity
  8
0
100
AcDbLine
 62
7
  6
CONTINUOUS
 10
15.1978160088
 20
10.0684082164
 11
15.2145322412
 21
10.0814683685
  0
LINE
  5
349
100
AcDbEntity
  8
0
100
AcDbLine
 62
7
  6
CONTINUOUS
 10
13.8104502907
 20
9.0234167281
 11
13.8276121328
 21
9.0358855362
  0
LINE
  5
34A
100
AcDbEntity
  8
0
100
AcDbLine
 62
7
  6
CONTINUOUS
 10
15.240500823
 20
10.062409257
 11
15.2576626651
 21
10.0748780651
  0
LINE
  5
34B
100
AcDbEntity
  8
0
100
AcDbLine
 62
7
  6
CONTINUOUS
 10
13.8175105737
 20
9.0664727145
 11
13.8350971164
 21
9.0783349874
  0
LINE
  5
34C
100
AcDbEntity
  8
0
100
AcDbLine
 62
7
  6
CONTINUOUS
 10
15.2829502741
 20
10.0549242734
 11
15.3005368168
 21
10.0667865462
  0
LINE
  5
34D
100
AcDbEntity
  8
0
100
AcDbLine
 62
7
  6
CONTINUOUS
 10
16.1864607754
 20
8.3280628781
 11
16.1665268846
 21
8.3208075353
  0
LINE
  5
34E
100
AcDbEntity
  8
0
100
AcDbLine
 62
7
  6
CONTINUOUS
 10
14.525422822
 20
7.7234945051
 11
14.5054889313
 21
7.7162391623
  0
LINE
  5
34F
100
AcDbEntity
  8
0
100
AcDbLine
 62
7
  6
CONTINUOUS
 10
16.1678061575
 20
8.2886208853
 11
16.1476312022
 21
8.2820656449
  0
LINE
  5
350
100
AcDbEntity
  8
0
100
AcDbLine
 62
7
  6
CONTINUOUS
 10
14.4866809317
 20
7.7423901876
 11
14.4665059764
 21
7.7358349472
  0
LINE
  5
351
100
AcDbEntity
  8
0
100
AcDbLine
 62
7
  6
CONTINUOUS
 10
16.1477863979
 20
8.2498539562
 11
16.127394958
 21
8.2440068049
  0
LINE
  5
352
100
AcDbEntity
  8
0
100
AcDbLine
 62
7
  6
CONTINUOUS
 10
14.4486220917
 20
7.7626264318
 11
14.4282306518
 21
7.7567792805
  0
LINE
  5
353
100
AcDbEntity
  8
0
100
AcDbLine
 62
7
  6
CONTINUOUS
 10
8.0281206503
 20
8.067766393
 11
8.007023655
 21
8.0655490094
  0
LINE
  5
354
100
AcDbEntity
  8
0
100
AcDbLine
 62
7
  6
CONTINUOUS
 10
6.2701642962
 20
7.8829977348
 11
6.2490673009
 21
7.8807803512
  0
LINE
  5
355
100
AcDbEntity
  8
0
100
AcDbLine
 62
7
  6
CONTINUOUS
 10
16.0004782727
 20
8.0340089564
 11
15.9793167435
 21
8.0325291981
  0
LINE
  5
356
100
AcDbEntity
  8
0
100
AcDbLine
 62
7
  6
CONTINUOUS
 10
14.2371444849
 20
7.9107046462
 11
14.2159829558
 21
7.909224888
  0
LINE
  5
357
100
AcDbEntity
  8
0
100
AcDbLine
 62
7
  6
CONTINUOUS
 10
8.0004782727
 20
8.0340089564
 11
7.9793167435
 21
8.0325291981
  0
LINE
  5
358
100
AcDbEntity
  8
0
100
AcDbLine
 62
7
  6
CONTINUOUS
 10
6.2371444849
 20
7.9107046462
 11
6.2159829558
 21
7.909224888
  0
LINE
  5
359
100
AcDbEntity
  8
0
100
AcDbLine
 62
7
  6
CONTINUOUS
 10
14.1839114647
 20
7.9388067241
 11
14.2051117457
 21
7.9395470542
  0
LINE
  5
35A
100
AcDbEntity
  8
0
100
AcDbLine
 62
7
  6
CONTINUOUS
 10
15.9504743356
 20
8.0004964589
 11
15.9716746165
 21
8.001236789
  0
LINE
  5
35B
100
AcDbEntity
  8
0
100
AcDbLine
 62
7
  6
CONTINUOUS
 10
6.1839114647
 20
7.9388067241
 11
6.2051117457
 21
7.9395470542
  0
LINE
  5
35C
100
AcDbEntity
  8
0
100
AcDbLine
 62
7
  6
CONTINUOUS
 10
7.9504743356
 20
8.0004964589
 11
7.9716746165
 21
8.001236789
  0
LINE
  5
35D
100
AcDbEntity
  8
0
100
AcDbLine
 62
7
  6
CONTINUOUS
 10
6.152891902
 20
7.9694898186
 11
6.1741051054
 21
7.9694898186
  0
LINE
  5
35E
100
AcDbEntity
  8
0
100
AcDbLine
 62
7
  6
CONTINUOUS
 10
7.9205315711
 20
7.9694898186
 11
7.9417447746
 21
7.9694898186
  0
LINE
  5
35F
100
AcDbEntity
  8
0
100
AcDbLine
 62
7
  6
CONTINUOUS
 10
14.152891902
 20
7.9694898186
 11
14.1741051054
 21
7.9694898186
  0
LINE
  5
360
100
AcDbEntity
  8
0
100
AcDbLine
 62
7
  6
CONTINUOUS
 10
15.9205315711
 20
7.9694898186
 11
15.9417447746
 21
7.9694898186
  0
LINE
  5
361
100
AcDbEntity
  8
0
100
AcDbLine
 62
7
  6
CONTINUOUS
 10
6.1229620601
 20
8.001236789
 11
6.144162341
 21
8.0004964589
  0
LINE
  5
362
100
AcDbEntity
  8
0
100
AcDbLine
 62
7
  6
CONTINUOUS
 10
7.8895249309
 20
7.9395470542
 11
7.9107252118
 21
7.9388067241
  0
LINE
  5
363
100
AcDbEntity
  8
0
100
AcDbLine
 62
7
  6
CONTINUOUS
 10
14.1229620601
 20
8.001236789
 11
14.144162341
 21
8.0004964589
  0
LINE
  5
364
100
AcDbEntity
  8
0
100
AcDbLine
 62
7
  6
CONTINUOUS
 10
15.8895249309
 20
7.9395470542
 11
15.9107252118
 21
7.9388067241
  0
LINE
  5
365
100
AcDbEntity
  8
0
100
AcDbLine
 62
7
  6
CONTINUOUS
 10
7.8786537208
 20
7.909224888
 11
7.8574921916
 21
7.9107046462
  0
LINE
  5
366
100
AcDbEntity
  8
0
100
AcDbLine
 62
7
  6
CONTINUOUS
 10
6.115319933
 20
8.0325291981
 11
6.0941584039
 21
8.0340089564
  0
LINE
  5
367
100
AcDbEntity
  8
0
100
AcDbLine
 62
7
  6
CONTINUOUS
 10
15.8786537208
 20
7.909224888
 11
15.8574921916
 21
7.9107046462
  0
LINE
  5
368
100
AcDbEntity
  8
0
100
AcDbLine
 62
7
  6
CONTINUOUS
 10
14.115319933
 20
8.0325291981
 11
14.0941584039
 21
8.0340089564
  0
LINE
  5
369
100
AcDbEntity
  8
0
100
AcDbLine
 62
7
  6
CONTINUOUS
 10
15.8455693756
 20
7.8807803512
 11
15.8244723804
 21
7.8829977348
  0
LINE
  5
36A
100
AcDbEntity
  8
0
100
AcDbLine
 62
7
  6
CONTINUOUS
 10
14.0876130215
 20
8.0655490094
 11
14.0665160263
 21
8.067766393
  0
LINE
  5
36B
100
AcDbEntity
  8
0
100
AcDbLine
 62
7
  6
CONTINUOUS
 10
6.4665059764
 20
9.9495711558
 11
6.4866809317
 21
9.9430159154
  0
LINE
  5
36C
100
AcDbEntity
  8
0
100
AcDbLine
 62
7
  6
CONTINUOUS
 10
8.1476312022
 20
9.4033404581
 11
8.1678061575
 21
9.3967852177
  0
LINE
  5
36D
100
AcDbEntity
  8
0
100
AcDbLine
 62
7
  6
CONTINUOUS
 10
6.5054889313
 20
9.9691669407
 11
6.525422822
 21
9.9619115978
  0
LINE
  5
36E
100
AcDbEntity
  8
0
100
AcDbLine
 62
7
  6
CONTINUOUS
 10
8.1665268846
 20
9.3645985677
 11
8.1864607754
 21
9.3573432249
  0
LINE
  5
36F
100
AcDbEntity
  8
0
100
AcDbLine
 62
7
  6
CONTINUOUS
 10
6.5451320219
 20
9.987390303
 11
6.5648005617
 21
9.9794436971
  0
LINE
  5
370
100
AcDbEntity
  8
0
100
AcDbLine
 62
7
  6
CONTINUOUS
 10
8.1840589839
 20
9.3252208281
 11
8.2037275236
 21
9.3172742222
  0
LINE
  5
371
100
AcDbEntity
  8
0
100
AcDbLine
 62
7
  6
CONTINUOUS
 10
6.5853869492
 20
10.0042190401
 11
6.6047661749
 21
9.995590853
  0
LINE
  5
372
100
AcDbEntity
  8
0
100
AcDbLine
 62
7
  6
CONTINUOUS
 10
8.2002061397
 20
9.2852552149
 11
8.2195853654
 21
9.2766270278
  0
LINE
  5
373
100
AcDbEntity
  8
0
100
AcDbLine
 62
7
  6
CONTINUOUS
 10
6.6262046688
 20
10.0196326489
 11
6.6452709697
 21
10.0103333926
  0
LINE
  5
374
100
AcDbEntity
  8
0
100
AcDbLine
 62
7
  6
CONTINUOUS
 10
8.2149486794
 20
9.2447504201
 11
8.2340149804
 21
9.2354511637
  0
LINE
  5
375
100
AcDbEntity
  8
0
100
AcDbLine
 62
7
  6
CONTINUOUS
 10
6.6675354504
 20
10.0336123504
 11
6.6862655974
 21
10.0236533546
  0
LINE
  5
376
100
AcDbEntity
  8
0
100
AcDbLine
 62
7
  6
CONTINUOUS
 10
8.2282686414
 20
9.2037557924
 11
8.2469987883
 21
9.1937967967
  0
LINE
  5
377
100
AcDbEntity
  8
0
100
AcDbLine
 62
7
  6
CONTINUOUS
 10
13.8328177196
 20
8.5469189289
 11
13.8440590047
 21
8.5649087457
  0
LINE
  5
378
100
AcDbEntity
  8
0
100
AcDbLine
 62
7
  6
CONTINUOUS
 10
14.7695240325
 20
10.045962385
 11
14.7807653176
 21
10.0639522018
  0
LINE
  5
379
100
AcDbEntity
  8
0
100
AcDbLine
 62
7
  6
CONTINUOUS
 10
13.8232348435
 20
8.589484573
 11
13.8350971164
 21
8.6070711156
  0
LINE
  5
37A
100
AcDbEntity
  8
0
100
AcDbLine
 62
7
  6
CONTINUOUS
 10
14.8116864024
 20
10.0549242734
 11
14.8235486752
 21
10.0725108161
  0
LINE
  5
37B
100
AcDbEntity
  8
0
100
AcDbLine
 62
7
  6
CONTINUOUS
 10
13.8151433247
 20
8.6323587247
 11
13.8276121328
 21
8.6495205668
  0
LINE
  5
37C
100
AcDbEntity
  8
0
100
AcDbLine
 62
7
  6
CONTINUOUS
 10
14.8541358536
 20
10.062409257
 11
14.8666046617
 21
10.0795710991
  0
LINE
  5
37D
100
AcDbEntity
  8
0
100
AcDbLine
 62
7
  6
CONTINUOUS
 10
13.8085530213
 20
8.6754891486
 11
13.8216131734
 21
8.692205381
  0
LINE
  5
37E
100
AcDbEntity
  8
0
100
AcDbLine
 62
7
  6
CONTINUOUS
 10
14.8968206678
 20
10.0684082164
 11
14.9098808199
 21
10.0851244488
  0
LINE
  5
37F
100
AcDbEntity
  8
0
100
AcDbLine
 62
7
  6
CONTINUOUS
 10
13.8034719626
 20
8.7188232969
 11
13.8171075469
 21
8.7350735535
  0
LINE
  5
380
100
AcDbEntity
  8
0
100
AcDbLine
 62
7
  6
CONTINUOUS
 10
14.9396888403
 20
10.0729138429
 11
14.9533244246
 21
10.0891640995
  0
LINE
  5
381
100
AcDbEntity
  8
0
100
AcDbLine
 62
7
  6
CONTINUOUS
 10
13.7999063391
 20
8.7623083736
 11
13.8141007428
 21
8.7780728559
  0
LINE
  5
382
100
AcDbEntity
  8
0
100
AcDbLine
 62
7
  6
CONTINUOUS
 10
14.9826881427
 20
10.075920647
 11
14.9968825464
 21
10.0916851294
  0
LINE
  5
383
100
AcDbEntity
  8
0
100
AcDbLine
 62
7
  6
CONTINUOUS
 10
13.797860495
 20
8.8058913988
 11
13.8125964243
 21
8.8211509003
  0
LINE
  5
384
100
AcDbEntity
  8
0
100
AcDbLine
 62
7
  6
CONTINUOUS
 10
15.0257661871
 20
10.0774249655
 11
15.0405021164
 21
10.092684467
  0
LINE
  5
385
100
AcDbEntity
  8
0
100
AcDbLine
 62
7
  6
CONTINUOUS
 10
16.2685674886
 20
8.5761500309
 11
16.2505776718
 21
8.5649087457
  0
LINE
  5
386
100
AcDbEntity
  8
0
100
AcDbLine
 62
7
  6
CONTINUOUS
 10
14.7695240325
 20
7.639443718
 11
14.7515342157
 21
7.6282024328
  0
LINE
  5
387
100
AcDbEntity
  8
0
100
AcDbLine
 62
7
  6
CONTINUOUS
 10
16.2585209704
 20
8.5336914271
 11
16.2401497973
 21
8.5230848253
  0
LINE
  5
388
100
AcDbEntity
  8
0
100
AcDbLine
 62
7
  6
CONTINUOUS
 10
14.7277001121
 20
7.6498715925
 11
14.7093289391
 21
7.6392649908
  0
LINE
  5
389
100
AcDbEntity
  8
0
100
AcDbLine
 62
7
  6
CONTINUOUS
 10
16.2469987883
 20
8.4916093063
 11
16.2282686414
 21
8.4816503106
  0
LINE
  5
38A
100
AcDbEntity
  8
0
100
AcDbLine
 62
7
  6
CONTINUOUS
 10
14.6862655974
 20
7.6617527484
 11
14.6675354504
 21
7.6517937526
  0
LINE
  5
38B
100
AcDbEntity
  8
0
100
AcDbLine
 62
7
  6
CONTINUOUS
 10
16.2340149804
 20
8.4499549392
 11
16.2149486794
 21
8.4406556829
  0
LINE
  5
38C
100
AcDbEntity
  8
0
100
AcDbLine
 62
7
  6
CONTINUOUS
 10
14.6452709697
 20
7.6750727104
 11
14.6262046688
 21
7.6657734541
  0
LINE
  5
38D
100
AcDbEntity
  8
0
100
AcDbLine
 62
7
  6
CONTINUOUS
 10
16.2195853654
 20
8.4087790752
 11
16.2002061397
 21
8.4001508881
  0
LINE
  5
38E
100
AcDbEntity
  8
0
100
AcDbLine
 62
7
  6
CONTINUOUS
 10
14.6047661749
 20
7.68981525
 11
14.5853869492
 21
7.6811870629
  0
LINE
  5
38F
100
AcDbEntity
  8
0
100
AcDbLine
 62
7
  6
CONTINUOUS
 10
16.2037275236
 20
8.3681318808
 11
16.1840589839
 21
8.3601852749
  0
LINE
  5
390
100
AcDbEntity
  8
0
100
AcDbLine
 62
7
  6
CONTINUOUS
 10
14.5648005617
 20
7.7059624059
 11
14.5451320219
 21
7.6980158
  0
LINE
  5
391
100
AcDbEntity
  8
0
100
AcDbLine
 62
7
  6
CONTINUOUS
 10
13.9682107891
 20
9.4735967805
 11
13.9887938697
 21
9.4787287189
  0
LINE
  5
392
100
AcDbEntity
  8
0
100
AcDbLine
 62
7
  6
CONTINUOUS
 10
15.6833440057
 20
9.90122752
 11
15.7039270863
 21
9.9063594584
  0
LINE
  5
393
100
AcDbEntity
  8
0
100
AcDbLine
 62
7
  6
CONTINUOUS
 10
8.1264258874
 20
8.2118093225
 11
8.1058428068
 21
8.2066773841
  0
LINE
  5
394
100
AcDbEntity
  8
0
100
AcDbLine
 62
7
  6
CONTINUOUS
 10
6.4112926709
 20
7.784178583
 11
6.3907095902
 21
7.7790466446
  0
LINE
  5
395
100
AcDbEntity
  8
0
100
AcDbLine
 62
7
  6
CONTINUOUS
 10
8.1037506507
 20
8.1745333355
 11
8.0830010066
 21
8.1701228625
  0
LINE
  5
396
100
AcDbEntity
  8
0
100
AcDbLine
 62
7
  6
CONTINUOUS
 10
6.3747381493
 20
7.8070203832
 11
6.3539885053
 21
7.8026099102
  0
LINE
  5
397
100
AcDbEntity
  8
0
100
AcDbLine
 62
7
  6
CONTINUOUS
 10
13.9908860259
 20
9.5108727675
 11
14.0116356699
 21
9.5152832405
  0
LINE
  5
398
100
AcDbEntity
  8
0
100
AcDbLine
 62
7
  6
CONTINUOUS
 10
15.7198985272
 20
9.8783857198
 11
15.7406481713
 21
9.8827961928
  0
LINE
  5
399
100
AcDbEntity
  8
0
100
AcDbLine
 62
7
  6
CONTINUOUS
 10
8.0797883139
 20
8.1380714105
 11
8.0588973866
 21
8.1343877763
  0
LINE
  5
39A
100
AcDbEntity
  8
0
100
AcDbLine
 62
7
  6
CONTINUOUS
 10
6.3390030631
 20
7.8311240031
 11
6.3181121359
 21
7.827440369
  0
LINE
  5
39B
100
AcDbEntity
  8
0
100
AcDbLine
 62
7
  6
CONTINUOUS
 10
14.0148483627
 20
9.5473346925
 11
14.0357392899
 21
9.5510183267
  0
LINE
  5
39C
100
AcDbEntity
  8
0
100
AcDbLine
 62
7
  6
CONTINUOUS
 10
15.7556336134
 20
9.8542820999
 11
15.7765245406
 21
9.857965734
  0
LINE
  5
39D
100
AcDbEntity
  8
0
100
AcDbLine
 62
7
  6
CONTINUOUS
 10
8.0545680714
 20
8.1024679705
 11
8.0335613134
 21
8.0995156632
  0
LINE
  5
39E
100
AcDbEntity
  8
0
100
AcDbLine
 62
7
  6
CONTINUOUS
 10
6.30413095
 20
7.8564600764
 11
6.283124192
 21
7.8535077691
  0
LINE
  5
39F
100
AcDbEntity
  8
0
100
AcDbLine
 62
7
  6
CONTINUOUS
 10
14.0400686052
 20
9.5829381325
 11
14.0610753632
 21
9.5858904398
  0
LINE
  5
3A0
100
AcDbEntity
  8
0
100
AcDbLine
 62
7
  6
CONTINUOUS
 10
15.7905057266
 20
9.8289460266
 11
15.8115124846
 21
9.8318983339
  0
LINE
  5
3A1
100
AcDbEntity
  8
0
100
AcDbLine
 62
7
  6
CONTINUOUS
 10
14.0665160263
 20
9.61763971
 11
14.0876130215
 21
9.6198570936
  0
LINE
  5
3A2
100
AcDbEntity
  8
0
100
AcDbLine
 62
7
  6
CONTINUOUS
 10
15.8244723804
 20
9.8024083682
 11
15.8455693756
 21
9.8046257518
  0
LINE
  5
3A3
100
AcDbEntity
  8
0
100
AcDbLine
 62
7
  6
CONTINUOUS
 10
4.2387208926
 20
8.5441557727
 11
6.6776469772
 21
8.6297321265
  0
LINE
  5
3A4
100
AcDbEntity
  8
0
100
AcDbLine
 62
7
  6
CONTINUOUS
 10
17.8559156933
 20
9.1412503271
 11
15.4169896994
 21
9.0556739764
  0
LINE
  5
3A5
100
AcDbEntity
  8
0
100
AcDbLine
 62
9
  6
CONTINUOUS
 10
15.5039568242
 20
8.8427030497
 11
15.4473179675
 21
8.8427030449
  0
LINE
  5
3A6
100
AcDbEntity
  8
0
100
AcDbLine
 62
9
  6
CONTINUOUS
 10
6.5906798524
 20
8.8427030533
 11
6.647318709
 21
8.8427030581
  0
LINE
  5
3A7
100
AcDbEntity
  8
0
100
AcDbLine
 62
7
  6
CONTINUOUS
 10
17.8559157851
 20
8.5441557727
 11
15.4169896994
 21
8.6297321265
  0
LINE
  5
3A8
100
AcDbEntity
  8
0
100
AcDbLine
 62
7
  6
CONTINUOUS
 10
4.2387209833
 20
9.1412503271
 11
6.6776469771
 21
9.0556739764
  0
LINE
  5
3A9
100
AcDbEntity
  8
0
100
AcDbLine
 62
7
  6
CONTINUOUS
 10
6.2490673009
 20
9.8046257518
 11
6.2701642962
 21
9.8024083682
  0
LINE
  5
3AA
100
AcDbEntity
  8
0
100
AcDbLine
 62
7
  6
CONTINUOUS
 10
8.007023655
 20
9.6198570936
 11
8.0281206503
 21
9.61763971
  0
LINE
  5
3AB
100
AcDbEntity
  8
0
100
AcDbLine
 62
7
  6
CONTINUOUS
 10
15.8115124846
 20
7.8535077691
 11
15.7905057266
 21
7.8564600764
  0
LINE
  5
3AC
100
AcDbEntity
  8
0
100
AcDbLine
 62
7
  6
CONTINUOUS
 10
14.0610753632
 20
8.0995156632
 11
14.0400686052
 21
8.1024679705
  0
LINE
  5
3AD
100
AcDbEntity
  8
0
100
AcDbLine
 62
7
  6
CONTINUOUS
 10
6.283124192
 20
9.8318983339
 11
6.30413095
 21
9.8289460266
  0
LINE
  5
3AE
100
AcDbEntity
  8
0
100
AcDbLine
 62
7
  6
CONTINUOUS
 10
8.0335613134
 20
9.5858904398
 11
8.0545680714
 21
9.5829381325
  0
LINE
  5
3AF
100
AcDbEntity
  8
0
100
AcDbLine
 62
7
  6
CONTINUOUS
 10
15.7765245406
 20
7.827440369
 11
15.7556336134
 21
7.8311240031
  0
LINE
  5
3B0
100
AcDbEntity
  8
0
100
AcDbLine
 62
7
  6
CONTINUOUS
 10
14.0357392899
 20
8.1343877763
 11
14.0148483627
 21
8.1380714105
  0
LINE
  5
3B1
100
AcDbEntity
  8
0
100
AcDbLine
 62
7
  6
CONTINUOUS
 10
6.3181121359
 20
9.857965734
 11
6.3390030631
 21
9.8542820999
  0
LINE
  5
3B2
100
AcDbEntity
  8
0
100
AcDbLine
 62
7
  6
CONTINUOUS
 10
8.0588973866
 20
9.5510183267
 11
8.0797883139
 21
9.5473346925
  0
LINE
  5
3B3
100
AcDbEntity
  8
0
100
AcDbLine
 62
7
  6
CONTINUOUS
 10
15.7406481713
 20
7.8026099102
 11
15.7198985272
 21
7.8070203832
  0
LINE
  5
3B4
100
AcDbEntity
  8
0
100
AcDbLine
 62
7
  6
CONTINUOUS
 10
14.0116356699
 20
8.1701228625
 11
13.9908860259
 21
8.1745333355
  0
LINE
  5
3B5
100
AcDbEntity
  8
0
100
AcDbLine
 62
7
  6
CONTINUOUS
 10
6.3539885053
 20
9.8827961928
 11
6.3747381493
 21
9.8783857198
  0
LINE
  5
3B6
100
AcDbEntity
  8
0
100
AcDbLine
 62
7
  6
CONTINUOUS
 10
8.0830010066
 20
9.5152832405
 11
8.1037506507
 21
9.5108727675
  0
LINE
  5
3B7
100
AcDbEntity
  8
0
100
AcDbLine
 62
7
  6
CONTINUOUS
 10
6.3907095902
 20
9.9063594584
 11
6.4112926709
 21
9.90122752
  0
LINE
  5
3B8
100
AcDbEntity
  8
0
100
AcDbLine
 62
7
  6
CONTINUOUS
 10
8.1058428068
 20
9.4787287189
 11
8.1264258874
 21
9.4735967805
  0
LINE
  5
3B9
100
AcDbEntity
  8
0
100
AcDbLine
 62
7
  6
CONTINUOUS
 10
15.7039270863
 20
7.7790466446
 11
15.6833440057
 21
7.784178583
  0
LINE
  5
3BA
100
AcDbEntity
  8
0
100
AcDbLine
 62
7
  6
CONTINUOUS
 10
13.9887938697
 20
8.2066773841
 11
13.9682107891
 21
8.2118093225
  0
LINE
  5
3BB
100
AcDbEntity
  8
0
100
AcDbLine
 62
7
  6
CONTINUOUS
 10
6.4282306518
 20
9.9286268225
 11
6.4486220917
 21
9.9227796712
  0
LINE
  5
3BC
100
AcDbEntity
  8
0
100
AcDbLine
 62
7
  6
CONTINUOUS
 10
8.127394958
 20
9.4413992981
 11
8.1477863979
 21
9.4355521468
  0
LINE
  5
3BD
100
AcDbEntity
  8
0
100
AcDbLine
 62
7
  6
CONTINUOUS
 10
15.6664060248
 20
7.7567792805
 11
15.6460145849
 21
7.7626264318
  0
LINE
  5
3BE
100
AcDbEntity
  8
0
100
AcDbLine
 62
7
  6
CONTINUOUS
 10
13.9672417186
 20
8.2440068049
 11
13.9468502787
 21
8.2498539562
  0
LINE
  5
3BF
100
AcDbEntity
  8
0
100
AcDbLine
 62
7
  6
CONTINUOUS
 10
15.6281307002
 20
7.7358349472
 11
15.6079557448
 21
7.7423901876
  0
LINE
  5
3C0
100
AcDbEntity
  8
0
100
AcDbLine
 62
7
  6
CONTINUOUS
 10
13.9470054744
 20
8.2820656449
 11
13.926830519
 21
8.2886208853
  0
LINE
  5
3C1
100
AcDbEntity
  8
0
100
AcDbLine
 62
7
  6
CONTINUOUS
 10
15.5891477453
 20
7.7162391623
 11
15.5692138545
 21
7.7234945051
  0
LINE
  5
3C2
100
AcDbEntity
  8
0
100
AcDbLine
 62
7
  6
CONTINUOUS
 10
13.9281097919
 20
8.3208075353
 11
13.9081759012
 21
8.3280628781
  0
LINE
  5
3C3
100
AcDbEntity
  8
0
100
AcDbLine
 62
7
  6
CONTINUOUS
 10
15.5495046546
 20
7.6980158
 11
15.5298361149
 21
7.7059624059
  0
LINE
  5
3C4
100
AcDbEntity
  8
0
100
AcDbLine
 62
7
  6
CONTINUOUS
 10
13.9105776927
 20
8.3601852749
 11
13.890909153
 21
8.3681318808
  0
LINE
  5
3C5
100
AcDbEntity
  8
0
100
AcDbLine
 62
7
  6
CONTINUOUS
 10
14.0072251969
 20
8.1493732185
 11
14.0116356699
 21
8.1701228625
  0
LINE
  5
3C6
100
AcDbEntity
  8
0
100
AcDbLine
 62
7
  6
CONTINUOUS
 10
14.3747381493
 20
9.8783857198
 11
14.3791486223
 21
9.8991353639
  0
LINE
  5
3C7
100
AcDbEntity
  8
0
100
AcDbLine
 62
7
  6
CONTINUOUS
 10
13.9836619314
 20
8.1860943034
 11
13.9887938697
 21
8.2066773841
  0
LINE
  5
3C8
100
AcDbEntity
  8
0
100
AcDbLine
 62
7
  6
CONTINUOUS
 10
14.4112926709
 20
9.90122752
 11
14.4164246093
 21
9.9218106007
  0
LINE
  5
3C9
100
AcDbEntity
  8
0
100
AcDbLine
 62
7
  6
CONTINUOUS
 10
13.9613945673
 20
8.223615365
 11
13.9672417186
 21
8.2440068049
  0
LINE
  5
3CA
100
AcDbEntity
  8
0
100
AcDbLine
 62
7
  6
CONTINUOUS
 10
14.4486220917
 20
9.9227796712
 11
14.454469243
 21
9.9431711111
  0
LINE
  5
3CB
100
AcDbEntity
  8
0
100
AcDbLine
 62
7
  6
CONTINUOUS
 10
13.940450234
 20
8.2618906896
 11
13.9470054744
 21
8.2820656449
  0
LINE
  5
3CC
100
AcDbEntity
  8
0
100
AcDbLine
 62
7
  6
CONTINUOUS
 10
14.4866809317
 20
9.9430159154
 11
14.4932361721
 21
9.9631908708
  0
LINE
  5
3CD
100
AcDbEntity
  8
0
100
AcDbLine
 62
7
  6
CONTINUOUS
 10
13.9208544491
 20
8.3008736445
 11
13.9281097919
 21
8.3208075353
  0
LINE
  5
3CE
100
AcDbEntity
  8
0
100
AcDbLine
 62
7
  6
CONTINUOUS
 10
14.525422822
 20
9.9619115978
 11
14.5326781649
 21
9.9818454886
  0
LINE
  5
3CF
100
AcDbEntity
  8
0
100
AcDbLine
 62
7
  6
CONTINUOUS
 10
13.9026310868
 20
8.3405167352
 11
13.9105776927
 21
8.3601852749
  0
LINE
  5
3D0
100
AcDbEntity
  8
0
100
AcDbLine
 62
7
  6
CONTINUOUS
 10
14.5648005617
 20
9.9794436971
 11
14.5727471675
 21
9.9991122368
  0
LINE
  5
3D1
100
AcDbEntity
  8
0
100
AcDbLine
 62
7
  6
CONTINUOUS
 10
13.8858023497
 20
8.3807716624
 11
13.8944305368
 21
8.4001508881
  0
LINE
  5
3D2
100
AcDbEntity
  8
0
100
AcDbLine
 62
7
  6
CONTINUOUS
 10
14.6047661749
 20
9.995590853
 11
14.613394362
 21
10.0149700786
  0
LINE
  5
3D3
100
AcDbEntity
  8
0
100
AcDbLine
 62
7
  6
CONTINUOUS
 10
13.8703887408
 20
8.421589382
 11
13.8796879972
 21
8.4406556829
  0
LINE
  5
3D4
100
AcDbEntity
  8
0
100
AcDbLine
 62
7
  6
CONTINUOUS
 10
14.6452709697
 20
10.0103333926
 11
14.654570226
 21
10.0293996936
  0
LINE
  5
3D5
100
AcDbEntity
  8
0
100
AcDbLine
 62
7
  6
CONTINUOUS
 10
13.8564090394
 20
8.4629201637
 11
13.8663680352
 21
8.4816503106
  0
LINE
  5
3D6
100
AcDbEntity
  8
0
100
AcDbLine
 62
7
  6
CONTINUOUS
 10
14.6862655974
 20
10.0236533546
 11
14.6962245931
 21
10.0423835015
  0
LINE
  5
3D7
100
AcDbEntity
  8
0
100
AcDbLine
 62
7
  6
CONTINUOUS
 10
13.8438802776
 20
8.5047136523
 11
13.8544868793
 21
8.5230848253
  0
LINE
  5
3D8
100
AcDbEntity
  8
0
100
AcDbLine
 62
7
  6
CONTINUOUS
 10
14.7277001121
 20
10.0355345105
 11
14.7383067139
 21
10.0539056836
  0
LINE
  5
3D9
100
AcDbEntity
  8
0
100
AcDbLine
 62
7
  6
CONTINUOUS
 10
15.0257661871
 20
7.6079811375
 11
15.0105066856
 21
7.5932452082
  0
LINE
  5
3DA
100
AcDbEntity
  8
0
100
AcDbLine
 62
7
  6
CONTINUOUS
 10
14.9826881427
 20
7.609485456
 11
14.9669236604
 21
7.5952910523
  0
LINE
  5
3DB
100
AcDbEntity
  8
0
100
AcDbLine
 62
7
  6
CONTINUOUS
 10
14.9396888403
 20
7.6124922601
 11
14.9234385837
 21
7.5988566758
  0
LINE
  5
3DC
100
AcDbEntity
  8
0
100
AcDbLine
 62
7
  6
CONTINUOUS
 10
14.8968206678
 20
7.6169978866
 11
14.8801044354
 21
7.6039377345
  0
LINE
  5
3DD
100
AcDbEntity
  8
0
100
AcDbLine
 62
7
  6
CONTINUOUS
 10
14.8541358536
 20
7.622996846
 11
14.8369740115
 21
7.6105280379
  0
LINE
  5
3DE
100
AcDbEntity
  8
0
100
AcDbLine
 62
7
  6
CONTINUOUS
 10
14.8116864024
 20
7.6304818296
 11
14.7940998597
 21
7.6186195567
  0
LINE
  5
3DF
100
AcDbEntity
  8
0
100
AcDbLine
 62
7
  6
CONTINUOUS
 10
6.0400686052
 20
9.5829381325
 11
6.0610753632
 21
9.5858904398
  0
LINE
  5
3E0
100
AcDbEntity
  8
0
100
AcDbLine
 62
7
  6
CONTINUOUS
 10
7.7905057266
 20
9.8289460266
 11
7.8115124846
 21
9.8318983339
  0
LINE
  5
3E1
100
AcDbEntity
  8
0
100
AcDbLine
 62
7
  6
CONTINUOUS
 10
6.0665160263
 20
9.61763971
 11
6.0876130215
 21
9.6198570936
  0
LINE
  5
3E2
100
AcDbEntity
  8
0
100
AcDbLine
 62
7
  6
CONTINUOUS
 10
7.8244723804
 20
9.8024083682
 11
7.8455693756
 21
9.8046257518
  0
LINE
  5
3E3
100
AcDbEntity
  8
0
100
AcDbLine
 62
7
  6
CONTINUOUS
 10
14.0941584039
 20
9.6513971466
 11
14.115319933
 21
9.6528769049
  0
LINE
  5
3E4
100
AcDbEntity
  8
0
100
AcDbLine
 62
7
  6
CONTINUOUS
 10
15.8574921916
 20
9.7747014568
 11
15.8786537208
 21
9.776181215
  0
LINE
  5
3E5
100
AcDbEntity
  8
0
100
AcDbLine
 62
7
  6
CONTINUOUS
 10
6.0941584039
 20
9.6513971466
 11
6.115319933
 21
9.6528769049
  0
LINE
  5
3E6
100
AcDbEntity
  8
0
100
AcDbLine
 62
7
  6
CONTINUOUS
 10
7.8574921916
 20
9.7747014568
 11
7.8786537208
 21
9.776181215
  0
LINE
  5
3E7
100
AcDbEntity
  8
0
100
AcDbLine
 62
7
  6
CONTINUOUS
 10
15.9107252118
 20
9.7465993789
 11
15.8895249309
 21
9.7458590488
  0
LINE
  5
3E8
100
AcDbEntity
  8
0
100
AcDbLine
 62
7
  6
CONTINUOUS
 10
14.144162341
 20
9.6849096441
 11
14.1229620601
 21
9.684169314
  0
LINE
  5
3E9
100
AcDbEntity
  8
0
100
AcDbLine
 62
7
  6
CONTINUOUS
 10
7.9107252118
 20
9.7465993789
 11
7.8895249309
 21
9.7458590488
  0
LINE
  5
3EA
100
AcDbEntity
  8
0
100
AcDbLine
 62
7
  6
CONTINUOUS
 10
6.144162341
 20
9.6849096441
 11
6.1229620601
 21
9.684169314
  0
LINE
  5
3EB
100
AcDbEntity
  8
0
100
AcDbLine
 62
7
  6
CONTINUOUS
 10
15.9417447746
 20
9.7159162844
 11
15.9205315711
 21
9.7159162844
  0
LINE
  5
3EC
100
AcDbEntity
  8
0
100
AcDbLine
 62
7
  6
CONTINUOUS
 10
14.1741051054
 20
9.7159162844
 11
14.152891902
 21
9.7159162844
  0
LINE
  5
3ED
100
AcDbEntity
  8
0
100
AcDbLine
 62
7
  6
CONTINUOUS
 10
7.9417447746
 20
9.7159162844
 11
7.9205315711
 21
9.7159162844
  0
LINE
  5
3EE
100
AcDbEntity
  8
0
100
AcDbLine
 62
7
  6
CONTINUOUS
 10
6.1741051054
 20
9.7159162844
 11
6.152891902
 21
9.7159162844
  0
LINE
  5
3EF
100
AcDbEntity
  8
0
100
AcDbLine
 62
7
  6
CONTINUOUS
 10
7.9716746165
 20
9.684169314
 11
7.9504743356
 21
9.6849096441
  0
LINE
  5
3F0
100
AcDbEntity
  8
0
100
AcDbLine
 62
7
  6
CONTINUOUS
 10
6.2051117457
 20
9.7458590488
 11
6.1839114647
 21
9.7465993789
  0
LINE
  5
3F1
100
AcDbEntity
  8
0
100
AcDbLine
 62
7
  6
CONTINUOUS
 10
15.9716746165
 20
9.684169314
 11
15.9504743356
 21
9.6849096441
  0
LINE
  5
3F2
100
AcDbEntity
  8
0
100
AcDbLine
 62
7
  6
CONTINUOUS
 10
14.2051117457
 20
9.7458590488
 11
14.1839114647
 21
9.7465993789
  0
LINE
  5
3F3
100
AcDbEntity
  8
0
100
AcDbLine
 62
7
  6
CONTINUOUS
 10
6.2159829558
 20
9.776181215
 11
6.2371444849
 21
9.7747014568
  0
LINE
  5
3F4
100
AcDbEntity
  8
0
100
AcDbLine
 62
7
  6
CONTINUOUS
 10
7.9793167436
 20
9.6528769049
 11
8.0004782727
 21
9.6513971466
  0
LINE
  5
3F5
100
AcDbEntity
  8
0
100
AcDbLine
 62
7
  6
CONTINUOUS
 10
14.2159829558
 20
9.776181215
 11
14.2371444849
 21
9.7747014568
  0
LINE
  5
3F6
100
AcDbEntity
  8
0
100
AcDbLine
 62
7
  6
CONTINUOUS
 10
15.9793167436
 20
9.6528769049
 11
16.0004782727
 21
9.6513971466
  0
LINE
  5
3F7
100
AcDbEntity
  8
0
100
AcDbLine
 62
7
  6
CONTINUOUS
 10
14.2490673009
 20
9.8046257518
 11
14.2701642962
 21
9.8024083682
  0
LINE
  5
3F8
100
AcDbEntity
  8
0
100
AcDbLine
 62
7
  6
CONTINUOUS
 10
16.007023655
 20
9.6198570936
 11
16.0281206503
 21
9.61763971
  0
LINE
  5
3F9
100
AcDbEntity
  8
0
100
AcDbLine
 62
7
  6
CONTINUOUS
 10
14.283124192
 20
9.8318983339
 11
14.30413095
 21
9.8289460266
  0
LINE
  5
3FA
100
AcDbEntity
  8
0
100
AcDbLine
 62
7
  6
CONTINUOUS
 10
16.0335613134
 20
9.5858904398
 11
16.0545680714
 21
9.5829381325
  0
LINE
  5
3FB
100
AcDbEntity
  8
0
100
AcDbLine
 62
7
  6
CONTINUOUS
 10
15.5092497273
 20
7.6811870629
 11
15.4898705017
 21
7.68981525
  0
LINE
  5
3FC
100
AcDbEntity
  8
0
100
AcDbLine
 62
7
  6
CONTINUOUS
 10
13.8944305368
 20
8.4001508881
 11
13.8750513112
 21
8.4087790752
  0
LINE
  5
3FD
100
AcDbEntity
  8
0
100
AcDbLine
 62
7
  6
CONTINUOUS
 10
15.4684320078
 20
7.6657734541
 11
15.4493657068
 21
7.6750727104
  0
LINE
  5
3FE
100
AcDbEntity
  8
0
100
AcDbLine
 62
7
  6
CONTINUOUS
 10
13.8796879972
 20
8.4406556829
 11
13.8606216962
 21
8.4499549392
  0
LINE
  5
3FF
100
AcDbEntity
  8
0
100
AcDbLine
 62
7
  6
CONTINUOUS
 10
15.4271012261
 20
7.6517937526
 11
15.4083710792
 21
7.6617527484
  0
LINE
  5
400
100
AcDbEntity
  8
0
100
AcDbLine
 62
7
  6
CONTINUOUS
 10
13.8663680352
 20
8.4816503106
 11
13.8476378883
 21
8.4916093063
  0
LINE
  5
401
100
AcDbEntity
  8
0
100
AcDbLine
 62
7
  6
CONTINUOUS
 10
15.3853077375
 20
7.6392649908
 11
15.3669365644
 21
7.6498715925
  0
LINE
  5
402
100
AcDbEntity
  8
0
100
AcDbLine
 62
7
  6
CONTINUOUS
 10
13.8544868793
 20
8.5230848253
 11
13.8361157062
 21
8.5336914271
  0
LINE
  5
403
100
AcDbEntity
  8
0
100
AcDbLine
 62
7
  6
CONTINUOUS
 10
15.3431024609
 20
7.6282024328
 11
15.3251126441
 21
7.639443718
  0
LINE
  5
404
100
AcDbEntity
  8
0
100
AcDbLine
 62
7
  6
CONTINUOUS
 10
13.8440590047
 20
8.5649087457
 11
13.8260691879
 21
8.5761500309
  0
LINE
  5
405
100
AcDbEntity
  8
0
100
AcDbLine
 62
7
  6
CONTINUOUS
 10
15.3005368168
 20
7.6186195567
 11
15.2829502741
 21
7.6304818296
  0
LINE
  5
406
100
AcDbEntity
  8
0
100
AcDbLine
 62
7
  6
CONTINUOUS
 10
13.8350971164
 20
8.6070711156
 11
13.8175105737
 21
8.6189333885
  0
LINE
  5
407
100
AcDbEntity
  8
0
100
AcDbLine
 62
7
  6
CONTINUOUS
 10
15.2576626651
 20
7.6105280379
 11
15.240500823
 21
7.622996846
  0
LINE
  5
408
100
AcDbEntity
  8
0
100
AcDbLine
 62
7
  6
CONTINUOUS
 10
13.8276121328
 20
8.6495205668
 11
13.8104502907
 21
8.6619893749
  0
LINE
  5
409
100
AcDbEntity
  8
0
100
AcDbLine
 62
7
  6
CONTINUOUS
 10
15.2145322412
 20
7.6039377345
 11
15.1978160088
 21
7.6169978866
  0
LINE
  5
40A
100
AcDbEntity
  8
0
100
AcDbLine
 62
7
  6
CONTINUOUS
 10
13.8216131734
 20
8.692205381
 11
13.8048969409
 21
8.7052655332
  0
LINE
  5
40B
100
AcDbEntity
  8
0
100
AcDbLine
 62
7
  6
CONTINUOUS
 10
15.1711980929
 20
7.5988566758
 11
15.1549478363
 21
7.6124922601
  0
LINE
  5
40C
100
AcDbEntity
  8
0
100
AcDbLine
 62
7
  6
CONTINUOUS
 10
13.8171075469
 20
8.7350735535
 11
13.8008572903
 21
8.7487091378
  0
LINE
  5
40D
100
AcDbEntity
  8
0
100
AcDbLine
 62
7
  6
CONTINUOUS
 10
14.2723816798
 20
7.8619007395
 11
14.2701642962
 21
7.8829977348
  0
LINE
  5
40E
100
AcDbEntity
  8
0
100
AcDbLine
 62
7
  6
CONTINUOUS
 10
14.0876130215
 20
9.6198570936
 11
14.085395638
 21
9.6409540889
  0
LINE
  5
40F
100
AcDbEntity
  8
0
100
AcDbLine
 62
7
  6
CONTINUOUS
 10
14.2386242432
 20
7.8895431171
 11
14.2371444849
 21
7.9107046462
  0
LINE
  5
410
100
AcDbEntity
  8
0
100
AcDbLine
 62
7
  6
CONTINUOUS
 10
14.115319933
 20
9.6528769049
 11
14.1138401747
 21
9.674038434
  0
LINE
  5
411
100
AcDbEntity
  8
0
100
AcDbLine
 62
7
  6
CONTINUOUS
 10
14.1434220109
 20
9.706109925
 11
14.144162341
 21
9.6849096441
  0
LINE
  5
412
100
AcDbEntity
  8
0
100
AcDbLine
 62
7
  6
CONTINUOUS
 10
14.2051117457
 20
7.9395470542
 11
14.2058520758
 21
7.9183467733
  0
LINE
  5
413
100
AcDbEntity
  8
0
100
AcDbLine
 62
7
  6
CONTINUOUS
 10
14.1741051054
 20
9.7371294878
 11
14.1741051054
 21
9.7159162844
  0
LINE
  5
414
100
AcDbEntity
  8
0
100
AcDbLine
 62
7
  6
CONTINUOUS
 10
14.1741051054
 20
7.9694898186
 11
14.1741051054
 21
7.9482766152
  0
LINE
  5
415
100
AcDbEntity
  8
0
100
AcDbLine
 62
7
  6
CONTINUOUS
 10
14.2058520758
 20
9.7670593297
 11
14.2051117457
 21
9.7458590488
  0
LINE
  5
416
100
AcDbEntity
  8
0
100
AcDbLine
 62
7
  6
CONTINUOUS
 10
14.144162341
 20
8.0004964589
 11
14.1434220109
 21
7.979296178
  0
LINE
  5
417
100
AcDbEntity
  8
0
100
AcDbLine
 62
7
  6
CONTINUOUS
 10
14.1138401747
 20
8.011367669
 11
14.115319933
 21
8.0325291981
  0
LINE
  5
418
100
AcDbEntity
  8
0
100
AcDbLine
 62
7
  6
CONTINUOUS
 10
14.2371444849
 20
9.7747014568
 11
14.2386242432
 21
9.7958629859
  0
LINE
  5
419
100
AcDbEntity
  8
0
100
AcDbLine
 62
7
  6
CONTINUOUS
 10
14.085395638
 20
8.0444520141
 11
14.0876130215
 21
8.0655490094
  0
LINE
  5
41A
100
AcDbEntity
  8
0
100
AcDbLine
 62
7
  6
CONTINUOUS
 10
14.2701642962
 20
9.8024083682
 11
14.2723816798
 21
9.8235053635
  0
LINE
  5
41B
100
AcDbEntity
  8
0
100
AcDbLine
 62
7
  6
CONTINUOUS
 10
14.0581230559
 20
8.0785089052
 11
14.0610753632
 21
8.0995156632
  0
LINE
  5
41C
100
AcDbEntity
  8
0
100
AcDbLine
 62
7
  6
CONTINUOUS
 10
14.30413095
 20
9.8289460266
 11
14.3070832573
 21
9.8499527846
  0
LINE
  5
41D
100
AcDbEntity
  8
0
100
AcDbLine
 62
7
  6
CONTINUOUS
 10
14.0320556558
 20
8.1134968491
 11
14.0357392899
 21
8.1343877763
  0
LINE
  5
41E
100
AcDbEntity
  8
0
100
AcDbLine
 62
7
  6
CONTINUOUS
 10
14.3390030631
 20
9.8542820999
 11
14.3426866972
 21
9.8751730271
  0
LINE
  5
41F
100
AcDbEntity
  8
0
100
AcDbLine
 62
7
  6
CONTINUOUS
 10
10.9340243027
 20
-3.5259850414
 11
10.9427954538
 21
-3.4972958988
  0
LINE
  5
420
100
AcDbEntity
  8
0
100
AcDbLine
 62
7
  6
CONTINUOUS
 10
11.1518412227
 20
-2.8135379982
 11
11.1606123739
 21
-2.7848488556
  0
LINE
  5
421
100
AcDbEntity
  8
0
100
AcDbLine
 62
7
  6
CONTINUOUS
 10
16.250756399
 20
9.1806924507
 11
16.2401497973
 21
9.1623212776
  0
LINE
  5
422
100
AcDbEntity
  8
0
100
AcDbLine
 62
7
  6
CONTINUOUS
 10
15.3669365644
 20
7.6498715925
 11
15.3563299627
 21
7.6315004194
  0
LINE
  5
423
100
AcDbEntity
  8
0
100
AcDbLine
 62
7
  6
CONTINUOUS
 10
16.261818957
 20
9.1384871741
 11
16.2505776718
 21
9.1204973573
  0
LINE
  5
424
100
AcDbEntity
  8
0
100
AcDbLine
 62
7
  6
CONTINUOUS
 10
15.3251126441
 20
7.639443718
 11
15.3138713589
 21
7.6214539012
  0
LINE
  5
425
100
AcDbEntity
  8
0
100
AcDbLine
 62
7
  6
CONTINUOUS
 10
16.271401833
 20
9.09592153
 11
16.2643079676
 21
9.085404442
  0
LINE
  5
426
100
AcDbEntity
  8
0
100
AcDbLine
 62
7
  6
CONTINUOUS
 10
15.2829502741
 20
7.6304818296
 11
15.2710880013
 21
7.6128952869
  0
LINE
  5
427
100
AcDbEntity
  8
0
100
AcDbLine
 62
7
  6
CONTINUOUS
 10
15.240500823
 20
7.622996846
 11
15.2280320149
 21
7.6058350039
  0
LINE
  5
428
100
AcDbEntity
  8
0
100
AcDbLine
 62
7
  6
CONTINUOUS
 10
15.1978160088
 20
7.6169978866
 11
15.1847558566
 21
7.6002816542
  0
LINE
  5
429
100
AcDbEntity
  8
0
100
AcDbLine
 62
7
  6
CONTINUOUS
 10
15.1549478363
 20
7.6124922601
 11
15.1413122519
 21
7.5962420035
  0
LINE
  5
42A
100
AcDbEntity
  8
0
100
AcDbLine
 62
7
  6
CONTINUOUS
 10
15.1119485338
 20
7.609485456
 11
15.0977541302
 21
7.5937209736
  0
LINE
  5
42B
100
AcDbEntity
  8
0
100
AcDbLine
 62
7
  6
CONTINUOUS
 10
15.0688704895
 20
7.6079811375
 11
15.0541345601
 21
7.592721636
  0
LINE
  5
42C
100
AcDbEntity
  8
0
100
AcDbLine
 62
7
  6
CONTINUOUS
 10
5.9682107891
 20
9.4735967805
 11
5.9887938697
 21
9.4787287189
  0
LINE
  5
42D
100
AcDbEntity
  8
0
100
AcDbLine
 62
7
  6
CONTINUOUS
 10
7.6833440057
 20
9.90122752
 11
7.7039270863
 21
9.9063594584
  0
LINE
  5
42E
100
AcDbEntity
  8
0
100
AcDbLine
 62
7
  6
CONTINUOUS
 10
5.9908860259
 20
9.5108727675
 11
6.0116356699
 21
9.5152832405
  0
LINE
  5
42F
100
AcDbEntity
  8
0
100
AcDbLine
 62
7
  6
CONTINUOUS
 10
7.7198985272
 20
9.8783857198
 11
7.7406481713
 21
9.8827961928
  0
LINE
  5
430
100
AcDbEntity
  8
0
100
AcDbLine
 62
7
  6
CONTINUOUS
 10
6.0148483627
 20
9.5473346925
 11
6.0357392899
 21
9.5510183267
  0
LINE
  5
431
100
AcDbEntity
  8
0
100
AcDbLine
 62
7
  6
CONTINUOUS
 10
7.7556336134
 20
9.8542820999
 11
7.7765245406
 21
9.857965734
  0
LINE
  5
432
100
AcDbEntity
  8
0
100
AcDbLine
 62
7
  6
CONTINUOUS
 10
14.3181121359
 20
9.857965734
 11
14.3390030631
 21
9.8542820999
  0
LINE
  5
433
100
AcDbEntity
  8
0
100
AcDbLine
 62
7
  6
CONTINUOUS
 10
16.0588973866
 20
9.5510183267
 11
16.0797883139
 21
9.5473346925
  0
LINE
  5
434
100
AcDbEntity
  8
0
100
AcDbLine
 62
7
  6
CONTINUOUS
 10
14.3539885053
 20
9.8827961928
 11
14.3747381493
 21
9.8783857198
  0
LINE
  5
435
100
AcDbEntity
  8
0
100
AcDbLine
 62
7
  6
CONTINUOUS
 10
16.0830010066
 20
9.5152832405
 11
16.1037506507
 21
9.5108727675
  0
LINE
  5
436
100
AcDbEntity
  8
0
100
AcDbLine
 62
7
  6
CONTINUOUS
 10
14.3907095902
 20
9.9063594584
 11
14.4112926709
 21
9.90122752
  0
LINE
  5
437
100
AcDbEntity
  8
0
100
AcDbLine
 62
7
  6
CONTINUOUS
 10
16.1058428068
 20
9.4787287189
 11
16.1264258874
 21
9.4735967805
  0
LINE
  5
438
100
AcDbEntity
  8
0
100
AcDbLine
 62
7
  6
CONTINUOUS
 10
14.4282306518
 20
9.9286268225
 11
14.4486220917
 21
9.9227796712
  0
LINE
  5
439
100
AcDbEntity
  8
0
100
AcDbLine
 62
7
  6
CONTINUOUS
 10
16.127394958
 20
9.4413992981
 11
16.1477863979
 21
9.4355521468
  0
LINE
  5
43A
100
AcDbEntity
  8
0
100
AcDbLine
 62
7
  6
CONTINUOUS
 10
14.4665059764
 20
9.9495711558
 11
14.4866809317
 21
9.9430159154
  0
LINE
  5
43B
100
AcDbEntity
  8
0
100
AcDbLine
 62
7
  6
CONTINUOUS
 10
16.1476312022
 20
9.4033404581
 11
16.1678061575
 21
9.3967852177
  0
LINE
  5
43C
100
AcDbEntity
  8
0
100
AcDbLine
 62
7
  6
CONTINUOUS
 10
14.5054889313
 20
9.9691669407
 11
14.525422822
 21
9.9619115978
  0
LINE
  5
43D
100
AcDbEntity
  8
0
100
AcDbLine
 62
7
  6
CONTINUOUS
 10
16.1665268846
 20
9.3645985677
 11
16.1864607754
 21
9.3573432249
  0
LINE
  5
43E
100
AcDbEntity
  8
0
100
AcDbLine
 62
7
  6
CONTINUOUS
 10
14.5451320219
 20
9.987390303
 11
14.5648005617
 21
9.9794436971
  0
LINE
  5
43F
100
AcDbEntity
  8
0
100
AcDbLine
 62
7
  6
CONTINUOUS
 10
16.1840589839
 20
9.3252208281
 11
16.2037275236
 21
9.3172742222
  0
LINE
  5
440
100
AcDbEntity
  8
0
100
AcDbLine
 62
7
  6
CONTINUOUS
 10
15.1277130162
 20
7.5952910523
 11
15.1119485338
 21
7.609485456
  0
LINE
  5
441
100
AcDbEntity
  8
0
100
AcDbLine
 62
7
  6
CONTINUOUS
 10
13.8141007428
 20
8.7780728559
 11
13.7983362604
 21
8.7922672596
  0
LINE
  5
442
100
AcDbEntity
  8
0
100
AcDbLine
 62
7
  6
CONTINUOUS
 10
15.084129991
 20
7.5932452082
 11
15.0688704895
 21
7.6079811375
  0
LINE
  5
443
100
AcDbEntity
  8
0
100
AcDbLine
 62
7
  6
CONTINUOUS
 10
13.8125964243
 20
8.8211509003
 11
13.7973369228
 21
8.8358868297
  0
LINE
  5
444
100
AcDbEntity
  8
0
100
AcDbLine
 62
7
  6
CONTINUOUS
 10
15.0405021164
 20
7.592721636
 11
15.0257661871
 21
7.6079811375
  0
LINE
  5
445
100
AcDbEntity
  8
0
100
AcDbLine
 62
7
  6
CONTINUOUS
 10
13.8125964243
 20
8.8642552027
 11
13.797860495
 21
8.8795147042
  0
LINE
  5
446
100
AcDbEntity
  8
0
100
AcDbLine
 62
7
  6
CONTINUOUS
 10
14.9968825464
 20
7.5937209736
 11
14.9826881427
 21
7.609485456
  0
LINE
  5
447
100
AcDbEntity
  8
0
100
AcDbLine
 62
7
  6
CONTINUOUS
 10
13.8141007428
 20
8.9073332471
 11
13.7999063391
 21
8.9230977294
  0
LINE
  5
448
100
AcDbEntity
  8
0
100
AcDbLine
 62
7
  6
CONTINUOUS
 10
14.9533244246
 20
7.5962420035
 11
14.9396888403
 21
7.6124922601
  0
LINE
  5
449
100
AcDbEntity
  8
0
100
AcDbLine
 62
7
  6
CONTINUOUS
 10
13.8171075469
 20
8.9503325495
 11
13.8034719626
 21
8.9665828061
  0
LINE
  5
44A
100
AcDbEntity
  8
0
100
AcDbLine
 62
7
  6
CONTINUOUS
 10
14.9098808199
 20
7.6002816542
 11
14.8968206678
 21
7.6169978866
  0
LINE
  5
44B
100
AcDbEntity
  8
0
100
AcDbLine
 62
7
  6
CONTINUOUS
 10
13.8216131734
 20
8.993200722
 11
13.8085530213
 21
9.0099169544
  0
LINE
  5
44C
100
AcDbEntity
  8
0
100
AcDbLine
 62
7
  6
CONTINUOUS
 10
14.8666046617
 20
7.6058350039
 11
14.8541358536
 21
7.622996846
  0
LINE
  5
44D
100
AcDbEntity
  8
0
100
AcDbLine
 62
7
  6
CONTINUOUS
 10
13.8276121328
 20
9.0358855362
 11
13.8151433247
 21
9.0530473783
  0
LINE
  5
44E
100
AcDbEntity
  8
0
100
AcDbLine
 62
7
  6
CONTINUOUS
 10
14.8235486752
 20
7.6128952869
 11
14.8116864024
 21
7.6304818296
  0
LINE
  5
44F
100
AcDbEntity
  8
0
100
AcDbLine
 62
7
  6
CONTINUOUS
 10
13.8350971164
 20
9.0783349874
 11
13.8232348435
 21
9.09592153
  0
LINE
  5
450
100
AcDbEntity
  8
0
100
AcDbLine
 62
7
  6
CONTINUOUS
 10
14.7807653176
 20
7.6214539012
 11
14.7695240325
 21
7.639443718
  0
LINE
  5
451
100
AcDbEntity
  8
0
100
AcDbLine
 62
7
  6
CONTINUOUS
 10
13.8440590047
 20
9.1204973573
 11
13.8328177196
 21
9.1384871741
  0
LINE
  5
452
100
AcDbEntity
  8
0
100
AcDbLine
 62
7
  6
CONTINUOUS
 10
14.7383067139
 20
7.6315004194
 11
14.7277001121
 21
7.6498715925
  0
LINE
  5
453
100
AcDbEntity
  8
0
100
AcDbLine
 62
7
  6
CONTINUOUS
 10
13.8544868793
 20
9.1623212776
 11
13.8438802776
 21
9.1806924507
  0
LINE
  5
454
100
AcDbEntity
  8
0
100
AcDbLine
 62
7
  6
CONTINUOUS
 10
14.6962245931
 20
7.6430226015
 11
14.6862655974
 21
7.6617527484
  0
LINE
  5
455
100
AcDbEntity
  8
0
100
AcDbLine
 62
7
  6
CONTINUOUS
 10
13.8663680352
 20
9.2037557924
 11
13.8564090394
 21
9.2224859393
  0
LINE
  5
456
100
AcDbEntity
  8
0
100
AcDbLine
 62
7
  6
CONTINUOUS
 10
14.654570226
 20
7.6560064094
 11
14.6452709697
 21
7.6750727104
  0
LINE
  5
457
100
AcDbEntity
  8
0
100
AcDbLine
 62
7
  6
CONTINUOUS
 10
13.8796879972
 20
9.2447504201
 11
13.8703887408
 21
9.263816721
  0
LINE
  5
458
100
AcDbEntity
  8
0
100
AcDbLine
 62
7
  6
CONTINUOUS
 10
14.613394362
 20
7.6704360244
 11
14.6047661749
 21
7.68981525
  0
LINE
  5
459
100
AcDbEntity
  8
0
100
AcDbLine
 62
7
  6
CONTINUOUS
 10
13.8944305368
 20
9.2852552149
 11
13.8858023497
 21
9.3046344405
  0
LINE
  5
45A
100
AcDbEntity
  8
0
100
AcDbLine
 62
7
  6
CONTINUOUS
 10
14.5727471675
 20
7.6862938662
 11
14.5648005617
 21
7.7059624059
  0
LINE
  5
45B
100
AcDbEntity
  8
0
100
AcDbLine
 62
7
  6
CONTINUOUS
 10
13.9105776927
 20
9.3252208281
 11
13.9026310868
 21
9.3448893678
  0
LINE
  5
45C
100
AcDbEntity
  8
0
100
AcDbLine
 62
7
  6
CONTINUOUS
 10
14.5326781649
 20
7.7035606144
 11
14.525422822
 21
7.7234945051
  0
LINE
  5
45D
100
AcDbEntity
  8
0
100
AcDbLine
 62
7
  6
CONTINUOUS
 10
13.9281097919
 20
9.3645985677
 11
13.9208544491
 21
9.3845324585
  0
LINE
  5
45E
100
AcDbEntity
  8
0
100
AcDbLine
 62
7
  6
CONTINUOUS
 10
14.4932361721
 20
7.7222152322
 11
14.4866809317
 21
7.7423901876
  0
LINE
  5
45F
100
AcDbEntity
  8
0
100
AcDbLine
 62
7
  6
CONTINUOUS
 10
13.9470054744
 20
9.4033404581
 11
13.940450234
 21
9.4235154134
  0
LINE
  5
460
100
AcDbEntity
  8
0
100
AcDbLine
 62
7
  6
CONTINUOUS
 10
14.454469243
 20
7.7422349919
 11
14.4486220917
 21
7.7626264318
  0
LINE
  5
461
100
AcDbEntity
  8
0
100
AcDbLine
 62
7
  6
CONTINUOUS
 10
13.9672417186
 20
9.4413992981
 11
13.9613945673
 21
9.461790738
  0
LINE
  5
462
100
AcDbEntity
  8
0
100
AcDbLine
 62
7
  6
CONTINUOUS
 10
14.4164246093
 20
7.7635955023
 11
14.4112926709
 21
7.784178583
  0
LINE
  5
463
100
AcDbEntity
  8
0
100
AcDbLine
 62
7
  6
CONTINUOUS
 10
13.9887938697
 20
9.4787287189
 11
13.9836619314
 21
9.4993117995
  0
LINE
  5
464
100
AcDbEntity
  8
0
100
AcDbLine
 62
7
  6
CONTINUOUS
 10
14.3791486223
 20
7.7862707391
 11
14.3747381493
 21
7.8070203832
  0
LINE
  5
465
100
AcDbEntity
  8
0
100
AcDbLine
 62
7
  6
CONTINUOUS
 10
14.0116356699
 20
9.5152832405
 11
14.0072251969
 21
9.5360328845
  0
LINE
  5
466
100
AcDbEntity
  8
0
100
AcDbLine
 62
7
  6
CONTINUOUS
 10
14.3426866972
 20
7.8102330759
 11
14.3390030631
 21
7.8311240031
  0
LINE
  5
467
100
AcDbEntity
  8
0
100
AcDbLine
 62
7
  6
CONTINUOUS
 10
14.0357392899
 20
9.5510183267
 11
14.0320556558
 21
9.5719092539
  0
LINE
  5
468
100
AcDbEntity
  8
0
100
AcDbLine
 62
7
  6
CONTINUOUS
 10
14.3070832573
 20
7.8354533184
 11
14.30413095
 21
7.8564600764
  0
LINE
  5
469
100
AcDbEntity
  8
0
100
AcDbLine
 62
7
  6
CONTINUOUS
 10
14.0610753632
 20
9.5858904398
 11
14.0581230559
 21
9.6068971978
  0
LINE
  5
46A
100
AcDbEntity
  8
0
100
AcDbLine
 62
7
  6
CONTINUOUS
 10
16.0874114796
 20
9.5360328845
 11
16.0830010066
 21
9.5152832405
  0
LINE
  5
46B
100
AcDbEntity
  8
0
100
AcDbLine
 62
7
  6
CONTINUOUS
 10
15.7198985272
 20
7.8070203832
 11
15.7154880543
 21
7.7862707391
  0
LINE
  5
46C
100
AcDbEntity
  8
0
100
AcDbLine
 62
7
  6
CONTINUOUS
 10
16.1109747452
 20
9.4993117995
 11
16.1058428068
 21
9.4787287189
  0
LINE
  5
46D
100
AcDbEntity
  8
0
100
AcDbLine
 62
7
  6
CONTINUOUS
 10
15.6833440057
 20
7.784178583
 11
15.6782120673
 21
7.7635955023
  0
LINE
  5
46E
100
AcDbEntity
  8
0
100
AcDbLine
 62
7
  6
CONTINUOUS
 10
16.1332421093
 20
9.461790738
 11
16.127394958
 21
9.4413992981
  0
LINE
  5
46F
100
AcDbEntity
  8
0
100
AcDbLine
 62
7
  6
CONTINUOUS
 10
15.6460145849
 20
7.7626264318
 11
15.6401674335
 21
7.7422349919
  0
LINE
  5
470
100
AcDbEntity
  8
0
100
AcDbLine
 62
7
  6
CONTINUOUS
 10
16.1541864425
 20
9.4235154134
 11
16.1476312022
 21
9.4033404581
  0
LINE
  5
471
100
AcDbEntity
  8
0
100
AcDbLine
 62
7
  6
CONTINUOUS
 10
15.6079557448
 20
7.7423901876
 11
15.6014005045
 21
7.7222152322
  0
LINE
  5
472
100
AcDbEntity
  8
0
100
AcDbLine
 62
7
  6
CONTINUOUS
 10
16.1737822275
 20
9.3845324585
 11
16.1665268846
 21
9.3645985677
  0
LINE
  5
473
100
AcDbEntity
  8
0
100
AcDbLine
 62
7
  6
CONTINUOUS
 10
15.5692138545
 20
7.7234945051
 11
15.5619585116
 21
7.7035606144
  0
LINE
  5
474
100
AcDbEntity
  8
0
100
AcDbLine
 62
7
  6
CONTINUOUS
 10
16.1920055898
 20
9.3448893678
 11
16.1840589839
 21
9.3252208281
  0
LINE
  5
475
100
AcDbEntity
  8
0
100
AcDbLine
 62
7
  6
CONTINUOUS
 10
15.5298361149
 20
7.7059624059
 11
15.521889509
 21
7.6862938662
  0
LINE
  5
476
100
AcDbEntity
  8
0
100
AcDbLine
 62
7
  6
CONTINUOUS
 10
16.2088343269
 20
9.3046344405
 11
16.2002061397
 21
9.2852552149
  0
LINE
  5
477
100
AcDbEntity
  8
0
100
AcDbLine
 62
7
  6
CONTINUOUS
 10
15.4898705017
 20
7.68981525
 11
15.4812423145
 21
7.6704360244
  0
LINE
  5
478
100
AcDbEntity
  8
0
100
AcDbLine
 62
7
  6
CONTINUOUS
 10
16.2242479357
 20
9.263816721
 11
16.2149486794
 21
9.2447504201
  0
LINE
  5
479
100
AcDbEntity
  8
0
100
AcDbLine
 62
7
  6
CONTINUOUS
 10
15.4493657068
 20
7.6750727104
 11
15.4400664505
 21
7.6560064094
  0
LINE
  5
47A
100
AcDbEntity
  8
0
100
AcDbLine
 62
7
  6
CONTINUOUS
 10
16.2382276371
 20
9.2224859393
 11
16.2282686414
 21
9.2037557924
  0
LINE
  5
47B
100
AcDbEntity
  8
0
100
AcDbLine
 62
7
  6
CONTINUOUS
 10
15.4083710792
 20
7.6617527484
 11
15.3984120834
 21
7.6430226015
  0
LINE
  5
47C
100
AcDbEntity
  8
0
100
AcDbLine
 62
7
  6
CONTINUOUS
 10
14.5853869492
 20
10.0042190401
 11
14.6047661749
 21
9.995590853
  0
LINE
  5
47D
100
AcDbEntity
  8
0
100
AcDbLine
 62
7
  6
CONTINUOUS
 10
16.2002061397
 20
9.2852552149
 11
16.2195853654
 21
9.2766270278
  0
LINE
  5
47E
100
AcDbEntity
  8
0
100
AcDbLine
 62
7
  6
CONTINUOUS
 10
14.6262046688
 20
10.0196326489
 11
14.6452709697
 21
10.0103333926
  0
LINE
  5
47F
100
AcDbEntity
  8
0
100
AcDbLine
 62
7
  6
CONTINUOUS
 10
16.2149486794
 20
9.2447504201
 11
16.2340149804
 21
9.2354511637
  0
LINE
  5
480
100
AcDbEntity
  8
0
100
AcDbLine
 62
7
  6
CONTINUOUS
 10
14.6675354504
 20
10.0336123504
 11
14.6862655974
 21
10.0236533546
  0
LINE
  5
481
100
AcDbEntity
  8
0
100
AcDbLine
 62
7
  6
CONTINUOUS
 10
16.2282686414
 20
9.2037557924
 11
16.2469987883
 21
9.1937967967
  0
LINE
  5
482
100
AcDbEntity
  8
0
100
AcDbLine
 62
7
  6
CONTINUOUS
 10
14.7093289391
 20
10.0461411122
 11
14.7277001121
 21
10.0355345105
  0
LINE
  5
483
100
AcDbEntity
  8
0
100
AcDbLine
 62
7
  6
CONTINUOUS
 10
16.2401497973
 20
9.1623212776
 11
16.2585209704
 21
9.1517146759
  0
LINE
  5
484
100
AcDbEntity
  8
0
100
AcDbLine
 62
7
  6
CONTINUOUS
 10
14.7515342157
 20
10.0572036702
 11
14.7695240325
 21
10.045962385
  0
LINE
  5
485
100
AcDbEntity
  8
0
100
AcDbLine
 62
7
  6
CONTINUOUS
 10
16.2505776718
 20
9.1204973573
 11
16.2685674886
 21
9.1092560721
  0
LINE
  5
486
100
AcDbEntity
  8
0
100
AcDbLine
 62
7
  6
CONTINUOUS
 10
14.7940998597
 20
10.0667865462
 11
14.8116864024
 21
10.0549242734
  0
LINE
  5
487
100
AcDbEntity
  8
0
100
AcDbLine
 62
7
  6
CONTINUOUS
 10
14.8369740115
 20
10.0748780651
 11
14.8541358536
 21
10.062409257
  0
LINE
  5
488
100
AcDbEntity
  8
0
100
AcDbLine
 62
7
  6
CONTINUOUS
 10
14.8801044354
 20
10.0814683685
 11
14.8968206678
 21
10.0684082164
  0
LINE
  5
489
100
AcDbEntity
  8
0
100
AcDbLine
 62
7
  6
CONTINUOUS
 10
14.9234385837
 20
10.0865494272
 11
14.9396888403
 21
10.0729138429
  0
LINE
  5
48A
100
AcDbEntity
  8
0
100
AcDbLine
 62
7
  6
CONTINUOUS
 10
15.8222549968
 20
9.8235053635
 11
15.8244723804
 21
9.8024083682
  0
LINE
  5
48B
100
AcDbEntity
  8
0
100
AcDbLine
 62
7
  6
CONTINUOUS
 10
16.007023655
 20
8.0655490094
 11
16.0092410386
 21
8.0444520141
  0
LINE
  5
48C
100
AcDbEntity
  8
0
100
AcDbLine
 62
7
  6
CONTINUOUS
 10
15.8560124334
 20
9.7958629859
 11
15.8574921916
 21
9.7747014568
  0
LINE
  5
48D
100
AcDbEntity
  8
0
100
AcDbLine
 62
7
  6
CONTINUOUS
 10
15.9793167435
 20
8.0325291981
 11
15.9807965018
 21
8.011367669
  0
LINE
  5
48E
100
AcDbEntity
  8
0
100
AcDbLine
 62
7
  6
CONTINUOUS
 10
15.9512146657
 20
7.979296178
 11
15.9504743356
 21
8.0004964589
  0
LINE
  5
48F
100
AcDbEntity
  8
0
100
AcDbLine
 62
7
  6
CONTINUOUS
 10
15.8895249309
 20
9.7458590488
 11
15.8887846008
 21
9.7670593297
  0
LINE
  5
490
100
AcDbEntity
  8
0
100
AcDbLine
 62
7
  6
CONTINUOUS
 10
15.9205315711
 20
7.9482766152
 11
15.9205315711
 21
7.9694898186
  0
LINE
  5
491
100
AcDbEntity
  8
0
100
AcDbLine
 62
7
  6
CONTINUOUS
 10
15.9205315711
 20
9.7159162844
 11
15.9205315711
 21
9.7371294878
  0
LINE
  5
492
100
AcDbEntity
  8
0
100
AcDbLine
 62
7
  6
CONTINUOUS
 10
15.8887846008
 20
7.9183467733
 11
15.8895249309
 21
7.9395470542
  0
LINE
  5
493
100
AcDbEntity
  8
0
100
AcDbLine
 62
7
  6
CONTINUOUS
 10
15.9504743356
 20
9.6849096441
 11
15.9512146657
 21
9.706109925
  0
LINE
  5
494
100
AcDbEntity
  8
0
100
AcDbLine
 62
7
  6
CONTINUOUS
 10
15.9807965018
 20
9.674038434
 11
15.9793167436
 21
9.6528769049
  0
LINE
  5
495
100
AcDbEntity
  8
0
100
AcDbLine
 62
7
  6
CONTINUOUS
 10
15.8574921916
 20
7.9107046462
 11
15.8560124334
 21
7.8895431171
  0
LINE
  5
496
100
AcDbEntity
  8
0
100
AcDbLine
 62
7
  6
CONTINUOUS
 10
16.0092410386
 20
9.6409540889
 11
16.007023655
 21
9.6198570936
  0
LINE
  5
497
100
AcDbEntity
  8
0
100
AcDbLine
 62
7
  6
CONTINUOUS
 10
15.8244723804
 20
7.8829977348
 11
15.8222549968
 21
7.8619007395
  0
LINE
  5
498
100
AcDbEntity
  8
0
100
AcDbLine
 62
7
  6
CONTINUOUS
 10
16.0365136207
 20
9.6068971978
 11
16.0335613134
 21
9.5858904398
  0
LINE
  5
499
100
AcDbEntity
  8
0
100
AcDbLine
 62
7
  6
CONTINUOUS
 10
15.7905057266
 20
7.8564600764
 11
15.7875534193
 21
7.8354533184
  0
LINE
  5
49A
100
AcDbEntity
  8
0
100
AcDbLine
 62
7
  6
CONTINUOUS
 10
16.0625810208
 20
9.5719092539
 11
16.0588973866
 21
9.5510183267
  0
LINE
  5
49B
100
AcDbEntity
  8
0
100
AcDbLine
 62
7
  6
CONTINUOUS
 10
15.7556336134
 20
7.8311240031
 11
15.7519499793
 21
7.8102330759
  0
LINE
  5
49C
100
AcDbEntity
  8
0
100
AcDbLine
 62
7
  6
CONTINUOUS
 10
10.8653981077
 20
-3.4975591407
 11
10.8794822546
 21
-3.4710707129
  0
LINE
  5
49D
100
AcDbEntity
  8
0
100
AcDbLine
 62
7
  6
CONTINUOUS
 10
11.215154422
 20
-2.8397631841
 11
11.2292385689
 21
-2.8132747563
  0
LINE
  5
49E
100
AcDbEntity
  8
0
100
AcDbLine
 62
7
  6
CONTINUOUS
 10
14.9669236604
 20
10.0901150507
 11
14.9826881427
 21
10.075920647
  0
LINE
  5
49F
100
AcDbEntity
  8
0
100
AcDbLine
 62
7
  6
CONTINUOUS
 10
15.0105066856
 20
10.0921608948
 11
15.0257661871
 21
10.0774249655
  0
LINE
  5
4A0
100
AcDbEntity
  8
0
100
AcDbLine
 62
7
  6
CONTINUOUS
 10
15.0541345601
 20
10.092684467
 11
15.0688704895
 21
10.0774249655
  0
LINE
  5
4A1
100
AcDbEntity
  8
0
100
AcDbLine
 62
7
  6
CONTINUOUS
 10
15.0977541302
 20
10.0916851294
 11
15.1119485338
 21
10.075920647
  0
LINE
  5
4A2
100
AcDbEntity
  8
0
100
AcDbLine
 62
7
  6
CONTINUOUS
 10
15.1413122519
 20
10.0891640995
 11
15.1549478363
 21
10.0729138429
  0
LINE
  5
4A3
100
AcDbEntity
  8
0
100
AcDbLine
 62
7
  6
CONTINUOUS
 10
15.1847558566
 20
10.0851244488
 11
15.1978160088
 21
10.0684082164
  0
LINE
  5
4A4
100
AcDbEntity
  8
0
100
AcDbLine
 62
7
  6
CONTINUOUS
 10
15.2280320149
 20
10.0795710991
 11
15.240500823
 21
10.062409257
  0
LINE
  5
4A5
100
AcDbEntity
  8
0
100
AcDbLine
 62
7
  6
CONTINUOUS
 10
15.2710880013
 20
10.0725108161
 11
15.2829502741
 21
10.0549242734
  0
LINE
  5
4A6
100
AcDbEntity
  8
0
100
AcDbLine
 62
7
  6
CONTINUOUS
 10
16.2643079676
 20
8.600001661
 11
16.271401833
 21
8.589484573
  0
LINE
  5
4A7
100
AcDbEntity
  8
0
100
AcDbLine
 62
7
  6
CONTINUOUS
 10
15.3138713589
 20
10.0639522018
 11
15.3251126441
 21
10.045962385
  0
LINE
  5
4A8
100
AcDbEntity
  8
0
100
AcDbLine
 62
7
  6
CONTINUOUS
 10
16.2505776718
 20
8.5649087457
 11
16.261818957
 21
8.5469189289
  0
LINE
  5
4A9
100
AcDbEntity
  8
0
100
AcDbLine
 62
7
  6
CONTINUOUS
 10
15.3563299627
 20
10.0539056836
 11
15.3669365644
 21
10.0355345105
  0
LINE
  5
4AA
100
AcDbEntity
  8
0
100
AcDbLine
 62
7
  6
CONTINUOUS
 10
16.2401497973
 20
8.5230848253
 11
16.250756399
 21
8.5047136523
  0
LINE
  5
4AB
100
AcDbEntity
  8
0
100
AcDbLine
 62
7
  6
CONTINUOUS
 10
15.3984120834
 20
10.0423835015
 11
15.4083710792
 21
10.0236533546
  0
LINE
  5
4AC
100
AcDbEntity
  8
0
100
AcDbLine
 62
7
  6
CONTINUOUS
 10
16.2282686414
 20
8.4816503106
 11
16.2382276371
 21
8.4629201637
  0
LINE
  5
4AD
100
AcDbEntity
  8
0
100
AcDbLine
 62
7
  6
CONTINUOUS
 10
15.4400664505
 20
10.0293996936
 11
15.4493657068
 21
10.0103333926
  0
LINE
  5
4AE
100
AcDbEntity
  8
0
100
AcDbLine
 62
7
  6
CONTINUOUS
 10
16.2149486794
 20
8.4406556829
 11
16.2242479357
 21
8.421589382
  0
LINE
  5
4AF
100
AcDbEntity
  8
0
100
AcDbLine
 62
7
  6
CONTINUOUS
 10
15.4812423145
 20
10.0149700786
 11
15.4898705017
 21
9.995590853
  0
LINE
  5
4B0
100
AcDbEntity
  8
0
100
AcDbLine
 62
7
  6
CONTINUOUS
 10
16.2002061397
 20
8.4001508881
 11
16.2088343269
 21
8.3807716624
  0
LINE
  5
4B1
100
AcDbEntity
  8
0
100
AcDbLine
 62
7
  6
CONTINUOUS
 10
15.521889509
 20
9.9991122368
 11
15.5298361149
 21
9.9794436971
  0
LINE
  5
4B2
100
AcDbEntity
  8
0
100
AcDbLine
 62
7
  6
CONTINUOUS
 10
16.1840589839
 20
8.3601852749
 11
16.1920055898
 21
8.3405167352
  0
LINE
  5
4B3
100
AcDbEntity
  8
0
100
AcDbLine
 62
7
  6
CONTINUOUS
 10
15.5619585116
 20
9.9818454886
 11
15.5692138545
 21
9.9619115978
  0
LINE
  5
4B4
100
AcDbEntity
  8
0
100
AcDbLine
 62
7
  6
CONTINUOUS
 10
16.1665268846
 20
8.3208075353
 11
16.1737822275
 21
8.3008736445
  0
LINE
  5
4B5
100
AcDbEntity
  8
0
100
AcDbLine
 62
7
  6
CONTINUOUS
 10
15.6014005045
 20
9.9631908708
 11
15.6079557448
 21
9.9430159154
  0
LINE
  5
4B6
100
AcDbEntity
  8
0
100
AcDbLine
 62
7
  6
CONTINUOUS
 10
16.1476312022
 20
8.2820656449
 11
16.1541864425
 21
8.2618906896
  0
LINE
  5
4B7
100
AcDbEntity
  8
0
100
AcDbLine
 62
7
  6
CONTINUOUS
 10
15.6401674335
 20
9.9431711111
 11
15.6460145849
 21
9.9227796712
  0
LINE
  5
4B8
100
AcDbEntity
  8
0
100
AcDbLine
 62
7
  6
CONTINUOUS
 10
16.127394958
 20
8.2440068049
 11
16.1332421093
 21
8.223615365
  0
LINE
  5
4B9
100
AcDbEntity
  8
0
100
AcDbLine
 62
7
  6
CONTINUOUS
 10
15.6782120673
 20
9.9218106007
 11
15.6833440057
 21
9.90122752
  0
LINE
  5
4BA
100
AcDbEntity
  8
0
100
AcDbLine
 62
7
  6
CONTINUOUS
 10
16.1058428068
 20
8.2066773841
 11
16.1109747452
 21
8.1860943034
  0
LINE
  5
4BB
100
AcDbEntity
  8
0
100
AcDbLine
 62
7
  6
CONTINUOUS
 10
15.7154880543
 20
9.8991353639
 11
15.7198985272
 21
9.8783857198
  0
LINE
  5
4BC
100
AcDbEntity
  8
0
100
AcDbLine
 62
7
  6
CONTINUOUS
 10
16.0830010066
 20
8.1701228625
 11
16.0874114796
 21
8.1493732185
  0
LINE
  5
4BD
100
AcDbEntity
  8
0
100
AcDbLine
 62
7
  6
CONTINUOUS
 10
15.7519499793
 20
9.8751730271
 11
15.7556336134
 21
9.8542820999
  0
LINE
  5
4BE
100
AcDbEntity
  8
0
100
AcDbLine
 62
7
  6
CONTINUOUS
 10
16.0588973866
 20
8.1343877763
 11
16.0625810208
 21
8.1134968491
  0
LINE
  5
4BF
100
AcDbEntity
  8
0
100
AcDbLine
 62
7
  6
CONTINUOUS
 10
15.7875534193
 20
9.8499527846
 11
15.7905057266
 21
9.8289460266
  0
LINE
  5
4C0
100
AcDbEntity
  8
0
100
AcDbLine
 62
7
  6
CONTINUOUS
 10
16.0335613134
 20
8.0995156632
 11
16.0365136207
 21
8.0785089052
  0
LINE
  5
4C1
100
AcDbEntity
  8
0
100
AcDbLine
 62
9
  6
CONTINUOUS
 10
17.8561102843
 20
8.5788125491
 11
17.8561103538
 21
9.1065935733
  0
LINE
  5
4C2
100
AcDbEntity
  8
0
100
AcDbLine
 62
7
  6
CONTINUOUS
 10
17.8973183383
 20
8.5841311897
 11
17.8973183383
 21
9.1012749134
  0
LINE
  5
4C3
100
AcDbEntity
  8
0
100
AcDbLine
 62
7
  6
CONTINUOUS
 10
10.7051761461
 20
-3.3373371791
 11
10.7316645738
 21
-3.3232530322
  0
LINE
  5
4C4
100
AcDbEntity
  8
0
100
AcDbLine
 62
7
  6
CONTINUOUS
 10
11.3629721027
 20
-2.9875808648
 11
11.3894605305
 21
-2.9734967179
  0
LINE
  5
4C5
100
AcDbEntity
  8
0
100
AcDbLine
 62
7
  6
CONTINUOUS
 10
10.6767502453
 20
-3.2687109841
 11
10.705439388
 21
-3.2599398329
  0
LINE
  5
4C6
100
AcDbEntity
  8
0
100
AcDbLine
 62
7
  6
CONTINUOUS
 10
11.3891972885
 20
-3.0508940641
 11
11.4178864312
 21
-3.0421229129
  0
ARC
  5
4C7
100
AcDbEntity
  8
0
100
AcDbCircle
 62
7
  6
CONTINUOUS
 10
4.2373183383
 20
8.5841311757
 40
0.04
100
AcDbArc
 50
180.0
 51
272.0094879445
  0
ARC
  5
4C8
100
AcDbEntity
  8
0
100
AcDbCircle
 62
7
  6
CONTINUOUS
 10
4.2373183383
 20
9.1012749273
 40
0.04
100
AcDbArc
 50
87.9905128562
 51
180.0
  0
ARC
  5
4C9
100
AcDbEntity
  8
0
100
AcDbCircle
 62
9
  6
CONTINUOUS
 10
7.0247095761
 20
8.8425457203
 40
0.434031148
100
AcDbArc
 50
155.7644333542
 51
179.979230891
  0
ARC
  5
4CA
100
AcDbEntity
  8
0
100
AcDbCircle
 62
7
  6
CONTINUOUS
 10
6.6795756148
 20
8.5747659519
 40
0.055
100
AcDbArc
 50
36.0763715983
 51
92.009553813
  0
ARC
  5
4CB
100
AcDbEntity
  8
0
100
AcDbCircle
 62
7
  6
CONTINUOUS
 10
6.6795756148
 20
9.1106401511
 40
0.055
100
AcDbArc
 50
267.990446187
 51
323.923269445
  0
ARC
  5
4CC
100
AcDbEntity
  8
0
100
AcDbCircle
 62
7
  6
CONTINUOUS
 10
7.0473183383
 20
8.8427030515
 40
1.25
100
AcDbArc
 50
162.3459382251
 51
163.6379098778
  0
ARC
  5
4CD
100
AcDbEntity
  8
0
100
AcDbCircle
 62
7
  6
CONTINUOUS
 10
7.0473183383
 20
8.8427030515
 40
1.25
100
AcDbArc
 50
136.3620901222
 51
137.6540617749
  0
ARC
  5
4CE
100
AcDbEntity
  8
0
100
AcDbCircle
 62
7
  6
CONTINUOUS
 10
7.0473183383
 20
8.8427030515
 40
1.25
100
AcDbArc
 50
102.3459382251
 51
103.6379098779
  0
ARC
  5
4CF
100
AcDbEntity
  8
0
100
AcDbCircle
 62
7
  6
CONTINUOUS
 10
7.0473183383
 20
8.8427030515
 40
1.25
100
AcDbArc
 50
76.3620901222
 51
77.6540617749
  0
ARC
  5
4D0
100
AcDbEntity
  8
0
100
AcDbCircle
 62
7
  6
CONTINUOUS
 10
7.0473183383
 20
8.8427030515
 40
1.25
100
AcDbArc
 50
42.3459382251
 51
43.6379098778
  0
ARC
  5
4D1
100
AcDbEntity
  8
0
100
AcDbCircle
 62
7
  6
CONTINUOUS
 10
7.0473183383
 20
8.8427030515
 40
1.25
100
AcDbArc
 50
16.3620901222
 51
17.6540617749
  0
ARC
  5
4D2
100
AcDbEntity
  8
0
100
AcDbCircle
 62
7
  6
CONTINUOUS
 10
7.0473183383
 20
8.8427030515
 40
1.25
100
AcDbArc
 50
342.3459382251
 51
343.6379098778
  0
ARC
  5
4D3
100
AcDbEntity
  8
0
100
AcDbCircle
 62
7
  6
CONTINUOUS
 10
7.0473183383
 20
8.8427030515
 40
1.25
100
AcDbArc
 50
316.3620901222
 51
317.6540617749
  0
ARC
  5
4D4
100
AcDbEntity
  8
0
100
AcDbCircle
 62
7
  6
CONTINUOUS
 10
7.0473183383
 20
8.8427030515
 40
1.25
100
AcDbArc
 50
282.3459382251
 51
283.6379098779
  0
ARC
  5
4D5
100
AcDbEntity
  8
0
100
AcDbCircle
 62
7
  6
CONTINUOUS
 10
7.0473183383
 20
8.8427030515
 40
1.25
100
AcDbArc
 50
256.3620901222
 51
257.6540617749
  0
ARC
  5
4D6
100
AcDbEntity
  8
0
100
AcDbCircle
 62
7
  6
CONTINUOUS
 10
7.0473183383
 20
8.8427030515
 40
1.25
100
AcDbArc
 50
222.3459382251
 51
223.6379098778
  0
ARC
  5
4D7
100
AcDbEntity
  8
0
100
AcDbCircle
 62
7
  6
CONTINUOUS
 10
7.0473183383
 20
8.8427030515
 40
1.25
100
AcDbArc
 50
196.3620901222
 51
197.6540617749
  0
ARC
  5
4D8
100
AcDbEntity
  8
0
100
AcDbCircle
 62
7
  6
CONTINUOUS
 10
7.0473183383
 20
8.8427030515
 40
1.25
100
AcDbArc
 50
33.6875658564
 51
42.3124341436
  0
ARC
  5
4D9
100
AcDbEntity
  8
0
100
AcDbCircle
 62
7
  6
CONTINUOUS
 10
7.0473183383
 20
8.8427030515
 40
1.25
100
AcDbArc
 50
26.3577692371
 51
33.6422307629
  0
ARC
  5
4DA
100
AcDbEntity
  8
0
100
AcDbCircle
 62
7
  6
CONTINUOUS
 10
7.0473183383
 20
8.8427030515
 40
1.25
100
AcDbArc
 50
17.6875658564
 51
26.3124341436
  0
ARC
  5
4DB
100
AcDbEntity
  8
0
100
AcDbCircle
 62
7
  6
CONTINUOUS
 10
7.0473183383
 20
8.8427030515
 40
1.25
100
AcDbArc
 50
343.6875658564
 51
16.3124341436
  0
ARC
  5
4DC
100
AcDbEntity
  8
0
100
AcDbCircle
 62
7
  6
CONTINUOUS
 10
7.0473183383
 20
8.8427030515
 40
1.25
100
AcDbArc
 50
333.6875658564
 51
342.3124341436
  0
ARC
  5
4DD
100
AcDbEntity
  8
0
100
AcDbCircle
 62
7
  6
CONTINUOUS
 10
7.0473183383
 20
8.8427030515
 40
1.25
100
AcDbArc
 50
326.3577692371
 51
333.6422307629
  0
ARC
  5
4DE
100
AcDbEntity
  8
0
100
AcDbCircle
 62
7
  6
CONTINUOUS
 10
7.0473183383
 20
8.8427030515
 40
1.25
100
AcDbArc
 50
317.6875658564
 51
326.3124341436
  0
ARC
  5
4DF
100
AcDbEntity
  8
0
100
AcDbCircle
 62
7
  6
CONTINUOUS
 10
7.0473183383
 20
8.8427030515
 40
1.25
100
AcDbArc
 50
283.6875658564
 51
316.3124341436
  0
ARC
  5
4E0
100
AcDbEntity
  8
0
100
AcDbCircle
 62
7
  6
CONTINUOUS
 10
7.0473183383
 20
8.8427030515
 40
1.25
100
AcDbArc
 50
273.6875658564
 51
282.3124341436
  0
ARC
  5
4E1
100
AcDbEntity
  8
0
100
AcDbCircle
 62
7
  6
CONTINUOUS
 10
7.0473183383
 20
8.8427030515
 40
1.25
100
AcDbArc
 50
266.3577692371
 51
273.6422307629
  0
ARC
  5
4E2
100
AcDbEntity
  8
0
100
AcDbCircle
 62
7
  6
CONTINUOUS
 10
7.0473183383
 20
8.8427030515
 40
1.25
100
AcDbArc
 50
257.6875658564
 51
266.3124341436
  0
ARC
  5
4E3
100
AcDbEntity
  8
0
100
AcDbCircle
 62
7
  6
CONTINUOUS
 10
7.0473183383
 20
8.8427030515
 40
1.25
100
AcDbArc
 50
223.6875658564
 51
256.3124341436
  0
ARC
  5
4E4
100
AcDbEntity
  8
0
100
AcDbCircle
 62
7
  6
CONTINUOUS
 10
7.0473183383
 20
8.8427030515
 40
1.25
100
AcDbArc
 50
213.6875658564
 51
222.3124341436
  0
ARC
  5
4E5
100
AcDbEntity
  8
0
100
AcDbCircle
 62
7
  6
CONTINUOUS
 10
7.0473183383
 20
8.8427030515
 40
1.25
100
AcDbArc
 50
206.3577692371
 51
213.6422307629
  0
ARC
  5
4E6
100
AcDbEntity
  8
0
100
AcDbCircle
 62
7
  6
CONTINUOUS
 10
7.0473183383
 20
8.8427030515
 40
1.25
100
AcDbArc
 50
197.6875658564
 51
206.3124341436
  0
ARC
  5
4E7
100
AcDbEntity
  8
0
100
AcDbCircle
 62
7
  6
CONTINUOUS
 10
7.0473183383
 20
8.8427030515
 40
1.25
100
AcDbArc
 50
191.2356207369
 51
196.3124341436
  0
ARC
  5
4E8
100
AcDbEntity
  8
0
100
AcDbCircle
 62
7
  6
CONTINUOUS
 10
7.0473183383
 20
8.8427030515
 40
1.25
100
AcDbArc
 50
163.6875658564
 51
168.7643792631
  0
ARC
  5
4E9
100
AcDbEntity
  8
0
100
AcDbCircle
 62
7
  6
CONTINUOUS
 10
7.0473183383
 20
8.8427030515
 40
1.25
100
AcDbArc
 50
153.6875658564
 51
162.3124341436
  0
ARC
  5
4EA
100
AcDbEntity
  8
0
100
AcDbCircle
 62
7
  6
CONTINUOUS
 10
7.0473183383
 20
8.8427030515
 40
1.25
100
AcDbArc
 50
146.3577692371
 51
153.6422307629
  0
ARC
  5
4EB
100
AcDbEntity
  8
0
100
AcDbCircle
 62
7
  6
CONTINUOUS
 10
7.0473183383
 20
8.8427030515
 40
1.25
100
AcDbArc
 50
137.6875658564
 51
146.3124341436
  0
ARC
  5
4EC
100
AcDbEntity
  8
0
100
AcDbCircle
 62
7
  6
CONTINUOUS
 10
7.0473183383
 20
8.8427030515
 40
1.25
100
AcDbArc
 50
103.6875658564
 51
136.3124341436
  0
ARC
  5
4ED
100
AcDbEntity
  8
0
100
AcDbCircle
 62
7
  6
CONTINUOUS
 10
7.0473183383
 20
8.8427030515
 40
1.25
100
AcDbArc
 50
93.6875658564
 51
102.3124341436
  0
ARC
  5
4EE
100
AcDbEntity
  8
0
100
AcDbCircle
 62
7
  6
CONTINUOUS
 10
7.0473183383
 20
8.8427030515
 40
1.25
100
AcDbArc
 50
86.3577692371
 51
93.6422307629
  0
ARC
  5
4EF
100
AcDbEntity
  8
0
100
AcDbCircle
 62
7
  6
CONTINUOUS
 10
7.0473183383
 20
8.8427030515
 40
1.25
100
AcDbArc
 50
77.6875658564
 51
86.3124341436
  0
ARC
  5
4F0
100
AcDbEntity
  8
0
100
AcDbCircle
 62
7
  6
CONTINUOUS
 10
7.0473183383
 20
8.8427030515
 40
1.25
100
AcDbArc
 50
43.6875658564
 51
76.3124341436
  0
ARC
  5
4F1
100
AcDbEntity
  8
0
100
AcDbCircle
 62
9
  6
CONTINUOUS
 10
7.0473183383
 20
8.8427030515
 40
1.175
100
AcDbArc
 50
191.8286451913
 51
168.1673655567
  0
ARC
  5
4F2
100
AcDbEntity
  8
0
100
AcDbCircle
 62
7
  6
CONTINUOUS
 10
7.0473183383
 20
8.8427030515
 40
1.075
100
AcDbArc
 50
192.7606441101
 51
167.2436249481
  0
ARC
  5
4F3
100
AcDbEntity
  8
0
100
AcDbCircle
 62
7
  6
CONTINUOUS
 10
7.0473183383
 20
8.8427030515
 40
1.025
100
AcDbArc
 50
193.2925804512
 51
166.7117119993
  0
ARC
  5
4F4
100
AcDbEntity
  8
0
100
AcDbCircle
 62
7
  6
CONTINUOUS
 10
7.0473183383
 20
8.8427030515
 40
0.95
100
AcDbArc
 50
194.197456337
 51
165.802543663
  0
ARC
  5
4F5
100
AcDbEntity
  8
0
100
AcDbCircle
 62
7
  6
CONTINUOUS
 10
7.0473183383
 20
8.8427030515
 40
0.85
100
AcDbArc
 50
195.6565256206
 51
164.3475602876
  0
ARC
  5
4F6
100
AcDbEntity
  8
0
100
AcDbCircle
 62
7
  6
CONTINUOUS
 10
7.0473183383
 20
8.8427030515
 40
0.75
100
AcDbArc
 50
197.5154694399
 51
162.4885153742
  0
ARC
  5
4F7
100
AcDbEntity
  8
0
100
AcDbCircle
 62
9
  6
CONTINUOUS
 10
7.0249773268
 20
8.8429167595
 40
0.4343021578
100
AcDbArc
 50
180.0281939601
 51
204.2278508015
  0
CIRCLE
  5
4F8
100
AcDbEntity
  8
0
100
AcDbCircle
 62
7
  6
CONTINUOUS
 10
7.0473183383
 20
8.8427030515
 40
0.4
  0
CIRCLE
  5
4F9
100
AcDbEntity
  8
0
100
AcDbCircle
 62
9
  6
CONTINUOUS
 10
7.0473183383
 20
8.8427030515
 40
0.3875
  0
CIRCLE
  5
4FA
100
AcDbEntity
  8
0
100
AcDbCircle
 62
7
  6
CONTINUOUS
 10
7.0473183383
 20
8.8427030515
 40
0.3125
  0
CIRCLE
  5
4FB
100
AcDbEntity
  8
0
100
AcDbCircle
 62
9
  6
CONTINUOUS
 10
7.0473183383
 20
8.8427030515
 40
0.2825
  0
CIRCLE
  5
4FC
100
AcDbEntity
  8
0
100
AcDbCircle
 62
7
  6
CONTINUOUS
 10
7.0473183383
 20
8.8427030515
 40
0.2625
  0
ARC
  5
4FD
100
AcDbEntity
  8
0
100
AcDbCircle
 62
7
  6
CONTINUOUS
 10
11.0172663383
 20
17.8447030515
 40
1.0775
100
AcDbArc
 50
143.6026297633
 51
171.3973702366
  0
ARC
  5
4FE
100
AcDbEntity
  8
0
100
AcDbCircle
 62
7
  6
CONTINUOUS
 10
11.0172663383
 20
17.8447030515
 40
1.0775
100
AcDbArc
 50
98.6026297633
 51
126.3973702367
  0
ARC
  5
4FF
100
AcDbEntity
  8
0
100
AcDbCircle
 62
7
  6
CONTINUOUS
 10
11.0172663383
 20
17.8447030515
 40
1.0775
100
AcDbArc
 50
53.6026297633
 51
81.3973702367
  0
ARC
  5
500
100
AcDbEntity
  8
0
100
AcDbCircle
 62
7
  6
CONTINUOUS
 10
11.0172663383
 20
17.8447030515
 40
1.0775
100
AcDbArc
 50
8.6026297634
 51
36.3973702367
  0
ARC
  5
501
100
AcDbEntity
  8
0
100
AcDbCircle
 62
7
  6
CONTINUOUS
 10
11.0172663383
 20
17.8447030515
 40
1.0775
100
AcDbArc
 50
278.6026297634
 51
306.3973702367
  0
ARC
  5
502
100
AcDbEntity
  8
0
100
AcDbCircle
 62
7
  6
CONTINUOUS
 10
11.0172663383
 20
17.8447030515
 40
1.0775
100
AcDbArc
 50
233.6026297633
 51
261.3973702366
  0
ARC
  5
503
100
AcDbEntity
  8
0
100
AcDbCircle
 62
7
  6
CONTINUOUS
 10
11.0172663383
 20
17.8447030515
 40
1.0775
100
AcDbArc
 50
188.6026297634
 51
216.3973702367
  0
ARC
  5
504
100
AcDbEntity
  8
0
100
AcDbCircle
 62
7
  6
CONTINUOUS
 10
11.0172663383
 20
17.8447030515
 40
1.0775
100
AcDbArc
 50
323.6026297633
 51
351.3973702366
  0
ARC
  5
505
100
AcDbEntity
  8
0
100
AcDbCircle
 62
7
  6
CONTINUOUS
 10
11.0172663383
 20
17.8447030515
 40
1.0125
100
AcDbArc
 50
310.3928158371
 51
319.6177863663
  0
ARC
  5
506
100
AcDbEntity
  8
0
100
AcDbCircle
 62
7
  6
CONTINUOUS
 10
11.0172663383
 20
17.8447030515
 40
1.0125
100
AcDbArc
 50
265.1712937536
 51
274.8536434713
  0
ARC
  5
507
100
AcDbEntity
  8
0
100
AcDbCircle
 62
7
  6
CONTINUOUS
 10
11.0172663383
 20
17.8447030515
 40
1.0125
100
AcDbArc
 50
220.4209241149
 51
229.6404082686
  0
ARC
  5
508
100
AcDbEntity
  8
0
100
AcDbCircle
 62
7
  6
CONTINUOUS
 10
11.0172663383
 20
17.8447030515
 40
1.0125
100
AcDbArc
 50
175.4769666401
 51
184.4871961562
  0
ARC
  5
509
100
AcDbEntity
  8
0
100
AcDbCircle
 62
7
  6
CONTINUOUS
 10
11.0172663383
 20
17.8447030515
 40
1.0125
100
AcDbArc
 50
130.3928158371
 51
139.6177863663
  0
ARC
  5
50A
100
AcDbEntity
  8
0
100
AcDbCircle
 62
7
  6
CONTINUOUS
 10
11.0172663383
 20
17.8447030515
 40
1.0125
100
AcDbArc
 50
85.1712937538
 51
94.8536434714
  0
ARC
  5
50B
100
AcDbEntity
  8
0
100
AcDbCircle
 62
7
  6
CONTINUOUS
 10
11.0172663383
 20
17.8447030515
 40
1.0125
100
AcDbArc
 50
40.4209241149
 51
49.6404082686
  0
ARC
  5
50C
100
AcDbEntity
  8
0
100
AcDbCircle
 62
7
  6
CONTINUOUS
 10
11.0172663383
 20
17.8447030515
 40
1.0125
100
AcDbArc
 50
355.4769666401
 51
4.4871961562
  0
CIRCLE
  5
50D
100
AcDbEntity
  8
0
100
AcDbCircle
 62
7
  6
CONTINUOUS
 10
11.0172663383
 20
17.8447030515
 40
0.935
  0
CIRCLE
  5
50E
100
AcDbEntity
  8
0
100
AcDbCircle
 62
9
  6
CONTINUOUS
 10
11.0172663383
 20
17.8447030515
 40
0.909136433
  0
ARC
  5
50F
100
AcDbEntity
  8
0
100
AcDbCircle
 62
7
  6
CONTINUOUS
 10
10.1687382009
 20
18.6932311889
 40
0.21
100
AcDbArc
 50
264.870833936
 51
5.1291660639
  0
ARC
  5
510
100
AcDbEntity
  8
0
100
AcDbCircle
 62
7
  6
CONTINUOUS
 10
11.0172663383
 20
19.0447030515
 40
0.21
100
AcDbArc
 50
219.8708339353
 51
320.1291660647
  0
ARC
  5
511
100
AcDbEntity
  8
0
100
AcDbCircle
 62
7
  6
CONTINUOUS
 10
11.0172663383
 20
16.6447030515
 40
0.21
100
AcDbArc
 50
39.8708339359
 51
140.1291660641
  0
ARC
  5
512
100
AcDbEntity
  8
0
100
AcDbCircle
 62
7
  6
CONTINUOUS
 10
10.1687382009
 20
16.9961749141
 40
0.21
100
AcDbArc
 50
354.8708339361
 51
95.129166064
  0
ARC
  5
513
100
AcDbEntity
  8
0
100
AcDbCircle
 62
7
  6
CONTINUOUS
 10
9.8172663383
 20
17.8447030515
 40
0.21
100
AcDbArc
 50
309.8708339358
 51
50.1291660642
  0
CIRCLE
  5
514
100
AcDbEntity
  8
0
100
AcDbCircle
 62
7
  6
CONTINUOUS
 10
11.0473183383
 20
-3.1554169485
 40
0.79
  0
CIRCLE
  5
515
100
AcDbEntity
  8
0
100
AcDbCircle
 62
7
  6
CONTINUOUS
 10
11.0473183383
 20
-0.1572969485
 40
0.656
  0
CIRCLE
  5
516
100
AcDbEntity
  8
0
100
AcDbCircle
 62
7
  6
CONTINUOUS
 10
11.0473183383
 20
-3.1554169485
 40
0.495
  0
CIRCLE
  5
517
100
AcDbEntity
  8
0
100
AcDbCircle
 62
9
  6
CONTINUOUS
 10
11.0473183383
 20
-3.1554169485
 40
0.49
  0
CIRCLE
  5
518
100
AcDbEntity
  8
0
100
AcDbCircle
 62
9
  6
CONTINUOUS
 10
11.0473183383
 20
-0.1572969485
 40
0.4795772124
  0
CIRCLE
  5
519
100
AcDbEntity
  8
0
100
AcDbCircle
 62
7
  6
CONTINUOUS
 10
11.0473183383
 20
-3.1554169485
 40
0.47
  0
CIRCLE
  5
51A
100
AcDbEntity
  8
0
100
AcDbCircle
 62
7
  6
CONTINUOUS
 10
11.0473183383
 20
-0.1572969485
 40
0.46875
  0
CIRCLE
  5
51B
100
AcDbEntity
  8
0
100
AcDbCircle
 62
7
  6
CONTINUOUS
 10
11.0473183383
 20
-3.1554169485
 40
0.4625
  0
CIRCLE
  5
51C
100
AcDbEntity
  8
0
100
AcDbCircle
 62
9
  6
CONTINUOUS
 10
11.0473183383
 20
-3.1554169485
 40
0.4272880871
  0
CIRCLE
  5
51D
100
AcDbEntity
  8
0
100
AcDbCircle
 62
9
  6
CONTINUOUS
 10
11.0473183383
 20
-3.1554169485
 40
0.4181683849
  0
CIRCLE
  5
51E
100
AcDbEntity
  8
0
100
AcDbCircle
 62
7
  6
CONTINUOUS
 10
11.0473183383
 20
-0.1572969485
 40
0.4
  0
CIRCLE
  5
51F
100
AcDbEntity
  8
0
100
AcDbCircle
 62
7
  6
CONTINUOUS
 10
11.0473183383
 20
-3.1554169485
 40
0.396
  0
CIRCLE
  5
520
100
AcDbEntity
  8
0
100
AcDbCircle
 62
7
  6
CONTINUOUS
 10
11.0473183383
 20
-3.1554169485
 40
0.395
  0
CIRCLE
  5
521
100
AcDbEntity
  8
0
100
AcDbCircle
 62
9
  6
CONTINUOUS
 10
11.0473183383
 20
-0.1572969485
 40
0.3875
  0
CIRCLE
  5
522
100
AcDbEntity
  8
0
100
AcDbCircle
 62
7
  6
CONTINUOUS
 10
11.0473183383
 20
-3.1554169485
 40
0.3875
  0
ARC
  5
523
100
AcDbEntity
  8
0
100
AcDbCircle
 62
7
  6
CONTINUOUS
 10
11.0473183383
 20
-3.1554169485
 40
0.375
100
AcDbArc
 50
196.9999999999
 51
208.0000000005
  0
ARC
  5
524
100
AcDbEntity
  8
0
100
AcDbCircle
 62
7
  6
CONTINUOUS
 10
11.0473183383
 20
-3.1554169485
 40
0.375
100
AcDbArc
 50
106.9999999998
 51
117.9999999998
  0
ARC
  5
525
100
AcDbEntity
  8
0
100
AcDbCircle
 62
7
  6
CONTINUOUS
 10
11.0473183383
 20
-3.1554169485
 40
0.375
100
AcDbArc
 50
152.0000000006
 51
162.9999999998
  0
ARC
  5
526
100
AcDbEntity
  8
0
100
AcDbCircle
 62
7
  6
CONTINUOUS
 10
11.0473183383
 20
-3.1554169485
 40
0.375
100
AcDbArc
 50
286.9999999998
 51
297.9999999998
  0
ARC
  5
527
100
AcDbEntity
  8
0
100
AcDbCircle
 62
7
  6
CONTINUOUS
 10
11.0473183383
 20
-3.1554169485
 40
0.375
100
AcDbArc
 50
16.9999999999
 51
28.0000000005
  0
ARC
  5
528
100
AcDbEntity
  8
0
100
AcDbCircle
 62
7
  6
CONTINUOUS
 10
11.0473183383
 20
-3.1554169485
 40
0.375
100
AcDbArc
 50
241.9999999999
 51
253.0000000001
  0
ARC
  5
529
100
AcDbEntity
  8
0
100
AcDbCircle
 62
7
  6
CONTINUOUS
 10
11.0473183383
 20
-3.1554169485
 40
0.375
100
AcDbArc
 50
332.0000000006
 51
342.9999999998
  0
ARC
  5
52A
100
AcDbEntity
  8
0
100
AcDbCircle
 62
7
  6
CONTINUOUS
 10
11.0473183383
 20
-3.1554169485
 40
0.375
100
AcDbArc
 50
61.9999999999
 51
73.0000000001
  0
ARC
  5
52B
100
AcDbEntity
  8
0
100
AcDbCircle
 62
7
  6
CONTINUOUS
 10
11.0473183383
 20
-3.1554169485
 40
0.3575
100
AcDbArc
 50
342.9999999998
 51
16.9999999998
  0
ARC
  5
52C
100
AcDbEntity
  8
0
100
AcDbCircle
 62
7
  6
CONTINUOUS
 10
11.0473183383
 20
-3.1554169485
 40
0.3575
100
AcDbArc
 50
297.9999999998
 51
332.0000000007
  0
ARC
  5
52D
100
AcDbEntity
  8
0
100
AcDbCircle
 62
7
  6
CONTINUOUS
 10
11.0473183383
 20
-3.1554169485
 40
0.3575
100
AcDbArc
 50
253.0000000001
 51
286.9999999998
  0
ARC
  5
52E
100
AcDbEntity
  8
0
100
AcDbCircle
 62
7
  6
CONTINUOUS
 10
11.0473183383
 20
-3.1554169485
 40
0.3575
100
AcDbArc
 50
208.0000000006
 51
241.9999999998
  0
ARC
  5
52F
100
AcDbEntity
  8
0
100
AcDbCircle
 62
7
  6
CONTINUOUS
 10
11.0473183383
 20
-3.1554169485
 40
0.3575
100
AcDbArc
 50
162.9999999998
 51
196.9999999998
  0
ARC
  5
530
100
AcDbEntity
  8
0
100
AcDbCircle
 62
7
  6
CONTINUOUS
 10
11.0473183383
 20
-3.1554169485
 40
0.3575
100
AcDbArc
 50
117.9999999998
 51
152.0000000007
  0
ARC
  5
531
100
AcDbEntity
  8
0
100
AcDbCircle
 62
7
  6
CONTINUOUS
 10
11.0473183383
 20
-3.1554169485
 40
0.3575
100
AcDbArc
 50
73.0000000001
 51
106.9999999998
  0
ARC
  5
532
100
AcDbEntity
  8
0
100
AcDbCircle
 62
7
  6
CONTINUOUS
 10
11.0473183383
 20
-3.1554169485
 40
0.3575
100
AcDbArc
 50
28.0000000006
 51
61.9999999998
  0
CIRCLE
  5
533
100
AcDbEntity
  8
0
100
AcDbCircle
 62
7
  6
CONTINUOUS
 10
11.0473183383
 20
-0.1572969485
 40
0.3125
  0
CIRCLE
  5
534
100
AcDbEntity
  8
0
100
AcDbCircle
 62
7
  6
CONTINUOUS
 10
11.0473183383
 20
-3.1554169485
 40
0.3125
  0
CIRCLE
  5
535
100
AcDbEntity
  8
0
100
AcDbCircle
 62
7
  6
CONTINUOUS
 10
11.0473183383
 20
-0.1572969485
 40
0.2625
  0
ARC
  5
536
100
AcDbEntity
  8
0
100
AcDbCircle
 62
7
  6
CONTINUOUS
 10
11.8657944757
 20
18.6932311889
 40
0.21
100
AcDbArc
 50
174.8708339361
 51
275.129166064
  0
ARC
  5
537
100
AcDbEntity
  8
0
100
AcDbCircle
 62
7
  6
CONTINUOUS
 10
11.8657944757
 20
16.9961749141
 40
0.21
100
AcDbArc
 50
84.870833936
 51
185.1291660639
  0
ARC
  5
538
100
AcDbEntity
  8
0
100
AcDbCircle
 62
7
  6
CONTINUOUS
 10
12.2172663383
 20
17.8447030515
 40
0.21
100
AcDbArc
 50
129.8708339358
 51
230.1291660642
  0
ARC
  5
539
100
AcDbEntity
  8
0
100
AcDbCircle
 62
9
  6
CONTINUOUS
 10
15.0696593701
 20
8.8424892554
 40
0.4343021578
100
AcDbArc
 50
0.0282055873
 51
24.2278625051
  0
ARC
  5
53A
100
AcDbEntity
  8
0
100
AcDbCircle
 62
7
  6
CONTINUOUS
 10
15.4150610617
 20
8.5747659519
 40
0.055
100
AcDbArc
 50
87.990446187
 51
143.923269445
  0
ARC
  5
53B
100
AcDbEntity
  8
0
100
AcDbCircle
 62
7
  6
CONTINUOUS
 10
15.0473183383
 20
8.8427030515
 40
1.25
100
AcDbArc
 50
342.3459382251
 51
343.6379098778
  0
ARC
  5
53C
100
AcDbEntity
  8
0
100
AcDbCircle
 62
7
  6
CONTINUOUS
 10
15.0473183383
 20
8.8427030515
 40
1.25
100
AcDbArc
 50
316.3620901222
 51
317.6540617749
  0
ARC
  5
53D
100
AcDbEntity
  8
0
100
AcDbCircle
 62
7
  6
CONTINUOUS
 10
15.0473183383
 20
8.8427030515
 40
1.25
100
AcDbArc
 50
282.3459382251
 51
283.6379098779
  0
ARC
  5
53E
100
AcDbEntity
  8
0
100
AcDbCircle
 62
7
  6
CONTINUOUS
 10
15.0473183383
 20
8.8427030515
 40
1.25
100
AcDbArc
 50
256.3620901222
 51
257.6540617749
  0
ARC
  5
53F
100
AcDbEntity
  8
0
100
AcDbCircle
 62
7
  6
CONTINUOUS
 10
15.0473183383
 20
8.8427030515
 40
1.25
100
AcDbArc
 50
222.3459382251
 51
223.6379098778
  0
ARC
  5
540
100
AcDbEntity
  8
0
100
AcDbCircle
 62
7
  6
CONTINUOUS
 10
15.0473183383
 20
8.8427030515
 40
1.25
100
AcDbArc
 50
196.3620901222
 51
197.6540617749
  0
ARC
  5
541
100
AcDbEntity
  8
0
100
AcDbCircle
 62
7
  6
CONTINUOUS
 10
15.0473183383
 20
8.8427030515
 40
1.25
100
AcDbArc
 50
162.3459382251
 51
163.6379098778
  0
ARC
  5
542
100
AcDbEntity
  8
0
100
AcDbCircle
 62
7
  6
CONTINUOUS
 10
15.0473183383
 20
8.8427030515
 40
1.25
100
AcDbArc
 50
136.3620901222
 51
137.6540617749
  0
ARC
  5
543
100
AcDbEntity
  8
0
100
AcDbCircle
 62
7
  6
CONTINUOUS
 10
15.0473183383
 20
8.8427030515
 40
1.25
100
AcDbArc
 50
102.3459382251
 51
103.6379098779
  0
ARC
  5
544
100
AcDbEntity
  8
0
100
AcDbCircle
 62
7
  6
CONTINUOUS
 10
15.0473183383
 20
8.8427030515
 40
1.25
100
AcDbArc
 50
76.3620901222
 51
77.6540617749
  0
ARC
  5
545
100
AcDbEntity
  8
0
100
AcDbCircle
 62
7
  6
CONTINUOUS
 10
15.0473183383
 20
8.8427030515
 40
1.25
100
AcDbArc
 50
42.3459382251
 51
43.6379098778
  0
ARC
  5
546
100
AcDbEntity
  8
0
100
AcDbCircle
 62
7
  6
CONTINUOUS
 10
15.0473183383
 20
8.8427030515
 40
1.25
100
AcDbArc
 50
16.3620901222
 51
17.6540617749
  0
ARC
  5
547
100
AcDbEntity
  8
0
100
AcDbCircle
 62
7
  6
CONTINUOUS
 10
15.0473183383
 20
8.8427030515
 40
1.25
100
AcDbArc
 50
213.6875658564
 51
222.3124341436
  0
ARC
  5
548
100
AcDbEntity
  8
0
100
AcDbCircle
 62
7
  6
CONTINUOUS
 10
15.0473183383
 20
8.8427030515
 40
1.25
100
AcDbArc
 50
206.3577692371
 51
213.6422307629
  0
ARC
  5
549
100
AcDbEntity
  8
0
100
AcDbCircle
 62
7
  6
CONTINUOUS
 10
15.0473183383
 20
8.8427030515
 40
1.25
100
AcDbArc
 50
197.6875658564
 51
206.3124341436
  0
ARC
  5
54A
100
AcDbEntity
  8
0
100
AcDbCircle
 62
7
  6
CONTINUOUS
 10
15.0473183383
 20
8.8427030515
 40
1.25
100
AcDbArc
 50
163.6875658564
 51
196.3124341436
  0
ARC
  5
54B
100
AcDbEntity
  8
0
100
AcDbCircle
 62
7
  6
CONTINUOUS
 10
15.0473183383
 20
8.8427030515
 40
1.25
100
AcDbArc
 50
153.6875658564
 51
162.3124341436
  0
ARC
  5
54C
100
AcDbEntity
  8
0
100
AcDbCircle
 62
7
  6
CONTINUOUS
 10
15.0473183383
 20
8.8427030515
 40
1.25
100
AcDbArc
 50
146.3577692371
 51
153.6422307629
  0
ARC
  5
54D
100
AcDbEntity
  8
0
100
AcDbCircle
 62
7
  6
CONTINUOUS
 10
15.0473183383
 20
8.8427030515
 40
1.25
100
AcDbArc
 50
137.6875658564
 51
146.3124341436
  0
ARC
  5
54E
100
AcDbEntity
  8
0
100
AcDbCircle
 62
7
  6
CONTINUOUS
 10
15.0473183383
 20
8.8427030515
 40
1.25
100
AcDbArc
 50
103.6875658564
 51
136.3124341436
  0
ARC
  5
54F
100
AcDbEntity
  8
0
100
AcDbCircle
 62
7
  6
CONTINUOUS
 10
15.0473183383
 20
8.8427030515
 40
1.25
100
AcDbArc
 50
93.6875658564
 51
102.3124341436
  0
ARC
  5
550
100
AcDbEntity
  8
0
100
AcDbCircle
 62
7
  6
CONTINUOUS
 10
15.0473183383
 20
8.8427030515
 40
1.25
100
AcDbArc
 50
86.3577692371
 51
93.6422307629
  0
ARC
  5
551
100
AcDbEntity
  8
0
100
AcDbCircle
 62
7
  6
CONTINUOUS
 10
15.0473183383
 20
8.8427030515
 40
1.25
100
AcDbArc
 50
77.6875658564
 51
86.3124341436
  0
ARC
  5
552
100
AcDbEntity
  8
0
100
AcDbCircle
 62
7
  6
CONTINUOUS
 10
15.0473183383
 20
8.8427030515
 40
1.25
100
AcDbArc
 50
43.6875658564
 51
76.3124341436
  0
ARC
  5
553
100
AcDbEntity
  8
0
100
AcDbCircle
 62
7
  6
CONTINUOUS
 10
15.0473183383
 20
8.8427030515
 40
1.25
100
AcDbArc
 50
33.6875658564
 51
42.3124341436
  0
ARC
  5
554
100
AcDbEntity
  8
0
100
AcDbCircle
 62
7
  6
CONTINUOUS
 10
15.0473183383
 20
8.8427030515
 40
1.25
100
AcDbArc
 50
26.3577692371
 51
33.6422307629
  0
ARC
  5
555
100
AcDbEntity
  8
0
100
AcDbCircle
 62
7
  6
CONTINUOUS
 10
15.0473183383
 20
8.8427030515
 40
1.25
100
AcDbArc
 50
17.6875658564
 51
26.3124341436
  0
ARC
  5
556
100
AcDbEntity
  8
0
100
AcDbCircle
 62
7
  6
CONTINUOUS
 10
15.0473183383
 20
8.8427030515
 40
1.25
100
AcDbArc
 50
11.2356207369
 51
16.3124341436
  0
ARC
  5
557
100
AcDbEntity
  8
0
100
AcDbCircle
 62
7
  6
CONTINUOUS
 10
15.0473183383
 20
8.8427030515
 40
1.25
100
AcDbArc
 50
343.6875658564
 51
348.7643792631
  0
ARC
  5
558
100
AcDbEntity
  8
0
100
AcDbCircle
 62
7
  6
CONTINUOUS
 10
15.0473183383
 20
8.8427030515
 40
1.25
100
AcDbArc
 50
333.6875658564
 51
342.3124341436
  0
ARC
  5
559
100
AcDbEntity
  8
0
100
AcDbCircle
 62
7
  6
CONTINUOUS
 10
15.0473183383
 20
8.8427030515
 40
1.25
100
AcDbArc
 50
326.3577692371
 51
333.6422307629
  0
ARC
  5
55A
100
AcDbEntity
  8
0
100
AcDbCircle
 62
7
  6
CONTINUOUS
 10
15.0473183383
 20
8.8427030515
 40
1.25
100
AcDbArc
 50
317.6875658564
 51
326.3124341436
  0
ARC
  5
55B
100
AcDbEntity
  8
0
100
AcDbCircle
 62
7
  6
CONTINUOUS
 10
15.0473183383
 20
8.8427030515
 40
1.25
100
AcDbArc
 50
283.6875658564
 51
316.3124341436
  0
ARC
  5
55C
100
AcDbEntity
  8
0
100
AcDbCircle
 62
7
  6
CONTINUOUS
 10
15.0473183383
 20
8.8427030515
 40
1.25
100
AcDbArc
 50
273.6875658564
 51
282.3124341436
  0
ARC
  5
55D
100
AcDbEntity
  8
0
100
AcDbCircle
 62
7
  6
CONTINUOUS
 10
15.0473183383
 20
8.8427030515
 40
1.25
100
AcDbArc
 50
266.3577692371
 51
273.6422307629
  0
ARC
  5
55E
100
AcDbEntity
  8
0
100
AcDbCircle
 62
7
  6
CONTINUOUS
 10
15.0473183383
 20
8.8427030515
 40
1.25
100
AcDbArc
 50
257.6875658564
 51
266.3124341436
  0
ARC
  5
55F
100
AcDbEntity
  8
0
100
AcDbCircle
 62
7
  6
CONTINUOUS
 10
15.0473183383
 20
8.8427030515
 40
1.25
100
AcDbArc
 50
223.6875658564
 51
256.3124341436
  0
ARC
  5
560
100
AcDbEntity
  8
0
100
AcDbCircle
 62
9
  6
CONTINUOUS
 10
15.0473183383
 20
8.8427030515
 40
1.175
100
AcDbArc
 50
11.8286451913
 51
348.1673655567
  0
ARC
  5
561
100
AcDbEntity
  8
0
100
AcDbCircle
 62
7
  6
CONTINUOUS
 10
15.0473183383
 20
8.8427030515
 40
1.075
100
AcDbArc
 50
12.7606441101
 51
347.2436249481
  0
ARC
  5
562
100
AcDbEntity
  8
0
100
AcDbCircle
 62
7
  6
CONTINUOUS
 10
15.0473183383
 20
8.8427030515
 40
1.025
100
AcDbArc
 50
13.2925804512
 51
346.7117119993
  0
ARC
  5
563
100
AcDbEntity
  8
0
100
AcDbCircle
 62
7
  6
CONTINUOUS
 10
15.0473183383
 20
8.8427030515
 40
0.95
100
AcDbArc
 50
14.197456337
 51
345.802543663
  0
ARC
  5
564
100
AcDbEntity
  8
0
100
AcDbCircle
 62
7
  6
CONTINUOUS
 10
15.0473183383
 20
8.8427030515
 40
0.85
100
AcDbArc
 50
15.6565256206
 51
344.3475602876
  0
ARC
  5
565
100
AcDbEntity
  8
0
100
AcDbCircle
 62
7
  6
CONTINUOUS
 10
15.0473183383
 20
8.8427030515
 40
0.75
100
AcDbArc
 50
17.5154694399
 51
342.4885153742
  0
ARC
  5
566
100
AcDbEntity
  8
0
100
AcDbCircle
 62
9
  6
CONTINUOUS
 10
15.0699270963
 20
8.8428603792
 40
0.434031148
100
AcDbArc
 50
335.7644340035
 51
359.9792313506
  0
CIRCLE
  5
567
100
AcDbEntity
  8
0
100
AcDbCircle
 62
7
  6
CONTINUOUS
 10
15.0473183383
 20
8.8427030515
 40
0.4
  0
CIRCLE
  5
568
100
AcDbEntity
  8
0
100
AcDbCircle
 62
9
  6
CONTINUOUS
 10
15.0473183383
 20
8.8427030515
 40
0.3875
  0
CIRCLE
  5
569
100
AcDbEntity
  8
0
100
AcDbCircle
 62
7
  6
CONTINUOUS
 10
15.0473183383
 20
8.8427030515
 40
0.3125
  0
CIRCLE
  5
56A
100
AcDbEntity
  8
0
100
AcDbCircle
 62
9
  6
CONTINUOUS
 10
15.0473183383
 20
8.8427030515
 40
0.2825
  0
CIRCLE
  5
56B
100
AcDbEntity
  8
0
100
AcDbCircle
 62
7
  6
CONTINUOUS
 10
15.0473183383
 20
8.8427030515
 40
0.2625
  0
ARC
  5
56C
100
AcDbEntity
  8
0
100
AcDbCircle
 62
7
  6
CONTINUOUS
 10
15.4150610617
 20
9.1106401511
 40
0.055
100
AcDbArc
 50
216.0763715983
 51
272.009553813
  0
ARC
  5
56D
100
AcDbEntity
  8
0
100
AcDbCircle
 62
7
  6
CONTINUOUS
 10
17.8573183383
 20
8.5841311757
 40
0.04
100
AcDbArc
 50
267.9905128562
 51
360.0
  0
ARC
  5
56E
100
AcDbEntity
  8
0
100
AcDbCircle
 62
7
  6
CONTINUOUS
 10
17.8573183383
 20
9.1012749273
 40
0.04
100
AcDbArc
 50
0.0
 51
92.0094879445
  0
SPLINE
  5
56F
100
AcDbEntity
  8
0
100
AcDbSpline
 62
9
  6
CONTINUOUS
 70
0
 71
3
 72
17
 73
13
 74
0
 42
0.0000001
 43
0.0000001
 44
0.0000000001
 40
0.0
 40
0.0
 40
0.0
 40
0.0
 40
0.1602628903
 40
0.3189857365
 40
0.4706838828
 40
0.6098452851
 40
0.7321259561
 40
0.78648011
 40
0.8362703177
 40
0.923429538
 40
0.9626197636
 40
1.0
 40
1.0
 40
1.0
 40
1.0
 10
15.4341976666
 20
9.0271345292
 30
0.0
 10
15.433907299
 20
9.0290127178
 30
0.0
 10
15.4332052457
 20
9.0327332458
 30
0.0
 10
15.4317695016
 20
9.0381332504
 30
0.0
 10
15.4299396269
 20
9.0431499427
 30
0.0
 10
15.4277757597
 20
9.0475580536
 30
0.0
 10
15.4256480562
 20
9.0506638554
 30
0.0
 10
15.423816834
 20
9.0526352347
 30
0.0
 10
15.4220941857
 20
9.0541148779
 30
0.0
 10
15.4202380667
 20
9.0551580781
 30
0.0
 10
15.4183460259
 20
9.0556329439
 30
0.0
 10
15.417433322
 20
9.0556892639
 30
0.0
 10
15.4169903167
 20
9.055673687
 30
0.0
  0
SPLINE
  5
570
100
AcDbEntity
  8
0
100
AcDbSpline
 62
9
  6
CONTINUOUS
 70
0
 71
3
 72
24
 73
20
 74
0
 42
0.0000001
 43
0.0000001
 44
0.0000000001
 40
0.0
 40
0.0
 40
0.0
 40
0.0
 40
0.1873029128
 40
0.3751136459
 40
0.466072747
 40
0.553280942
 40
0.6353509367
 40
0.7108958052
 40
0.7786741255
 40
0.838024618
 40
0.888431804
 40
0.9293822604
 40
0.9605371898
 40
0.9725403136
 40
0.9822495238
 40
0.9897360638
 40
0.9950809713
 40
0.9983985328
 40
1.0
 40
1.0
 40
1.0
 40
1.0
 10
15.465711162
 20
9.0207131075
 30
0.0
 10
15.4656359487
 20
9.0230037819
 30
0.0
 10
15.4654960764
 20
9.0275917003
 30
0.0
 10
15.4653504686
 20
9.0332929151
 30
0.0
 10
15.4652572325
 20
9.0377701968
 30
0.0
 10
15.4652017567
 20
9.0409540817
 30
0.0
 10
15.4651610538
 20
9.043949561
 30
0.0
 10
15.4651361498
 20
9.0467074552
 30
0.0
 10
15.4651281394
 20
9.0491874546
 30
0.0
 10
15.4651363741
 20
9.0513598453
 30
0.0
 10
15.4651598771
 20
9.053203887
 30
0.0
 10
15.465197511
 20
9.0547024752
 30
0.0
 10
15.465242897
 20
9.0557309843
 30
0.0
 10
15.4652884707
 20
9.0563760459
 30
0.0
 10
15.4653230153
 20
9.0567322934
 30
0.0
 10
15.4653576378
 20
9.0570044773
 30
0.0
 10
15.4653984525
 20
9.057201754
 30
0.0
 10
15.4654300181
 20
9.0573162235
 30
0.0
 10
15.4654724787
 20
9.0573751214
 30
0.0
 10
15.4654920629
 20
9.0573758065
 30
0.0
  0
SPLINE
  5
571
100
AcDbEntity
  8
0
100
AcDbSpline
 62
9
  6
CONTINUOUS
 70
0
 71
3
 72
9
 73
5
 74
0
 42
0.0000001
 43
0.0000001
 44
0.0000000001
 40
0.0
 40
0.0
 40
0.0
 40
0.0
 40
0.4999843841
 40
1.0
 40
1.0
 40
1.0
 40
1.0
 10
15.4657111711
 20
9.0207131078
 30
0.0
 10
15.8641019798
 20
9.0349320794
 30
0.0
 10
16.6608784217
 20
9.0642023648
 30
0.0
 10
17.4576797927
 20
9.0927968019
 30
0.0
 10
17.856110328
 20
9.1065945714
 30
0.0
  0
SPLINE
  5
572
100
AcDbEntity
  8
0
100
AcDbSpline
 62
9
  6
CONTINUOUS
 70
0
 71
3
 72
14
 73
10
 74
0
 42
0.0000001
 43
0.0000001
 44
0.0000000001
 40
0.0
 40
0.0
 40
0.0
 40
0.0
 40
0.2572098141
 40
0.3847760714
 40
0.5112583079
 40
0.6364175092
 40
0.7597807195
 40
0.8811127099
 40
1.0
 40
1.0
 40
1.0
 40
1.0
 10
15.370608041
 20
9.0782526353
 30
0.0
 10
15.3748073598
 20
9.0724894314
 30
0.0
 10
15.3814829464
 20
9.0641380249
 30
0.0
 10
15.3912350325
 20
9.0538427069
 30
0.0
 10
15.3989339374
 20
9.0466725979
 30
0.0
 10
15.4070246864
 20
9.0401265608
 30
0.0
 10
15.4155743746
 20
9.034431664
 30
0.0
 10
15.4245843065
 20
9.0298515403
 30
0.0
 10
15.4309703781
 20
9.0278052816
 30
0.0
 10
15.4341973825
 20
9.0271343793
 30
0.0
  0
LINE
  5
573
100
AcDbEntity
  8
0
100
AcDbLine
 62
9
  6
CONTINUOUS
 10
15.4341972681
 20
9.0271342221
 11
15.4657110756
 21
9.0207132918
  0
SPLINE
  5
574
100
AcDbEntity
  8
0
100
AcDbSpline
 62
9
  6
CONTINUOUS
 70
0
 71
3
 72
14
 73
10
 74
0
 42
0.0000001
 43
0.0000001
 44
0.0000000001
 40
0.0
 40
0.0
 40
0.0
 40
0.0
 40
0.1188839227
 40
0.2402227379
 40
0.3635870756
 40
0.4887451076
 40
0.61522915
 40
0.7427979537
 40
1.0
 40
1.0
 40
1.0
 40
1.0
 10
15.4341973553
 20
8.6582718071
 30
0.0
 10
15.4309704556
 20
8.6576008543
 30
0.0
 10
15.4245843523
 20
8.6555544346
 30
0.0
 10
15.4155741733
 20
8.6509745198
 30
0.0
 10
15.407024323
 20
8.6452794919
 30
0.0
 10
15.3989336837
 20
8.6387332384
 30
0.0
 10
15.3912347598
 20
8.6315630205
 30
0.0
 10
15.3814826806
 20
8.6212678261
 30
0.0
 10
15.3748070948
 20
8.6129165838
 30
0.0
 10
15.3706080441
 20
8.6071534481
 30
0.0
  0
LINE
  5
575
100
AcDbEntity
  8
0
100
AcDbLine
 62
9
  6
CONTINUOUS
 10
15.4657111386
 20
8.6646926427
 11
15.4341972312
 21
8.6582717194
  0
SPLINE
  5
576
100
AcDbEntity
  8
0
100
AcDbSpline
 62
9
  6
CONTINUOUS
 70
0
 71
3
 72
24
 73
20
 74
0
 42
0.0000001
 43
0.0000001
 44
0.0000000001
 40
0.0
 40
0.0
 40
0.0
 40
0.0
 40
0.1888642925
 40
0.3768280764
 40
0.4674954878
 40
0.5542732525
 40
0.6358630056
 40
0.7109667354
 40
0.7784160406
 40
0.8375610995
 40
0.8878829809
 40
0.9288647793
 40
0.9601526833
 40
0.9722429747
 40
0.9820418425
 40
0.9896119677
 40
0.9950256468
 40
0.9983879083
 40
1.0
 40
1.0
 40
1.0
 40
1.0
 10
17.8561109302
 20
9.1065935696
 30
0.0
 10
17.8560419277
 20
9.1087769741
 30
0.0
 10
17.8559137711
 20
9.1131336785
 30
0.0
 10
17.8557801689
 20
9.1185393318
 30
0.0
 10
17.8556948051
 20
9.1227649707
 30
0.0
 10
17.8556441039
 20
9.1257606693
 30
0.0
 10
17.855606908
 20
9.1285765362
 30
0.0
 10
17.8555841385
 20
9.1311689882
 30
0.0
 10
17.8555767716
 20
9.133501932
 30
0.0
 10
17.8555843019
 20
9.135548223
 30
0.0
 10
17.85560594
 20
9.1372883165
 30
0.0
 10
17.85564075
 20
9.1387057899
 30
0.0
 10
17.8556828663
 20
9.1396809429
 30
0.0
 10
17.85572527
 20
9.1402943107
 30
0.0
 10
17.855757526
 20
9.1406341536
 30
0.0
 10
17.8557899006
 20
9.1408942041
 30
0.0
 10
17.8558282022
 20
9.1410832823
 30
0.0
 10
17.8558577514
 20
9.1411926237
 30
0.0
 10
17.855897697
 20
9.1412496802
 30
0.0
 10
17.8559163313
 20
9.1412503475
 30
0.0
  0
SPLINE
  5
577
100
AcDbEntity
  8
0
100
AcDbSpline
 62
9
  6
CONTINUOUS
 70
0
 71
3
 72
9
 73
5
 74
0
 42
0.0000001
 43
0.0000001
 44
0.0000000001
 40
0.0
 40
0.0
 40
0.0
 40
0.0
 40
0.500015616
 40
1.0
 40
1.0
 40
1.0
 40
1.0
 10
17.8561103312
 20
8.5788115377
 30
0.0
 10
17.4576797985
 20
8.59260931
 30
0.0
 10
16.6608784332
 20
8.6212037638
 30
0.0
 10
15.8641019938
 20
8.6504739715
 30
0.0
 10
15.4657111897
 20
8.6646929969
 30
0.0
  0
SPLINE
  5
578
100
AcDbEntity
  8
0
100
AcDbSpline
 62
9
  6
CONTINUOUS
 70
0
 71
3
 72
17
 73
13
 74
0
 42
0.0000001
 43
0.0000001
 44
0.0000000001
 40
0.0
 40
0.0
 40
0.0
 40
0.0
 40
0.037380452
 40
0.0765709401
 40
0.1637307182
 40
0.2135211589
 40
0.2678754909
 40
0.3901563197
 40
0.5293175923
 40
0.6810153728
 40
0.8397376973
 40
1.0
 40
1.0
 40
1.0
 40
1.0
 10
15.4169901944
 20
8.6297323681
 30
0.0
 10
15.4174332028
 20
8.6297167978
 30
0.0
 10
15.4183459119
 20
8.6297731309
 30
0.0
 10
15.4202379601
 20
8.6302480213
 30
0.0
 10
15.4220940829
 20
8.6312912406
 30
0.0
 10
15.4238167349
 20
8.6327708992
 30
0.0
 10
15.4256479572
 20
8.6347422896
 30
0.0
 10
15.4277756592
 20
8.6378480976
 30
0.0
 10
15.4299395235
 20
8.6422562086
 30
0.0
 10
15.4317693932
 20
8.6472728932
 30
0.0
 10
15.4332051315
 20
8.6526728844
 30
0.0
 10
15.4339071808
 20
8.6563934021
 30
0.0
 10
15.4341975464
 20
8.6582715851
 30
0.0
  0
SPLINE
  5
579
100
AcDbEntity
  8
0
100
AcDbSpline
 62
9
  6
CONTINUOUS
 70
0
 71
3
 72
24
 73
20
 74
0
 42
0.0000001
 43
0.0000001
 44
0.0000000001
 40
0.0
 40
0.0
 40
0.0
 40
0.0
 40
0.0016014645
 40
0.0049190221
 40
0.0102639256
 40
0.0177504618
 40
0.0274596685
 40
0.039462789
 40
0.0706177129
 40
0.1115681652
 40
0.1619753488
 40
0.2213258404
 40
0.2891041616
 40
0.3646490325
 40
0.4467190309
 40
0.5339272304
 40
0.6248863364
 40
0.8126970794
 40
1.0
 40
1.0
 40
1.0
 40
1.0
 10
15.465492073
 20
8.6280302953
 30
0.0
 10
15.4654724889
 20
8.6280309803
 30
0.0
 10
15.4654300282
 20
8.6280898781
 30
0.0
 10
15.4653984626
 20
8.6282043474
 30
0.0
 10
15.4653576479
 20
8.6284016241
 30
0.0
 10
15.4653230254
 20
8.6286738078
 30
0.0
 10
15.4652884807
 20
8.6290300552
 30
0.0
 10
15.4652429071
 20
8.6296751168
 30
0.0
 10
15.4651975211
 20
8.6307036258
 30
0.0
 10
15.4651598872
 20
8.632202214
 30
0.0
 10
15.4651363841
 20
8.6340462558
 30
0.0
 10
15.4651281495
 20
8.6362186466
 30
0.0
 10
15.4651361599
 20
8.6386986463
 30
0.0
 10
15.4651610638
 20
8.6414565408
 30
0.0
 10
15.4652017668
 20
8.6444520205
 30
0.0
 10
15.4652572427
 20
8.6476359059
 30
0.0
 10
15.4653504788
 20
8.6521131882
 30
0.0
 10
15.4654960866
 20
8.6578144038
 30
0.0
 10
15.4656359589
 20
8.6624023228
 30
0.0
 10
15.4657111722
 20
8.6646929975
 30
0.0
  0
SPLINE
  5
57A
100
AcDbEntity
  8
0
100
AcDbSpline
 62
9
  6
CONTINUOUS
 70
0
 71
3
 72
24
 73
20
 74
0
 42
0.0000001
 43
0.0000001
 44
0.0000000001
 40
0.0
 40
0.0
 40
0.0
 40
0.0
 40
0.0016116834
 40
0.0049733688
 40
0.010386468
 40
0.0179560323
 40
0.0277543654
 40
0.0398441523
 40
0.0711311496
 40
0.1121122384
 40
0.1624336503
 40
0.2215784681
 40
0.2890277488
 40
0.3641316805
 40
0.4457218531
 40
0.5325002159
 40
0.6231683648
 40
0.8111338815
 40
1.0
 40
1.0
 40
1.0
 40
1.0
 10
17.8559163853
 20
8.5441557534
 30
0.0
 10
17.8558977553
 20
8.5441564105
 30
0.0
 10
17.8558577968
 20
8.54421345
 30
0.0
 10
17.8558282564
 20
8.5443227749
 30
0.0
 10
17.855789949
 20
8.544511832
 30
0.0
 10
17.8557575759
 20
8.5447718635
 30
0.0
 10
17.855725318
 20
8.5451116879
 30
0.0
 10
17.8556829132
 20
8.5457250336
 30
0.0
 10
17.8556407948
 20
8.5467001628
 30
0.0
 10
17.8556059831
 20
8.5481176134
 30
0.0
 10
17.8555843433
 20
8.549857692
 30
0.0
 10
17.8555768117
 20
8.5519039764
 30
0.0
 10
17.8555841773
 20
8.5542369215
 30
0.0
 10
17.855606946
 20
8.5568293828
 30
0.0
 10
17.8556441414
 20
8.5596452663
 30
0.0
 10
17.8556948425
 20
8.5626409879
 30
0.0
 10
17.8557802065
 20
8.5668666661
 30
0.0
 10
17.8559138097
 20
8.572272374
 30
0.0
 10
17.8560419676
 20
8.5766291235
 30
0.0
 10
17.8561109708
 20
8.578812551
 30
0.0
  0
SPLINE
  5
57B
100
AcDbEntity
  8
0
100
AcDbSpline
 62
9
  6
CONTINUOUS
 70
0
 71
3
 72
22
 73
18
 74
0
 42
0.0000001
 43
0.0000001
 44
0.0000000001
 40
0.0
 40
0.0
 40
0.0
 40
0.0
 40
0.1886696901
 40
0.3714387453
 40
0.5405495701
 40
0.6179785933
 40
0.6896737456
 40
0.7549705561
 40
0.8132210072
 40
0.8639027782
 40
0.9066673
 40
0.9412515142
 40
0.9676400012
 40
0.9779375014
 40
0.9865058252
 40
0.9936707025
 40
1.0
 40
1.0
 40
1.0
 40
1.0
 10
17.8561102893
 20
8.5788125709
 30
0.0
 10
17.8587655865
 20
8.5788051776
 30
0.0
 10
17.8639936049
 20
8.578859609
 30
0.0
 10
17.87159688
 20
8.5791405543
 30
0.0
 10
17.8776267888
 20
8.5795423021
 30
0.0
 10
17.88208588
 20
8.5799646726
 30
0.0
 10
17.8850837588
 20
8.5803125251
 30
0.0
 10
17.887804964
 20
8.5806962477
 30
0.0
 10
17.8902220471
 20
8.5811120824
 30
0.0
 10
17.892310927
 20
8.5815558996
 30
0.0
 10
17.8940531797
 20
8.5820214377
 30
0.0
 10
17.8954321885
 20
8.582503778
 30
0.0
 10
17.896339452
 20
8.5829449432
 30
0.0
 10
17.8968562705
 20
8.5833203259
 30
0.0
 10
17.8971155912
 20
8.5835822637
 30
0.0
 10
17.8972789318
 20
8.5838510171
 30
0.0
 10
17.8973183658
 20
8.5840421122
 30
0.0
 10
17.8973183382
 20
8.5841311897
 30
0.0
  0
SPLINE
  5
57C
100
AcDbEntity
  8
0
100
AcDbSpline
 62
9
  6
CONTINUOUS
 70
0
 71
3
 72
22
 73
18
 74
0
 42
0.0000001
 43
0.0000001
 44
0.0000000001
 40
0.0
 40
0.0
 40
0.0
 40
0.0
 40
0.1886692065
 40
0.3714374263
 40
0.5405469112
 40
0.6179754638
 40
0.6896704109
 40
0.7549670977
 40
0.8132173963
 40
0.8638994911
 40
0.9066645731
 40
0.941249198
 40
0.9676383407
 40
0.97793628
 40
0.9865050522
 40
0.9936703442
 40
1.0
 40
1.0
 40
1.0
 40
1.0
 10
17.8561103538
 20
9.1065935733
 30
0.0
 10
17.8587656676
 20
9.1066007111
 30
0.0
 10
17.8639937051
 20
9.1065463253
 30
0.0
 10
17.8715970228
 20
9.1062656979
 30
0.0
 10
17.8776269419
 20
9.1058638628
 30
0.0
 10
17.882086039
 20
9.1054414555
 30
0.0
 10
17.8850839318
 20
9.1050935993
 30
0.0
 10
17.887805155
 20
9.104709886
 30
0.0
 10
17.8902222616
 20
9.1042940616
 30
0.0
 10
17.8923111733
 20
9.1038502573
 30
0.0
 10
17.8940534637
 20
9.1033847302
 30
0.0
 10
17.8954325077
 20
9.1029023817
 30
0.0
 10
17.8963397966
 20
9.1024612009
 30
0.0
 10
17.8968566388
 20
9.1020858047
 30
0.0
 10
17.8971159772
 20
9.1018238544
 30
0.0
 10
17.8972793331
 20
9.1015550871
 30
0.0
 10
17.8973187746
 20
9.1013639805
 30
0.0
 10
17.8973187492
 20
9.1012748972
 30
0.0
  0
SPLINE
  5
57D
100
AcDbEntity
  8
0
100
AcDbSpline
 62
9
  6
CONTINUOUS
 70
0
 71
3
 72
17
 73
13
 74
0
 42
0.0000001
 43
0.0000001
 44
0.0000000001
 40
0.0
 40
0.0
 40
0.0
 40
0.0
 40
0.1602628434
 40
0.3189856582
 40
0.4706837915
 40
0.6098451974
 40
0.7321258854
 40
0.7864800505
 40
0.8362702702
 40
0.9234295143
 40
0.9626197517
 40
1.0
 40
1.0
 40
1.0
 40
1.0
 10
6.6604390099
 20
8.6582715738
 30
0.0
 10
6.6607293775
 20
8.6563933858
 30
0.0
 10
6.6614314306
 20
8.6526728586
 30
0.0
 10
6.6628671742
 20
8.6472728551
 30
0.0
 10
6.6646970485
 20
8.6422561631
 30
0.0
 10
6.6668609154
 20
8.637848052
 30
0.0
 10
6.6689886188
 20
8.6347422497
 30
0.0
 10
6.670819841
 20
8.6327708697
 30
0.0
 10
6.6725424896
 20
8.631291226
 30
0.0
 10
6.674398609
 20
8.6302480252
 30
0.0
 10
6.6762906503
 20
8.6297731591
 30
0.0
 10
6.6772033544
 20
8.6297168391
 30
0.0
 10
6.6776463599
 20
8.629732416
 30
0.0
  0
SPLINE
  5
57E
100
AcDbEntity
  8
0
100
AcDbSpline
 62
9
  6
CONTINUOUS
 70
0
 71
3
 72
24
 73
20
 74
0
 42
0.0000001
 43
0.0000001
 44
0.0000000001
 40
0.0
 40
0.0
 40
0.0
 40
0.0
 40
0.1873029128
 40
0.3751136459
 40
0.466072747
 40
0.553280942
 40
0.6353509367
 40
0.7108958052
 40
0.7786741255
 40
0.838024618
 40
0.888431804
 40
0.9293822604
 40
0.9605371898
 40
0.9725403136
 40
0.9822495238
 40
0.9897360638
 40
0.9950809713
 40
0.9983985328
 40
1.0
 40
1.0
 40
1.0
 40
1.0
 10
6.6289255146
 20
8.6646929955
 30
0.0
 10
6.6290007279
 20
8.6624023211
 30
0.0
 10
6.6291406001
 20
8.6578144027
 30
0.0
 10
6.6292862079
 20
8.6521131879
 30
0.0
 10
6.629379444
 20
8.6476359062
 30
0.0
 10
6.6294349198
 20
8.6444520213
 30
0.0
 10
6.6294756228
 20
8.641456542
 30
0.0
 10
6.6295005268
 20
8.6386986478
 30
0.0
 10
6.6295085372
 20
8.6362186484
 30
0.0
 10
6.6295003025
 20
8.6340462577
 30
0.0
 10
6.6294767995
 20
8.632202216
 30
0.0
 10
6.6294391656
 20
8.6307036278
 30
0.0
 10
6.6293937795
 20
8.6296751187
 30
0.0
 10
6.6293482059
 20
8.6290300571
 30
0.0
 10
6.6293136612
 20
8.6286738096
 30
0.0
 10
6.6292790387
 20
8.6284016257
 30
0.0
 10
6.6292382241
 20
8.628204349
 30
0.0
 10
6.6292066584
 20
8.6280898795
 30
0.0
 10
6.6291641978
 20
8.6280309816
 30
0.0
 10
6.6291446137
 20
8.6280302965
 30
0.0
  0
SPLINE
  5
57F
100
AcDbEntity
  8
0
100
AcDbSpline
 62
9
  6
CONTINUOUS
 70
0
 71
3
 72
9
 73
5
 74
0
 42
0.0000001
 43
0.0000001
 44
0.0000000001
 40
0.0
 40
0.0
 40
0.0
 40
0.0
 40
0.4999843841
 40
1.0
 40
1.0
 40
1.0
 40
1.0
 10
6.6289255054
 20
8.6646929952
 30
0.0
 10
6.2305346968
 20
8.6504740236
 30
0.0
 10
5.4337582549
 20
8.6212037382
 30
0.0
 10
4.6369568839
 20
8.592609301
 30
0.0
 10
4.2385263486
 20
8.5788115316
 30
0.0
  0
SPLINE
  5
580
100
AcDbEntity
  8
0
100
AcDbSpline
 62
9
  6
CONTINUOUS
 70
0
 71
3
 72
14
 73
10
 74
0
 42
0.0000001
 43
0.0000001
 44
0.0000000001
 40
0.0
 40
0.0
 40
0.0
 40
0.0
 40
0.2572098074
 40
0.3847760612
 40
0.5112582947
 40
0.6364174939
 40
0.7597807044
 40
0.8811126991
 40
1.0
 40
1.0
 40
1.0
 40
1.0
 10
6.7240286305
 20
8.6071534747
 30
0.0
 10
6.7198293128
 20
8.6129166794
 30
0.0
 10
6.7131537279
 20
8.6212680874
 30
0.0
 10
6.7034016437
 20
8.6315634074
 30
0.0
 10
6.69570274
 20
8.6387335179
 30
0.0
 10
6.6876119919
 20
8.6452795566
 30
0.0
 10
6.6790623042
 20
8.6509744548
 30
0.0
 10
6.6700523722
 20
8.6555545801
 30
0.0
 10
6.6636663001
 20
8.6576008396
 30
0.0
 10
6.6604392953
 20
8.6582717423
 30
0.0
  0
LINE
  5
581
100
AcDbEntity
  8
0
100
AcDbLine
 62
9
  6
CONTINUOUS
 10
6.6604394061
 20
8.6582718471
 11
6.6289255938
 21
8.6646927759
  0
SPLINE
  5
582
100
AcDbEntity
  8
0
100
AcDbSpline
 62
9
  6
CONTINUOUS
 70
0
 71
3
 72
14
 73
10
 74
0
 42
0.0000001
 43
0.0000001
 44
0.0000000001
 40
0.0
 40
0.0
 40
0.0
 40
0.0
 40
0.1188839285
 40
0.240222746
 40
0.3635870839
 40
0.4887451147
 40
0.6152291555
 40
0.7427979573
 40
1.0
 40
1.0
 40
1.0
 40
1.0
 10
6.6604393219
 20
9.0271342858
 30
0.0
 10
6.6636662218
 20
9.0278052388
 30
0.0
 10
6.6700523254
 20
9.029851659
 30
0.0
 10
6.6790625044
 20
9.0344315746
 30
0.0
 10
6.6876123545
 20
9.0401266034
 30
0.0
 10
6.6957029933
 20
9.0466728577
 30
0.0
 10
6.7034019165
 20
9.0538430763
 30
0.0
 10
6.7131539947
 20
9.0641382719
 30
0.0
 10
6.7198295797
 20
9.072489515
 30
0.0
 10
6.7240286298
 20
9.0782526511
 30
0.0
  0
LINE
  5
583
100
AcDbEntity
  8
0
100
AcDbLine
 62
9
  6
CONTINUOUS
 10
6.6289255379
 20
9.0207134603
 11
6.6604394454
 21
9.0271343836
  0
SPLINE
  5
584
100
AcDbEntity
  8
0
100
AcDbSpline
 62
9
  6
CONTINUOUS
 70
0
 71
3
 72
24
 73
20
 74
0
 42
0.0000001
 43
0.0000001
 44
0.0000000001
 40
0.0
 40
0.0
 40
0.0
 40
0.0
 40
0.1888642925
 40
0.3768280764
 40
0.4674954878
 40
0.5542732525
 40
0.6358630056
 40
0.7109667354
 40
0.7784160406
 40
0.8375610995
 40
0.8878829809
 40
0.9288647793
 40
0.9601526833
 40
0.9722429747
 40
0.9820418425
 40
0.9896119677
 40
0.9950256468
 40
0.9983879083
 40
1.0
 40
1.0
 40
1.0
 40
1.0
 10
4.2385257464
 20
8.5788125334
 30
0.0
 10
4.2385947489
 20
8.5766291289
 30
0.0
 10
4.2387229055
 20
8.5722724245
 30
0.0
 10
4.2388565077
 20
8.5668667712
 30
0.0
 10
4.2389418714
 20
8.5626411323
 30
0.0
 10
4.2389925726
 20
8.5596454337
 30
0.0
 10
4.2390297686
 20
8.5568295668
 30
0.0
 10
4.2390525381
 20
8.5542371148
 30
0.0
 10
4.2390599049
 20
8.551904171
 30
0.0
 10
4.2390523747
 20
8.54985788
 30
0.0
 10
4.2390307366
 20
8.5481177865
 30
0.0
 10
4.2389959265
 20
8.5467003131
 30
0.0
 10
4.2389538102
 20
8.5457251601
 30
0.0
 10
4.2389114066
 20
8.5451117923
 30
0.0
 10
4.2388791506
 20
8.5447719494
 30
0.0
 10
4.238846776
 20
8.5445118989
 30
0.0
 10
4.2388084744
 20
8.5443228207
 30
0.0
 10
4.2387789251
 20
8.5442134793
 30
0.0
 10
4.2387389795
 20
8.5441564228
 30
0.0
 10
4.2387203453
 20
8.5441557555
 30
0.0
  0
SPLINE
  5
585
100
AcDbEntity
  8
0
100
AcDbSpline
 62
9
  6
CONTINUOUS
 70
0
 71
3
 72
9
 73
5
 74
0
 42
0.0000001
 43
0.0000001
 44
0.0000000001
 40
0.0
 40
0.0
 40
0.0
 40
0.0
 40
0.500015616
 40
1.0
 40
1.0
 40
1.0
 40
1.0
 10
4.2385263453
 20
9.1065945653
 30
0.0
 10
4.6369568781
 20
9.092796793
 30
0.0
 10
5.4337582433
 20
9.0642023392
 30
0.0
 10
6.2305346828
 20
9.0349321315
 30
0.0
 10
6.6289254869
 20
9.0207131061
 30
0.0
  0
SPLINE
  5
586
100
AcDbEntity
  8
0
100
AcDbSpline
 62
9
  6
CONTINUOUS
 70
0
 71
3
 72
17
 73
13
 74
0
 42
0.0000001
 43
0.0000001
 44
0.0000000001
 40
0.0
 40
0.0
 40
0.0
 40
0.0
 40
0.037380452
 40
0.0765709401
 40
0.1637307182
 40
0.2135211589
 40
0.2678754909
 40
0.3901563197
 40
0.5293175923
 40
0.6810153728
 40
0.8397376973
 40
1.0
 40
1.0
 40
1.0
 40
1.0
 10
6.6776464822
 20
9.0556737349
 30
0.0
 10
6.6772034738
 20
9.0556893052
 30
0.0
 10
6.6762907646
 20
9.0556329721
 30
0.0
 10
6.6743987165
 20
9.0551580817
 30
0.0
 10
6.6725425937
 20
9.0541148624
 30
0.0
 10
6.6708199416
 20
9.0526352038
 30
0.0
 10
6.6689887194
 20
9.0506638134
 30
0.0
 10
6.6668610174
 20
9.0475580053
 30
0.0
 10
6.6646971531
 20
9.0431498944
 30
0.0
 10
6.6628672834
 20
9.0381332098
 30
0.0
 10
6.6614315451
 20
9.0327332186
 30
0.0
 10
6.6607294957
 20
9.0290127009
 30
0.0
 10
6.6604391301
 20
9.0271345179
 30
0.0
  0
SPLINE
  5
587
100
AcDbEntity
  8
0
100
AcDbSpline
 62
9
  6
CONTINUOUS
 70
0
 71
3
 72
24
 73
20
 74
0
 42
0.0000001
 43
0.0000001
 44
0.0000000001
 40
0.0
 40
0.0
 40
0.0
 40
0.0
 40
0.0016014645
 40
0.0049190221
 40
0.0102639256
 40
0.0177504618
 40
0.0274596685
 40
0.039462789
 40
0.0706177129
 40
0.1115681652
 40
0.1619753488
 40
0.2213258404
 40
0.2891041616
 40
0.3646490325
 40
0.4467190309
 40
0.5339272304
 40
0.6248863364
 40
0.8126970794
 40
1.0
 40
1.0
 40
1.0
 40
1.0
 10
6.6291446035
 20
9.0573758077
 30
0.0
 10
6.6291641877
 20
9.0573751227
 30
0.0
 10
6.6292066484
 20
9.0573162249
 30
0.0
 10
6.629238214
 20
9.0572017555
 30
0.0
 10
6.6292790286
 20
9.0570044789
 30
0.0
 10
6.6293136511
 20
9.0567322952
 30
0.0
 10
6.6293481958
 20
9.0563760478
 30
0.0
 10
6.6293937694
 20
9.0557309862
 30
0.0
 10
6.6294391555
 20
9.0547024772
 30
0.0
 10
6.6294767894
 20
9.053203889
 30
0.0
 10
6.6295002924
 20
9.0513598472
 30
0.0
 10
6.6295085271
 20
9.0491874564
 30
0.0
 10
6.6295005167
 20
9.0467074567
 30
0.0
 10
6.6294756127
 20
9.0439495621
 30
0.0
 10
6.6294349097
 20
9.0409540825
 30
0.0
 10
6.6293794339
 20
9.0377701971
 30
0.0
 10
6.6292861978
 20
9.0332929148
 30
0.0
 10
6.62914059
 20
9.0275916992
 30
0.0
 10
6.6290007177
 20
9.0230037802
 30
0.0
 10
6.6289255044
 20
9.0207131055
 30
0.0
  0
SPLINE
  5
588
100
AcDbEntity
  8
0
100
AcDbSpline
 62
9
  6
CONTINUOUS
 70
0
 71
3
 72
24
 73
20
 74
0
 42
0.0000001
 43
0.0000001
 44
0.0000000001
 40
0.0
 40
0.0
 40
0.0
 40
0.0
 40
0.0016116834
 40
0.0049733688
 40
0.010386468
 40
0.0179560323
 40
0.0277543654
 40
0.0398441523
 40
0.0711311496
 40
0.1121122384
 40
0.1624336503
 40
0.2215784681
 40
0.2890277488
 40
0.3641316805
 40
0.4457218531
 40
0.5325002159
 40
0.6231683648
 40
0.8111338815
 40
1.0
 40
1.0
 40
1.0
 40
1.0
 10
4.2387202913
 20
9.1412503496
 30
0.0
 10
4.2387389212
 20
9.1412496925
 30
0.0
 10
4.2387788798
 20
9.141192653
 30
0.0
 10
4.2388084202
 20
9.1410833281
 30
0.0
 10
4.2388467275
 20
9.140894271
 30
0.0
 10
4.2388791006
 20
9.1406342395
 30
0.0
 10
4.2389113585
 20
9.1402944151
 30
0.0
 10
4.2389537634
 20
9.1396810693
 30
0.0
 10
4.2389958817
 20
9.1387059402
 30
0.0
 10
4.2390306935
 20
9.1372884896
 30
0.0
 10
4.2390523332
 20
9.135548411
 30
0.0
 10
4.2390598649
 20
9.1335021266
 30
0.0
 10
4.2390524992
 20
9.1311691815
 30
0.0
 10
4.2390297306
 20
9.1285767202
 30
0.0
 10
4.2389925351
 20
9.1257608367
 30
0.0
 10
4.2389418341
 20
9.1227651151
 30
0.0
 10
4.2388564701
 20
9.1185394369
 30
0.0
 10
4.2387228669
 20
9.113133729
 30
0.0
 10
4.238594709
 20
9.1087769795
 30
0.0
 10
4.2385257057
 20
9.1065935519
 30
0.0
  0
SPLINE
  5
589
100
AcDbEntity
  8
0
100
AcDbSpline
 62
9
  6
CONTINUOUS
 70
0
 71
3
 72
22
 73
18
 74
0
 42
0.0000001
 43
0.0000001
 44
0.0000000001
 40
0.0
 40
0.0
 40
0.0
 40
0.0
 40
0.188669923
 40
0.3714391555
 40
0.5405501394
 40
0.6179792023
 40
0.689674353
 40
0.7549711338
 40
0.8132216071
 40
0.863903637
 40
0.9066685399
 40
0.941253022
 40
0.9676415207
 40
0.9779388771
 40
0.9865069128
 40
0.9936713268
 40
1.0
 40
1.0
 40
1.0
 40
1.0
 10
4.2385263873
 20
9.1065935321
 30
0.0
 10
4.23587109
 20
9.1066009951
 30
0.0
 10
4.2306430699
 20
9.1065466704
 30
0.0
 10
4.2230397946
 20
9.1062656876
 30
0.0
 10
4.217009899
 20
9.1058637727
 30
0.0
 10
4.2125508139
 20
9.1054413686
 30
0.0
 10
4.2095529361
 20
9.1050935383
 30
0.0
 10
4.2068317297
 20
9.1047098479
 30
0.0
 10
4.2044146443
 20
9.1042940201
 30
0.0
 10
4.2023257633
 20
9.103850173
 30
0.0
 10
4.2005835097
 20
9.1033845965
 30
0.0
 10
4.1992045027
 20
9.1029022291
 30
0.0
 10
4.1982972376
 20
9.1024610697
 30
0.0
 10
4.1977804138
 20
9.1020857063
 30
0.0
 10
4.1975210912
 20
9.1018237893
 30
0.0
 10
4.1973577472
 20
9.1015550612
 30
0.0
 10
4.1973183108
 20
9.1013639819
 30
0.0
 10
4.1973183383
 20
9.1012749133
 30
0.0
  0
SPLINE
  5
58A
100
AcDbEntity
  8
0
100
AcDbSpline
 62
9
  6
CONTINUOUS
 70
0
 71
3
 72
22
 73
18
 74
0
 42
0.0000001
 43
0.0000001
 44
0.0000000001
 40
0.0
 40
0.0
 40
0.0
 40
0.0
 40
0.1886692087
 40
0.3714374231
 40
0.5405473675
 40
0.6179761151
 40
0.6896711557
 40
0.7549678787
 40
0.8132182495
 40
0.8639005274
 40
0.906665859
 40
0.9412506781
 40
0.9676397504
 40
0.9779375127
 40
0.9865059954
 40
0.9936708714
 40
1.0
 40
1.0
 40
1.0
 40
1.0
 10
4.2385263227
 20
8.5788125297
 30
0.0
 10
4.2358710115
 20
8.5788053262
 30
0.0
 10
4.2306429769
 20
8.5788596035
 30
0.0
 10
4.2230396583
 20
8.5791402642
 30
0.0
 10
4.217009747
 20
8.579542267
 30
0.0
 10
4.2125506473
 20
8.5799647101
 30
0.0
 10
4.2095527505
 20
8.5803125462
 30
0.0
 10
4.2068315226
 20
8.5806962282
 30
0.0
 10
4.2044144119
 20
8.581112043
 30
0.0
 10
4.2023254999
 20
8.5815558721
 30
0.0
 10
4.2005832109
 20
8.582021433
 30
0.0
 10
4.1992041708
 20
8.5825038034
 30
0.0
 10
4.1982968825
 20
8.5829449783
 30
0.0
 10
4.1977800389
 20
8.5833203581
 30
0.0
 10
4.1975207012
 20
8.5835822909
 30
0.0
 10
4.1973573446
 20
8.583851037
 30
0.0
 10
4.1973179019
 20
8.58404213
 30
0.0
 10
4.1973179274
 20
8.5841312058
 30
0.0
  0
ENDSEC
  0
SECTION
  2
OBJECTS
  0
DICTIONARY
  5
C
100
AcDbDictionary
280
0
281
1
  3
ACAD_GROUP
350
D
  3
ACAD_MLINESTYLE
350
17
  3
ACAD_LAYOUT
350
1A
  3
ACAD_PLOTSETTINGS
350
19
  3
ACAD_PLOTSTYLENAME
350
E
  0
DICTIONARY
  5
D
102
{ACAD_REACTORS
330
C
102
}
100
AcDbDictionary
280
0
281
1
  0
ACDBDICTIONARYWDFLT
  5
E
102
{ACAD_REACTORS
330
C
102
}
100
AcDbDictionary
281
1
  3
Normal
350
F
100
AcDbDictionaryWithDefault
340
F
  0
DICTIONARY
  5
17
102
{ACAD_REACTORS
330
C
102
}
100
AcDbDictionary
280
0
281
1
  3
Standard
350
18
  0
DICTIONARY
  5
19
102
{ACAD_REACTORS
330
C
102
}
100
AcDbDictionary
281
1
  0
DICTIONARY
  5
1A
102
{ACAD_REACTORS
330
C
102
}
100
AcDbDictionary
281
1
  3
Model
350
58B
  3
Layout1
350
58C
  0
ACDBPLACEHOLDER
  5
F
102
{ACAD_REACTORS
330
E
102
}
  0
MLINESTYLE
  5
18
102
{ACAD_REACTORS
330
17
102
}
100
AcDbMlineStyle
  2
STANDARD
 70
0
  3

 62
256
 51
90.0
 52
90.0
 71
2
 49
0.5
 62
256
  6
BYLAYER
 49
-0.5
 62
256
  6
BYLAYER
  0
LAYOUT
  5
58B
102
{ACAD_REACTORS
330
1A
102
}
100
AcDbPlotSettings
  1

  2
none_device
  4
ANSI_C_(22.00_x_17.00_Inches)
  6

 40
0.0
 41
0.0
 42
0.0
 43
0.0
 44
558.8
 45
431.8
 46
0.0
 47
0.0
 48
0.0
 49
0.0
140
0.0
141
0.0
142
1.0
143
1.0
 70
1024
 72
0
 73
0
 74
0
  7

 75
0
147
1.0
148
0.0
149
0.0
100
AcDbLayout
  1
Model
 70
0
 71
0
 10
0.0
 20
0.0
 11
22.0
 21
17.0
 12
0.0
 22
0.0
 32
0.0
 14
0.0
 24
0.0
 34
0.0
 15
0.0
 25
0.0
 35
0.0
146
0.0
 13
0.0
 23
0.0
 33
0.0
 16
1.0
 26
0.0
 36
0.0
 17
0.0
 27
1.0
 37
0.0
 76
0
330
202
345
0
346
0
  0
LAYOUT
  5
58C
102
{ACAD_REACTORS
330
1A
102
}
100
AcDbPlotSettings
  1

  2
none_device
  4
ANSI_C_(22.00_x_17.00_Inches)
  6

 40
0.0
 41
0.0
 42
0.0
 43
0.0
 44
558.8
 45
431.8
 46
0.0
 47
0.0
 48
0.0
 49
0.0
140
0.0
141
0.0
142
1.0
143
1.0
 70
0
 72
0
 73
0
 74
0
  7

 75
0
147
1.0
148
0.0
149
0.0
100
AcDbLayout
  1
Layout1
 70
0
 71
1
 10
0.0
 20
0.0
 11
22.0
 21
17.0
 12
0.0
 22
0.0
 32
0.0
 14
0.0
 24
0.0
 34
0.0
 15
0.0
 25
0.0
 35
0.0
146
0.0
 13
0.0
 23
0.0
 33
0.0
 16
1.0
 26
0.0
 36
0.0
 17
0.0
 27
1.0
 37
0.0
 76
0
330
203
345
0
346
0
  0
ENDSEC
  0
EOF
