999
DXF file: 1668_right.dxf
999
Pro/ENGINEER 2018400 by Parametric Technology Corporation
  0
SECTION
  2
HEADER
  9
$ACADVER
  1
AC1027
  9
$DWGCODEPAGE
  3
ANSI_1252
  9
$EXTMAX
 10
11.0
 20
8.5
 30
0.0
  9
$EXTMIN
 10
0.0
 20
0.0
 30
0.0
  9
$LIMMIN
 10
0.0
 20
0.0
  9
$LIMMAX
 10
11.0
 20
8.5
  9
$VIEWCTR
 10
5.5
 20
4.25
  9
$VIEWSIZE
 40
8.5
  9
$CLAYER
  8
0
  9
$LTSCALE
 40
0.605
  9
$CELTYPE
  6
BYLAYER
  9
$DIMSCALE
 40
1.0
  9
$DIMASZ
 40
0.1
  9
$DIMEXO
 40
0.0625
  9
$DIMDLI
 40
0.418
  9
$DIMEXE
 40
0.125
  9
$DIMCEN
 40
0.099
  9
$DIMLFAC
 40
1.0
  9
$DIMBLK
  1
_FILLED
  9
$DIMALT
 70
1
  9
$DIMALTD
 70
1
  9
$DIMALTTD
 70
2
  9
$DIMALTF
 40
25.4
  9
$DIMTXT
 40
0.08
  9
$DIMTOL
 70
1
  9
$DIMLIM
 70
0
  9
$DIMTFAC
 40
1.0
  9
$DIMTP
 40
0.01
  9
$DIMTM
 40
0.01
  9
$DIMGAP
 40
0.09
  9
$DIMDSEP
 70
46
  9
$AUNITS
 70
0
  9
$PDMODE
 70
3
  9
$PDSIZE
 40
0.3125
  9
$HANDSEED
  5
3C4
  9
$TILEMODE
 70
1
  9
$MEASUREMENT
 70
0
  9
$INSUNITS
 70
1
  0
ENDSEC
  0
SECTION
  2
CLASSES
  0
CLASS
  1
ACDBDICTIONARYWDFLT
  2
AcDbDictionaryWithDefault
  3
AutoCAD 2000
 90
0
 91
1
280
0
281
0
  0
CLASS
  1
ACDBPLACEHOLDER
  2
AcDbPlaceHolder
  3
AutoCAD 2000
 90
0
 91
1
280
0
281
0
  0
CLASS
  1
LAYOUT
  2
AcDbLayout
  3
AutoCAD 2000
 90
0
 91
0
280
0
281
0
  0
ENDSEC
  0
SECTION
  2
TABLES
  0
TABLE
  2
VPORT
  5
8
100
AcDbSymbolTable
 70
2
  0
VPORT
  5
1F4
100
AcDbSymbolTableRecord
100
AcDbViewportTableRecord
  2
*ACTIVE
 70
0
 10
0.0
 20
0.0
 11
1.0
 21
1.0
 12
5.5
 22
4.25
 13
0.0
 23
0.0
 14
1.0
 24
1.0
 15
0.0
 25
0.0
 16
0.0
 26
0.0
 36
1.0
 17
0.0
 27
0.0
 37
0.0
 40
8.5
 41
1.2941176471
 42
50.0
 43
0.0
 44
0.0
 50
0.0
 51
0.0
 71
0
 72
100
 73
1
 74
1
 75
0
 76
0
 77
0
 78
0
  0
ENDTAB
  0
TABLE
  2
LTYPE
  5
5
100
AcDbSymbolTable
 70
6
  0
LTYPE
  5
14
100
AcDbSymbolTableRecord
100
AcDbLinetypeTableRecord
  2
BYBLOCK
 70
0
  3

 72
65
 73
0
 40
0.0
  0
LTYPE
  5
15
100
AcDbSymbolTableRecord
100
AcDbLinetypeTableRecord
  2
BYLAYER
 70
0
  3

 72
65
 73
0
 40
0.0
  0
LTYPE
  5
16
100
AcDbSymbolTableRecord
100
AcDbLinetypeTableRecord
  2
CONTINUOUS
 70
64
  3
Solid line
 72
65
 73
0
 40
0.0
  0
LTYPE
  5
1F5
100
AcDbSymbolTableRecord
100
AcDbLinetypeTableRecord
  2
CENTER
 70
64
  3
____ _ ____ _ ____ _ ____ _ ____ _ ____ _ ____
 72
65
 73
4
 40
0.6
 49
0.375
 74
0
 49
-0.075
 74
0
 49
0.075
 74
0
 49
-0.075
 74
0
  0
LTYPE
  5
1F6
100
AcDbSymbolTableRecord
100
AcDbLinetypeTableRecord
  2
HIDDEN
 70
64
  3
- - - - - - - - - - - - - - - - - - - -
 72
65
 73
2
 40
0.2
 49
0.1
 74
0
 49
-0.1
 74
0
  0
LTYPE
  5
1F7
100
AcDbSymbolTableRecord
100
AcDbLinetypeTableRecord
  2
PHANTOM
 70
64
  3
_____ _ _ _____ _ _ _____ _ _ _____
 72
65
 73
6
 40
0.8
 49
0.45
 74
0
 49
-0.05
 74
0
 49
0.1
 74
0
 49
-0.05
 74
0
 49
0.1
 74
0
 49
-0.05
 74
0
  0
LTYPE
  5
1F8
100
AcDbSymbolTableRecord
100
AcDbLinetypeTableRecord
  2
DOT
 70
64
  3
. . . . . . . . . . . . . . . . . . . .
 72
65
 73
2
 40
0.2
 49
0.1
 74
0
 49
-0.1
 74
0
  0
LTYPE
  5
1F9
100
AcDbSymbolTableRecord
100
AcDbLinetypeTableRecord
  2
DASHED
 70
64
  3
- - - - - - - - - - - - - - - - - - - -
 72
65
 73
2
 40
0.2
 49
0.1
 74
0
 49
-0.1
 74
0
  0
ENDTAB
  0
TABLE
  2
LAYER
  5
2
100
AcDbSymbolTable
 70
36
  0
LAYER
  5
10
100
AcDbSymbolTableRecord
100
AcDbLayerTableRecord
  2
0
 70
0
 62
7
  6
CONTINUOUS
370
-3
390
F
  0
LAYER
  5
1FA
100
AcDbSymbolTableRecord
100
AcDbLayerTableRecord
  2
DEFAULT_1
 70
0
 62
7
  6
CENTER
370
-3
390
F
  0
LAYER
  5
1FB
100
AcDbSymbolTableRecord
100
AcDbLayerTableRecord
  2
DEFAULT_2
 70
0
 62
8
  6
HIDDEN
370
-3
390
F
  0
LAYER
  5
1FC
100
AcDbSymbolTableRecord
100
AcDbLayerTableRecord
  2
DEFAULT_3
 70
0
 62
7
  6
PHANTOM
370
-3
390
F
  0
LAYER
  5
1FD
100
AcDbSymbolTableRecord
100
AcDbLayerTableRecord
  2
DEFAULT_COORDINATE_SYSTEM
 70
0
 62
7
  6
CONTINUOUS
370
-3
390
F
  0
LAYER
  5
1FE
100
AcDbSymbolTableRecord
100
AcDbLayerTableRecord
  2
DEFAULT_DATUM_AXES
 70
0
 62
7
  6
CONTINUOUS
370
-3
390
F
  0
LAYER
  5
1FF
100
AcDbSymbolTableRecord
100
AcDbLayerTableRecord
  2
DEFAULT_DATUM_PLANES
 70
0
 62
7
  6
CONTINUOUS
370
-3
390
F
  0
ENDTAB
  0
TABLE
  2
STYLE
  5
3
100
AcDbSymbolTable
 70
1
  0
STYLE
  5
11
100
AcDbSymbolTableRecord
100
AcDbTextStyleTableRecord
  2
STANDARD
 70
0
 40
0.0
 41
0.8
 50
0.0
 71
0
 42
0.2
  3
txt
  4

  0
STYLE
  5
200
100
AcDbSymbolTableRecord
100
AcDbTextStyleTableRecord
  2
TEXTSTYLE_1
 70
0
 40
0.0
 41
0.8
 50
0.0
 71
0
 42
0.2
  3
gdt
  4

  0
ENDTAB
  0
TABLE
  2
VIEW
  5
6
100
AcDbSymbolTable
 70
0
  0
ENDTAB
  0
TABLE
  2
UCS
  5
7
100
AcDbSymbolTable
 70
0
  0
ENDTAB
  0
TABLE
  2
APPID
  5
9
100
AcDbSymbolTable
 70
1
  0
APPID
  5
201
100
AcDbSymbolTableRecord
100
AcDbRegAppTableRecord
  2
ACAD
 70
0
  0
ENDTAB
  0
TABLE
  2
BLOCK_RECORD
  5
1
100
AcDbSymbolTable
 70
0
  0
BLOCK_RECORD
  5
202
100
AcDbSymbolTableRecord
100
AcDbBlockTableRecord
  2
*Model_Space
  0
BLOCK_RECORD
  5
203
100
AcDbSymbolTableRecord
100
AcDbBlockTableRecord
  2
*Paper_Space
  0
BLOCK_RECORD
  5
204
100
AcDbSymbolTableRecord
100
AcDbBlockTableRecord
  2
_FILLED
  0
ENDTAB
  0
TABLE
  2
DIMSTYLE
  5
A
100
AcDbSymbolTable
 70
1
100
AcDbDimStyleTable
 71
0
  0
DIMSTYLE
105
205
100
AcDbSymbolTableRecord
100
AcDbDimStyleTableRecord
  2
STANDARD
 70
0
  3

  4

 40
1.0
 41
0.1
 42
0.0625
 43
0.38
 44
0.125
 45
0.0
 46
0.0
 47
0.01
 48
0.01
140
0.08
141
0.09
142
0.0
143
25.4
144
1.0
145
0.0
146
1.0
147
0.09
 71
1.0
 72
0.0
 73
1
 74
1
 75
0
 76
0
 77
0
 78
4
 79
1
170
1
171
1
172
0
173
0
174
0
175
0
176
0
177
0
178
0
270
2
179
2
271
2
272
2
273
2
274
2
275
0
280
0
281
0
282
0
283
1
284
4
285
0
286
0
287
3
288
0
340
11
278
46
341
204
342
204
343
204
344
204
  0
ENDTAB
  0
ENDSEC
  0
SECTION
  2
BLOCKS
  0
BLOCK
  5
20
100
AcDbEntity
  8
0
100
AcDbBlockBegin
  2
*Model_Space
 70
0
 10
0.0
 20
0.0
 30
0.0
  3
*Model_Space
  1

  0
ENDBLK
  5
21
100
AcDbEntity
  8
0
100
AcDbBlockEnd
  0
BLOCK
  5
1C
100
AcDbEntity
  8
0
100
AcDbBlockBegin
  2
*Paper_Space
 70
0
 10
0.0
 20
0.0
 30
0.0
  3
*Paper_Space
  1

  0
ENDBLK
  5
1D
100
AcDbEntity
  8
0
100
AcDbBlockEnd
  0
BLOCK
  5
206
100
AcDbEntity
  8
0
100
AcDbBlockBegin
  2
_FILLED
 70
64
 10
0.0
 20
0.0
  3
_FILLED
  1

  0
SOLID
  5
207
100
AcDbEntity
  8
0
  6
BYBLOCK
 62
0
100
AcDbTrace
 10
0.0
 20
0.0
 11
-1.0
 21
0.2
 12
-1.0
 22
-0.2
 13
-1.0
 23
-0.2
  0
ENDBLK
  5
208
100
AcDbEntity
  8
0
  6
BYBLOCK
 62
0
100
AcDbBlockEnd
  0
ENDSEC
  0
SECTION
  2
ENTITIES
  0
MTEXT
  5
209
100
AcDbEntity
  8
0
100
AcDbMText
 62
2
  6
CONTINUOUS
  7
STANDARD
 71
3
 72
1
 10
5.2317001555
 20
0.660322205
 30
0.0
 11
1.0
 21
0.0
 31
0.0
 73
2
 44
0.9
  1
SCALE  .500
 40
0.08
 41
0.704
  0
LINE
  5
20A
100
AcDbEntity
  8
0
100
AcDbLine
 62
7
  6
CONTINUOUS
 10
0.0
 20
0.0
 11
0.0
 21
8.5
  0
LINE
  5
20B
100
AcDbEntity
  8
0
100
AcDbLine
 62
7
  6
CONTINUOUS
 10
0.0
 20
0.0
 11
11.0
 21
0.0
  0
LINE
  5
20C
100
AcDbEntity
  8
0
100
AcDbLine
 62
7
  6
CONTINUOUS
 10
0.0
 20
8.5
 11
11.0
 21
8.5
  0
LINE
  5
20D
100
AcDbEntity
  8
0
100
AcDbLine
 62
7
  6
CONTINUOUS
 10
11.0
 20
0.0
 11
11.0
 21
8.5
  0
LINE
  5
20E
100
AcDbEntity
  8
0
100
AcDbLine
 62
7
  6
CONTINUOUS
 10
6.5302057354
 20
0.9628532609
 11
5.4302057354
 21
0.9628532609
  0
LINE
  5
20F
100
AcDbEntity
  8
0
100
AcDbLine
 62
7
  6
CONTINUOUS
 10
5.4302057354
 20
1.069797532
 11
6.5302057354
 21
1.069797532
  0
LINE
  5
210
100
AcDbEntity
  8
0
100
AcDbLine
 62
7
  6
CONTINUOUS
 10
6.5062600631
 20
1.112472724
 11
5.4541514077
 21
1.112472724
  0
LINE
  5
211
100
AcDbEntity
  8
0
100
AcDbLine
 62
7
  6
CONTINUOUS
 10
5.6078415547
 20
1.2063046032
 11
6.3525699161
 21
1.2063046032
  0
LINE
  5
212
100
AcDbEntity
  8
0
100
AcDbLine
 62
7
  6
CONTINUOUS
 10
6.2927057354
 20
1.312992583
 11
5.6677057354
 21
1.312992583
  0
LINE
  5
213
100
AcDbEntity
  8
0
100
AcDbLine
 62
7
  6
CONTINUOUS
 10
3.2015997661
 20
6.3282974709
 11
3.2334573042
 21
6.3506043593
  0
LINE
  5
214
100
AcDbEntity
  8
0
100
AcDbLine
 62
7
  6
CONTINUOUS
 10
6.0018170582
 20
1.9446770275
 11
6.0048129468
 21
1.9448340353
  0
LINE
  5
215
100
AcDbEntity
  8
0
100
AcDbLine
 62
7
  6
CONTINUOUS
 10
6.0273049458
 20
1.9577718512
 11
6.0243090572
 21
1.9576148433
  0
LINE
  5
216
100
AcDbEntity
  8
0
100
AcDbLine
 62
7
  6
CONTINUOUS
 10
5.9962057354
 20
1.9328532609
 11
5.9829811132
 21
1.9328532609
  0
LINE
  5
217
100
AcDbEntity
  8
0
100
AcDbLine
 62
7
  6
CONTINUOUS
 10
5.9747057354
 20
1.9328532609
 11
5.9652057354
 21
1.9328532609
  0
LINE
  5
218
100
AcDbEntity
  8
0
100
AcDbLine
 62
7
  6
CONTINUOUS
 10
5.9844999697
 20
1.9423532609
 11
5.9731868789
 21
1.9423532609
  0
LINE
  5
219
100
AcDbEntity
  8
0
100
AcDbLine
 62
7
  6
CONTINUOUS
 10
5.974824745
 20
1.9468532609
 11
5.9828621036
 21
1.9468532609
  0
LINE
  5
21A
100
AcDbEntity
  8
0
100
AcDbLine
 62
7
  6
CONTINUOUS
 10
5.9774557354
 20
1.9628532609
 11
5.9839557354
 21
1.9628532609
  0
LINE
  5
21B
100
AcDbEntity
  8
0
100
AcDbLine
 62
7
  6
CONTINUOUS
 10
6.1102057354
 20
2.0778532609
 11
6.0752057354
 21
2.0778532609
  0
LINE
  5
21C
100
AcDbEntity
  8
0
100
AcDbLine
 62
7
  6
CONTINUOUS
 10
6.0702057354
 20
2.0778532609
 11
6.0377057354
 21
2.0778532609
  0
LINE
  5
21D
100
AcDbEntity
  8
0
100
AcDbLine
 62
7
  6
CONTINUOUS
 10
5.9632057354
 20
2.0778532609
 11
5.9432057354
 21
2.0778532609
  0
LINE
  5
21E
100
AcDbEntity
  8
0
100
AcDbLine
 62
7
  6
CONTINUOUS
 10
5.9207057354
 20
2.0778532609
 11
5.8932057354
 21
2.0778532609
  0
LINE
  5
21F
100
AcDbEntity
  8
0
100
AcDbLine
 62
7
  6
CONTINUOUS
 10
5.8542057354
 20
2.0778532609
 11
5.8217057354
 21
2.0778532609
  0
LINE
  5
220
100
AcDbEntity
  8
0
100
AcDbLine
 62
7
  6
CONTINUOUS
 10
3.1352909415
 20
6.0861328528
 11
3.1787029859
 21
6.3323347911
  0
LINE
  5
221
100
AcDbEntity
  8
0
100
AcDbLine
 62
7
  6
CONTINUOUS
 10
5.9331909656
 20
2.2866381104
 11
5.946030914
 21
2.2886717584
  0
LINE
  5
222
100
AcDbEntity
  8
0
100
AcDbLine
 62
7
  6
CONTINUOUS
 10
5.962110956
 20
2.2912185869
 11
5.9712169667
 21
2.2926608373
  0
LINE
  5
223
100
AcDbEntity
  8
0
100
AcDbLine
 62
7
  6
CONTINUOUS
 10
6.1000216702
 20
2.2418466254
 11
6.0980365779
 21
2.2416028867
  0
LINE
  5
224
100
AcDbEntity
  8
0
100
AcDbLine
 62
7
  6
CONTINUOUS
 10
6.1002057354
 20
2.0878532609
 11
6.1102057354
 21
2.0878532609
  0
LINE
  5
225
100
AcDbEntity
  8
0
100
AcDbLine
 62
7
  6
CONTINUOUS
 10
5.8657057354
 20
2.1003532609
 11
5.8592057354
 21
2.1003532609
  0
LINE
  5
226
100
AcDbEntity
  8
0
100
AcDbLine
 62
7
  6
CONTINUOUS
 10
5.9192006803
 20
2.1053532609
 11
5.9159557354
 21
2.1053532609
  0
LINE
  5
227
100
AcDbEntity
  8
0
100
AcDbLine
 62
7
  6
CONTINUOUS
 10
5.8542057354
 20
2.1088532609
 11
5.8499557354
 21
2.1088532609
  0
LINE
  5
228
100
AcDbEntity
  8
0
100
AcDbLine
 62
7
  6
CONTINUOUS
 10
5.9159557354
 20
2.1133532609
 11
5.9297057354
 21
2.1133532609
  0
LINE
  5
229
100
AcDbEntity
  8
0
100
AcDbLine
 62
7
  6
CONTINUOUS
 10
5.8499557354
 20
2.1168532609
 11
5.8542057354
 21
2.1168532609
  0
LINE
  5
22A
100
AcDbEntity
  8
0
100
AcDbLine
 62
7
  6
CONTINUOUS
 10
5.8592057354
 20
2.1253532609
 11
5.8657057354
 21
2.1253532609
  0
LINE
  5
22B
100
AcDbEntity
  8
0
100
AcDbLine
 62
7
  6
CONTINUOUS
 10
5.8713417153
 20
2.1353532609
 11
5.8474557354
 21
2.1353532609
  0
LINE
  5
22C
100
AcDbEntity
  8
0
100
AcDbLine
 62
7
  6
CONTINUOUS
 10
6.1102057354
 20
2.1403532609
 11
6.1002057354
 21
2.1403532609
  0
LINE
  5
22D
100
AcDbEntity
  8
0
100
AcDbLine
 62
7
  6
CONTINUOUS
 10
5.9297057354
 20
2.1403532609
 11
5.9159557354
 21
2.1403532609
  0
LINE
  5
22E
100
AcDbEntity
  8
0
100
AcDbLine
 62
7
  6
CONTINUOUS
 10
5.8234557354
 20
2.1478532609
 11
5.8769557354
 21
2.1478532609
  0
LINE
  5
22F
100
AcDbEntity
  8
0
100
AcDbLine
 62
7
  6
CONTINUOUS
 10
5.8932057354
 20
2.1478532609
 11
5.9372057354
 21
2.1478532609
  0
LINE
  5
230
100
AcDbEntity
  8
0
100
AcDbLine
 62
7
  6
CONTINUOUS
 10
6.0377057354
 20
2.1478532609
 11
6.0702057354
 21
2.1478532609
  0
LINE
  5
231
100
AcDbEntity
  8
0
100
AcDbLine
 62
7
  6
CONTINUOUS
 10
6.0752057354
 20
2.1478532609
 11
6.1102057354
 21
2.1478532609
  0
LINE
  5
232
100
AcDbEntity
  8
0
100
AcDbLine
 62
7
  6
CONTINUOUS
 10
5.9867268338
 20
2.26221097
 11
5.9767363516
 21
2.2626471639
  0
LINE
  5
233
100
AcDbEntity
  8
0
100
AcDbLine
 62
7
  6
CONTINUOUS
 10
5.9973279875
 20
2.2757614512
 11
5.986338457
 21
2.2762412645
  0
LINE
  5
234
100
AcDbEntity
  8
0
100
AcDbLine
 62
7
  6
CONTINUOUS
 10
5.9594101403
 20
1.933252194
 11
5.9510958857
 21
1.9350194434
  0
LINE
  5
235
100
AcDbEntity
  8
0
100
AcDbLine
 62
7
  6
CONTINUOUS
 10
5.9418034835
 20
1.9369946044
 11
5.9300657123
 21
1.9394895447
  0
LINE
  5
236
100
AcDbEntity
  8
0
100
AcDbLine
 62
7
  6
CONTINUOUS
 10
5.9433929161
 20
1.9490230768
 11
5.9421175684
 21
1.9492941603
  0
LINE
  5
237
100
AcDbEntity
  8
0
100
AcDbLine
 62
7
  6
CONTINUOUS
 10
5.9427638562
 20
1.9523347053
 11
5.9485882905
 21
1.9510966836
  0
LINE
  5
238
100
AcDbEntity
  8
0
100
AcDbLine
 62
7
  6
CONTINUOUS
 10
5.9509981718
 20
1.9624342837
 11
5.9451737375
 21
1.9636723054
  0
LINE
  5
239
100
AcDbEntity
  8
0
100
AcDbLine
 62
7
  6
CONTINUOUS
 10
5.936303063
 20
1.9688339727
 11
5.9548878674
 21
1.9648836506
  0
LINE
  5
23A
100
AcDbEntity
  8
0
100
AcDbLine
 62
7
  6
CONTINUOUS
 10
3.243007954
 20
6.4047687857
 11
3.2334573042
 21
6.3506043593
  0
LINE
  5
23B
100
AcDbEntity
  8
0
100
AcDbLine
 62
7
  6
CONTINUOUS
 10
5.6949137978
 20
2.5528532609
 11
5.6677057354
 21
2.5528532609
  0
LINE
  5
23C
100
AcDbEntity
  8
0
100
AcDbLine
 62
7
  6
CONTINUOUS
 10
6.265497673
 20
2.5528532609
 11
6.2927057354
 21
2.5528532609
  0
LINE
  5
23D
100
AcDbEntity
  8
0
100
AcDbLine
 62
7
  6
CONTINUOUS
 10
5.986476029
 20
2.2793921798
 11
5.9941226613
 21
2.2790583206
  0
LINE
  5
23E
100
AcDbEntity
  8
0
100
AcDbLine
 62
7
  6
CONTINUOUS
 10
5.9945454276
 20
2.2887412615
 11
5.9868987953
 21
2.2890751207
  0
LINE
  5
23F
100
AcDbEntity
  8
0
100
AcDbLine
 62
7
  6
CONTINUOUS
 10
5.9780449332
 20
2.2926186105
 11
5.9980258977
 21
2.2917462228
  0
LINE
  5
240
100
AcDbEntity
  8
0
100
AcDbLine
 62
7
  6
CONTINUOUS
 10
5.9334366037
 20
2.2643657944
 11
5.936409579
 21
2.2639640264
  0
LINE
  5
241
100
AcDbEntity
  8
0
100
AcDbLine
 62
7
  6
CONTINUOUS
 10
6.5062600631
 20
1.112472724
 11
6.3525699161
 21
1.2063046032
  0
LINE
  5
242
100
AcDbEntity
  8
0
100
AcDbLine
 62
7
  6
CONTINUOUS
 10
3.5906450908
 20
6.343470979
 11
3.581094441
 21
6.2893065526
  0
LINE
  5
243
100
AcDbEntity
  8
0
100
AcDbLine
 62
7
  6
CONTINUOUS
 10
3.5828860652
 20
6.0072097561
 11
3.6262981096
 21
6.2534116943
  0
LINE
  5
244
100
AcDbEntity
  8
0
100
AcDbLine
 62
7
  6
CONTINUOUS
 10
5.876203466
 20
2.7028532609
 11
5.6678431508
 21
2.7028532609
  0
LINE
  5
245
100
AcDbEntity
  8
0
100
AcDbLine
 62
7
  6
CONTINUOUS
 10
6.0842080048
 20
2.7028532609
 11
6.29256832
 21
2.7028532609
  0
LINE
  5
246
100
AcDbEntity
  8
0
100
AcDbLine
 62
7
  6
CONTINUOUS
 10
5.8987936677
 20
2.238496094
 11
5.8733936623
 21
2.2462570543
  0
LINE
  5
247
100
AcDbEntity
  8
0
100
AcDbLine
 62
7
  6
CONTINUOUS
 10
5.8694499806
 20
2.2542586968
 11
5.8948499861
 21
2.2464977365
  0
LINE
  5
248
100
AcDbEntity
  8
0
100
AcDbLine
 62
7
  6
CONTINUOUS
 10
5.9135093494
 20
1.945513875
 11
5.8978576851
 21
1.9524824449
  0
LINE
  5
249
100
AcDbEntity
  8
0
100
AcDbLine
 62
7
  6
CONTINUOUS
 10
5.9077565769
 20
1.9513590832
 11
5.9118675314
 21
1.9495287683
  0
LINE
  5
24A
100
AcDbEntity
  8
0
100
AcDbLine
 62
7
  6
CONTINUOUS
 10
5.9167483711
 20
1.9604913138
 11
5.9126374166
 21
1.9623216287
  0
LINE
  5
24B
100
AcDbEntity
  8
0
100
AcDbLine
 62
7
  6
CONTINUOUS
 10
5.9138576265
 20
1.9650622651
 11
5.9168266492
 21
1.963740371
  0
LINE
  5
24C
100
AcDbEntity
  8
0
100
AcDbLine
 62
7
  6
CONTINUOUS
 10
5.9206906474
 20
1.9724190528
 11
5.9177216246
 21
1.9737409469
  0
LINE
  5
24D
100
AcDbEntity
  8
0
100
AcDbLine
 62
7
  6
CONTINUOUS
 10
5.9100597844
 20
1.9798888087
 11
5.9249048981
 21
1.9732793382
  0
LINE
  5
24E
100
AcDbEntity
  8
0
100
AcDbLine
 62
7
  6
CONTINUOUS
 10
5.9802057354
 20
1.7520093426
 11
5.6677057354
 21
1.9324313017
  0
LINE
  5
24F
100
AcDbEntity
  8
0
100
AcDbLine
 62
7
  6
CONTINUOUS
 10
5.8685782794
 20
2.8368532609
 11
5.6682057354
 21
2.8368532609
  0
LINE
  5
250
100
AcDbEntity
  8
0
100
AcDbLine
 62
7
  6
CONTINUOUS
 10
6.0918331914
 20
2.8368532609
 11
6.2922057354
 21
2.8368532609
  0
LINE
  5
251
100
AcDbEntity
  8
0
100
AcDbLine
 62
7
  6
CONTINUOUS
 10
5.8667288871
 20
2.8693532609
 11
5.6682057354
 21
2.8693532609
  0
LINE
  5
252
100
AcDbEntity
  8
0
100
AcDbLine
 62
7
  6
CONTINUOUS
 10
6.0936825837
 20
2.8693532609
 11
6.2922057354
 21
2.8693532609
  0
LINE
  5
253
100
AcDbEntity
  8
0
100
AcDbLine
 62
7
  6
CONTINUOUS
 10
5.8657831503
 20
2.8859730161
 11
5.6729469287
 21
2.8859730161
  0
LINE
  5
254
100
AcDbEntity
  8
0
100
AcDbLine
 62
7
  6
CONTINUOUS
 10
6.0946283205
 20
2.8859730161
 11
6.2874645421
 21
2.8859730161
  0
LINE
  5
255
100
AcDbEntity
  8
0
100
AcDbLine
 62
7
  6
CONTINUOUS
 10
5.9249203584
 20
2.2723651412
 11
5.9263430763
 21
2.2717612332
  0
LINE
  5
256
100
AcDbEntity
  8
0
100
AcDbLine
 62
7
  6
CONTINUOUS
 10
6.0614711177
 20
2.2395514757
 11
6.0538313683
 21
2.2432776305
  0
LINE
  5
257
100
AcDbEntity
  8
0
100
AcDbLine
 62
7
  6
CONTINUOUS
 10
6.0452928248
 20
2.2474421564
 11
6.0345072963
 21
2.2527026101
  0
LINE
  5
258
100
AcDbEntity
  8
0
100
AcDbLine
 62
7
  6
CONTINUOUS
 10
6.0497449954
 20
2.2587288131
 11
6.048573112
 21
2.2593003789
  0
LINE
  5
259
100
AcDbEntity
  8
0
100
AcDbLine
 62
7
  6
CONTINUOUS
 10
6.0499357767
 20
2.2620942555
 11
6.0552876958
 21
2.2594839501
  0
LINE
  5
25A
100
AcDbEntity
  8
0
100
AcDbLine
 62
7
  6
CONTINUOUS
 10
6.060368807
 20
2.269901772
 11
6.0550168879
 21
2.2725120774
  0
LINE
  5
25B
100
AcDbEntity
  8
0
100
AcDbLine
 62
7
  6
CONTINUOUS
 10
6.0476584307
 20
2.2796664315
 11
6.0647355176
 21
2.2713373797
  0
LINE
  5
25C
100
AcDbEntity
  8
0
100
AcDbLine
 62
7
  6
CONTINUOUS
 10
5.8532512264
 20
3.1062007834
 11
5.7463013143
 21
3.1062007834
  0
LINE
  5
25D
100
AcDbEntity
  8
0
100
AcDbLine
 62
7
  6
CONTINUOUS
 10
6.1071602445
 20
3.1062007834
 11
6.2141101565
 21
3.1062007834
  0
LINE
  5
25E
100
AcDbEntity
  8
0
100
AcDbLine
 62
7
  6
CONTINUOUS
 10
5.8425814626
 20
3.2937041749
 11
5.7627057354
 21
3.2937041749
  0
LINE
  5
25F
100
AcDbEntity
  8
0
100
AcDbLine
 62
7
  6
CONTINUOUS
 10
6.1178300082
 20
3.2937041749
 11
6.1977057354
 21
3.2937041749
  0
LINE
  5
260
100
AcDbEntity
  8
0
100
AcDbLine
 62
7
  6
CONTINUOUS
 10
5.8417763177
 20
3.3078532609
 11
5.7781468886
 21
3.3078532609
  0
LINE
  5
261
100
AcDbEntity
  8
0
100
AcDbLine
 62
7
  6
CONTINUOUS
 10
6.1186351532
 20
3.3078532609
 11
6.1822645822
 21
3.3078532609
  0
LINE
  5
262
100
AcDbEntity
  8
0
100
AcDbLine
 62
7
  6
CONTINUOUS
 10
6.0682746267
 20
2.422850581
 11
6.2927057354
 21
2.29327522
  0
LINE
  5
263
100
AcDbEntity
  8
0
100
AcDbLine
 62
7
  6
CONTINUOUS
 10
5.9344557354
 20
2.106034099
 11
5.9557835677
 21
2.0902953572
  0
LINE
  5
264
100
AcDbEntity
  8
0
100
AcDbLine
 62
7
  6
CONTINUOUS
 10
6.0773691959
 20
2.2266590689
 11
6.0671250561
 21
2.2346626681
  0
LINE
  5
265
100
AcDbEntity
  8
0
100
AcDbLine
 62
7
  6
CONTINUOUS
 10
6.0952700337
 20
2.2464927371
 11
6.0916095446
 21
2.2493526246
  0
LINE
  5
266
100
AcDbEntity
  8
0
100
AcDbLine
 62
7
  6
CONTINUOUS
 10
6.085699464
 20
2.2539700856
 11
6.0820389749
 21
2.2568299731
  0
LINE
  5
267
100
AcDbEntity
  8
0
100
AcDbLine
 62
7
  6
CONTINUOUS
 10
6.0800788251
 20
2.2626126211
 11
6.1013551154
 21
2.2459897612
  0
LINE
  5
268
100
AcDbEntity
  8
0
100
AcDbLine
 62
7
  6
CONTINUOUS
 10
5.8769557354
 20
2.1478532609
 11
5.8867057354
 21
2.1378931042
  0
LINE
  5
269
100
AcDbEntity
  8
0
100
AcDbLine
 62
7
  6
CONTINUOUS
 10
5.9499409082
 20
1.9476222055
 11
5.9574058499
 21
1.9393491367
  0
LINE
  5
26A
100
AcDbEntity
  8
0
100
AcDbLine
 62
7
  6
CONTINUOUS
 10
5.9432057354
 20
2.0778532609
 11
5.9203449198
 21
2.104823166
  0
LINE
  5
26B
100
AcDbEntity
  8
0
100
AcDbLine
 62
7
  6
CONTINUOUS
 10
5.8801965853
 20
2.2249845227
 11
5.8781393369
 21
2.2278160822
  0
LINE
  5
26C
100
AcDbEntity
  8
0
100
AcDbLine
 62
7
  6
CONTINUOUS
 10
5.8646202761
 20
2.2464234731
 11
5.8625630277
 21
2.2492550326
  0
LINE
  5
26D
100
AcDbEntity
  8
0
100
AcDbLine
 62
7
  6
CONTINUOUS
 10
5.8782651377
 20
2.2344481388
 11
5.8709666113
 21
2.2444936986
  0
LINE
  5
26E
100
AcDbEntity
  8
0
100
AcDbLine
 62
7
  6
CONTINUOUS
 10
5.8733936623
 20
2.2462570543
 11
5.8806921887
 21
2.2362114945
  0
LINE
  5
26F
100
AcDbEntity
  8
0
100
AcDbLine
 62
7
  6
CONTINUOUS
 10
5.8870385238
 20
2.23428172
 11
5.8890957722
 21
2.2314501605
  0
LINE
  5
270
100
AcDbEntity
  8
0
100
AcDbLine
 62
7
  6
CONTINUOUS
 10
5.8812051245
 20
2.2584730708
 11
5.8791478761
 21
2.2613046302
  0
LINE
  5
271
100
AcDbEntity
  8
0
100
AcDbLine
 62
7
  6
CONTINUOUS
 10
5.8948499861
 20
2.2464977365
 11
5.8875514597
 21
2.2565432962
  0
LINE
  5
272
100
AcDbEntity
  8
0
100
AcDbLine
 62
7
  6
CONTINUOUS
 10
5.8899785106
 20
2.258306652
 11
5.897277037
 21
2.2482610922
  0
LINE
  5
273
100
AcDbEntity
  8
0
100
AcDbLine
 62
7
  6
CONTINUOUS
 10
5.888047063
 20
2.267770268
 11
5.8901043114
 21
2.2649387085
  0
LINE
  5
274
100
AcDbEntity
  8
0
100
AcDbLine
 62
7
  6
CONTINUOUS
 10
5.9036233722
 20
2.2463313177
 11
5.9056806206
 21
2.2434997582
  0
LINE
  5
275
100
AcDbEntity
  8
0
100
AcDbLine
 62
7
  6
CONTINUOUS
 10
5.9506086213
 20
2.2590228423
 11
5.9364604389
 21
2.2823755318
  0
LINE
  5
276
100
AcDbEntity
  8
0
100
AcDbLine
 62
7
  6
CONTINUOUS
 10
5.944565991
 20
2.2815408549
 11
5.9505097832
 21
2.2717301576
  0
LINE
  5
277
100
AcDbEntity
  8
0
100
AcDbLine
 62
7
  6
CONTINUOUS
 10
5.9631853789
 20
2.261014805
 11
5.9544575782
 21
2.2754207276
  0
LINE
  5
278
100
AcDbEntity
  8
0
100
AcDbLine
 62
7
  6
CONTINUOUS
 10
5.9543587401
 20
2.288128043
 11
5.9630865408
 21
2.2737221204
  0
LINE
  5
279
100
AcDbEntity
  8
0
100
AcDbLine
 62
7
  6
CONTINUOUS
 10
5.9510958857
 20
1.9350194434
 11
5.9437297035
 21
1.9487701076
  0
LINE
  5
27A
100
AcDbEntity
  8
0
100
AcDbLine
 62
7
  6
CONTINUOUS
 10
3.6034013294
 20
6.2574490145
 11
3.581094441
 21
6.2893065526
  0
LINE
  5
27B
100
AcDbEntity
  8
0
100
AcDbLine
 62
7
  6
CONTINUOUS
 10
6.0557595827
 20
2.2557854511
 11
6.0610013473
 21
2.2459521949
  0
LINE
  5
27C
100
AcDbEntity
  8
0
100
AcDbLine
 62
7
  6
CONTINUOUS
 10
5.9112214757
 20
2.2462227548
 11
5.9095357461
 21
2.2503950822
  0
LINE
  5
27D
100
AcDbEntity
  8
0
100
AcDbLine
 62
7
  6
CONTINUOUS
 10
5.9011070977
 20
2.2712567189
 11
5.8999832779
 21
2.2740382705
  0
LINE
  5
27E
100
AcDbEntity
  8
0
100
AcDbLine
 62
7
  6
CONTINUOUS
 10
5.9099532654
 20
2.2533658864
 11
5.90347113
 21
2.2694097345
  0
LINE
  5
27F
100
AcDbEntity
  8
0
100
AcDbLine
 62
7
  6
CONTINUOUS
 10
5.9097294115
 20
2.2715047556
 11
5.9114151412
 21
2.2673324282
  0
LINE
  5
280
100
AcDbEntity
  8
0
100
AcDbLine
 62
7
  6
CONTINUOUS
 10
5.9140373874
 20
2.2608421412
 11
5.9160977236
 21
2.25574263
  0
LINE
  5
281
100
AcDbEntity
  8
0
100
AcDbLine
 62
7
  6
CONTINUOUS
 10
5.9263430763
 20
2.2717612332
 11
5.9278521517
 21
2.2680261406
  0
LINE
  5
282
100
AcDbEntity
  8
0
100
AcDbLine
 62
7
  6
CONTINUOUS
 10
5.9849042819
 20
1.9412424222
 11
5.9844999697
 21
1.9423532609
  0
LINE
  5
283
100
AcDbEntity
  8
0
100
AcDbLine
 62
7
  6
CONTINUOUS
 10
5.9828621036
 20
1.9468532609
 11
5.9788434243
 21
1.9578944916
  0
LINE
  5
284
100
AcDbEntity
  8
0
100
AcDbLine
 62
7
  6
CONTINUOUS
 10
5.9839557354
 20
1.9628532609
 11
5.9915880975
 21
1.9418835185
  0
LINE
  5
285
100
AcDbEntity
  8
0
100
AcDbLine
 62
7
  6
CONTINUOUS
 10
6.0411618626
 20
1.9466394005
 11
6.0390945824
 21
1.9538488633
  0
LINE
  5
286
100
AcDbEntity
  8
0
100
AcDbLine
 62
7
  6
CONTINUOUS
 10
5.6685450976
 20
2.4525788971
 11
5.6809353842
 21
2.3009133613
  0
LINE
  5
287
100
AcDbEntity
  8
0
100
AcDbLine
 62
7
  6
CONTINUOUS
 10
5.4302057354
 20
0.9628532609
 11
5.4302057354
 21
1.069797532
  0
LINE
  5
288
100
AcDbEntity
  8
0
100
AcDbLine
 62
7
  6
CONTINUOUS
 10
6.0589162425
 20
1.9795510574
 11
6.0609835227
 21
1.9723415947
  0
LINE
  5
289
100
AcDbEntity
  8
0
100
AcDbLine
 62
7
  6
CONTINUOUS
 10
6.0538313683
 20
2.2432776305
 11
6.05001058
 21
2.258401882
  0
LINE
  5
28A
100
AcDbEntity
  8
0
100
AcDbLine
 62
7
  6
CONTINUOUS
 10
5.933660269
 20
2.2836750454
 11
5.9331909656
 21
2.2866381104
  0
LINE
  5
28B
100
AcDbEntity
  8
0
100
AcDbLine
 62
7
  6
CONTINUOUS
 10
5.8416031671
 20
3.4938532609
 11
5.9183338921
 21
2.4128532609
  0
LINE
  5
28C
100
AcDbEntity
  8
0
100
AcDbLine
 62
7
  6
CONTINUOUS
 10
5.8289599114
 20
3.5330803332
 11
5.8927057354
 21
2.4128532609
  0
LINE
  5
28D
100
AcDbEntity
  8
0
100
AcDbLine
 62
7
  6
CONTINUOUS
 10
5.6677057354
 20
1.312992583
 11
5.6677057354
 21
2.5528532609
  0
LINE
  5
28E
100
AcDbEntity
  8
0
100
AcDbLine
 62
7
  6
CONTINUOUS
 10
5.6682057354
 20
2.8693532609
 11
5.6682057354
 21
2.8368532609
  0
LINE
  5
28F
100
AcDbEntity
  8
0
100
AcDbLine
 62
7
  6
CONTINUOUS
 10
5.8037057354
 20
3.3078532609
 11
5.8037057354
 21
6.1498532609
  0
LINE
  5
290
100
AcDbEntity
  8
0
100
AcDbLine
 62
7
  6
CONTINUOUS
 10
5.8217057354
 20
2.0778532609
 11
5.8217057354
 21
2.0878532609
  0
LINE
  5
291
100
AcDbEntity
  8
0
100
AcDbLine
 62
7
  6
CONTINUOUS
 10
5.8234557354
 20
2.1403532609
 11
5.8234557354
 21
2.1478532609
  0
LINE
  5
292
100
AcDbEntity
  8
0
100
AcDbLine
 62
7
  6
CONTINUOUS
 10
5.8309557354
 20
2.0982785906
 11
5.8309557354
 21
2.130290955
  0
LINE
  5
293
100
AcDbEntity
  8
0
100
AcDbLine
 62
7
  6
CONTINUOUS
 10
5.8449557354
 20
2.1328532609
 11
5.8449557354
 21
2.1218532609
  0
LINE
  5
294
100
AcDbEntity
  8
0
100
AcDbLine
 62
7
  6
CONTINUOUS
 10
5.8449557354
 20
2.1038532609
 11
5.8449557354
 21
2.0982785906
  0
LINE
  5
295
100
AcDbEntity
  8
0
100
AcDbLine
 62
7
  6
CONTINUOUS
 10
5.8542057354
 20
2.0878532609
 11
5.8542057354
 21
2.0778532609
  0
LINE
  5
296
100
AcDbEntity
  8
0
100
AcDbLine
 62
7
  6
CONTINUOUS
 10
5.8592057354
 20
2.1003532609
 11
5.8592057354
 21
2.1038532609
  0
LINE
  5
297
100
AcDbEntity
  8
0
100
AcDbLine
 62
7
  6
CONTINUOUS
 10
5.8592057354
 20
2.1218532609
 11
5.8592057354
 21
2.1253532609
  0
LINE
  5
298
100
AcDbEntity
  8
0
100
AcDbLine
 62
7
  6
CONTINUOUS
 10
5.7627057354
 20
3.2937041749
 11
5.7463013143
 21
3.1062007834
  0
LINE
  5
299
100
AcDbEntity
  8
0
100
AcDbLine
 62
7
  6
CONTINUOUS
 10
5.946030914
 20
2.2886717584
 11
5.9465002174
 21
2.2857086934
  0
LINE
  5
29A
100
AcDbEntity
  8
0
100
AcDbLine
 62
7
  6
CONTINUOUS
 10
5.9625802594
 20
2.2882555219
 11
5.962110956
 21
2.2912185869
  0
LINE
  5
29B
100
AcDbEntity
  8
0
100
AcDbLine
 62
7
  6
CONTINUOUS
 10
5.9712169667
 20
2.2926608373
 11
5.9716862701
 21
2.2896977723
  0
LINE
  5
29C
100
AcDbEntity
  8
0
100
AcDbLine
 62
7
  6
CONTINUOUS
 10
6.0766250863
 20
2.2583313773
 11
6.0763813476
 21
2.2603164696
  0
LINE
  5
29D
100
AcDbEntity
  8
0
100
AcDbLine
 62
7
  6
CONTINUOUS
 10
6.1977057354
 20
3.2937041749
 11
6.2141101565
 21
3.1062007834
  0
LINE
  5
29E
100
AcDbEntity
  8
0
100
AcDbLine
 62
7
  6
CONTINUOUS
 10
6.0022095779
 20
1.9371873059
 11
6.0018170582
 21
1.9446770275
  0
LINE
  5
29F
100
AcDbEntity
  8
0
100
AcDbLine
 62
7
  6
CONTINUOUS
 10
6.0269124261
 20
1.9652615727
 11
6.0273049458
 21
1.9577718512
  0
LINE
  5
2A0
100
AcDbEntity
  8
0
100
AcDbLine
 62
7
  6
CONTINUOUS
 10
5.9332057354
 20
3.4938532609
 11
5.9802057354
 21
2.4128532609
  0
LINE
  5
2A1
100
AcDbEntity
  8
0
100
AcDbLine
 62
7
  6
CONTINUOUS
 10
5.9080712045
 20
3.4938532609
 11
5.9183338921
 21
2.4128532609
  0
LINE
  5
2A2
100
AcDbEntity
  8
0
100
AcDbLine
 62
7
  6
CONTINUOUS
 10
5.8657057354
 20
2.1253532609
 11
5.8657057354
 21
2.1003532609
  0
LINE
  5
2A3
100
AcDbEntity
  8
0
100
AcDbLine
 62
7
  6
CONTINUOUS
 10
5.8927057354
 20
2.3470406858
 11
5.8927057354
 21
2.4128532609
  0
LINE
  5
2A4
100
AcDbEntity
  8
0
100
AcDbLine
 62
7
  6
CONTINUOUS
 10
5.8932057354
 20
2.0778532609
 11
5.8932057354
 21
2.0878532609
  0
LINE
  5
2A5
100
AcDbEntity
  8
0
100
AcDbLine
 62
7
  6
CONTINUOUS
 10
5.8932057354
 20
2.1403532609
 11
5.8932057354
 21
2.1478532609
  0
LINE
  5
2A6
100
AcDbEntity
  8
0
100
AcDbLine
 62
7
  6
CONTINUOUS
 10
5.8994557354
 20
2.0986785784
 11
5.8994557354
 21
2.1295279433
  0
LINE
  5
2A7
100
AcDbEntity
  8
0
100
AcDbLine
 62
7
  6
CONTINUOUS
 10
5.9144557354
 20
2.1388532609
 11
5.9144557354
 21
2.1148532609
  0
LINE
  5
2A8
100
AcDbEntity
  8
0
100
AcDbLine
 62
7
  6
CONTINUOUS
 10
5.9144557354
 20
2.1038532609
 11
5.9144557354
 21
2.0986785784
  0
LINE
  5
2A9
100
AcDbEntity
  8
0
100
AcDbLine
 62
7
  6
CONTINUOUS
 10
5.9207057354
 20
2.0878532609
 11
5.9207057354
 21
2.0778532609
  0
LINE
  5
2AA
100
AcDbEntity
  8
0
100
AcDbLine
 62
7
  6
CONTINUOUS
 10
5.9632057354
 20
2.0878532609
 11
5.9632057354
 21
2.0778532609
  0
LINE
  5
2AB
100
AcDbEntity
  8
0
100
AcDbLine
 62
7
  6
CONTINUOUS
 10
5.9652057354
 20
1.9328532609
 11
5.9652057354
 21
1.9373532609
  0
LINE
  5
2AC
100
AcDbEntity
  8
0
100
AcDbLine
 62
7
  6
CONTINUOUS
 10
5.9747057354
 20
1.9373532609
 11
5.9747057354
 21
1.9328532609
  0
LINE
  5
2AD
100
AcDbEntity
  8
0
100
AcDbLine
 62
7
  6
CONTINUOUS
 10
5.9802057354
 20
1.7520093426
 11
5.9802057354
 21
1.6635063346
  0
LINE
  5
2AE
100
AcDbEntity
  8
0
100
AcDbLine
 62
7
  6
CONTINUOUS
 10
5.9829811132
 20
1.9328532609
 11
5.9829811132
 21
1.9373532609
  0
LINE
  5
2AF
100
AcDbEntity
  8
0
100
AcDbLine
 62
7
  6
CONTINUOUS
 10
5.9962057354
 20
1.9373532609
 11
5.9962057354
 21
1.9328532609
  0
LINE
  5
2B0
100
AcDbEntity
  8
0
100
AcDbLine
 62
7
  6
CONTINUOUS
 10
6.0377057354
 20
2.0778532609
 11
6.0377057354
 21
2.0878532609
  0
LINE
  5
2B1
100
AcDbEntity
  8
0
100
AcDbLine
 62
7
  6
CONTINUOUS
 10
6.0377057354
 20
2.1403532609
 11
6.0377057354
 21
2.1478532609
  0
LINE
  5
2B2
100
AcDbEntity
  8
0
100
AcDbLine
 62
7
  6
CONTINUOUS
 10
6.0464557354
 20
2.0997775009
 11
6.0464557354
 21
2.1284290209
  0
LINE
  5
2B3
100
AcDbEntity
  8
0
100
AcDbLine
 62
7
  6
CONTINUOUS
 10
6.0614557354
 20
2.1284290209
 11
6.0614557354
 21
2.0997775009
  0
LINE
  5
2B4
100
AcDbEntity
  8
0
100
AcDbLine
 62
7
  6
CONTINUOUS
 10
6.0677057354
 20
2.3470406858
 11
6.0677057354
 21
2.4128532609
  0
LINE
  5
2B5
100
AcDbEntity
  8
0
100
AcDbLine
 62
7
  6
CONTINUOUS
 10
6.0702057354
 20
2.1478532609
 11
6.0702057354
 21
2.1403532609
  0
LINE
  5
2B6
100
AcDbEntity
  8
0
100
AcDbLine
 62
7
  6
CONTINUOUS
 10
6.0702057354
 20
2.0878532609
 11
6.0702057354
 21
2.0778532609
  0
LINE
  5
2B7
100
AcDbEntity
  8
0
100
AcDbLine
 62
7
  6
CONTINUOUS
 10
6.0752057354
 20
2.0778532609
 11
6.0752057354
 21
2.0878532609
  0
LINE
  5
2B8
100
AcDbEntity
  8
0
100
AcDbLine
 62
7
  6
CONTINUOUS
 10
6.0752057354
 20
2.1403532609
 11
6.0752057354
 21
2.1478532609
  0
LINE
  5
2B9
100
AcDbEntity
  8
0
100
AcDbLine
 62
7
  6
CONTINUOUS
 10
6.0792057354
 20
2.0944865105
 11
6.0792057354
 21
2.1337200113
  0
LINE
  5
2BA
100
AcDbEntity
  8
0
100
AcDbLine
 62
7
  6
CONTINUOUS
 10
6.0977057354
 20
2.0903532609
 11
6.0977057354
 21
2.1378532609
  0
LINE
  5
2BB
100
AcDbEntity
  8
0
100
AcDbLine
 62
7
  6
CONTINUOUS
 10
6.0523402663
 20
3.4938532609
 11
6.0420775788
 21
2.4128532609
  0
LINE
  5
2BC
100
AcDbEntity
  8
0
100
AcDbLine
 62
7
  6
CONTINUOUS
 10
6.0272057354
 20
3.4938532609
 11
5.9802057354
 21
2.4128532609
  0
LINE
  5
2BD
100
AcDbEntity
  8
0
100
AcDbLine
 62
7
  6
CONTINUOUS
 10
5.9767363516
 20
2.2626471639
 11
5.9769326389
 21
2.2671428809
  0
LINE
  5
2BE
100
AcDbEntity
  8
0
100
AcDbLine
 62
7
  6
CONTINUOUS
 10
5.9779140751
 20
2.2896214659
 11
5.9780449332
 21
2.2926186105
  0
LINE
  5
2BF
100
AcDbEntity
  8
0
100
AcDbLine
 62
7
  6
CONTINUOUS
 10
5.9785445377
 20
2.2696730552
 11
5.9792993209
 21
2.2869604334
  0
LINE
  5
2C0
100
AcDbEntity
  8
0
100
AcDbLine
 62
7
  6
CONTINUOUS
 10
5.9863774615
 20
2.2885974063
 11
5.9859983145
 21
2.2799135136
  0
LINE
  5
2C1
100
AcDbEntity
  8
0
100
AcDbLine
 62
7
  6
CONTINUOUS
 10
5.9858171232
 20
2.2757635501
 11
5.9855378752
 21
2.2693677195
  0
LINE
  5
2C2
100
AcDbEntity
  8
0
100
AcDbLine
 62
7
  6
CONTINUOUS
 10
5.9867268338
 20
2.26221097
 11
5.9869231211
 21
2.266706687
  0
LINE
  5
2C3
100
AcDbEntity
  8
0
100
AcDbLine
 62
7
  6
CONTINUOUS
 10
6.1567057354
 20
3.3078532609
 11
6.1567057354
 21
6.1498532609
  0
LINE
  5
2C4
100
AcDbEntity
  8
0
100
AcDbLine
 62
7
  6
CONTINUOUS
 10
6.2922057354
 20
2.8693532609
 11
6.2922057354
 21
2.8368532609
  0
LINE
  5
2C5
100
AcDbEntity
  8
0
100
AcDbLine
 62
7
  6
CONTINUOUS
 10
6.2927057354
 20
1.312992583
 11
6.2927057354
 21
2.5528532609
  0
LINE
  5
2C6
100
AcDbEntity
  8
0
100
AcDbLine
 62
7
  6
CONTINUOUS
 10
6.0677057354
 20
2.4128532609
 11
6.1314515595
 21
3.5330803332
  0
LINE
  5
2C7
100
AcDbEntity
  8
0
100
AcDbLine
 62
7
  6
CONTINUOUS
 10
6.1188083038
 20
3.4938532609
 11
6.0420775788
 21
2.4128532609
  0
LINE
  5
2C8
100
AcDbEntity
  8
0
100
AcDbLine
 62
7
  6
CONTINUOUS
 10
5.936409579
 20
2.2639640264
 11
5.935328256
 21
2.2559625262
  0
LINE
  5
2C9
100
AcDbEntity
  8
0
100
AcDbLine
 62
7
  6
CONTINUOUS
 10
3.1422260494
 20
5.9991064575
 11
3.5466044152
 21
5.9278036412
  0
LINE
  5
2CA
100
AcDbEntity
  8
0
100
AcDbLine
 62
7
  6
CONTINUOUS
 10
3.13824408
 20
6.0028158111
 11
3.5516149162
 21
5.9299273796
  0
LINE
  5
2CB
100
AcDbEntity
  8
0
100
AcDbLine
 62
7
  6
CONTINUOUS
 10
3.5828860652
 20
6.0072097561
 11
3.1352909415
 21
6.0861328528
  0
LINE
  5
2CC
100
AcDbEntity
  8
0
100
AcDbLine
 62
7
  6
CONTINUOUS
 10
6.5302057354
 20
0.9628532609
 11
6.5302057354
 21
1.069797532
  0
LINE
  5
2CD
100
AcDbEntity
  8
0
100
AcDbLine
 62
7
  6
CONTINUOUS
 10
6.2918663732
 20
2.4525788971
 11
6.2794760866
 21
2.3009133613
  0
LINE
  5
2CE
100
AcDbEntity
  8
0
100
AcDbLine
 62
7
  6
CONTINUOUS
 10
5.9300657123
 20
1.9394895447
 11
5.9310013149
 21
1.9438912089
  0
LINE
  5
2CF
100
AcDbEntity
  8
0
100
AcDbLine
 62
7
  6
CONTINUOUS
 10
5.9356793279
 20
1.9658995299
 11
5.936303063
 21
1.9688339727
  0
LINE
  5
2D0
100
AcDbEntity
  8
0
100
AcDbLine
 62
7
  6
CONTINUOUS
 10
5.9346815332
 20
1.9479785055
 11
5.9373789214
 21
1.9606687191
  0
LINE
  5
2D1
100
AcDbEntity
  8
0
100
AcDbLine
 62
7
  6
CONTINUOUS
 10
5.9445807079
 20
1.9632871875
 11
5.9423787383
 21
1.9529277349
  0
LINE
  5
2D2
100
AcDbEntity
  8
0
100
AcDbLine
 62
7
  6
CONTINUOUS
 10
5.9415245388
 20
1.9489090424
 11
5.9410394926
 21
1.9466270795
  0
LINE
  5
2D3
100
AcDbEntity
  8
0
100
AcDbLine
 62
7
  6
CONTINUOUS
 10
5.9427390861
 20
1.9413962686
 11
5.9418034835
 21
1.9369946044
  0
LINE
  5
2D4
100
AcDbEntity
  8
0
100
AcDbLine
 62
7
  6
CONTINUOUS
 10
5.9603457429
 20
1.9376538582
 11
5.9594101403
 21
1.933252194
  0
LINE
  5
2D5
100
AcDbEntity
  8
0
100
AcDbLine
 62
7
  6
CONTINUOUS
 10
5.9505097832
 20
2.2717301576
 11
5.9543587401
 21
2.288128043
  0
LINE
  5
2D6
100
AcDbEntity
  8
0
100
AcDbLine
 62
7
  6
CONTINUOUS
 10
5.9544575782
 20
2.2754207276
 11
5.9506086213
 21
2.2590228423
  0
LINE
  5
2D7
100
AcDbEntity
  8
0
100
AcDbLine
 62
7
  6
CONTINUOUS
 10
5.9630865408
 20
2.2737221204
 11
5.965707751
 21
2.2848893807
  0
LINE
  5
2D8
100
AcDbEntity
  8
0
100
AcDbLine
 62
7
  6
CONTINUOUS
 10
5.9694247221
 20
2.2875965614
 11
5.9631853789
 21
2.261014805
  0
LINE
  5
2D9
100
AcDbEntity
  8
0
100
AcDbLine
 62
7
  6
CONTINUOUS
 10
3.6262981096
 20
6.2534116943
 11
3.1787029859
 21
6.3323347911
  0
LINE
  5
2DA
100
AcDbEntity
  8
0
100
AcDbLine
 62
7
  6
CONTINUOUS
 10
3.581094441
 20
6.2893065526
 11
3.2334573042
 21
6.3506043593
  0
LINE
  5
2DB
100
AcDbEntity
  8
0
100
AcDbLine
 62
7
  6
CONTINUOUS
 10
6.1013551154
 20
2.2459897612
 11
6.1000216702
 21
2.2418466254
  0
LINE
  5
2DC
100
AcDbEntity
  8
0
100
AcDbLine
 62
7
  6
CONTINUOUS
 10
5.9698233734
 20
1.9418835185
 11
5.9774557354
 21
1.9628532609
  0
LINE
  5
2DD
100
AcDbEntity
  8
0
100
AcDbLine
 62
7
  6
CONTINUOUS
 10
5.9788434243
 20
1.9578944916
 11
5.974824745
 21
1.9468532609
  0
LINE
  5
2DE
100
AcDbEntity
  8
0
100
AcDbLine
 62
7
  6
CONTINUOUS
 10
5.9731868789
 20
1.9423532609
 11
5.9727825667
 21
1.9412424222
  0
LINE
  5
2DF
100
AcDbEntity
  8
0
100
AcDbLine
 62
7
  6
CONTINUOUS
 10
5.9278521517
 20
2.2680261406
 11
5.9272482438
 21
2.2666034227
  0
LINE
  5
2E0
100
AcDbEntity
  8
0
100
AcDbLine
 62
7
  6
CONTINUOUS
 10
5.8978576851
 20
1.9524824449
 11
5.899688
 21
1.9565933995
  0
LINE
  5
2E1
100
AcDbEntity
  8
0
100
AcDbLine
 62
7
  6
CONTINUOUS
 10
5.9088395744
 20
1.9771481723
 11
5.9100597844
 21
1.9798888087
  0
LINE
  5
2E2
100
AcDbEntity
  8
0
100
AcDbLine
 62
7
  6
CONTINUOUS
 10
5.9033360998
 20
1.9586406825
 11
5.9097592019
 21
1.9730672061
  0
LINE
  5
2E3
100
AcDbEntity
  8
0
100
AcDbLine
 62
7
  6
CONTINUOUS
 10
5.9164013425
 20
1.9732341381
 11
5.9133508177
 21
1.9663825472
  0
LINE
  5
2E4
100
AcDbEntity
  8
0
100
AcDbLine
 62
7
  6
CONTINUOUS
 10
5.9113171345
 20
1.9618148199
 11
5.907249768
 21
1.9526793653
  0
LINE
  5
2E5
100
AcDbEntity
  8
0
100
AcDbLine
 62
7
  6
CONTINUOUS
 10
6.0345072963
 20
2.2527026101
 11
6.0364799664
 21
2.2567471833
  0
LINE
  5
2E6
100
AcDbEntity
  8
0
100
AcDbLine
 62
7
  6
CONTINUOUS
 10
6.0463433172
 20
2.2769700494
 11
6.0476584307
 21
2.2796664315
  0
LINE
  5
2E7
100
AcDbEntity
  8
0
100
AcDbLine
 62
7
  6
CONTINUOUS
 10
6.0410396731
 20
2.2598227443
 11
6.0467269778
 21
2.2714834471
  0
LINE
  5
2E8
100
AcDbEntity
  8
0
100
AcDbLine
 62
7
  6
CONTINUOUS
 10
6.0543483053
 20
2.2722818659
 11
6.0497055652
 21
2.2627628381
  0
LINE
  5
2E9
100
AcDbEntity
  8
0
100
AcDbLine
 62
7
  6
CONTINUOUS
 10
6.0479045294
 20
2.2590701674
 11
6.0468818344
 21
2.2569733318
  0
LINE
  5
2EA
100
AcDbEntity
  8
0
100
AcDbLine
 62
7
  6
CONTINUOUS
 10
6.047265495
 20
2.2514867296
 11
6.0452928248
 21
2.2474421564
  0
LINE
  5
2EB
100
AcDbEntity
  8
0
100
AcDbLine
 62
7
  6
CONTINUOUS
 10
6.0634437878
 20
2.2435960489
 11
6.0614711177
 21
2.2395514757
  0
LINE
  5
2EC
100
AcDbEntity
  8
0
100
AcDbLine
 62
7
  6
CONTINUOUS
 10
5.9273131807
 20
2.2811394679
 11
5.9258122681
 21
2.2785419188
  0
LINE
  5
2ED
100
AcDbEntity
  8
0
100
AcDbLine
 62
7
  6
CONTINUOUS
 10
5.8037057354
 20
6.1498532609
 11
6.1567057354
 21
6.1498532609
  0
LINE
  5
2EE
100
AcDbEntity
  8
0
100
AcDbLine
 62
7
  6
CONTINUOUS
 10
3.5906450908
 20
6.343470979
 11
3.243007954
 21
6.4047687857
  0
LINE
  5
2EF
100
AcDbEntity
  8
0
100
AcDbLine
 62
7
  6
CONTINUOUS
 10
6.0671250561
 20
2.2346626681
 11
6.0698955327
 21
2.2382087165
  0
LINE
  5
2F0
100
AcDbEntity
  8
0
100
AcDbLine
 62
7
  6
CONTINUOUS
 10
6.0759222278
 20
2.2406436594
 11
6.0857856386
 21
2.2532682495
  0
LINE
  5
2F1
100
AcDbEntity
  8
0
100
AcDbLine
 62
7
  6
CONTINUOUS
 10
6.0909077085
 20
2.2492664499
 11
6.0810442977
 21
2.2366418598
  0
LINE
  5
2F2
100
AcDbEntity
  8
0
100
AcDbLine
 62
7
  6
CONTINUOUS
 10
6.0801396725
 20
2.2302051173
 11
6.0773691959
 21
2.2266590689
  0
LINE
  5
2F3
100
AcDbEntity
  8
0
100
AcDbLine
 62
7
  6
CONTINUOUS
 10
5.8625630277
 20
2.2492550326
 11
5.8694499806
 21
2.2542586968
  0
LINE
  5
2F4
100
AcDbEntity
  8
0
100
AcDbLine
 62
7
  6
CONTINUOUS
 10
5.8791478761
 20
2.2613046302
 11
5.888047063
 21
2.267770268
  0
LINE
  5
2F5
100
AcDbEntity
  8
0
100
AcDbLine
 62
7
  6
CONTINUOUS
 10
5.6677057354
 20
2.29327522
 11
5.8921368441
 21
2.422850581
  0
LINE
  5
2F6
100
AcDbEntity
  8
0
100
AcDbLine
 62
7
  6
CONTINUOUS
 10
5.8999832779
 20
2.2740382705
 11
5.9190015282
 21
2.2817221423
  0
LINE
  5
2F7
100
AcDbEntity
  8
0
100
AcDbLine
 62
7
  6
CONTINUOUS
 10
5.9211887713
 20
2.2777524396
 11
5.9105582774
 21
2.2734574412
  0
LINE
  5
2F8
100
AcDbEntity
  8
0
100
AcDbLine
 62
7
  6
CONTINUOUS
 10
5.8867057354
 20
2.1378931042
 11
5.8802742851
 21
2.1315973558
  0
LINE
  5
2F9
100
AcDbEntity
  8
0
100
AcDbLine
 62
7
  6
CONTINUOUS
 10
5.9056806206
 20
2.2434997582
 11
5.8987936677
 21
2.238496094
  0
LINE
  5
2FA
100
AcDbEntity
  8
0
100
AcDbLine
 62
7
  6
CONTINUOUS
 10
5.8890957722
 20
2.2314501605
 11
5.8801965853
 21
2.2249845227
  0
LINE
  5
2FB
100
AcDbEntity
  8
0
100
AcDbLine
 62
7
  6
CONTINUOUS
 10
6.0763813476
 20
2.2603164696
 11
6.0800788251
 21
2.2626126211
  0
LINE
  5
2FC
100
AcDbEntity
  8
0
100
AcDbLine
 62
7
  6
CONTINUOUS
 10
5.9127169316
 20
2.266779851
 11
5.9219887702
 21
2.2705259169
  0
LINE
  5
2FD
100
AcDbEntity
  8
0
100
AcDbLine
 62
7
  6
CONTINUOUS
 10
5.9222837241
 20
2.2657916797
 11
5.9148662532
 21
2.2627948269
  0
LINE
  5
2FE
100
AcDbEntity
  8
0
100
AcDbLine
 62
7
  6
CONTINUOUS
 10
5.9180504093
 20
2.2549137642
 11
5.9268586559
 21
2.2584725268
  0
LINE
  5
2FF
100
AcDbEntity
  8
0
100
AcDbLine
 62
7
  6
CONTINUOUS
 10
5.935328256
 20
2.2559625262
 11
5.9112214757
 21
2.2462227548
  0
LINE
  5
300
100
AcDbEntity
  8
0
100
AcDbLine
 62
7
  6
CONTINUOUS
 10
6.2927057354
 20
1.9324313017
 11
5.9802057354
 21
1.7520093426
  0
LINE
  5
301
100
AcDbEntity
  8
0
100
AcDbLine
 62
7
  6
CONTINUOUS
 10
6.0609835227
 20
1.9723415947
 11
6.0580997376
 21
1.9715146826
  0
LINE
  5
302
100
AcDbEntity
  8
0
100
AcDbLine
 62
7
  6
CONTINUOUS
 10
6.0390945824
 20
1.9538488633
 11
6.0419783675
 21
1.9546757753
  0
LINE
  5
303
100
AcDbEntity
  8
0
100
AcDbLine
 62
7
  6
CONTINUOUS
 10
5.4541514077
 20
1.112472724
 11
5.6078415547
 21
1.2063046032
  0
ARC
  5
304
100
AcDbEntity
  8
0
100
AcDbCircle
 62
7
  6
CONTINUOUS
 10
4.6887057354
 20
6.1498532609
 40
1.468
100
AcDbArc
 50
0.0
 51
170.0
  0
ARC
  5
305
100
AcDbEntity
  8
0
100
AcDbCircle
 62
7
  6
CONTINUOUS
 10
4.6887057354
 20
6.1498532609
 40
1.115
100
AcDbArc
 50
0.0
 51
170.0
  0
ARC
  5
306
100
AcDbEntity
  8
0
100
AcDbCircle
 62
7
  6
CONTINUOUS
 10
3.3859245146
 20
6.0419393916
 40
0.2
100
AcDbArc
 50
325.9400486139
 51
350.0
  0
ARC
  5
307
100
AcDbEntity
  8
0
100
AcDbCircle
 62
7
  6
CONTINUOUS
 10
3.3322524921
 20
6.0514032173
 40
0.2
100
AcDbArc
 50
170.0
 51
194.0599513861
  0
ARC
  5
308
100
AcDbEntity
  8
0
100
AcDbCircle
 62
7
  6
CONTINUOUS
 10
3.5474726561
 20
5.9327276799
 40
0.005
100
AcDbArc
 50
260.0
 51
325.9400486134
  0
ARC
  5
309
100
AcDbEntity
  8
0
100
AcDbCircle
 62
7
  6
CONTINUOUS
 10
3.1430942903
 20
6.0040304962
 40
0.005
100
AcDbArc
 50
194.0599513866
 51
260.0
  0
ARC
  5
30A
100
AcDbEntity
  8
0
100
AcDbCircle
 62
7
  6
CONTINUOUS
 10
5.5427057354
 20
1.312992583
 40
0.125
100
AcDbArc
 50
301.4051636659
 51
360.0
  0
ARC
  5
30B
100
AcDbEntity
  8
0
100
AcDbCircle
 62
7
  6
CONTINUOUS
 10
5.4802057354
 20
1.069797532
 40
0.05
100
AcDbArc
 50
121.4051636659
 51
180.0
  0
ARC
  5
30C
100
AcDbEntity
  8
0
100
AcDbCircle
 62
7
  6
CONTINUOUS
 10
5.8869557354
 20
2.0986785784
 40
0.0125
100
AcDbArc
 50
300.0
 51
360.0
  0
ARC
  5
30D
100
AcDbEntity
  8
0
100
AcDbCircle
 62
7
  6
CONTINUOUS
 10
5.8204557354
 20
2.0982785906
 40
0.0105
100
AcDbArc
 50
276.8371411681
 51
360.0
  0
ARC
  5
30E
100
AcDbEntity
  8
0
100
AcDbCircle
 62
7
  6
CONTINUOUS
 10
5.8554557354
 20
2.0982785906
 40
0.0105
100
AcDbArc
 50
180.0
 51
263.1628588319
  0
ARC
  5
30F
100
AcDbEntity
  8
0
100
AcDbCircle
 62
7
  6
CONTINUOUS
 10
5.8499557354
 20
2.1038532609
 40
0.005
100
AcDbArc
 50
90.0
 51
180.0
  0
ARC
  5
310
100
AcDbEntity
  8
0
100
AcDbCircle
 62
7
  6
CONTINUOUS
 10
5.8542057354
 20
2.1038532609
 40
0.005
100
AcDbArc
 50
0.0
 51
90.0
  0
ARC
  5
311
100
AcDbEntity
  8
0
100
AcDbCircle
 62
7
  6
CONTINUOUS
 10
5.8713417153
 20
2.1228532609
 40
0.0125
100
AcDbArc
 50
44.3891151241
 51
90.0
  0
ARC
  5
312
100
AcDbEntity
  8
0
100
AcDbCircle
 62
7
  6
CONTINUOUS
 10
5.8869557354
 20
2.1295279433
 40
0.0125
100
AcDbArc
 50
0.0
 51
60.0
  0
ARC
  5
313
100
AcDbEntity
  8
0
100
AcDbCircle
 62
7
  6
CONTINUOUS
 10
5.8204557354
 20
2.130290955
 40
0.0105
100
AcDbArc
 50
0.0
 51
73.398450401
  0
ARC
  5
314
100
AcDbEntity
  8
0
100
AcDbCircle
 62
7
  6
CONTINUOUS
 10
5.8665170178
 20
2.2412608797
 40
0.0055
100
AcDbArc
 50
36.0
 51
110.1733798681
  0
ARC
  5
315
100
AcDbEntity
  8
0
100
AcDbCircle
 62
7
  6
CONTINUOUS
 10
5.8831018662
 20
2.2533104773
 40
0.0055
100
AcDbArc
 50
36.0
 51
110.1733798681
  0
ARC
  5
316
100
AcDbEntity
  8
0
100
AcDbCircle
 62
7
  6
CONTINUOUS
 10
5.8944281041
 20
2.2615394709
 40
0.0055
100
AcDbArc
 50
141.8266201319
 51
216.0
  0
ARC
  5
317
100
AcDbEntity
  8
0
100
AcDbCircle
 62
7
  6
CONTINUOUS
 10
5.8851417821
 20
2.2394443134
 40
0.0055
100
AcDbArc
 50
216.0
 51
290.1733798682
  0
ARC
  5
318
100
AcDbEntity
  8
0
100
AcDbCircle
 62
7
  6
CONTINUOUS
 10
5.8738155442
 20
2.2312153199
 40
0.0055
100
AcDbArc
 50
321.8266201319
 51
36.0
  0
ARC
  5
319
100
AcDbEntity
  8
0
100
AcDbCircle
 62
7
  6
CONTINUOUS
 10
5.8542057354
 20
2.1218532609
 40
0.005
100
AcDbArc
 50
270.0
 51
360.0
  0
ARC
  5
31A
100
AcDbEntity
  8
0
100
AcDbCircle
 62
7
  6
CONTINUOUS
 10
5.8499557354
 20
2.1218532609
 40
0.005
100
AcDbArc
 50
180.0
 51
270.0
  0
ARC
  5
31B
100
AcDbEntity
  8
0
100
AcDbCircle
 62
7
  6
CONTINUOUS
 10
5.8474557354
 20
2.1328532609
 40
0.0025
100
AcDbArc
 50
90.0
 51
180.0
  0
ARC
  5
31C
100
AcDbEntity
  8
0
100
AcDbCircle
 62
7
  6
CONTINUOUS
 10
5.9269557354
 20
2.0986785784
 40
0.0125
100
AcDbArc
 50
180.0
 51
240.0
  0
ARC
  5
31D
100
AcDbEntity
  8
0
100
AcDbCircle
 62
7
  6
CONTINUOUS
 10
5.9632057354
 20
2.1003532609
 40
0.0125
100
AcDbArc
 50
233.574758698
 51
270.0
  0
ARC
  5
31E
100
AcDbEntity
  8
0
100
AcDbCircle
 62
7
  6
CONTINUOUS
 10
5.9530166622
 20
1.9560803222
 40
0.009
100
AcDbArc
 50
250.0164438544
 51
78.0
  0
ARC
  5
31F
100
AcDbEntity
  8
0
100
AcDbCircle
 62
7
  6
CONTINUOUS
 10
5.9171159322
 20
1.9536143926
 40
0.0088671204
100
AcDbArc
 50
246.0
 51
42.5194112808
  0
ARC
  5
320
100
AcDbEntity
  8
0
100
AcDbCircle
 62
7
  6
CONTINUOUS
 10
5.9627756787
 20
1.9444486696
 40
0.0075
100
AcDbArc
 50
288.905459207
 51
340.0
  0
ARC
  5
321
100
AcDbEntity
  8
0
100
AcDbCircle
 62
7
  6
CONTINUOUS
 10
5.9219560574
 20
1.9666561336
 40
0.00725
100
AcDbArc
 50
283.5235132021
 51
66.0
  0
ARC
  5
322
100
AcDbEntity
  8
0
100
AcDbCircle
 62
7
  6
CONTINUOUS
 10
5.9143079513
 20
1.955010041
 40
0.006
100
AcDbArc
 50
246.0
 51
66.0
  0
ARC
  5
323
100
AcDbEntity
  8
0
100
AcDbCircle
 62
7
  6
CONTINUOUS
 10
5.9497932311
 20
1.9567654836
 40
0.0057954444
100
AcDbArc
 50
258.0
 51
78.0
  0
ARC
  5
324
100
AcDbEntity
  8
0
100
AcDbCircle
 62
7
  6
CONTINUOUS
 10
5.9293017214
 20
1.9491220198
 40
0.0055
100
AcDbArc
 50
288.0
 51
348.0
  0
ARC
  5
325
100
AcDbEntity
  8
0
100
AcDbCircle
 62
7
  6
CONTINUOUS
 10
5.9464193044
 20
1.9454835652
 40
0.0055
100
AcDbArc
 50
168.0
 51
228.0
  0
ARC
  5
326
100
AcDbEntity
  8
0
100
AcDbCircle
 62
7
  6
CONTINUOUS
 10
5.9614892572
 20
1.94303367
 40
0.0055
100
AcDbArc
 50
222.0605153624
 51
258.0
  0
ARC
  5
327
100
AcDbEntity
  8
0
100
AcDbCircle
 62
7
  6
CONTINUOUS
 10
5.9319991096
 20
1.9618122334
 40
0.0055
100
AcDbArc
 50
348.0
 51
48.0
  0
ARC
  5
328
100
AcDbEntity
  8
0
100
AcDbCircle
 62
7
  6
CONTINUOUS
 10
5.9187586483
 20
1.9680797119
 40
0.00475
100
AcDbArc
 50
246.0
 51
66.0
  0
ARC
  5
329
100
AcDbEntity
  8
0
100
AcDbCircle
 62
7
  6
CONTINUOUS
 10
5.9065617928
 20
1.9744907843
 40
0.0035
100
AcDbArc
 50
336.0
 51
49.398450401
  0
ARC
  5
32A
100
AcDbEntity
  8
0
100
AcDbCircle
 62
7
  6
CONTINUOUS
 10
5.9001386907
 20
1.9600642607
 40
0.0035
100
AcDbArc
 50
262.6015495991
 51
336.0
  0
ARC
  5
32B
100
AcDbEntity
  8
0
100
AcDbCircle
 62
7
  6
CONTINUOUS
 10
5.9756016446
 20
1.9402163618
 40
0.003
100
AcDbArc
 50
160.0
 51
252.6242801224
  0
ARC
  5
32C
100
AcDbEntity
  8
0
100
AcDbCircle
 62
7
  6
CONTINUOUS
 10
5.9159557354
 20
2.1038532609
 40
0.0015
100
AcDbArc
 50
89.9999999999
 51
180.0
  0
ARC
  5
32D
100
AcDbEntity
  8
0
100
AcDbCircle
 62
7
  6
CONTINUOUS
 10
5.9192006803
 20
2.1038532609
 40
0.0015
100
AcDbArc
 50
40.286
 51
89.9999999999
  0
ARC
  5
32E
100
AcDbEntity
  8
0
100
AcDbCircle
 62
7
  6
CONTINUOUS
 10
5.917314888
 20
1.9728274014
 40
0.001
100
AcDbArc
 50
65.9999999999
 51
155.9999999999
  0
ARC
  5
32F
100
AcDbEntity
  8
0
100
AcDbCircle
 62
7
  6
CONTINUOUS
 10
5.9142643631
 20
1.9659758105
 40
0.001
100
AcDbArc
 50
155.9999999999
 51
246.0000000001
  0
ARC
  5
330
100
AcDbEntity
  8
0
100
AcDbCircle
 62
7
  6
CONTINUOUS
 10
5.9122306799
 20
1.9614080832
 40
0.001
100
AcDbArc
 50
65.9999999999
 51
155.9999999999
  0
ARC
  5
331
100
AcDbEntity
  8
0
100
AcDbCircle
 62
7
  6
CONTINUOUS
 10
5.9081633135
 20
1.9522726286
 40
0.001
100
AcDbArc
 50
155.9999999999
 51
246.0000000001
  0
ARC
  5
332
100
AcDbEntity
  8
0
100
AcDbCircle
 62
7
  6
CONTINUOUS
 10
5.9428678121
 20
1.9528237791
 40
0.0005
100
AcDbArc
 50
167.9999999998
 51
258.0000000002
  0
ARC
  5
333
100
AcDbEntity
  8
0
100
AcDbCircle
 62
7
  6
CONTINUOUS
 10
5.9450697817
 20
1.9631832316
 40
0.0005
100
AcDbArc
 50
77.9999999999
 51
167.9999999999
  0
ARC
  5
334
100
AcDbEntity
  8
0
100
AcDbCircle
 62
7
  6
CONTINUOUS
 10
5.9420136126
 20
1.9488050865
 40
0.0005
100
AcDbArc
 50
77.9999999998
 51
167.9999999999
  0
ARC
  5
335
100
AcDbEntity
  8
0
100
AcDbCircle
 62
7
  6
CONTINUOUS
 10
5.9432889603
 20
1.948534003
 40
0.0005
100
AcDbArc
 50
28.1777964192
 51
77.9999999998
  0
ARC
  5
336
100
AcDbEntity
  8
0
100
AcDbCircle
 62
7
  6
CONTINUOUS
 10
5.9471024461
 20
2.1127683471
 40
0.0706033404
100
AcDbArc
 50
357.7739436099
 51
0.0689089236
  0
ARC
  5
337
100
AcDbEntity
  8
0
100
AcDbCircle
 62
7
  6
CONTINUOUS
 10
5.9372057354
 20
2.1268532609
 40
0.021
100
AcDbArc
 50
262.4753697776
 51
90.0
  0
ARC
  5
338
100
AcDbEntity
  8
0
100
AcDbCircle
 62
7
  6
CONTINUOUS
 10
5.9297057354
 20
2.1268532609
 40
0.0135
100
AcDbArc
 50
270.0
 51
90.0
  0
ARC
  5
339
100
AcDbEntity
  8
0
100
AcDbCircle
 62
7
  6
CONTINUOUS
 10
5.9219887702
 20
2.2705259169
 40
0.013
100
AcDbArc
 50
292.0
 51
331.7151372318
  0
ARC
  5
33A
100
AcDbEntity
  8
0
100
AcDbCircle
 62
7
  6
CONTINUOUS
 10
5.9253094439
 20
2.2675534172
 40
0.011
100
AcDbArc
 50
87.3800226713
 51
112.0
  0
ARC
  5
33B
100
AcDbEntity
  8
0
100
AcDbCircle
 62
7
  6
CONTINUOUS
 10
5.9225602908
 20
2.2729138957
 40
0.0095
100
AcDbArc
 50
59.9798724448
 51
112.0
  0
ARC
  5
33C
100
AcDbEntity
  8
0
100
AcDbCircle
 62
7
  6
CONTINUOUS
 10
5.9245313636
 20
2.2602285765
 40
0.006
100
AcDbArc
 50
75.1301023541
 51
112.0
  0
ARC
  5
33D
100
AcDbEntity
  8
0
100
AcDbCircle
 62
7
  6
CONTINUOUS
 10
5.9017266305
 20
2.2514939111
 40
0.0055
100
AcDbArc
 50
216.0
 51
290.1733798681
  0
ARC
  5
33E
100
AcDbEntity
  8
0
100
AcDbCircle
 62
7
  6
CONTINUOUS
 10
5.9206776471
 20
2.2737710604
 40
0.0035
100
AcDbArc
 50
292.0
 51
328.8698976459
  0
ARC
  5
33F
100
AcDbEntity
  8
0
100
AcDbCircle
 62
7
  6
CONTINUOUS
 10
5.975547393
 20
2.2698039134
 40
0.003
100
AcDbArc
 50
297.5
 51
357.5
  0
ARC
  5
340
100
AcDbEntity
  8
0
100
AcDbCircle
 62
7
  6
CONTINUOUS
 10
5.9006895784
 20
2.2682859147
 40
0.003
100
AcDbArc
 50
22.0
 51
82.0
  0
ARC
  5
341
100
AcDbEntity
  8
0
100
AcDbCircle
 62
7
  6
CONTINUOUS
 10
5.9071717138
 20
2.2522420666
 40
0.003
100
AcDbArc
 50
322.0
 51
22.0
  0
ARC
  5
342
100
AcDbEntity
  8
0
100
AcDbCircle
 62
7
  6
CONTINUOUS
 10
5.9340932408
 20
2.2809413693
 40
0.0027677516
100
AcDbArc
 50
31.2094967086
 51
99.0
  0
ARC
  5
343
100
AcDbEntity
  8
0
100
AcDbCircle
 62
7
  6
CONTINUOUS
 10
5.9159557354
 20
2.1148532609
 40
0.0015
100
AcDbArc
 50
180.0
 51
270.0000000001
  0
ARC
  5
344
100
AcDbEntity
  8
0
100
AcDbCircle
 62
7
  6
CONTINUOUS
 10
5.9159557354
 20
2.1388532609
 40
0.0015
100
AcDbArc
 50
89.9999999999
 51
180.0
  0
ARC
  5
345
100
AcDbEntity
  8
0
100
AcDbCircle
 62
7
  6
CONTINUOUS
 10
5.9111201873
 20
2.2720666655
 40
0.0015
100
AcDbArc
 50
111.9999999999
 51
202.0
  0
ARC
  5
346
100
AcDbEntity
  8
0
100
AcDbCircle
 62
7
  6
CONTINUOUS
 10
5.9154281631
 20
2.2614040511
 40
0.0015
100
AcDbArc
 50
111.9999999999
 51
202.0
  0
ARC
  5
347
100
AcDbEntity
  8
0
100
AcDbCircle
 62
7
  6
CONTINUOUS
 10
5.9174884994
 20
2.2563045399
 40
0.0015
100
AcDbArc
 50
202.0
 51
292.0000000001
  0
ARC
  5
348
100
AcDbEntity
  8
0
100
AcDbCircle
 62
7
  6
CONTINUOUS
 10
5.9123423251
 20
2.2677070348
 40
0.001
100
AcDbArc
 50
202.0
 51
292.0000000001
  0
ARC
  5
349
100
AcDbEntity
  8
0
100
AcDbCircle
 62
7
  6
CONTINUOUS
 10
5.9245296273
 20
2.2714446363
 40
0.001
100
AcDbArc
 50
66.9999999999
 51
148.8698976458
  0
ARC
  5
34A
100
AcDbEntity
  8
0
100
AcDbCircle
 62
7
  6
CONTINUOUS
 10
5.9263277389
 20
2.2669941538
 40
0.001
100
AcDbArc
 50
255.1301023542
 51
337.0000000001
  0
ARC
  5
34B
100
AcDbEntity
  8
0
100
AcDbCircle
 62
7
  6
CONTINUOUS
 10
5.2482039652
 20
3.1497786547
 40
0.5
100
AcDbArc
 50
328.1557999176
 51
355.0
  0
ARC
  5
34C
100
AcDbEntity
  8
0
100
AcDbCircle
 62
7
  6
CONTINUOUS
 10
5.8302057354
 20
2.5528532609
 40
0.4625
100
AcDbArc
 50
0.0
 51
18.9246444161
  0
ARC
  5
34D
100
AcDbEntity
  8
0
100
AcDbCircle
 62
7
  6
CONTINUOUS
 10
5.7339557354
 20
2.7696748603
 40
0.094
100
AcDbArc
 50
134.384343958
 51
225.3055886043
  0
ARC
  5
34E
100
AcDbEntity
  8
0
100
AcDbCircle
 62
7
  6
CONTINUOUS
 10
5.9801719555
 20
3.4853414244
 40
0.0477351809
100
AcDbArc
 50
89.9594576228
 51
169.7276035822
  0
ARC
  5
34F
100
AcDbEntity
  8
0
100
AcDbCircle
 62
7
  6
CONTINUOUS
 10
5.6997057354
 20
2.8693532609
 40
0.0315
100
AcDbArc
 50
148.1557999176
 51
180.0
  0
ARC
  5
350
100
AcDbEntity
  8
0
100
AcDbCircle
 62
7
  6
CONTINUOUS
 10
5.7781467532
 20
3.2923532609
 40
0.0155
100
AcDbArc
 50
90.0
 51
175.0
  0
ARC
  5
351
100
AcDbEntity
  8
0
100
AcDbCircle
 62
7
  6
CONTINUOUS
 10
5.9763021762
 20
2.2870912915
 40
0.003
100
AcDbArc
 50
357.5
 51
57.5
  0
ARC
  5
352
100
AcDbEntity
  8
0
100
AcDbCircle
 62
7
  6
CONTINUOUS
 10
5.9721192419
 20
2.2869640962
 40
0.0027677516
100
AcDbArc
 50
99.0
 51
166.7905032914
  0
ARC
  5
353
100
AcDbEntity
  8
0
100
AcDbCircle
 62
7
  6
CONTINUOUS
 10
5.9630132311
 20
2.2855218458
 40
0.0027677516
100
AcDbArc
 50
346.7905032915
 51
99.0
  0
ARC
  5
354
100
AcDbEntity
  8
0
100
AcDbCircle
 62
7
  6
CONTINUOUS
 10
5.9469331892
 20
2.2829750174
 40
0.0027677516
100
AcDbArc
 50
99.0
 51
211.2094967086
  0
ARC
  5
355
100
AcDbEntity
  8
0
100
AcDbCircle
 62
7
  6
CONTINUOUS
 10
6.011392489
 20
1.9661311208
 40
0.03
100
AcDbArc
 50
256.214635172
 51
301.4712206345
  0
ARC
  5
356
100
AcDbEntity
  8
0
100
AcDbCircle
 62
7
  6
CONTINUOUS
 10
6.0435984747
 20
1.9769070928
 40
0.03
100
AcDbArc
 50
269.214635172
 51
314.4712206345
  0
ARC
  5
357
100
AcDbEntity
  8
0
100
AcDbCircle
 62
7
  6
CONTINUOUS
 10
6.016920282
 20
1.9422587448
 40
0.0245
100
AcDbArc
 50
72.2068956492
 51
131.7931043507
  0
ARC
  5
358
100
AcDbEntity
  8
0
100
AcDbCircle
 62
7
  6
CONTINUOUS
 10
6.0339557354
 20
2.0997775009
 40
0.0125
100
AcDbArc
 50
287.4576031237
 51
360.0
  0
ARC
  5
359
100
AcDbEntity
  8
0
100
AcDbCircle
 62
7
  6
CONTINUOUS
 10
6.0141536904
 20
1.9531406899
 40
0.0125
100
AcDbArc
 50
221.64645964
 51
305.5781784782
  0
ARC
  5
35A
100
AcDbEntity
  8
0
100
AcDbCircle
 62
7
  6
CONTINUOUS
 10
6.013828429
 20
1.9508026166
 40
0.0125
100
AcDbArc
 50
33.0231697077
 51
118.2602047083
  0
ARC
  5
35B
100
AcDbEntity
  8
0
100
AcDbCircle
 62
7
  6
CONTINUOUS
 10
5.9986357921
 20
1.9444486696
 40
0.0075
100
AcDbArc
 50
200.0
 51
251.094540793
  0
ARC
  5
35C
100
AcDbEntity
  8
0
100
AcDbCircle
 62
7
  6
CONTINUOUS
 10
6.023139069
 20
1.9469408144
 40
0.0075
100
AcDbArc
 50
301.4712206345
 51
61.6196427434
  0
ARC
  5
35D
100
AcDbEntity
  8
0
100
AcDbCircle
 62
7
  6
CONTINUOUS
 10
6.0025759296
 20
1.9301968992
 40
0.007
100
AcDbArc
 50
76.214635172
 51
93.0
  0
ARC
  5
35E
100
AcDbEntity
  8
0
100
AcDbCircle
 62
7
  6
CONTINUOUS
 10
6.0265460744
 20
1.9722519794
 40
0.007
100
AcDbArc
 50
252.2068956493
 51
273.0
  0
ARC
  5
35F
100
AcDbEntity
  8
0
100
AcDbCircle
 62
7
  6
CONTINUOUS
 10
6.0430913241
 20
1.9399105687
 40
0.007
100
AcDbArc
 50
89.214635172
 51
106.0
  0
ARC
  5
360
100
AcDbEntity
  8
0
100
AcDbCircle
 62
7
  6
CONTINUOUS
 10
6.0049243126
 20
1.9556787567
 40
0.0065
100
AcDbArc
 50
131.7931043507
 51
243.9826041729
  0
ARC
  5
361
100
AcDbEntity
  8
0
100
AcDbCircle
 62
7
  6
CONTINUOUS
 10
6.0396473475
 20
1.965267599
 40
0.0065
100
AcDbArc
 50
144.7931043507
 51
256.9826041729
  0
ARC
  5
362
100
AcDbEntity
  8
0
100
AcDbCircle
 62
7
  6
CONTINUOUS
 10
5.982085204
 20
1.9402163618
 40
0.003
100
AcDbArc
 50
287.3757198777
 51
20.0
  0
ARC
  5
363
100
AcDbEntity
  8
0
100
AcDbCircle
 62
7
  6
CONTINUOUS
 10
5.9802057354
 20
2.1128532609
 40
0.30375
100
AcDbArc
 50
106.7431811285
 51
73.2568188721
  0
ARC
  5
364
100
AcDbEntity
  8
0
100
AcDbCircle
 62
7
  6
CONTINUOUS
 10
5.9802057354
 20
2.1128532609
 40
0.28825
100
AcDbArc
 50
107.6719576144
 51
72.3280430139
  0
ARC
  5
365
100
AcDbEntity
  8
0
100
AcDbCircle
 62
7
  6
CONTINUOUS
 10
5.9802057354
 20
2.1128532609
 40
0.275
100
AcDbArc
 50
108.5543745107
 51
71.4456254893
  0
CIRCLE
  5
366
100
AcDbEntity
  8
0
100
AcDbCircle
 62
7
  6
CONTINUOUS
 10
5.9802057354
 20
2.1128532609
 40
0.25
  0
CIRCLE
  5
367
100
AcDbEntity
  8
0
100
AcDbCircle
 62
7
  6
CONTINUOUS
 10
5.9802057354
 20
2.1128532609
 40
0.2125
  0
CIRCLE
  5
368
100
AcDbEntity
  8
0
100
AcDbCircle
 62
7
  6
CONTINUOUS
 10
5.9802057354
 20
2.1128532609
 40
0.20875
  0
CIRCLE
  5
369
100
AcDbEntity
  8
0
100
AcDbCircle
 62
7
  6
CONTINUOUS
 10
5.9802057354
 20
2.1128532609
 40
0.1975723283
  0
ARC
  5
36A
100
AcDbEntity
  8
0
100
AcDbCircle
 62
7
  6
CONTINUOUS
 10
6.0339557354
 20
2.1284290209
 40
0.0125
100
AcDbArc
 50
0.0
 51
72.5423968763
  0
ARC
  5
36B
100
AcDbEntity
  8
0
100
AcDbCircle
 62
7
  6
CONTINUOUS
 10
6.0417836106
 20
2.2738944884
 40
0.0055
100
AcDbArc
 50
334.0
 51
34.0
  0
ARC
  5
36C
100
AcDbEntity
  8
0
100
AcDbCircle
 62
7
  6
CONTINUOUS
 10
6.0360963058
 20
2.2622337856
 40
0.0055
100
AcDbArc
 50
274.0
 51
334.0
  0
ARC
  5
36D
100
AcDbEntity
  8
0
100
AcDbCircle
 62
7
  6
CONTINUOUS
 10
5.9885350199
 20
2.2692368613
 40
0.003
100
AcDbArc
 50
177.5
 51
237.5
  0
ARC
  5
36E
100
AcDbEntity
  8
0
100
AcDbCircle
 62
7
  6
CONTINUOUS
 10
5.9864978387
 20
2.2798917039
 40
0.0005
100
AcDbArc
 50
177.4999999999
 51
267.5000000002
  0
ARC
  5
36F
100
AcDbEntity
  8
0
100
AcDbCircle
 62
7
  6
CONTINUOUS
 10
5.9863166473
 20
2.2757417404
 40
0.0005
100
AcDbArc
 50
87.4999999999
 51
177.4999999999
  0
ARC
  5
370
100
AcDbEntity
  8
0
100
AcDbCircle
 62
7
  6
CONTINUOUS
 10
6.0543547068
 20
1.9548900472
 40
0.0245
100
AcDbArc
 50
85.2068956492
 51
144.7931043508
  0
ARC
  5
371
100
AcDbEntity
  8
0
100
AcDbCircle
 62
7
  6
CONTINUOUS
 10
6.0739557354
 20
2.0997775009
 40
0.0125
100
AcDbArc
 50
180.0
 51
252.5423968763
  0
ARC
  5
372
100
AcDbEntity
  8
0
100
AcDbCircle
 62
7
  6
CONTINUOUS
 10
6.0492111177
 20
1.964870741
 40
0.0125
100
AcDbArc
 50
234.64645964
 51
318.5781784782
  0
ARC
  5
373
100
AcDbEntity
  8
0
100
AcDbCircle
 62
7
  6
CONTINUOUS
 10
6.0494201448
 20
1.9625194245
 40
0.0125
100
AcDbArc
 50
46.0231697077
 51
131.2602047083
  0
ARC
  5
374
100
AcDbEntity
  8
0
100
AcDbCircle
 62
7
  6
CONTINUOUS
 10
6.0717057354
 20
2.0944865105
 40
0.0075
100
AcDbArc
 50
297.8181392847
 51
360.0
  0
ARC
  5
375
100
AcDbEntity
  8
0
100
AcDbCircle
 62
7
  6
CONTINUOUS
 10
6.0593608702
 20
1.9608510383
 40
0.0075
100
AcDbArc
 50
314.4712206345
 51
74.6196427434
  0
ARC
  5
376
100
AcDbEntity
  8
0
100
AcDbCircle
 62
7
  6
CONTINUOUS
 10
6.056986781
 20
1.9862798893
 40
0.007
100
AcDbArc
 50
265.2068956493
 51
286.0
  0
ARC
  5
377
100
AcDbEntity
  8
0
100
AcDbCircle
 62
7
  6
CONTINUOUS
 10
6.1002057354
 20
2.0903532609
 40
0.0025
100
AcDbArc
 50
180.0
 51
270.0000000001
  0
ARC
  5
378
100
AcDbEntity
  8
0
100
AcDbCircle
 62
7
  6
CONTINUOUS
 10
6.0609956321
 20
2.1128725263
 40
0.0782898991
100
AcDbArc
 50
179.0666744841
 51
180.0140992558
  0
ARC
  5
379
100
AcDbEntity
  8
0
100
AcDbCircle
 62
7
  6
CONTINUOUS
 10
6.0912073802
 20
2.1141032609
 40
0.04
100
AcDbArc
 50
341.7900431357
 51
18.2099568643
  0
ARC
  5
37A
100
AcDbEntity
  8
0
100
AcDbCircle
 62
7
  6
CONTINUOUS
 10
6.1102057354
 20
2.1128532609
 40
0.035
100
AcDbArc
 50
270.0
 51
90.0
  0
ARC
  5
37B
100
AcDbEntity
  8
0
100
AcDbCircle
 62
7
  6
CONTINUOUS
 10
6.1102057354
 20
2.1078532609
 40
0.02
100
AcDbArc
 50
270.0
 51
341.7900431357
  0
ARC
  5
37C
100
AcDbEntity
  8
0
100
AcDbCircle
 62
7
  6
CONTINUOUS
 10
6.1102057354
 20
2.1203532609
 40
0.02
100
AcDbArc
 50
18.2099568643
 51
90.0
  0
ARC
  5
37D
100
AcDbEntity
  8
0
100
AcDbCircle
 62
7
  6
CONTINUOUS
 10
6.0739557354
 20
2.1284290209
 40
0.0125
100
AcDbArc
 50
107.4576031237
 51
180.0
  0
ARC
  5
37E
100
AcDbEntity
  8
0
100
AcDbCircle
 62
7
  6
CONTINUOUS
 10
6.0607901772
 20
2.2632482333
 40
0.009
100
AcDbArc
 50
236.0164438544
 51
64.0
  0
ARC
  5
37F
100
AcDbEntity
  8
0
100
AcDbCircle
 62
7
  6
CONTINUOUS
 10
6.0717057354
 20
2.1337200113
 40
0.0075
100
AcDbArc
 50
0.0
 51
62.1818607153
  0
ARC
  5
380
100
AcDbEntity
  8
0
100
AcDbCircle
 62
7
  6
CONTINUOUS
 10
6.0775196754
 20
2.2510455336
 40
0.0073405592
100
AcDbArc
 50
52.0
 51
97.0
  0
ARC
  5
381
100
AcDbEntity
  8
0
100
AcDbCircle
 62
7
  6
CONTINUOUS
 10
6.0907507342
 20
2.2407082976
 40
0.0073405592
100
AcDbArc
 50
7.0
 51
52.0
  0
ARC
  5
382
100
AcDbEntity
  8
0
100
AcDbCircle
 62
7
  6
CONTINUOUS
 10
6.0861663676
 20
2.2326400602
 40
0.0065
100
AcDbArc
 50
142.0
 51
202.0
  0
ARC
  5
383
100
AcDbEntity
  8
0
100
AcDbCircle
 62
7
  6
CONTINUOUS
 10
6.0708001579
 20
2.244645459
 40
0.0065
100
AcDbArc
 50
262.0
 51
322.0
  0
ARC
  5
384
100
AcDbEntity
  8
0
100
AcDbCircle
 62
7
  6
CONTINUOUS
 10
6.0578282514
 20
2.2646928611
 40
0.0057954444
100
AcDbArc
 50
244.0
 51
64.0
  0
ARC
  5
385
100
AcDbEntity
  8
0
100
AcDbCircle
 62
7
  6
CONTINUOUS
 10
6.0658548291
 20
2.2485394162
 40
0.0055
100
AcDbArc
 50
208.0605153624
 51
244.0
  0
ARC
  5
386
100
AcDbEntity
  8
0
100
AcDbCircle
 62
7
  6
CONTINUOUS
 10
6.0518252016
 20
2.2545622905
 40
0.0055
100
AcDbArc
 50
154.0
 51
214.0
  0
ARC
  5
387
100
AcDbEntity
  8
0
100
AcDbCircle
 62
7
  6
CONTINUOUS
 10
6.1002057354
 20
2.1378532609
 40
0.0025
100
AcDbArc
 50
89.9999999999
 51
180.0
  0
ARC
  5
388
100
AcDbEntity
  8
0
100
AcDbCircle
 62
7
  6
CONTINUOUS
 10
6.0501549623
 20
2.2625436525
 40
0.0005
100
AcDbArc
 50
153.9999999998
 51
244.0000000002
  0
ARC
  5
389
100
AcDbEntity
  8
0
100
AcDbCircle
 62
7
  6
CONTINUOUS
 10
6.0547977024
 20
2.2720626804
 40
0.0005
100
AcDbArc
 50
63.9999999998
 51
153.9999999998
  0
ARC
  5
38A
100
AcDbEntity
  8
0
100
AcDbCircle
 62
7
  6
CONTINUOUS
 10
6.0853916332
 20
2.2535760803
 40
0.0005
100
AcDbArc
 50
322.0000000002
 51
51.9999999999
  0
ARC
  5
38B
100
AcDbEntity
  8
0
100
AcDbCircle
 62
7
  6
CONTINUOUS
 10
6.0913017139
 20
2.2489586192
 40
0.0005
100
AcDbArc
 50
51.9999999999
 51
141.9999999998
  0
ARC
  5
38C
100
AcDbEntity
  8
0
100
AcDbCircle
 62
7
  6
CONTINUOUS
 10
6.0495258098
 20
2.2582794161
 40
0.0005
100
AcDbArc
 50
14.1777964194
 51
63.9999999999
  0
ARC
  5
38D
100
AcDbEntity
  8
0
100
AcDbCircle
 62
7
  6
CONTINUOUS
 10
6.0483539264
 20
2.2588509818
 40
0.0005
100
AcDbArc
 50
63.9999999999
 51
153.9999999999
  0
ARC
  5
38E
100
AcDbEntity
  8
0
100
AcDbCircle
 62
7
  6
CONTINUOUS
 10
6.4177057354
 20
1.312992583
 40
0.125
100
AcDbArc
 50
180.0
 51
238.5948363341
  0
ARC
  5
38F
100
AcDbEntity
  8
0
100
AcDbCircle
 62
7
  6
CONTINUOUS
 10
6.4802057354
 20
1.069797532
 40
0.05
100
AcDbArc
 50
0.0
 51
58.5948363341
  0
ARC
  5
390
100
AcDbEntity
  8
0
100
AcDbCircle
 62
7
  6
CONTINUOUS
 10
6.7122075056
 20
3.1497786547
 40
0.5
100
AcDbArc
 50
185.0
 51
211.8442000824
  0
ARC
  5
391
100
AcDbEntity
  8
0
100
AcDbCircle
 62
7
  6
CONTINUOUS
 10
6.1302057354
 20
2.5528532609
 40
0.4625
100
AcDbArc
 50
161.0753555839
 51
180.0
  0
ARC
  5
392
100
AcDbEntity
  8
0
100
AcDbCircle
 62
7
  6
CONTINUOUS
 10
5.9802057354
 20
3.4938532609
 40
0.15625
100
AcDbArc
 50
14.539847615
 51
165.460152385
  0
ARC
  5
393
100
AcDbEntity
  8
0
100
AcDbCircle
 62
7
  6
CONTINUOUS
 10
6.2264557354
 20
2.7696748603
 40
0.094
100
AcDbArc
 50
314.6944113957
 51
45.615656042
  0
ARC
  5
394
100
AcDbEntity
  8
0
100
AcDbCircle
 62
7
  6
CONTINUOUS
 10
5.9802395153
 20
3.4853414243
 40
0.0477351809
100
AcDbArc
 50
10.2723965353
 51
90.0405422297
  0
ARC
  5
395
100
AcDbEntity
  8
0
100
AcDbCircle
 62
7
  6
CONTINUOUS
 10
6.2607057354
 20
2.8693532609
 40
0.0315
100
AcDbArc
 50
0.0
 51
31.8442000824
  0
ARC
  5
396
100
AcDbEntity
  8
0
100
AcDbCircle
 62
7
  6
CONTINUOUS
 10
6.1822647176
 20
3.2923532609
 40
0.0155
100
AcDbArc
 50
5.0
 51
90.0
  0
ARC
  5
397
100
AcDbEntity
  8
0
100
AcDbCircle
 62
7
  6
CONTINUOUS
 10
5.9976769426
 20
2.283753837
 40
0.008
100
AcDbArc
 50
267.5
 51
87.5
  0
ARC
  5
398
100
AcDbEntity
  8
0
100
AcDbCircle
 62
7
  6
CONTINUOUS
 10
5.9943340444
 20
2.2838997911
 40
0.0048460829
100
AcDbArc
 50
267.5
 51
87.5
  0
ARC
  5
399
100
AcDbEntity
  8
0
100
AcDbCircle
 62
7
  6
CONTINUOUS
 10
5.9868769856
 20
2.2885755966
 40
0.0005
100
AcDbArc
 50
87.4999999998
 51
177.4999999999
  0
SPLINE
  5
39A
100
AcDbEntity
  8
0
100
AcDbSpline
 62
7
  6
CONTINUOUS
 70
0
 71
3
 72
11
 73
7
 74
0
 42
0.0000001
 43
0.0000001
 44
0.0000000001
 40
0.0
 40
0.0
 40
0.0
 40
0.0
 40
0.2960727264
 40
0.5093010479
 40
0.7225293694
 40
1.0
 40
1.0
 40
1.0
 40
1.0
 10
6.0177057354
 20
2.1128532609
 30
0.0
 10
6.0177057354
 20
2.1197236133
 30
0.0
 10
6.016288419
 20
2.1315419179
 30
0.0
 10
6.0002057354
 20
2.1404956216
 30
0.0
 10
5.9845371134
 20
2.1317724382
 30
0.0
 10
5.9828225024
 20
2.120579588
 30
0.0
 10
5.98271612
 20
2.1141477813
 30
0.0
  0
SPLINE
  5
39B
100
AcDbEntity
  8
0
100
AcDbSpline
 62
7
  6
CONTINUOUS
 70
0
 71
3
 72
11
 73
7
 74
0
 42
0.0000001
 43
0.0000001
 44
0.0000000001
 40
0.0
 40
0.0
 40
0.0
 40
0.0
 40
0.3027578643
 40
0.5208007485
 40
0.7388436328
 40
1.0
 40
1.0
 40
1.0
 40
1.0
 10
5.9827057354
 20
2.1128532609
 30
0.0
 10
5.9827057354
 20
2.1059829085
 30
0.0
 10
5.9841230518
 20
2.0941646038
 30
0.0
 10
6.0002057354
 20
2.0852109002
 30
0.0
 10
6.0153828638
 20
2.0936604546
 30
0.0
 10
6.0174160133
 20
2.1041299579
 30
0.0
 10
6.0176525061
 20
2.1100259553
 30
0.0
  0
SPLINE
  5
39C
100
AcDbEntity
  8
0
100
AcDbSpline
 62
7
  6
CONTINUOUS
 70
0
 71
3
 72
11
 73
7
 74
0
 42
0.0000001
 43
0.0000001
 44
0.0000000001
 40
0.0
 40
0.0
 40
0.0
 40
0.0
 40
0.2856552383
 40
0.4992298503
 40
0.7128044624
 40
1.0
 40
1.0
 40
1.0
 40
1.0
 10
6.0299375966
 20
2.2698305805
 30
0.0
 10
6.0306963261
 20
2.2726621976
 30
0.0
 10
6.0316829836
 20
2.2777018455
 30
0.0
 10
6.025848862
 20
2.2832510986
 30
0.0
 10
6.0180950547
 20
2.281324634
 30
0.0
 10
6.0162068996
 20
2.2765424713
 30
0.0
 10
6.0154487092
 20
2.2737128662
 30
0.0
  0
SPLINE
  5
39D
100
AcDbEntity
  8
0
100
AcDbSpline
 62
7
  6
CONTINUOUS
 70
0
 71
3
 72
11
 73
7
 74
0
 42
0.0000001
 43
0.0000001
 44
0.0000000001
 40
0.0
 40
0.0
 40
0.0
 40
0.0
 40
0.2871955376
 40
0.5007701497
 40
0.7143447617
 40
1.0
 40
1.0
 40
1.0
 40
1.0
 10
6.0154487092
 20
2.2737128662
 30
0.0
 10
6.0146905188
 20
2.270883261
 30
0.0
 10
6.0139346277
 20
2.2657977091
 30
0.0
 10
6.0196863896
 20
2.2602524382
 30
0.0
 10
6.0275135136
 20
2.2621411716
 30
0.0
 10
6.0291788671
 20
2.2669989634
 30
0.0
 10
6.0299375966
 20
2.2698305805
 30
0.0
  0
SPLINE
  5
39E
100
AcDbEntity
  8
0
100
AcDbSpline
 62
7
  6
CONTINUOUS
 70
0
 71
3
 72
11
 73
7
 74
0
 42
0.0000001
 43
0.0000001
 44
0.0000000001
 40
0.0
 40
0.0
 40
0.0
 40
0.0
 40
0.2734606541
 40
0.499994681
 40
0.7265393459
 40
1.0
 40
1.0
 40
1.0
 40
1.0
 10
6.0327057354
 20
2.1128532609
 30
0.0
 10
6.0327060665
 20
2.1030334878
 30
0.0
 10
6.0270854991
 20
2.0850790832
 30
0.0
 10
6.0002050347
 20
2.0745794861
 30
0.0
 10
5.9733265403
 20
2.0850786799
 30
0.0
 10
5.9677060408
 20
2.1030334984
 30
0.0
 10
5.9677057354
 20
2.1128532609
 30
0.0
  0
SPLINE
  5
39F
100
AcDbEntity
  8
0
100
AcDbSpline
 62
7
  6
CONTINUOUS
 70
0
 71
3
 72
11
 73
7
 74
0
 42
0.0000001
 43
0.0000001
 44
0.0000000001
 40
0.0
 40
0.0
 40
0.0
 40
0.0
 40
0.1272293453
 40
0.4753759124
 40
0.7537985656
 40
1.0
 40
1.0
 40
1.0
 40
1.0
 10
6.021426356
 20
1.9429741598
 30
0.0
 10
6.0226813103
 20
1.943871896
 30
0.0
 10
6.024514718
 20
1.9473924439
 30
0.0
 10
6.0151486089
 20
1.9491781732
 30
0.0
 10
6.0081510771
 20
1.9475511477
 30
0.0
 10
6.0044527124
 20
1.9486759647
 30
0.0
 10
6.0020731265
 20
1.9498374608
 30
0.0
  0
SPLINE
  5
3A0
100
AcDbEntity
  8
0
100
AcDbSpline
 62
7
  6
CONTINUOUS
 70
0
 71
3
 72
12
 73
8
 74
0
 42
0.0000001
 43
0.0000001
 44
0.0000000001
 40
0.0
 40
0.0
 40
0.0
 40
0.0
 40
0.1951112257
 40
0.2906771722
 40
0.5118928084
 40
0.8199224049
 40
1.0
 40
1.0
 40
1.0
 40
1.0
 10
6.0079099721
 20
1.9618126969
 30
0.0
 10
6.0053998489
 20
1.9604633828
 30
0.0
 10
6.0033211083
 20
1.9574154534
 30
0.0
 10
6.0085848728
 20
1.95506836
 30
0.0
 10
6.0145882332
 20
1.9560894243
 30
0.0
 10
6.0200339811
 20
1.9565813296
 30
0.0
 10
6.0244609938
 20
1.9547511904
 30
0.0
 10
6.0267039886
 20
1.9535394012
 30
0.0
  0
SPLINE
  5
3A1
100
AcDbEntity
  8
0
100
AcDbSpline
 62
7
  6
CONTINUOUS
 70
0
 71
3
 72
11
 73
7
 74
0
 42
0.0000001
 43
0.0000001
 44
0.0000000001
 40
0.0
 40
0.0
 40
0.0
 40
0.0
 40
0.1272293453
 40
0.4753759124
 40
0.7537985656
 40
1.0
 40
1.0
 40
1.0
 40
1.0
 10
6.0585843571
 20
1.9566007722
 30
0.0
 10
6.0596052002
 20
1.9577578028
 30
0.0
 10
6.0605996668
 20
1.9616005463
 30
0.0
 10
6.0510719089
 20
1.9612335913
 30
0.0
 10
6.0446197244
 20
1.9580741642
 30
0.0
 10
6.0407631198
 20
1.9583382012
 30
0.0
 10
6.0381832428
 20
1.9589346378
 30
0.0
  0
SPLINE
  5
3A2
100
AcDbEntity
  8
0
100
AcDbSpline
 62
7
  6
CONTINUOUS
 70
0
 71
3
 72
12
 73
8
 74
0
 42
0.0000001
 43
0.0000001
 44
0.0000000001
 40
0.0
 40
0.0
 40
0.0
 40
0.0
 40
0.1951112257
 40
0.2906771722
 40
0.5118928084
 40
0.8199224049
 40
1.0
 40
1.0
 40
1.0
 40
1.0
 10
6.0411766484
 20
1.971915954
 30
0.0
 10
6.0390343891
 20
1.9700365679
 30
0.0
 10
6.0376945615
 20
1.9665991418
 30
0.0
 10
6.0433513971
 20
1.9654962936
 30
0.0
 10
6.0489712023
 20
1.9678416504
 30
0.0
 10
6.0541667215
 20
1.9695459749
 30
0.0
 10
6.0588919618
 20
1.9687586033
 30
0.0
 10
6.0613500621
 20
1.9680824362
 30
0.0
  0
SPLINE
  5
3A3
100
AcDbEntity
  8
0
100
AcDbSpline
 62
7
  6
CONTINUOUS
 70
0
 71
3
 72
11
 73
7
 74
0
 42
0.0000001
 43
0.0000001
 44
0.0000000001
 40
0.0
 40
0.0
 40
0.0
 40
0.0
 40
0.2734597226
 40
0.4999743749
 40
0.7265402774
 40
1.0
 40
1.0
 40
1.0
 40
1.0
 10
5.9677057354
 20
2.1128532609
 30
0.0
 10
5.96770543
 20
2.1226730233
 30
0.0
 10
5.9733244664
 20
2.1406267703
 30
0.0
 10
6.0002093391
 20
2.1511270081
 30
0.0
 10
6.0270832588
 20
2.1406286917
 30
0.0
 10
6.0327054043
 20
2.1226730339
 30
0.0
 10
6.0327057354
 20
2.1128532609
 30
0.0
  0
SPLINE
  5
3A4
100
AcDbEntity
  8
0
100
AcDbSpline
 62
7
  6
CONTINUOUS
 70
0
 71
3
 72
11
 73
7
 74
0
 42
0.0000001
 43
0.0000001
 44
0.0000000001
 40
0.0
 40
0.0
 40
0.0
 40
0.0
 40
0.2724684209
 40
0.5003046949
 40
0.728192518
 40
1.0
 40
1.0
 40
1.0
 40
1.0
 10
6.0092185082
 20
2.2753823258
 30
0.0
 10
6.0103089368
 20
2.2794523016
 30
0.0
 10
6.014659413
 20
2.2862963352
 30
0.0
 10
6.027017214
 20
2.2875782509
 30
0.0
 10
6.0371117792
 20
2.2802924521
 30
0.0
 10
6.0373550383
 20
2.2722061399
 30
0.0
 10
6.0362644108
 20
2.2681353158
 30
0.0
  0
SPLINE
  5
3A5
100
AcDbEntity
  8
0
100
AcDbSpline
 62
7
  6
CONTINUOUS
 70
0
 71
3
 72
11
 73
7
 74
0
 42
0.0000001
 43
0.0000001
 44
0.0000000001
 40
0.0
 40
0.0
 40
0.0
 40
0.0
 40
0.271807482
 40
0.4996624675
 40
0.727528153
 40
1.0
 40
1.0
 40
1.0
 40
1.0
 10
6.0362644108
 20
2.2681353158
 30
0.0
 10
6.0351737833
 20
2.2640644916
 30
0.0
 10
6.030920749
 20
2.2571835173
 30
0.0
 10
6.0185328285
 20
2.2559213104
 30
0.0
 10
6.0084741187
 20
2.2632092676
 30
0.0
 10
6.0081280658
 20
2.2713122988
 30
0.0
 10
6.0092185082
 20
2.2753823258
 30
0.0
  0
SPLINE
  5
3A6
100
AcDbEntity
  8
0
100
AcDbSpline
 62
7
  6
CONTINUOUS
 70
0
 71
3
 72
35
 73
31
 74
0
 42
0.0000001
 43
0.0000001
 44
0.0000000001
 40
0.0
 40
0.0
 40
0.0
 40
0.0
 40
0.0723058147
 40
0.1076113419
 40
0.1421975709
 40
0.2088264447
 40
0.240800934
 40
0.2718276488
 40
0.3019120502
 40
0.3310900164
 40
0.3594294495
 40
0.3870309571
 40
0.4140264635
 40
0.4405757405
 40
0.4668605187
 40
0.4930759647
 40
0.5194209524
 40
0.5460875989
 40
0.5732516363
 40
0.6010649543
 40
0.629650164
 40
0.659097945
 40
0.6894664155
 40
0.7207819194
 40
0.7530412039
 40
0.7862139253
 40
0.8550166445
 40
0.8905219999
 40
0.9266081504
 40
1.0
 40
1.0
 40
1.0
 40
1.0
 10
5.8416031671
 20
3.4938532609
 30
0.0
 10
5.8418378318
 20
3.4965401934
 30
0.0
 10
5.8424366545
 20
3.500524356
 30
0.0
 10
5.8437483624
 20
3.505667347
 30
0.0
 10
5.8453458346
 20
3.5105058983
 30
0.0
 10
5.8474075099
 20
3.5150515123
 30
0.0
 10
5.8499278458
 20
3.5191836542
 30
0.0
 10
5.8519845452
 20
3.5219870478
 30
0.0
 10
5.8542177288
 20
3.5245146854
 30
0.0
 10
5.856611108
 20
3.5267474269
 30
0.0
 10
5.859146974
 20
3.5286678911
 30
0.0
 10
5.8618064598
 20
3.5302609192
 30
0.0
 10
5.8645695084
 20
3.5315136562
 30
0.0
 10
5.867414953
 20
3.5324157651
 30
0.0
 10
5.8703206348
 20
3.5329596877
 30
0.0
 10
5.8732636569
 20
3.5331408704
 30
0.0
 10
5.8762207271
 20
3.5329579253
 30
0.0
 10
5.8791685521
 20
3.5324126385
 30
0.0
 10
5.8820841885
 20
3.531509839
 30
0.0
 10
5.8849452822
 20
3.5302571755
 30
0.0
 10
5.8877302193
 20
3.5286649078
 30
0.0
 10
5.890418187
 20
3.5267457119
 30
0.0
 10
5.8929892514
 20
3.5245145394
 30
0.0
 10
5.8954243542
 20
3.5219885798
 30
0.0
 10
5.8977056349
 20
3.5191868519
 30
0.0
 10
5.9005532438
 20
3.5150631933
 30
0.0
 10
5.9029811615
 20
3.5105222871
 30
0.0
 10
5.9049722296
 20
3.5056755107
 30
0.0
 10
5.9066942574
 20
3.5005455915
 30
0.0
 10
5.9076181296
 20
3.4965531812
 30
0.0
 10
5.9080712045
 20
3.4938532609
 30
0.0
  0
LINE
  5
3A7
100
AcDbEntity
  8
0
100
AcDbLine
 62
7
  6
CONTINUOUS
 10
5.8927057354
 20
2.4128532621
 11
5.9183338801
 21
2.412853262
  0
SPLINE
  5
3A8
100
AcDbEntity
  8
0
100
AcDbSpline
 62
7
  6
CONTINUOUS
 70
0
 71
3
 72
23
 73
19
 74
0
 42
0.0000001
 43
0.0000001
 44
0.0000000001
 40
0.0
 40
0.0
 40
0.0
 40
0.0
 40
0.0742628548
 40
0.1474048781
 40
0.2193040249
 40
0.2898489136
 40
0.3589372102
 40
0.4264736352
 40
0.492372423
 40
0.5565536624
 40
0.6189406348
 40
0.6794642191
 40
0.7380628711
 40
0.794683089
 40
0.8492647272
 40
0.9017389413
 40
0.9520254476
 40
1.0
 40
1.0
 40
1.0
 40
1.0
 10
6.0818504319
 20
2.6613184764
 30
0.0
 10
6.0870963956
 20
2.6601060098
 30
0.0
 10
6.0974646191
 20
2.6575013276
 30
0.0
 10
6.112726706
 20
2.6530285056
 30
0.0
 10
6.1275458338
 20
2.6480448086
 30
0.0
 10
6.1418798179
 20
2.6425788719
 30
0.0
 10
6.1556903186
 20
2.6366623442
 30
0.0
 10
6.1689439955
 20
2.6303325406
 30
0.0
 10
6.1816097613
 20
2.6236257082
 30
0.0
 10
6.1936597301
 20
2.6165801982
 30
0.0
 10
6.2050708036
 20
2.6092384775
 30
0.0
 10
6.2158211801
 20
2.6016408155
 30
0.0
 10
6.2258911357
 20
2.593826629
 30
0.0
 10
6.2352606406
 20
2.5858338162
 30
0.0
 10
6.2439145479
 20
2.5777070699
 30
0.0
 10
6.2518401644
 20
2.5694954356
 30
0.0
 10
6.2590253414
 20
2.5612547522
 30
0.0
 10
6.2634256129
 20
2.555647008
 30
0.0
 10
6.265497673
 20
2.5528532609
 30
0.0
  0
SPLINE
  5
3A9
100
AcDbEntity
  8
0
100
AcDbSpline
 62
7
  6
CONTINUOUS
 70
0
 71
3
 72
32
 73
28
 74
0
 42
0.0000001
 43
0.0000001
 44
0.0000000001
 40
0.0
 40
0.0
 40
0.0
 40
0.0
 40
0.0834484369
 40
0.1648770906
 40
0.2440429586
 40
0.2827164034
 40
0.3207498231
 40
0.358116921
 40
0.3947943351
 40
0.4307705142
 40
0.4660364042
 40
0.5343604167
 40
0.5673674198
 40
0.5995845019
 40
0.6310134908
 40
0.661654241
 40
0.6914909101
 40
0.7205003552
 40
0.7759564675
 40
0.8023807917
 40
0.8279241126
 40
0.8763971021
 40
0.899340158
 40
0.9213862189
 40
0.9424912154
 40
0.9626208841
 40
1.0
 40
1.0
 40
1.0
 40
1.0
 10
6.0767593772
 20
2.571808041
 30
0.0
 10
6.0824079184
 20
2.5709464943
 30
0.0
 10
6.0935445459
 20
2.569083486
 30
0.0
 10
6.1099386069
 20
2.5658371875
 30
0.0
 10
6.1232391293
 20
2.5627833349
 30
0.0
 10
6.1335829167
 20
2.5601519187
 30
0.0
 10
6.1411220915
 20
2.5581085397
 30
0.0
 10
6.1484972766
 20
2.5559861824
 30
0.0
 10
6.1557037813
 20
2.5537903357
 30
0.0
 10
6.1627376726
 20
2.551524661
 30
0.0
 10
6.1717853469
 20
2.5484474167
 30
0.0
 10
6.180566396
 20
2.5452211718
 30
0.0
 10
6.189072109
 20
2.5418632085
 30
0.0
 10
6.1951885067
 20
2.5393350031
 30
0.0
 10
6.2011139032
 20
2.53677115
 30
0.0
 10
6.206846644
 20
2.5341747575
 30
0.0
 10
6.2123852494
 20
2.531553352
 30
0.0
 10
6.2194031228
 20
2.5280882082
 30
0.0
 10
6.2261292639
 20
2.5245618522
 30
0.0
 10
6.2325552053
 20
2.5209820273
 30
0.0
 10
6.2385059837
 20
2.5175339273
 30
0.0
 10
6.2441640297
 20
2.5140573922
 30
0.0
 10
6.2495175034
 20
2.5105505251
 30
0.0
 10
6.2532585094
 20
2.5080033939
 30
0.0
 10
6.2567990479
 20
2.5055052365
 30
0.0
 10
6.2611486007
 20
2.5023338858
 30
0.0
 10
6.2642753157
 20
2.4999386329
 30
0.0
 10
6.2662776307
 20
2.4983444724
 30
0.0
  0
SPLINE
  5
3AA
100
AcDbEntity
  8
0
100
AcDbSpline
 62
7
  6
CONTINUOUS
 70
0
 71
3
 72
26
 73
22
 74
0
 42
0.0000001
 43
0.0000001
 44
0.0000000001
 40
0.0
 40
0.0
 40
0.0
 40
0.0
 40
0.1214570851
 40
0.2414680632
 40
0.3010244752
 40
0.3603423425
 40
0.4785962132
 40
0.5377396049
 40
0.5970628518
 40
0.6567611125
 40
0.7171529363
 40
0.7788529903
 40
0.8105839113
 40
0.8433148419
 40
0.8602320256
 40
0.8776681342
 40
0.8957534343
 40
0.9146462449
 40
0.955583606
 40
0.9775113496
 40
1.0
 40
1.0
 40
1.0
 40
1.0
 10
6.265497673
 20
2.5528532609
 30
0.0
 10
6.2675652508
 20
2.5491596413
 30
0.0
 10
6.2714627179
 20
2.541694732
 30
0.0
 10
6.2757615765
 20
2.5321179328
 30
0.0
 10
6.278832327
 20
2.5243783036
 30
0.0
 10
6.2816524838
 20
2.516609166
 30
0.0
 10
6.2841176418
 20
2.5087300018
 30
0.0
 10
6.2862208852
 20
2.5007516072
 30
0.0
 10
6.2876204973
 20
2.4947010871
 30
0.0
 10
6.2888430185
 20
2.4885679958
 30
0.0
 10
6.2898896581
 20
2.4823184318
 30
0.0
 10
6.2906089828
 20
2.4770049857
 30
0.0
 10
6.2910923984
 20
2.4726345764
 30
0.0
 10
6.291355998
 20
2.4698105249
 30
0.0
 10
6.2915418309
 20
2.4674799252
 30
0.0
 10
6.2916694378
 20
2.4656568044
 30
0.0
 10
6.2917830402
 20
2.4637637751
 30
0.0
 10
6.2919183866
 20
2.4610516539
 30
0.0
 10
6.2920096527
 20
2.4582034654
 30
0.0
 10
6.2920594671
 20
2.4552291699
 30
0.0
 10
6.2920705849
 20
2.4536812175
 30
0.0
 10
6.2920733834
 20
2.452897465
 30
0.0
  0
SPLINE
  5
3AB
100
AcDbEntity
  8
0
100
AcDbSpline
 62
7
  6
CONTINUOUS
 70
0
 71
3
 72
27
 73
23
 74
0
 42
0.0000001
 43
0.0000001
 44
0.0000000001
 40
0.0
 40
0.0
 40
0.0
 40
0.0
 40
0.0655685278
 40
0.1291193762
 40
0.1908164296
 40
0.2508139141
 40
0.3091694397
 40
0.3657717144
 40
0.4208179609
 40
0.4745893218
 40
0.52739313
 40
0.5796059303
 40
0.6317110327
 40
0.6844032519
 40
0.7388728727
 40
0.797745411
 40
0.830920378
 40
0.8698157653
 40
0.8934638853
 40
0.922301738
 40
0.9585730977
 40
1.0
 40
1.0
 40
1.0
 40
1.0
 10
6.2662781967
 20
2.498344699
 30
0.0
 10
6.267210052
 20
2.4976024873
 30
0.0
 10
6.269023153
 20
2.4961130444
 30
0.0
 10
6.2716279286
 20
2.4938240561
 30
0.0
 10
6.2740754157
 20
2.4915125329
 30
0.0
 10
6.2763666249
 20
2.4891763878
 30
0.0
 10
6.2785006109
 20
2.4868193232
 30
0.0
 10
6.2804845642
 20
2.4844508352
 30
0.0
 10
6.2823149424
 20
2.4820657
 30
0.0
 10
6.2839933426
 20
2.4796547521
 30
0.0
 10
6.2855219455
 20
2.4772064546
 30
0.0
 10
6.2869024447
 20
2.4747060246
 30
0.0
 10
6.2881367171
 20
2.472132312
 30
0.0
 10
6.289227174
 20
2.4694498284
 30
0.0
 10
6.2901784296
 20
2.4665846964
 30
0.0
 10
6.2908330249
 20
2.4640013839
 30
0.0
 10
6.2912755816
 20
2.4616631446
 30
0.0
 10
6.2915159786
 20
2.4599398555
 30
0.0
 10
6.2916791969
 20
2.4582873942
 30
0.0
 10
6.2917879074
 20
2.4566781416
 30
0.0
 10
6.2918563021
 20
2.4547433885
 30
0.0
 10
6.2918673169
 20
2.4533315823
 30
0.0
 10
6.2918663431
 20
2.452578897
 30
0.0
  0
SPLINE
  5
3AC
100
AcDbEntity
  8
0
100
AcDbSpline
 62
7
  6
CONTINUOUS
 70
0
 71
3
 72
13
 73
9
 74
0
 42
0.0000001
 43
0.0000001
 44
0.0000000001
 40
0.0
 40
0.0
 40
0.0
 40
0.0
 40
0.2576622764
 40
0.5099844009
 40
0.6342571296
 40
0.757302027
 40
0.879198157
 40
1.0
 40
1.0
 40
1.0
 40
1.0
 10
6.2654976787
 20
2.5528532609
 30
0.0
 10
6.2645675427
 20
2.5482266563
 30
0.0
 10
6.263187409
 20
2.5389691777
 30
0.0
 10
6.2627029916
 20
2.5273384829
 30
0.0
 10
6.2630863687
 20
2.518191278
 30
0.0
 10
6.2637513444
 20
2.5114579021
 30
0.0
 10
6.2647935084
 20
2.5048371563
 30
0.0
 10
6.2657418394
 20
2.500491232
 30
0.0
 10
6.2662781967
 20
2.498344699
 30
0.0
  0
LINE
  5
3AD
100
AcDbEntity
  8
0
100
AcDbLine
 62
7
  6
CONTINUOUS
 10
6.2920733834
 20
2.452897465
 11
6.292249238
 21
2.2935388743
  0
LINE
  5
3AE
100
AcDbEntity
  8
0
100
AcDbLine
 62
7
  6
CONTINUOUS
 10
6.2918663864
 20
2.4525788971
 11
6.292096121
 21
2.2936272416
  0
LINE
  5
3AF
100
AcDbEntity
  8
0
100
AcDbLine
 62
7
  6
CONTINUOUS
 10
6.2920733867
 20
2.452897465
 11
6.2918663864
 21
2.4525788971
  0
SPLINE
  5
3B0
100
AcDbEntity
  8
0
100
AcDbSpline
 62
7
  6
CONTINUOUS
 70
0
 71
3
 72
35
 73
31
 74
0
 42
0.0000001
 43
0.0000001
 44
0.0000000001
 40
0.0
 40
0.0
 40
0.0
 40
0.0
 40
0.0580975525
 40
0.1164704028
 40
0.175165615
 40
0.2342370422
 40
0.3537185962
 40
0.4143212452
 40
0.4756039382
 40
0.5376689226
 40
0.5690359668
 40
0.6006413646
 40
0.6324986948
 40
0.664620398
 40
0.6970179243
 40
0.7296970162
 40
0.7626618031
 40
0.7792519085
 40
0.795912126
 40
0.8126397384
 40
0.8294326843
 40
0.8462887187
 40
0.8632037954
 40
0.880174083
 40
0.8971942483
 40
0.9142579303
 40
0.931359462
 40
0.9484926697
 40
0.9656512355
 40
1.0
 40
1.0
 40
1.0
 40
1.0
 10
6.257099442
 20
1.9118679378
 30
0.0
 10
6.2545466075
 20
1.9046328643
 30
0.0
 10
6.2491346211
 20
1.8902300807
 30
0.0
 10
6.2400866567
 20
1.8689337513
 30
0.0
 10
6.2300417584
 20
1.8479437214
 30
0.0
 10
6.2151934891
 20
1.8203463567
 30
0.0
 10
6.1981267137
 20
1.7936842185
 30
0.0
 10
6.1786616689
 20
1.7684227558
 30
0.0
 10
6.1626335774
 20
1.7501450833
 30
0.0
 10
6.1481132332
 20
1.7357433778
 30
0.0
 10
6.1357436906
 20
1.7247996347
 30
0.0
 10
6.1260372187
 20
1.7168812019
 30
0.0
 10
6.1159252441
 20
1.7093195406
 30
0.0
 10
6.105401174
 20
1.7021544303
 30
0.0
 10
6.0944626432
 20
1.6954289462
 30
0.0
 10
6.0831099792
 20
1.6891933121
 30
0.0
 10
6.0733297277
 20
1.6844606494
 30
0.0
 10
6.0653116371
 20
1.6809696407
 30
0.0
 10
6.0591898761
 20
1.6785007643
 30
0.0
 10
6.0529761952
 20
1.6761951397
 30
0.0
 10
6.0466740847
 20
1.6740612562
 30
0.0
 10
6.0402881077
 20
1.6721068335
 30
0.0
 10
6.0338242781
 20
1.6703368113
 30
0.0
 10
6.0272890985
 20
1.6687566531
 30
0.0
 10
6.020689567
 20
1.6673723217
 30
0.0
 10
6.0140331404
 20
1.6661903648
 30
0.0
 10
6.0073278821
 20
1.6652174819
 30
0.0
 10
6.0005825383
 20
1.6644564417
 30
0.0
 10
5.9915463287
 20
1.6637278167
 30
0.0
 10
5.98474176
 20
1.6635069029
 30
0.0
 10
5.9802057354
 20
1.6635063346
 30
0.0
  0
SPLINE
  5
3B1
100
AcDbEntity
  8
0
100
AcDbSpline
 62
7
  6
CONTINUOUS
 70
0
 71
3
 72
32
 73
28
 74
0
 42
0.0000001
 43
0.0000001
 44
0.0000000001
 40
0.0
 40
0.0
 40
0.0
 40
0.0
 40
0.0834484369
 40
0.1648770906
 40
0.2440429586
 40
0.2827164034
 40
0.3207498231
 40
0.358116921
 40
0.3947943351
 40
0.4307705142
 40
0.4660364042
 40
0.5343604167
 40
0.5673674198
 40
0.5995845019
 40
0.6310134908
 40
0.661654241
 40
0.6914909101
 40
0.7205003552
 40
0.7759564675
 40
0.8023807917
 40
0.8279241126
 40
0.8763971021
 40
0.899340158
 40
0.9213862189
 40
0.9424912154
 40
0.9626208841
 40
1.0
 40
1.0
 40
1.0
 40
1.0
 10
5.8836520936
 20
2.571808041
 30
0.0
 10
5.8780035524
 20
2.5709464943
 30
0.0
 10
5.8668669249
 20
2.569083486
 30
0.0
 10
5.8504728639
 20
2.5658371875
 30
0.0
 10
5.8371723415
 20
2.5627833349
 30
0.0
 10
5.8268285542
 20
2.5601519187
 30
0.0
 10
5.8192893793
 20
2.5581085397
 30
0.0
 10
5.8119141942
 20
2.5559861824
 30
0.0
 10
5.8047076896
 20
2.5537903357
 30
0.0
 10
5.7976737982
 20
2.551524661
 30
0.0
 10
5.7886261239
 20
2.5484474167
 30
0.0
 10
5.7798450748
 20
2.5452211718
 30
0.0
 10
5.7713393619
 20
2.5418632085
 30
0.0
 10
5.7652229641
 20
2.5393350031
 30
0.0
 10
5.7592975676
 20
2.53677115
 30
0.0
 10
5.7535648268
 20
2.5341747575
 30
0.0
 10
5.7480262215
 20
2.531553352
 30
0.0
 10
5.741008348
 20
2.5280882082
 30
0.0
 10
5.7342822069
 20
2.5245618522
 30
0.0
 10
5.7278562655
 20
2.5209820273
 30
0.0
 10
5.7219054871
 20
2.5175339273
 30
0.0
 10
5.7162474411
 20
2.5140573922
 30
0.0
 10
5.7108939674
 20
2.5105505251
 30
0.0
 10
5.7071529615
 20
2.5080033939
 30
0.0
 10
5.7036124229
 20
2.5055052365
 30
0.0
 10
5.6992628701
 20
2.5023338858
 30
0.0
 10
5.6961361552
 20
2.4999386329
 30
0.0
 10
5.6941338401
 20
2.4983444724
 30
0.0
  0
SPLINE
  5
3B2
100
AcDbEntity
  8
0
100
AcDbSpline
 62
7
  6
CONTINUOUS
 70
0
 71
3
 72
23
 73
19
 74
0
 42
0.0000001
 43
0.0000001
 44
0.0000000001
 40
0.0
 40
0.0
 40
0.0
 40
0.0
 40
0.0742628548
 40
0.1474048781
 40
0.2193040249
 40
0.2898489136
 40
0.3589372102
 40
0.4264736352
 40
0.492372423
 40
0.5565536624
 40
0.6189406348
 40
0.6794642191
 40
0.7380628711
 40
0.794683089
 40
0.8492647272
 40
0.9017389413
 40
0.9520254476
 40
1.0
 40
1.0
 40
1.0
 40
1.0
 10
5.8785610389
 20
2.6613184764
 30
0.0
 10
5.8733150752
 20
2.6601060098
 30
0.0
 10
5.8629468517
 20
2.6575013276
 30
0.0
 10
5.8476847648
 20
2.6530285056
 30
0.0
 10
5.832865637
 20
2.6480448086
 30
0.0
 10
5.8185316529
 20
2.6425788719
 30
0.0
 10
5.8047211523
 20
2.6366623442
 30
0.0
 10
5.7914674753
 20
2.6303325406
 30
0.0
 10
5.7788017095
 20
2.6236257082
 30
0.0
 10
5.7667517407
 20
2.6165801982
 30
0.0
 10
5.7553406672
 20
2.6092384775
 30
0.0
 10
5.7445902907
 20
2.6016408155
 30
0.0
 10
5.7345203351
 20
2.593826629
 30
0.0
 10
5.7251508303
 20
2.5858338162
 30
0.0
 10
5.7164969229
 20
2.5777070699
 30
0.0
 10
5.7085713064
 20
2.5694954356
 30
0.0
 10
5.7013861294
 20
2.5612547522
 30
0.0
 10
5.6969858579
 20
2.555647008
 30
0.0
 10
5.6949137978
 20
2.5528532609
 30
0.0
  0
SPLINE
  5
3B3
100
AcDbEntity
  8
0
100
AcDbSpline
 62
7
  6
CONTINUOUS
 70
0
 71
3
 72
26
 73
22
 74
0
 42
0.0000001
 43
0.0000001
 44
0.0000000001
 40
0.0
 40
0.0
 40
0.0
 40
0.0
 40
0.1214570851
 40
0.2414680632
 40
0.3010244752
 40
0.3603423425
 40
0.4785962132
 40
0.5377396049
 40
0.5970628518
 40
0.6567611125
 40
0.7171529363
 40
0.7788529903
 40
0.8105839113
 40
0.8433148419
 40
0.8602320256
 40
0.8776681342
 40
0.8957534343
 40
0.9146462449
 40
0.955583606
 40
0.9775113496
 40
1.0
 40
1.0
 40
1.0
 40
1.0
 10
5.6949137978
 20
2.5528532609
 30
0.0
 10
5.69284622
 20
2.5491596413
 30
0.0
 10
5.6889487529
 20
2.541694732
 30
0.0
 10
5.6846498943
 20
2.5321179328
 30
0.0
 10
5.6815791438
 20
2.5243783036
 30
0.0
 10
5.678758987
 20
2.516609166
 30
0.0
 10
5.676293829
 20
2.5087300018
 30
0.0
 10
5.6741905857
 20
2.5007516072
 30
0.0
 10
5.6727909735
 20
2.4947010871
 30
0.0
 10
5.6715684523
 20
2.4885679958
 30
0.0
 10
5.6705218127
 20
2.4823184318
 30
0.0
 10
5.669802488
 20
2.4770049857
 30
0.0
 10
5.6693190724
 20
2.4726345764
 30
0.0
 10
5.6690554728
 20
2.4698105249
 30
0.0
 10
5.66886964
 20
2.4674799252
 30
0.0
 10
5.6687420331
 20
2.4656568044
 30
0.0
 10
5.6686284307
 20
2.4637637751
 30
0.0
 10
5.6684930842
 20
2.4610516539
 30
0.0
 10
5.6684018181
 20
2.4582034654
 30
0.0
 10
5.6683520037
 20
2.4552291699
 30
0.0
 10
5.6683408859
 20
2.4536812175
 30
0.0
 10
5.6683380875
 20
2.452897465
 30
0.0
  0
SPLINE
  5
3B4
100
AcDbEntity
  8
0
100
AcDbSpline
 62
7
  6
CONTINUOUS
 70
0
 71
3
 72
13
 73
9
 74
0
 42
0.0000001
 43
0.0000001
 44
0.0000000001
 40
0.0
 40
0.0
 40
0.0
 40
0.0
 40
0.2576622764
 40
0.5099844009
 40
0.6342571296
 40
0.757302027
 40
0.879198157
 40
1.0
 40
1.0
 40
1.0
 40
1.0
 10
5.6949137921
 20
2.5528532609
 30
0.0
 10
5.6958439281
 20
2.5482266563
 30
0.0
 10
5.6972240619
 20
2.5389691777
 30
0.0
 10
5.6977084793
 20
2.5273384829
 30
0.0
 10
5.6973251021
 20
2.518191278
 30
0.0
 10
5.6966601264
 20
2.5114579021
 30
0.0
 10
5.6956179624
 20
2.5048371563
 30
0.0
 10
5.6946696314
 20
2.500491232
 30
0.0
 10
5.6941332742
 20
2.498344699
 30
0.0
  0
SPLINE
  5
3B5
100
AcDbEntity
  8
0
100
AcDbSpline
 62
7
  6
CONTINUOUS
 70
0
 71
3
 72
27
 73
23
 74
0
 42
0.0000001
 43
0.0000001
 44
0.0000000001
 40
0.0
 40
0.0
 40
0.0
 40
0.0
 40
0.0655685278
 40
0.1291193762
 40
0.1908164296
 40
0.2508139141
 40
0.3091694397
 40
0.3657717144
 40
0.4208179609
 40
0.4745893218
 40
0.52739313
 40
0.5796059303
 40
0.6317110327
 40
0.6844032519
 40
0.7388728727
 40
0.797745411
 40
0.830920378
 40
0.8698157653
 40
0.8934638853
 40
0.922301738
 40
0.9585730977
 40
1.0
 40
1.0
 40
1.0
 40
1.0
 10
5.6941332742
 20
2.498344699
 30
0.0
 10
5.6932014188
 20
2.4976024873
 30
0.0
 10
5.6913883178
 20
2.4961130444
 30
0.0
 10
5.6887835422
 20
2.4938240561
 30
0.0
 10
5.6863360551
 20
2.4915125329
 30
0.0
 10
5.684044846
 20
2.4891763878
 30
0.0
 10
5.6819108599
 20
2.4868193232
 30
0.0
 10
5.6799269066
 20
2.4844508352
 30
0.0
 10
5.6780965284
 20
2.4820657
 30
0.0
 10
5.6764181282
 20
2.4796547521
 30
0.0
 10
5.6748895253
 20
2.4772064546
 30
0.0
 10
5.6735090262
 20
2.4747060246
 30
0.0
 10
5.6722747537
 20
2.472132312
 30
0.0
 10
5.6711842968
 20
2.4694498284
 30
0.0
 10
5.6702330412
 20
2.4665846964
 30
0.0
 10
5.669578446
 20
2.4640013839
 30
0.0
 10
5.6691358892
 20
2.4616631446
 30
0.0
 10
5.6688954922
 20
2.4599398555
 30
0.0
 10
5.6687322739
 20
2.4582873942
 30
0.0
 10
5.6686235634
 20
2.4566781416
 30
0.0
 10
5.6685551687
 20
2.4547433885
 30
0.0
 10
5.6685441539
 20
2.4533315823
 30
0.0
 10
5.6685451278
 20
2.452578897
 30
0.0
  0
LINE
  5
3B6
100
AcDbEntity
  8
0
100
AcDbLine
 62
7
  6
CONTINUOUS
 10
5.9802057354
 20
2.4128532621
 11
6.042077561
 21
2.4128532621
  0
LINE
  5
3B7
100
AcDbEntity
  8
0
100
AcDbLine
 62
7
  6
CONTINUOUS
 10
6.042077561
 20
2.4128532621
 11
6.0677057354
 21
2.4128532621
  0
LINE
  5
3B8
100
AcDbEntity
  8
0
100
AcDbLine
 62
7
  6
CONTINUOUS
 10
5.6683380875
 20
2.452897465
 11
5.6681622329
 21
2.2935388743
  0
LINE
  5
3B9
100
AcDbEntity
  8
0
100
AcDbLine
 62
7
  6
CONTINUOUS
 10
5.6683380841
 20
2.452897465
 11
5.6685450845
 21
2.4525788971
  0
LINE
  5
3BA
100
AcDbEntity
  8
0
100
AcDbLine
 62
7
  6
CONTINUOUS
 10
5.6685450845
 20
2.4525788971
 11
5.6683153498
 21
2.2936272416
  0
LINE
  5
3BB
100
AcDbEntity
  8
0
100
AcDbLine
 62
7
  6
CONTINUOUS
 10
5.9183338801
 20
2.412853262
 11
5.9802057354
 21
2.412853262
  0
LINE
  5
3BC
100
AcDbEntity
  8
0
100
AcDbLine
 62
7
  6
CONTINUOUS
 10
6.0272057354
 20
3.4938532609
 11
6.0523402663
 21
3.4938532609
  0
LINE
  5
3BD
100
AcDbEntity
  8
0
100
AcDbLine
 62
7
  6
CONTINUOUS
 10
6.1292193673
 20
3.4938532609
 11
6.1188083038
 21
3.4938532609
  0
SPLINE
  5
3BE
100
AcDbEntity
  8
0
100
AcDbSpline
 62
7
  6
CONTINUOUS
 70
0
 71
3
 72
35
 73
31
 74
0
 42
0.0000001
 43
0.0000001
 44
0.0000000001
 40
0.0
 40
0.0
 40
0.0
 40
0.0
 40
0.0580975525
 40
0.1164704028
 40
0.175165615
 40
0.2342370422
 40
0.3537185962
 40
0.4143212452
 40
0.4756039382
 40
0.5376689226
 40
0.5690359668
 40
0.6006413646
 40
0.6324986948
 40
0.664620398
 40
0.6970179243
 40
0.7296970162
 40
0.7626618031
 40
0.7792519085
 40
0.795912126
 40
0.8126397384
 40
0.8294326843
 40
0.8462887187
 40
0.8632037954
 40
0.880174083
 40
0.8971942483
 40
0.9142579303
 40
0.931359462
 40
0.9484926697
 40
0.9656512355
 40
1.0
 40
1.0
 40
1.0
 40
1.0
 10
5.7033120288
 20
1.9118679378
 30
0.0
 10
5.7058648633
 20
1.9046328643
 30
0.0
 10
5.7112768497
 20
1.8902300807
 30
0.0
 10
5.7203248141
 20
1.8689337513
 30
0.0
 10
5.7303697124
 20
1.8479437214
 30
0.0
 10
5.7452179818
 20
1.8203463567
 30
0.0
 10
5.7622847571
 20
1.7936842185
 30
0.0
 10
5.7817498019
 20
1.7684227558
 30
0.0
 10
5.7977778934
 20
1.7501450833
 30
0.0
 10
5.8122982376
 20
1.7357433778
 30
0.0
 10
5.8246677803
 20
1.7247996347
 30
0.0
 10
5.8343742521
 20
1.7168812019
 30
0.0
 10
5.8444862268
 20
1.7093195406
 30
0.0
 10
5.8550102968
 20
1.7021544303
 30
0.0
 10
5.8659488276
 20
1.6954289462
 30
0.0
 10
5.8773014917
 20
1.6891933121
 30
0.0
 10
5.8870817431
 20
1.6844606494
 30
0.0
 10
5.8950998338
 20
1.6809696407
 30
0.0
 10
5.9012215947
 20
1.6785007643
 30
0.0
 10
5.9074352756
 20
1.6761951397
 30
0.0
 10
5.9137373862
 20
1.6740612562
 30
0.0
 10
5.9201233631
 20
1.6721068335
 30
0.0
 10
5.9265871927
 20
1.6703368113
 30
0.0
 10
5.9331223723
 20
1.6687566531
 30
0.0
 10
5.9397219038
 20
1.6673723217
 30
0.0
 10
5.9463783304
 20
1.6661903648
 30
0.0
 10
5.9530835887
 20
1.6652174819
 30
0.0
 10
5.9598289325
 20
1.6644564417
 30
0.0
 10
5.9688651421
 20
1.6637278167
 30
0.0
 10
5.9756697108
 20
1.6635069029
 30
0.0
 10
5.9802057354
 20
1.6635063346
 30
0.0
  0
LINE
  5
3BF
100
AcDbEntity
  8
0
100
AcDbLine
 62
7
  6
CONTINUOUS
 10
5.8311921035
 20
3.4938532609
 11
5.8416031671
 21
3.4938532609
  0
LINE
  5
3C0
100
AcDbEntity
  8
0
100
AcDbLine
 62
7
  6
CONTINUOUS
 10
5.9080712045
 20
3.4938532609
 11
5.9332057354
 21
3.4938532609
  0
SPLINE
  5
3C1
100
AcDbEntity
  8
0
100
AcDbSpline
 62
7
  6
CONTINUOUS
 70
0
 71
3
 72
35
 73
31
 74
0
 42
0.0000001
 43
0.0000001
 44
0.0000000001
 40
0.0
 40
0.0
 40
0.0
 40
0.0
 40
0.0733918496
 40
0.1094780001
 40
0.1449833555
 40
0.2137860747
 40
0.2469587961
 40
0.2792180806
 40
0.3105335845
 40
0.340902055
 40
0.370349836
 40
0.3989350457
 40
0.4267483637
 40
0.4539124011
 40
0.4805790476
 40
0.5069240353
 40
0.5331394813
 40
0.5594242595
 40
0.5859735365
 40
0.6129690429
 40
0.6405705505
 40
0.6689099836
 40
0.6980879498
 40
0.7281723512
 40
0.759199066
 40
0.7911735553
 40
0.8578024291
 40
0.8923886581
 40
0.9276941853
 40
1.0
 40
1.0
 40
1.0
 40
1.0
 10
6.0523402663
 20
3.4938532609
 30
0.0
 10
6.0527933413
 20
3.4965531812
 30
0.0
 10
6.0537172134
 20
3.5005455915
 30
0.0
 10
6.0554392412
 20
3.5056755107
 30
0.0
 10
6.0574303093
 20
3.5105222871
 30
0.0
 10
6.059858227
 20
3.5150631933
 30
0.0
 10
6.0627058359
 20
3.5191868519
 30
0.0
 10
6.0649871166
 20
3.5219885798
 30
0.0
 10
6.0674222194
 20
3.5245145394
 30
0.0
 10
6.0699932839
 20
3.5267457119
 30
0.0
 10
6.0726812516
 20
3.5286649078
 30
0.0
 10
6.0754661886
 20
3.5302571755
 30
0.0
 10
6.0783272823
 20
3.531509839
 30
0.0
 10
6.0812429187
 20
3.5324126385
 30
0.0
 10
6.0841907437
 20
3.5329579253
 30
0.0
 10
6.0871478139
 20
3.5331408704
 30
0.0
 10
6.090090836
 20
3.5329596877
 30
0.0
 10
6.0929965178
 20
3.5324157651
 30
0.0
 10
6.0958419624
 20
3.5315136562
 30
0.0
 10
6.098605011
 20
3.5302609192
 30
0.0
 10
6.1012644969
 20
3.5286678911
 30
0.0
 10
6.1038003628
 20
3.5267474269
 30
0.0
 10
6.106193742
 20
3.5245146854
 30
0.0
 10
6.1084269257
 20
3.5219870478
 30
0.0
 10
6.1104836251
 20
3.5191836542
 30
0.0
 10
6.1130039609
 20
3.5150515123
 30
0.0
 10
6.1150656362
 20
3.5105058983
 30
0.0
 10
6.1166631085
 20
3.505667347
 30
0.0
 10
6.1179748164
 20
3.500524356
 30
0.0
 10
6.118573639
 20
3.4965401934
 30
0.0
 10
6.1188083038
 20
3.4938532609
 30
0.0
  0
ENDSEC
  0
SECTION
  2
OBJECTS
  0
DICTIONARY
  5
C
100
AcDbDictionary
280
0
281
1
  3
ACAD_GROUP
350
D
  3
ACAD_MLINESTYLE
350
17
  3
ACAD_LAYOUT
350
1A
  3
ACAD_PLOTSETTINGS
350
19
  3
ACAD_PLOTSTYLENAME
350
E
  0
DICTIONARY
  5
D
102
{ACAD_REACTORS
330
C
102
}
100
AcDbDictionary
280
0
281
1
  0
ACDBDICTIONARYWDFLT
  5
E
102
{ACAD_REACTORS
330
C
102
}
100
AcDbDictionary
281
1
  3
Normal
350
F
100
AcDbDictionaryWithDefault
340
F
  0
DICTIONARY
  5
17
102
{ACAD_REACTORS
330
C
102
}
100
AcDbDictionary
280
0
281
1
  3
Standard
350
18
  0
DICTIONARY
  5
19
102
{ACAD_REACTORS
330
C
102
}
100
AcDbDictionary
281
1
  0
DICTIONARY
  5
1A
102
{ACAD_REACTORS
330
C
102
}
100
AcDbDictionary
281
1
  3
Model
350
3C2
  3
Layout1
350
3C3
  0
ACDBPLACEHOLDER
  5
F
102
{ACAD_REACTORS
330
E
102
}
  0
MLINESTYLE
  5
18
102
{ACAD_REACTORS
330
17
102
}
100
AcDbMlineStyle
  2
STANDARD
 70
0
  3

 62
256
 51
90.0
 52
90.0
 71
2
 49
0.5
 62
256
  6
BYLAYER
 49
-0.5
 62
256
  6
BYLAYER
  0
LAYOUT
  5
3C2
102
{ACAD_REACTORS
330
1A
102
}
100
AcDbPlotSettings
  1

  2
none_device
  4
ANSI_A_(11.00_x_8.50_Inches)
  6

 40
0.0
 41
0.0
 42
0.0
 43
0.0
 44
279.4
 45
215.9
 46
0.0
 47
0.0
 48
0.0
 49
0.0
140
0.0
141
0.0
142
1.0
143
1.0
 70
1024
 72
0
 73
0
 74
0
  7

 75
0
147
1.0
148
0.0
149
0.0
100
AcDbLayout
  1
Model
 70
0
 71
0
 10
0.0
 20
0.0
 11
11.0
 21
8.5
 12
0.0
 22
0.0
 32
0.0
 14
0.0
 24
0.0
 34
0.0
 15
0.0
 25
0.0
 35
0.0
146
0.0
 13
0.0
 23
0.0
 33
0.0
 16
1.0
 26
0.0
 36
0.0
 17
0.0
 27
1.0
 37
0.0
 76
0
330
202
345
0
346
0
  0
LAYOUT
  5
3C3
102
{ACAD_REACTORS
330
1A
102
}
100
AcDbPlotSettings
  1

  2
none_device
  4
ANSI_A_(11.00_x_8.50_Inches)
  6

 40
0.0
 41
0.0
 42
0.0
 43
0.0
 44
279.4
 45
215.9
 46
0.0
 47
0.0
 48
0.0
 49
0.0
140
0.0
141
0.0
142
1.0
143
1.0
 70
0
 72
0
 73
0
 74
0
  7

 75
0
147
1.0
148
0.0
149
0.0
100
AcDbLayout
  1
Layout1
 70
0
 71
1
 10
0.0
 20
0.0
 11
11.0
 21
8.5
 12
0.0
 22
0.0
 32
0.0
 14
0.0
 24
0.0
 34
0.0
 15
0.0
 25
0.0
 35
0.0
146
0.0
 13
0.0
 23
0.0
 33
0.0
 16
1.0
 26
0.0
 36
0.0
 17
0.0
 27
1.0
 37
0.0
 76
0
330
203
345
0
346
0
  0
ENDSEC
  0
EOF
