999
DXF file: 1668_top.dxf
999
Pro/ENGINEER 2018400 by Parametric Technology Corporation
  0
SECTION
  2
HEADER
  9
$ACADVER
  1
AC1027
  9
$DWGCODEPAGE
  3
ANSI_1252
  9
$EXTMAX
 10
11.0
 20
8.5
 30
0.0
  9
$EXTMIN
 10
0.0
 20
0.0
 30
0.0
  9
$LIMMIN
 10
0.0
 20
0.0
  9
$LIMMAX
 10
11.0
 20
8.5
  9
$VIEWCTR
 10
5.5
 20
4.25
  9
$VIEWSIZE
 40
8.5
  9
$CLAYER
  8
0
  9
$LTSCALE
 40
0.605
  9
$CELTYPE
  6
BYLAYER
  9
$DIMSCALE
 40
1.0
  9
$DIMASZ
 40
0.1
  9
$DIMEXO
 40
0.0625
  9
$DIMDLI
 40
0.418
  9
$DIMEXE
 40
0.125
  9
$DIMCEN
 40
0.099
  9
$DIMLFAC
 40
1.0
  9
$DIMBLK
  1
_FILLED
  9
$DIMALT
 70
1
  9
$DIMALTD
 70
1
  9
$DIMALTTD
 70
2
  9
$DIMALTF
 40
25.4
  9
$DIMTXT
 40
0.08
  9
$DIMTOL
 70
1
  9
$DIMLIM
 70
0
  9
$DIMTFAC
 40
1.0
  9
$DIMTP
 40
0.01
  9
$DIMTM
 40
0.01
  9
$DIMGAP
 40
0.09
  9
$DIMDSEP
 70
46
  9
$AUNITS
 70
0
  9
$PDMODE
 70
3
  9
$PDSIZE
 40
0.3125
  9
$HANDSEED
  5
5D9
  9
$TILEMODE
 70
1
  9
$MEASUREMENT
 70
0
  9
$INSUNITS
 70
1
  0
ENDSEC
  0
SECTION
  2
CLASSES
  0
CLASS
  1
ACDBDICTIONARYWDFLT
  2
AcDbDictionaryWithDefault
  3
AutoCAD 2000
 90
0
 91
1
280
0
281
0
  0
CLASS
  1
ACDBPLACEHOLDER
  2
AcDbPlaceHolder
  3
AutoCAD 2000
 90
0
 91
1
280
0
281
0
  0
CLASS
  1
LAYOUT
  2
AcDbLayout
  3
AutoCAD 2000
 90
0
 91
0
280
0
281
0
  0
ENDSEC
  0
SECTION
  2
TABLES
  0
TABLE
  2
VPORT
  5
8
100
AcDbSymbolTable
 70
2
  0
VPORT
  5
1F4
100
AcDbSymbolTableRecord
100
AcDbViewportTableRecord
  2
*ACTIVE
 70
0
 10
0.0
 20
0.0
 11
1.0
 21
1.0
 12
5.5
 22
4.25
 13
0.0
 23
0.0
 14
1.0
 24
1.0
 15
0.0
 25
0.0
 16
0.0
 26
0.0
 36
1.0
 17
0.0
 27
0.0
 37
0.0
 40
8.5
 41
1.2941176471
 42
50.0
 43
0.0
 44
0.0
 50
0.0
 51
0.0
 71
0
 72
100
 73
1
 74
1
 75
0
 76
0
 77
0
 78
0
  0
ENDTAB
  0
TABLE
  2
LTYPE
  5
5
100
AcDbSymbolTable
 70
6
  0
LTYPE
  5
14
100
AcDbSymbolTableRecord
100
AcDbLinetypeTableRecord
  2
BYBLOCK
 70
0
  3

 72
65
 73
0
 40
0.0
  0
LTYPE
  5
15
100
AcDbSymbolTableRecord
100
AcDbLinetypeTableRecord
  2
BYLAYER
 70
0
  3

 72
65
 73
0
 40
0.0
  0
LTYPE
  5
16
100
AcDbSymbolTableRecord
100
AcDbLinetypeTableRecord
  2
CONTINUOUS
 70
64
  3
Solid line
 72
65
 73
0
 40
0.0
  0
LTYPE
  5
1F5
100
AcDbSymbolTableRecord
100
AcDbLinetypeTableRecord
  2
CENTER
 70
64
  3
____ _ ____ _ ____ _ ____ _ ____ _ ____ _ ____
 72
65
 73
4
 40
0.6
 49
0.375
 74
0
 49
-0.075
 74
0
 49
0.075
 74
0
 49
-0.075
 74
0
  0
LTYPE
  5
1F6
100
AcDbSymbolTableRecord
100
AcDbLinetypeTableRecord
  2
HIDDEN
 70
64
  3
- - - - - - - - - - - - - - - - - - - -
 72
65
 73
2
 40
0.2
 49
0.1
 74
0
 49
-0.1
 74
0
  0
LTYPE
  5
1F7
100
AcDbSymbolTableRecord
100
AcDbLinetypeTableRecord
  2
PHANTOM
 70
64
  3
_____ _ _ _____ _ _ _____ _ _ _____
 72
65
 73
6
 40
0.8
 49
0.45
 74
0
 49
-0.05
 74
0
 49
0.1
 74
0
 49
-0.05
 74
0
 49
0.1
 74
0
 49
-0.05
 74
0
  0
LTYPE
  5
1F8
100
AcDbSymbolTableRecord
100
AcDbLinetypeTableRecord
  2
DOT
 70
64
  3
. . . . . . . . . . . . . . . . . . . .
 72
65
 73
2
 40
0.2
 49
0.1
 74
0
 49
-0.1
 74
0
  0
LTYPE
  5
1F9
100
AcDbSymbolTableRecord
100
AcDbLinetypeTableRecord
  2
DASHED
 70
64
  3
- - - - - - - - - - - - - - - - - - - -
 72
65
 73
2
 40
0.2
 49
0.1
 74
0
 49
-0.1
 74
0
  0
ENDTAB
  0
TABLE
  2
LAYER
  5
2
100
AcDbSymbolTable
 70
36
  0
LAYER
  5
10
100
AcDbSymbolTableRecord
100
AcDbLayerTableRecord
  2
0
 70
0
 62
7
  6
CONTINUOUS
370
-3
390
F
  0
LAYER
  5
1FA
100
AcDbSymbolTableRecord
100
AcDbLayerTableRecord
  2
DEFAULT_1
 70
0
 62
7
  6
CENTER
370
-3
390
F
  0
LAYER
  5
1FB
100
AcDbSymbolTableRecord
100
AcDbLayerTableRecord
  2
DEFAULT_2
 70
0
 62
8
  6
HIDDEN
370
-3
390
F
  0
LAYER
  5
1FC
100
AcDbSymbolTableRecord
100
AcDbLayerTableRecord
  2
DEFAULT_3
 70
0
 62
7
  6
PHANTOM
370
-3
390
F
  0
LAYER
  5
1FD
100
AcDbSymbolTableRecord
100
AcDbLayerTableRecord
  2
DEFAULT_COORDINATE_SYSTEM
 70
0
 62
7
  6
CONTINUOUS
370
-3
390
F
  0
LAYER
  5
1FE
100
AcDbSymbolTableRecord
100
AcDbLayerTableRecord
  2
DEFAULT_DATUM_AXES
 70
0
 62
7
  6
CONTINUOUS
370
-3
390
F
  0
LAYER
  5
1FF
100
AcDbSymbolTableRecord
100
AcDbLayerTableRecord
  2
DEFAULT_DATUM_PLANES
 70
0
 62
7
  6
CONTINUOUS
370
-3
390
F
  0
ENDTAB
  0
TABLE
  2
STYLE
  5
3
100
AcDbSymbolTable
 70
1
  0
STYLE
  5
11
100
AcDbSymbolTableRecord
100
AcDbTextStyleTableRecord
  2
STANDARD
 70
0
 40
0.0
 41
0.8
 50
0.0
 71
0
 42
0.2
  3
txt
  4

  0
STYLE
  5
200
100
AcDbSymbolTableRecord
100
AcDbTextStyleTableRecord
  2
TEXTSTYLE_1
 70
0
 40
0.0
 41
0.8
 50
0.0
 71
0
 42
0.2
  3
gdt
  4

  0
ENDTAB
  0
TABLE
  2
VIEW
  5
6
100
AcDbSymbolTable
 70
0
  0
ENDTAB
  0
TABLE
  2
UCS
  5
7
100
AcDbSymbolTable
 70
0
  0
ENDTAB
  0
TABLE
  2
APPID
  5
9
100
AcDbSymbolTable
 70
1
  0
APPID
  5
201
100
AcDbSymbolTableRecord
100
AcDbRegAppTableRecord
  2
ACAD
 70
0
  0
ENDTAB
  0
TABLE
  2
BLOCK_RECORD
  5
1
100
AcDbSymbolTable
 70
0
  0
BLOCK_RECORD
  5
202
100
AcDbSymbolTableRecord
100
AcDbBlockTableRecord
  2
*Model_Space
  0
BLOCK_RECORD
  5
203
100
AcDbSymbolTableRecord
100
AcDbBlockTableRecord
  2
*Paper_Space
  0
BLOCK_RECORD
  5
204
100
AcDbSymbolTableRecord
100
AcDbBlockTableRecord
  2
_FILLED
  0
ENDTAB
  0
TABLE
  2
DIMSTYLE
  5
A
100
AcDbSymbolTable
 70
1
100
AcDbDimStyleTable
 71
0
  0
DIMSTYLE
105
205
100
AcDbSymbolTableRecord
100
AcDbDimStyleTableRecord
  2
STANDARD
 70
0
  3

  4

 40
1.0
 41
0.1
 42
0.0625
 43
0.38
 44
0.125
 45
0.0
 46
0.0
 47
0.01
 48
0.01
140
0.08
141
0.09
142
0.0
143
25.4
144
1.0
145
0.0
146
1.0
147
0.09
 71
1.0
 72
0.0
 73
1
 74
1
 75
0
 76
0
 77
0
 78
4
 79
1
170
1
171
1
172
0
173
0
174
0
175
0
176
0
177
0
178
0
270
2
179
2
271
2
272
2
273
2
274
2
275
0
280
0
281
0
282
0
283
1
284
4
285
0
286
0
287
3
288
0
340
11
278
46
341
204
342
204
343
204
344
204
  0
ENDTAB
  0
ENDSEC
  0
SECTION
  2
BLOCKS
  0
BLOCK
  5
20
100
AcDbEntity
  8
0
100
AcDbBlockBegin
  2
*Model_Space
 70
0
 10
0.0
 20
0.0
 30
0.0
  3
*Model_Space
  1

  0
ENDBLK
  5
21
100
AcDbEntity
  8
0
100
AcDbBlockEnd
  0
BLOCK
  5
1C
100
AcDbEntity
  8
0
100
AcDbBlockBegin
  2
*Paper_Space
 70
0
 10
0.0
 20
0.0
 30
0.0
  3
*Paper_Space
  1

  0
ENDBLK
  5
1D
100
AcDbEntity
  8
0
100
AcDbBlockEnd
  0
BLOCK
  5
206
100
AcDbEntity
  8
0
100
AcDbBlockBegin
  2
_FILLED
 70
64
 10
0.0
 20
0.0
  3
_FILLED
  1

  0
SOLID
  5
207
100
AcDbEntity
  8
0
  6
BYBLOCK
 62
0
100
AcDbTrace
 10
0.0
 20
0.0
 11
-1.0
 21
0.2
 12
-1.0
 22
-0.2
 13
-1.0
 23
-0.2
  0
ENDBLK
  5
208
100
AcDbEntity
  8
0
  6
BYBLOCK
 62
0
100
AcDbBlockEnd
  0
ENDSEC
  0
SECTION
  2
ENTITIES
  0
MTEXT
  5
209
100
AcDbEntity
  8
0
100
AcDbMText
 62
2
  6
CONTINUOUS
  7
STANDARD
 71
3
 72
1
 10
5.2578804348
 20
2.2889052894
 30
0.0
 11
1.0
 21
0.0
 31
0.0
 73
2
 44
0.9
  1
SCALE  .500
 40
0.08
 41
0.704
  0
LINE
  5
20A
100
AcDbEntity
  8
0
100
AcDbLine
 62
7
  6
CONTINUOUS
 10
0.0
 20
0.0
 11
0.0
 21
8.5
  0
LINE
  5
20B
100
AcDbEntity
  8
0
100
AcDbLine
 62
7
  6
CONTINUOUS
 10
0.0
 20
0.0
 11
11.0
 21
0.0
  0
LINE
  5
20C
100
AcDbEntity
  8
0
100
AcDbLine
 62
7
  6
CONTINUOUS
 10
0.0
 20
8.5
 11
11.0
 21
8.5
  0
LINE
  5
20D
100
AcDbEntity
  8
0
100
AcDbLine
 62
7
  6
CONTINUOUS
 10
11.0
 20
0.0
 11
11.0
 21
8.5
  0
LINE
  5
20E
100
AcDbEntity
  8
0
100
AcDbLine
 62
7
  6
CONTINUOUS
 10
3.0364791207
 20
5.5082544361
 11
3.0370584457
 21
5.5093468151
  0
LINE
  5
20F
100
AcDbEntity
  8
0
100
AcDbLine
 62
7
  6
CONTINUOUS
 10
3.0367666168
 20
5.5097529611
 11
3.0368677404
 21
5.5099401658
  0
LINE
  5
210
100
AcDbEntity
  8
0
100
AcDbLine
 62
7
  6
CONTINUOUS
 10
3.0373728108
 20
5.5095226465
 11
3.0374308624
 21
5.5096279841
  0
LINE
  5
211
100
AcDbEntity
  8
0
100
AcDbLine
 62
7
  6
CONTINUOUS
 10
3.0384270462
 20
5.5054385245
 11
3.0381670844
 21
5.5049809435
  0
LINE
  5
212
100
AcDbEntity
  8
0
100
AcDbLine
 62
7
  6
CONTINUOUS
 10
3.0409756823
 20
5.5097465003
 11
3.0407468948
 21
5.5093720904
  0
LINE
  5
213
100
AcDbEntity
  8
0
100
AcDbLine
 62
7
  6
CONTINUOUS
 10
3.0422910106
 20
5.5183688141
 11
3.0424697697
 21
5.5186543339
  0
LINE
  5
214
100
AcDbEntity
  8
0
100
AcDbLine
 62
7
  6
CONTINUOUS
 10
3.0302957027
 20
5.5533022869
 11
3.0303951619
 21
5.5539864909
  0
LWPOLYLINE
  5
215
100
AcDbEntity
  8
0
100
AcDbPolyline
 62
7
  6
CONTINUOUS
 90
4
 70
0
 10
3.0379626126
 20
5.5991510845
 10
3.0379743448
 20
5.5992286537
 10
3.037979513
 20
5.5992662837
 10
3.0379797064
 20
5.5992701764
  0
LINE
  5
216
100
AcDbEntity
  8
0
100
AcDbLine
 62
7
  6
CONTINUOUS
 10
3.0384467241
 20
5.5989797006
 11
3.0384836147
 21
5.5992168181
  0
LINE
  5
217
100
AcDbEntity
  8
0
100
AcDbLine
 62
7
  6
CONTINUOUS
 10
3.0383333328
 20
5.5982715712
 11
3.0384903104
 21
5.5992642363
  0
LINE
  5
218
100
AcDbEntity
  8
0
100
AcDbLine
 62
7
  6
CONTINUOUS
 10
3.0375648943
 20
5.5966819886
 11
3.037979724
 21
5.5992701686
  0
LINE
  5
219
100
AcDbEntity
  8
0
100
AcDbLine
 62
7
  6
CONTINUOUS
 10
3.0363921664
 20
5.5206822441
 11
3.037042138
 21
5.5247302585
  0
LINE
  5
21A
100
AcDbEntity
  8
0
100
AcDbLine
 62
7
  6
CONTINUOUS
 10
3.0368025486
 20
5.5232631791
 11
3.0370555871
 21
5.5248115404
  0
LINE
  5
21B
100
AcDbEntity
  8
0
100
AcDbLine
 62
7
  6
CONTINUOUS
 10
3.0418820686
 20
5.6167700623
 11
3.0384535836
 21
5.598607178
  0
LINE
  5
21C
100
AcDbEntity
  8
0
100
AcDbLine
 62
7
  6
CONTINUOUS
 10
3.0408536593
 20
5.5459870824
 11
3.0408719821
 21
5.5460822496
  0
LINE
  5
21D
100
AcDbEntity
  8
0
100
AcDbLine
 62
7
  6
CONTINUOUS
 10
3.0379797064
 20
5.5992701764
 11
3.0379781174
 21
5.5992639351
  0
LINE
  5
21E
100
AcDbEntity
  8
0
100
AcDbLine
 62
7
  6
CONTINUOUS
 10
3.0368047871
 20
5.5401906855
 11
3.0368567494
 21
5.5403441847
  0
LINE
  5
21F
100
AcDbEntity
  8
0
100
AcDbLine
 62
7
  6
CONTINUOUS
 10
3.0364499063
 20
5.5406480353
 11
3.0366848095
 21
5.5413365749
  0
LINE
  5
220
100
AcDbEntity
  8
0
100
AcDbLine
 62
7
  6
CONTINUOUS
 10
3.0381913767
 20
5.5246259258
 11
3.0384810919
 21
5.5254381499
  0
LINE
  5
221
100
AcDbEntity
  8
0
100
AcDbLine
 62
7
  6
CONTINUOUS
 10
3.0400345797
 20
5.5462043837
 11
3.0400979979
 21
5.5463733264
  0
LINE
  5
222
100
AcDbEntity
  8
0
100
AcDbLine
 62
7
  6
CONTINUOUS
 10
3.039455397
 20
5.5294945071
 11
3.0397599941
 21
5.5303048132
  0
LINE
  5
223
100
AcDbEntity
  8
0
100
AcDbLine
 62
7
  6
CONTINUOUS
 10
3.0402722045
 20
5.5303048163
 11
3.040889349
 21
5.5319244522
  0
LINE
  5
224
100
AcDbEntity
  8
0
100
AcDbLine
 62
7
  6
CONTINUOUS
 10
3.038498803
 20
5.3690228963
 11
3.0387919747
 21
5.3694653318
  0
LINE
  5
225
100
AcDbEntity
  8
0
100
AcDbLine
 62
7
  6
CONTINUOUS
 10
3.0363532966
 20
5.3489361596
 11
3.0363638017
 21
5.3508112393
  0
LINE
  5
226
100
AcDbEntity
  8
0
100
AcDbLine
 62
7
  6
CONTINUOUS
 10
3.0363732071
 20
5.5319281618
 11
3.036388895
 21
5.5333488866
  0
LINE
  5
227
100
AcDbEntity
  8
0
100
AcDbLine
 62
7
  6
CONTINUOUS
 10
3.0363734512
 20
5.5319281603
 11
3.036388895
 21
5.5333488866
  0
LINE
  5
228
100
AcDbEntity
  8
0
100
AcDbLine
 62
7
  6
CONTINUOUS
 10
3.0364138281
 20
5.382573537
 11
3.0364340759
 21
5.3838831632
  0
LINE
  5
229
100
AcDbEntity
  8
0
100
AcDbLine
 62
7
  6
CONTINUOUS
 10
3.0213840425
 20
5.451085466
 11
3.0213864629
 21
5.4511877269
  0
LINE
  5
22A
100
AcDbEntity
  8
0
100
AcDbLine
 62
7
  6
CONTINUOUS
 10
3.0384903073
 20
5.5992642441
 11
3.0384907229
 21
5.5992701764
  0
LINE
  5
22B
100
AcDbEntity
  8
0
100
AcDbLine
 62
7
  6
CONTINUOUS
 10
3.0384836147
 20
5.5992168181
 11
3.0384903073
 21
5.5992642441
  0
LINE
  5
22C
100
AcDbEntity
  8
0
100
AcDbLine
 62
7
  6
CONTINUOUS
 10
3.0300789342
 20
5.5517964049
 11
3.0302957027
 21
5.5533022869
  0
LINE
  5
22D
100
AcDbEntity
  8
0
100
AcDbLine
 62
7
  6
CONTINUOUS
 10
3.0301549566
 20
5.5523279363
 11
3.0302955931
 21
5.5533023016
  0
LINE
  5
22E
100
AcDbEntity
  8
0
100
AcDbLine
 62
7
  6
CONTINUOUS
 10
3.0216893172
 20
5.4501203626
 11
3.0217370031
 21
5.4494300438
  0
LINE
  5
22F
100
AcDbEntity
  8
0
100
AcDbLine
 62
7
  6
CONTINUOUS
 10
3.0365516431
 20
5.3580047942
 11
3.0365305081
 21
5.3588527085
  0
LINE
  5
230
100
AcDbEntity
  8
0
100
AcDbLine
 62
7
  6
CONTINUOUS
 10
3.0364936207
 20
5.5152011332
 11
3.0364905992
 21
5.5153243284
  0
LINE
  5
231
100
AcDbEntity
  8
0
100
AcDbLine
 62
7
  6
CONTINUOUS
 10
3.0363654229
 20
5.4910170421
 11
3.0363556148
 21
5.4926156394
  0
LINE
  5
232
100
AcDbEntity
  8
0
100
AcDbLine
 62
7
  6
CONTINUOUS
 10
3.0468861885
 20
5.2416978481
 11
3.0468861885
 21
5.3646333954
  0
LINE
  5
233
100
AcDbEntity
  8
0
100
AcDbLine
 62
7
  6
CONTINUOUS
 10
3.0468861885
 20
5.5139069574
 11
3.0468861885
 21
5.6368425047
  0
LINE
  5
234
100
AcDbEntity
  8
0
100
AcDbLine
 62
7
  6
CONTINUOUS
 10
3.0587908351
 20
5.6892701764
 11
3.0587908351
 21
5.5275466473
  0
LINE
  5
235
100
AcDbEntity
  8
0
100
AcDbLine
 62
7
  6
CONTINUOUS
 10
3.0587908351
 20
5.1892701764
 11
3.0587908351
 21
5.3509937055
  0
LINE
  5
236
100
AcDbEntity
  8
0
100
AcDbLine
 62
7
  6
CONTINUOUS
 10
3.0388304194
 20
5.3697309164
 11
3.038832148
 21
5.370381971
  0
LINE
  5
237
100
AcDbEntity
  8
0
100
AcDbLine
 62
7
  6
CONTINUOUS
 10
3.0420886309
 20
5.3337764479
 11
3.0420913734
 21
5.3341832583
  0
LINE
  5
238
100
AcDbEntity
  8
0
100
AcDbLine
 62
7
  6
CONTINUOUS
 10
3.0415751895
 20
5.3337764479
 11
3.0415810232
 21
5.3345900465
  0
LINE
  5
239
100
AcDbEntity
  8
0
100
AcDbLine
 62
7
  6
CONTINUOUS
 10
3.3087908351
 20
5.1892701764
 11
3.3629174229
 21
5.2830201764
  0
LINE
  5
23A
100
AcDbEntity
  8
0
100
AcDbLine
 62
7
  6
CONTINUOUS
 10
3.0265225776
 20
5.3537701764
 11
3.0276986427
 21
5.3437701764
  0
LINE
  5
23B
100
AcDbEntity
  8
0
100
AcDbLine
 62
7
  6
CONTINUOUS
 10
3.3087908351
 20
5.6892701764
 11
3.3087908351
 21
5.5275466473
  0
LINE
  5
23C
100
AcDbEntity
  8
0
100
AcDbLine
 62
7
  6
CONTINUOUS
 10
3.3087908351
 20
5.3509937055
 11
3.3087908351
 21
5.1892701764
  0
LINE
  5
23D
100
AcDbEntity
  8
0
100
AcDbLine
 62
7
  6
CONTINUOUS
 10
3.3629174229
 20
5.5955201764
 11
3.3629174229
 21
5.2830201764
  0
LINE
  5
23E
100
AcDbEntity
  8
0
100
AcDbLine
 62
7
  6
CONTINUOUS
 10
3.0381924034
 20
5.2782685316
 11
3.0381872176
 21
5.2782880676
  0
LINE
  5
23F
100
AcDbEntity
  8
0
100
AcDbLine
 62
7
  6
CONTINUOUS
 10
3.0348388817
 20
5.2992701764
 11
3.0412985137
 21
5.2642701764
  0
LINE
  5
240
100
AcDbEntity
  8
0
100
AcDbLine
 62
7
  6
CONTINUOUS
 10
3.0364094185
 20
5.2907326334
 11
3.0366289155
 21
5.2895418919
  0
LINE
  5
241
100
AcDbEntity
  8
0
100
AcDbLine
 62
7
  6
CONTINUOUS
 10
3.0372718303
 20
5.2860532749
 11
3.0376855303
 21
5.283809028
  0
LINE
  5
242
100
AcDbEntity
  8
0
100
AcDbLine
 62
7
  6
CONTINUOUS
 10
3.0367665637
 20
5.3393362393
 11
3.0365646721
 21
5.3399516174
  0
LINE
  5
243
100
AcDbEntity
  8
0
100
AcDbLine
 62
7
  6
CONTINUOUS
 10
3.0371212489
 20
5.3398095392
 11
3.0369742066
 21
5.3402593668
  0
LINE
  5
244
100
AcDbEntity
  8
0
100
AcDbLine
 62
7
  6
CONTINUOUS
 10
3.0371212898
 20
5.3398095443
 11
3.0369742066
 21
5.3402593668
  0
LINE
  5
245
100
AcDbEntity
  8
0
100
AcDbLine
 62
7
  6
CONTINUOUS
 10
3.5587908351
 20
5.2830204199
 11
3.5587908351
 21
5.5955199329
  0
LINE
  5
246
100
AcDbEntity
  8
0
100
AcDbLine
 62
7
  6
CONTINUOUS
 10
3.5687908351
 20
5.2642701764
 11
3.5687908351
 21
5.6142701764
  0
LINE
  5
247
100
AcDbEntity
  8
0
100
AcDbLine
 62
7
  6
CONTINUOUS
 10
3.6187908351
 20
5.6281509227
 11
3.6187908351
 21
5.2503894301
  0
LINE
  5
248
100
AcDbEntity
  8
0
100
AcDbLine
 62
7
  6
CONTINUOUS
 10
3.6222373367
 20
5.2406445251
 11
3.6222373367
 21
5.6378958277
  0
LINE
  5
249
100
AcDbEntity
  8
0
100
AcDbLine
 62
7
  6
CONTINUOUS
 10
3.9812908351
 20
5.1284262582
 11
3.9796347534
 21
5.1267701764
  0
LINE
  5
24A
100
AcDbEntity
  8
0
100
AcDbLine
 62
7
  6
CONTINUOUS
 10
3.0369364812
 20
5.3728897672
 11
3.036547787
 21
5.3737445146
  0
LINE
  5
24B
100
AcDbEntity
  8
0
100
AcDbLine
 62
7
  6
CONTINUOUS
 10
3.0369457881
 20
5.3571323871
 11
3.0365516431
 21
5.3580047942
  0
LINE
  5
24C
100
AcDbEntity
  8
0
100
AcDbLine
 62
7
  6
CONTINUOUS
 10
3.036547787
 20
5.3737445146
 11
3.0363503736
 21
5.374183087
  0
LINE
  5
24D
100
AcDbEntity
  8
0
100
AcDbLine
 62
7
  6
CONTINUOUS
 10
3.7462908351
 20
5.1510201764
 11
3.7462908351
 21
5.7275200418
  0
LINE
  5
24E
100
AcDbEntity
  8
0
100
AcDbLine
 62
7
  6
CONTINUOUS
 10
3.7617908351
 20
5.1355201764
 11
3.7617908351
 21
5.7430201764
  0
LINE
  5
24F
100
AcDbEntity
  8
0
100
AcDbLine
 62
7
  6
CONTINUOUS
 10
3.7812908351
 20
5.7430201764
 11
3.7812908351
 21
5.1355201764
  0
LINE
  5
250
100
AcDbEntity
  8
0
100
AcDbLine
 62
7
  6
CONTINUOUS
 10
3.0391726188
 20
5.3696303867
 11
3.03910273
 21
5.3697703466
  0
LINE
  5
251
100
AcDbEntity
  8
0
100
AcDbLine
 62
7
  6
CONTINUOUS
 10
3.9812908351
 20
5.1284262582
 11
3.9812908351
 21
5.7501140947
  0
LINE
  5
252
100
AcDbEntity
  8
0
100
AcDbLine
 62
7
  6
CONTINUOUS
 10
3.042258953
 20
5.3191624302
 11
3.0420569972
 21
5.3194542416
  0
LINE
  5
253
100
AcDbEntity
  8
0
100
AcDbLine
 62
7
  6
CONTINUOUS
 10
3.3087908351
 20
5.6892701764
 11
3.3629174229
 21
5.5955201764
  0
LINE
  5
254
100
AcDbEntity
  8
0
100
AcDbLine
 62
7
  6
CONTINUOUS
 10
5.6812908351
 20
5.7501140947
 11
5.6829469169
 21
5.7517701764
  0
LINE
  5
255
100
AcDbEntity
  8
0
100
AcDbLine
 62
7
  6
CONTINUOUS
 10
4.6040408351
 20
2.8615649887
 11
4.6040408351
 21
2.8181529443
  0
LINE
  5
256
100
AcDbEntity
  8
0
100
AcDbLine
 62
7
  6
CONTINUOUS
 10
4.6547908351
 20
5.4392701764
 11
4.6547908351
 21
2.8663403136
  0
LINE
  5
257
100
AcDbEntity
  8
0
100
AcDbLine
 62
7
  6
CONTINUOUS
 10
5.0077908351
 20
5.4392701764
 11
5.0077908351
 21
2.8663403136
  0
LINE
  5
258
100
AcDbEntity
  8
0
100
AcDbLine
 62
7
  6
CONTINUOUS
 10
5.0585408351
 20
2.8615649887
 11
5.0585408351
 21
2.8181529443
  0
LINE
  5
259
100
AcDbEntity
  8
0
100
AcDbLine
 62
7
  6
CONTINUOUS
 10
3.9812908351
 20
5.7501140947
 11
3.9796347534
 21
5.7517701764
  0
LINE
  5
25A
100
AcDbEntity
  8
0
100
AcDbLine
 62
7
  6
CONTINUOUS
 10
6.3537908351
 20
5.6892701764
 11
6.2996642474
 21
5.5955201764
  0
LINE
  5
25B
100
AcDbEntity
  8
0
100
AcDbLine
 62
7
  6
CONTINUOUS
 10
6.6240828673
 20
5.5095174565
 11
6.6237896956
 21
5.509075021
  0
LWPOLYLINE
  5
25C
100
AcDbEntity
  8
0
100
AcDbPolyline
 62
7
  6
CONTINUOUS
 90
3
 70
0
 10
6.6403834381
 20
5.4767701764
 10
6.6403821694
 20
5.4767683994
 10
6.6403804029
 20
5.4767250997
  0
LINE
  5
25D
100
AcDbEntity
  8
0
100
AcDbLine
 62
7
  6
CONTINUOUS
 10
5.0077908351
 20
5.1329334889
 11
5.5235820347
 21
5.1509447203
  0
LINE
  5
25E
100
AcDbEntity
  8
0
100
AcDbLine
 62
7
  6
CONTINUOUS
 10
5.0077908351
 20
5.1318130336
 11
5.5291492891
 21
5.1467089894
  0
LINE
  5
25F
100
AcDbEntity
  8
0
100
AcDbLine
 62
7
  6
CONTINUOUS
 10
3.9796347534
 20
5.1267701764
 11
3.7871231688
 21
5.1267701764
  0
LINE
  5
260
100
AcDbEntity
  8
0
100
AcDbLine
 62
7
  6
CONTINUOUS
 10
5.6829469169
 20
5.1267701764
 11
5.8754585015
 21
5.1267701764
  0
LINE
  5
261
100
AcDbEntity
  8
0
100
AcDbLine
 62
7
  6
CONTINUOUS
 10
5.9007908351
 20
5.1355201764
 11
5.8812908351
 21
5.1355201764
  0
LINE
  5
262
100
AcDbEntity
  8
0
100
AcDbLine
 62
7
  6
CONTINUOUS
 10
3.7617908351
 20
5.1355201764
 11
3.7812908351
 21
5.1355201764
  0
LINE
  5
263
100
AcDbEntity
  8
0
100
AcDbLine
 62
7
  6
CONTINUOUS
 10
4.6547908351
 20
5.1318130336
 11
4.1334323812
 21
5.1467089894
  0
LINE
  5
264
100
AcDbEntity
  8
0
100
AcDbLine
 62
7
  6
CONTINUOUS
 10
4.6547908351
 20
5.1329334889
 11
4.1389996356
 21
5.1509447203
  0
LINE
  5
265
100
AcDbEntity
  8
0
100
AcDbLine
 62
7
  6
CONTINUOUS
 10
5.6812908351
 20
5.7501140947
 11
5.6812908351
 21
5.1284262582
  0
LINE
  5
266
100
AcDbEntity
  8
0
100
AcDbLine
 62
7
  6
CONTINUOUS
 10
6.621605988
 20
5.3687938525
 11
6.6218347754
 21
5.3691682624
  0
LINE
  5
267
100
AcDbEntity
  8
0
100
AcDbLine
 62
7
  6
CONTINUOUS
 10
6.6202906597
 20
5.3601715387
 11
6.6201119006
 21
5.3598860189
  0
LINE
  5
268
100
AcDbEntity
  8
0
100
AcDbLine
 62
7
  6
CONTINUOUS
 10
6.6202906597
 20
5.3601715387
 11
6.6201119157
 21
5.3598860176
  0
LINE
  5
269
100
AcDbEntity
  8
0
100
AcDbLine
 62
7
  6
CONTINUOUS
 10
3.9812908351
 20
5.1467701764
 11
4.1291475531
 21
5.1467701764
  0
LINE
  5
26A
100
AcDbEntity
  8
0
100
AcDbLine
 62
7
  6
CONTINUOUS
 10
5.5334341171
 20
5.1467701764
 11
5.6812908351
 21
5.1467701764
  0
LINE
  5
26B
100
AcDbEntity
  8
0
100
AcDbLine
 62
7
  6
CONTINUOUS
 10
6.6037908351
 20
5.1892701764
 11
6.3537908351
 21
5.1892701764
  0
LINE
  5
26C
100
AcDbEntity
  8
0
100
AcDbLine
 62
7
  6
CONTINUOUS
 10
3.0587908351
 20
5.1892701764
 11
3.3087908351
 21
5.1892701764
  0
LINE
  5
26D
100
AcDbEntity
  8
0
100
AcDbLine
 62
7
  6
CONTINUOUS
 10
6.0937908351
 20
5.2642701764
 11
6.0437908351
 21
5.2642701764
  0
LINE
  5
26E
100
AcDbEntity
  8
0
100
AcDbLine
 62
7
  6
CONTINUOUS
 10
3.5687908351
 20
5.2642701764
 11
3.6187908351
 21
5.2642701764
  0
LINE
  5
26F
100
AcDbEntity
  8
0
100
AcDbLine
 62
7
  6
CONTINUOUS
 10
3.0387035533
 20
5.2782685316
 11
3.0381924034
 21
5.2782685316
  0
LINE
  5
270
100
AcDbEntity
  8
0
100
AcDbLine
 62
7
  6
CONTINUOUS
 10
3.0383383803
 20
5.2802718212
 11
3.0378934561
 21
5.2802718212
  0
LINE
  5
271
100
AcDbEntity
  8
0
100
AcDbLine
 62
7
  6
CONTINUOUS
 10
6.6247822646
 20
5.2825201764
 11
6.6244733366
 21
5.2825201764
  0
LINE
  5
272
100
AcDbEntity
  8
0
100
AcDbLine
 62
7
  6
CONTINUOUS
 10
6.2996642474
 20
5.2830201764
 11
6.1037908351
 21
5.2830201764
  0
LINE
  5
273
100
AcDbEntity
  8
0
100
AcDbLine
 62
7
  6
CONTINUOUS
 10
3.3629174229
 20
5.2830201764
 11
3.5587908351
 21
5.2830201764
  0
LINE
  5
274
100
AcDbEntity
  8
0
100
AcDbLine
 62
7
  6
CONTINUOUS
 10
6.6260805892
 20
5.2900201764
 11
6.626790114
 21
5.2900201764
  0
LINE
  5
275
100
AcDbEntity
  8
0
100
AcDbLine
 62
7
  6
CONTINUOUS
 10
3.5687908351
 20
5.2931542962
 11
3.5587908351
 21
5.2931542962
  0
LINE
  5
276
100
AcDbEntity
  8
0
100
AcDbLine
 62
7
  6
CONTINUOUS
 10
6.0937908351
 20
5.2931542962
 11
6.1037908351
 21
5.2931542962
  0
LINE
  5
277
100
AcDbEntity
  8
0
100
AcDbLine
 62
7
  6
CONTINUOUS
 10
3.0348388817
 20
5.2992701764
 11
3.034531279
 21
5.2992701764
  0
LINE
  5
278
100
AcDbEntity
  8
0
100
AcDbLine
 62
7
  6
CONTINUOUS
 10
6.6286331686
 20
5.3040201764
 11
6.6293500976
 21
5.3040201764
  0
LINE
  5
279
100
AcDbEntity
  8
0
100
AcDbLine
 62
7
  6
CONTINUOUS
 10
5.8812908351
 20
5.1355201764
 11
5.8812908351
 21
5.7430201764
  0
LINE
  5
27A
100
AcDbEntity
  8
0
100
AcDbLine
 62
7
  6
CONTINUOUS
 10
5.9007908351
 20
5.7430201764
 11
5.9007908351
 21
5.1355201764
  0
LINE
  5
27B
100
AcDbEntity
  8
0
100
AcDbLine
 62
7
  6
CONTINUOUS
 10
5.9162908351
 20
5.7275201764
 11
5.9162908351
 21
5.1510201764
  0
LINE
  5
27C
100
AcDbEntity
  8
0
100
AcDbLine
 62
7
  6
CONTINUOUS
 10
6.6261025496
 20
5.3702859167
 11
6.6255232246
 21
5.3691935378
  0
LINE
  5
27D
100
AcDbEntity
  8
0
100
AcDbLine
 62
7
  6
CONTINUOUS
 10
6.6258150535
 20
5.3687873918
 11
6.6257139298
 21
5.3686001871
  0
LINE
  5
27E
100
AcDbEntity
  8
0
100
AcDbLine
 62
7
  6
CONTINUOUS
 10
6.6252088595
 20
5.3690177064
 11
6.6251508079
 21
5.3689123687
  0
LINE
  5
27F
100
AcDbEntity
  8
0
100
AcDbLine
 62
7
  6
CONTINUOUS
 10
6.624154624
 20
5.3731018283
 11
6.6244145859
 21
5.3735594094
  0
LINE
  5
280
100
AcDbEntity
  8
0
100
AcDbLine
 62
7
  6
CONTINUOUS
 10
6.6290026652
 20
5.3065201764
 11
6.6295103845
 21
5.3065201764
  0
LINE
  5
281
100
AcDbEntity
  8
0
100
AcDbLine
 62
7
  6
CONTINUOUS
 10
3.0330735144
 20
5.3092701764
 11
3.0327618993
 21
5.3092701764
  0
LINE
  5
282
100
AcDbEntity
  8
0
100
AcDbLine
 62
7
  6
CONTINUOUS
 10
3.0318460766
 20
5.3117701764
 11
3.0326487439
 21
5.3117701764
  0
LINE
  5
283
100
AcDbEntity
  8
0
100
AcDbLine
 62
7
  6
CONTINUOUS
 10
6.631738025
 20
5.3182701764
 11
6.6316888907
 21
5.3182701764
  0
LINE
  5
284
100
AcDbEntity
  8
0
100
AcDbLine
 62
7
  6
CONTINUOUS
 10
3.0420569972
 20
5.3194542416
 11
3.0415435772
 21
5.3194542416
  0
LINE
  5
285
100
AcDbEntity
  8
0
100
AcDbLine
 62
7
  6
CONTINUOUS
 10
3.0417028563
 20
5.3214393339
 11
3.0411896771
 21
5.3214393339
  0
LINE
  5
286
100
AcDbEntity
  8
0
100
AcDbLine
 62
7
  6
CONTINUOUS
 10
6.6203882559
 20
5.3236847171
 11
6.6209017687
 21
5.3236847171
  0
LINE
  5
287
100
AcDbEntity
  8
0
100
AcDbLine
 62
7
  6
CONTINUOUS
 10
3.0421260172
 20
5.3242058782
 11
3.0416125504
 21
5.3242058782
  0
LINE
  5
288
100
AcDbEntity
  8
0
100
AcDbLine
 62
7
  6
CONTINUOUS
 10
6.6326877716
 20
5.3247701764
 11
6.6327883934
 21
5.3247701764
  0
LINE
  5
289
100
AcDbEntity
  8
0
100
AcDbLine
 62
7
  6
CONTINUOUS
 10
3.0420886309
 20
5.3278663672
 11
3.0415751895
 21
5.3278663672
  0
LINE
  5
28A
100
AcDbEntity
  8
0
100
AcDbLine
 62
7
  6
CONTINUOUS
 10
3.0419697595
 20
5.3285682033
 11
3.0414563988
 21
5.3285682033
  0
LINE
  5
28B
100
AcDbEntity
  8
0
100
AcDbLine
 62
7
  6
CONTINUOUS
 10
6.6216719766
 20
5.3300310523
 11
6.6221846176
 21
5.3300310523
  0
LINE
  5
28C
100
AcDbEntity
  8
0
100
AcDbLine
 62
7
  6
CONTINUOUS
 10
3.0289909204
 20
5.3302701764
 11
3.0297797906
 21
5.3302701764
  0
LINE
  5
28D
100
AcDbEntity
  8
0
100
AcDbLine
 62
7
  6
CONTINUOUS
 10
6.6327750136
 20
5.3304061563
 11
6.6332802369
 21
5.3304061563
  0
LINE
  5
28E
100
AcDbEntity
  8
0
100
AcDbLine
 62
7
  6
CONTINUOUS
 10
6.6217096882
 20
5.3324581033
 11
6.6222223037
 21
5.3324581033
  0
LINE
  5
28F
100
AcDbEntity
  8
0
100
AcDbLine
 62
7
  6
CONTINUOUS
 10
3.0420419388
 20
5.3335842786
 11
3.0415285291
 21
5.3335842786
  0
LINE
  5
290
100
AcDbEntity
  8
0
100
AcDbLine
 62
7
  6
CONTINUOUS
 10
3.0420886309
 20
5.3337764479
 11
3.0415751895
 21
5.3337764479
  0
LINE
  5
291
100
AcDbEntity
  8
0
100
AcDbLine
 62
7
  6
CONTINUOUS
 10
3.0289259508
 20
5.3342701764
 11
3.0292313067
 21
5.3342701764
  0
LINE
  5
292
100
AcDbEntity
  8
0
100
AcDbLine
 62
7
  6
CONTINUOUS
 10
3.0288933867
 20
5.3367701764
 11
3.0285530115
 21
5.3367701764
  0
LINE
  5
293
100
AcDbEntity
  8
0
100
AcDbLine
 62
7
  6
CONTINUOUS
 10
6.6243700212
 20
5.3373295787
 11
6.6248808398
 21
5.3373295787
  0
LINE
  5
294
100
AcDbEntity
  8
0
100
AcDbLine
 62
7
  6
CONTINUOUS
 10
3.0421260172
 20
5.3374369369
 11
3.0416125504
 21
5.3374369369
  0
LINE
  5
295
100
AcDbEntity
  8
0
100
AcDbLine
 62
7
  6
CONTINUOUS
 10
6.6250216226
 20
5.3383799852
 11
6.6253867257
 21
5.3383799852
  0
LINE
  5
296
100
AcDbEntity
  8
0
100
AcDbLine
 62
7
  6
CONTINUOUS
 10
3.0384192376
 20
5.3384316142
 11
3.0379082792
 21
5.3384316142
  0
LINE
  5
297
100
AcDbEntity
  8
0
100
AcDbLine
 62
7
  6
CONTINUOUS
 10
6.6260834741
 20
5.3392610263
 11
6.6265931419
 21
5.3392610263
  0
LINE
  5
298
100
AcDbEntity
  8
0
100
AcDbLine
 62
7
  6
CONTINUOUS
 10
6.6341735937
 20
5.3393387261
 11
6.6345953647
 21
5.3393387261
  0
LINE
  5
299
100
AcDbEntity
  8
0
100
AcDbLine
 62
7
  6
CONTINUOUS
 10
3.0375948853
 20
5.3398095443
 11
3.0372767537
 21
5.3398095443
  0
LINE
  5
29A
100
AcDbEntity
  8
0
100
AcDbLine
 62
7
  6
CONTINUOUS
 10
6.6205173154
 20
5.3402695655
 11
6.6210307404
 21
5.3402695655
  0
LINE
  5
29B
100
AcDbEntity
  8
0
100
AcDbLine
 62
7
  6
CONTINUOUS
 10
3.0363779956
 20
5.3421067159
 11
3.0358684083
 21
5.3421067159
  0
LINE
  5
29C
100
AcDbEntity
  8
0
100
AcDbLine
 62
7
  6
CONTINUOUS
 10
3.0416042728
 20
5.3428508255
 11
3.0411896771
 21
5.3428508255
  0
LINE
  5
29D
100
AcDbEntity
  8
0
100
AcDbLine
 62
7
  6
CONTINUOUS
 10
3.0279459425
 20
5.3437701764
 11
3.0271979053
 21
5.3437701764
  0
LINE
  5
29E
100
AcDbEntity
  8
0
100
AcDbLine
 62
7
  6
CONTINUOUS
 10
6.6216923213
 20
5.3466159007
 11
6.6222049485
 21
5.3466159007
  0
LINE
  5
29F
100
AcDbEntity
  8
0
100
AcDbLine
 62
7
  6
CONTINUOUS
 10
6.6208929733
 20
5.3479925451
 11
6.6214061429
 21
5.3479925451
  0
LINE
  5
2A0
100
AcDbEntity
  8
0
100
AcDbLine
 62
7
  6
CONTINUOUS
 10
6.6359033089
 20
5.3522701764
 11
6.6355988448
 21
5.3522701764
  0
LINE
  5
2A1
100
AcDbEntity
  8
0
100
AcDbLine
 62
7
  6
CONTINUOUS
 10
3.0267694996
 20
5.3537701764
 11
3.0260210125
 21
5.3537701764
  0
LINE
  5
2A2
100
AcDbEntity
  8
0
100
AcDbLine
 62
7
  6
CONTINUOUS
 10
6.6243902935
 20
5.353914427
 11
6.6249010984
 21
5.353914427
  0
LINE
  5
2A3
100
AcDbEntity
  8
0
100
AcDbLine
 62
7
  6
CONTINUOUS
 10
3.041407021
 20
5.355852216
 11
3.0408940426
 21
5.355852216
  0
LINE
  5
2A4
100
AcDbEntity
  8
0
100
AcDbLine
 62
7
  6
CONTINUOUS
 10
6.6261895039
 20
5.3578581087
 11
6.6266991007
 21
5.3578581087
  0
LINE
  5
2A5
100
AcDbEntity
  8
0
100
AcDbLine
 62
7
  6
CONTINUOUS
 10
3.0365516431
 20
5.3580047942
 11
3.0360419394
 21
5.3580047942
  0
LINE
  5
2A6
100
AcDbEntity
  8
0
100
AcDbLine
 62
7
  6
CONTINUOUS
 10
6.6363912119
 20
5.3585201764
 11
6.6370743732
 21
5.3585201764
  0
LINE
  5
2A7
100
AcDbEntity
  8
0
100
AcDbLine
 62
7
  6
CONTINUOUS
 10
3.0421200866
 20
5.3591071048
 11
3.0416066237
 21
5.3591071048
  0
LINE
  5
2A8
100
AcDbEntity
  8
0
100
AcDbLine
 62
7
  6
CONTINUOUS
 10
6.6202906597
 20
5.3601715387
 11
6.6208042388
 21
5.3601715387
  0
LINE
  5
2A9
100
AcDbEntity
  8
0
100
AcDbLine
 62
7
  6
CONTINUOUS
 10
3.0256641874
 20
5.3617701764
 11
3.0259682508
 21
5.3617701764
  0
LINE
  5
2AA
100
AcDbEntity
  8
0
100
AcDbLine
 62
7
  6
CONTINUOUS
 10
6.620920171
 20
5.362535571
 11
6.6214333222
 21
5.362535571
  0
LINE
  5
2AB
100
AcDbEntity
  8
0
100
AcDbLine
 62
7
  6
CONTINUOUS
 10
3.0388453375
 20
5.3637163291
 11
3.038334092
 21
5.3637163291
  0
LINE
  5
2AC
100
AcDbEntity
  8
0
100
AcDbLine
 62
7
  6
CONTINUOUS
 10
3.0421182929
 20
5.3644590239
 11
3.0416048313
 21
5.3644590239
  0
LINE
  5
2AD
100
AcDbEntity
  8
0
100
AcDbLine
 62
7
  6
CONTINUOUS
 10
3.0420036272
 20
5.3651276065
 11
3.0414902435
 21
5.3651276065
  0
LINE
  5
2AE
100
AcDbEntity
  8
0
100
AcDbLine
 62
7
  6
CONTINUOUS
 10
3.0364034812
 20
5.3656445435
 11
3.0358938768
 21
5.3656445435
  0
LINE
  5
2AF
100
AcDbEntity
  8
0
100
AcDbLine
 62
7
  6
CONTINUOUS
 10
6.6209644773
 20
5.3686846283
 11
6.6214775984
 21
5.3686846283
  0
LINE
  5
2B0
100
AcDbEntity
  8
0
100
AcDbLine
 62
7
  6
CONTINUOUS
 10
6.6246982618
 20
5.3690177064
 11
6.6252088595
 21
5.3690177064
  0
LINE
  5
2B1
100
AcDbEntity
  8
0
100
AcDbLine
 62
7
  6
CONTINUOUS
 10
6.6249257121
 20
5.3692361548
 11
6.6254361569
 21
5.3692361548
  0
LINE
  5
2B2
100
AcDbEntity
  8
0
100
AcDbLine
 62
7
  6
CONTINUOUS
 10
3.0387919747
 20
5.3694653318
 11
3.0382807652
 21
5.3694653318
  0
LINE
  5
2B3
100
AcDbEntity
  8
0
100
AcDbLine
 62
7
  6
CONTINUOUS
 10
6.6207570052
 20
5.3696227184
 11
6.6212702673
 21
5.3696227184
  0
LINE
  5
2B4
100
AcDbEntity
  8
0
100
AcDbLine
 62
7
  6
CONTINUOUS
 10
3.0388304194
 20
5.3697309164
 11
3.0383191841
 21
5.3697309164
  0
LINE
  5
2B5
100
AcDbEntity
  8
0
100
AcDbLine
 62
7
  6
CONTINUOUS
 10
3.0396144945
 20
5.3697703466
 11
3.03910273
 21
5.3697703466
  0
LINE
  5
2B6
100
AcDbEntity
  8
0
100
AcDbLine
 62
7
  6
CONTINUOUS
 10
3.0395664788
 20
5.3698209496
 11
3.0390547467
 21
5.3698209496
  0
LINE
  5
2B7
100
AcDbEntity
  8
0
100
AcDbLine
 62
7
  6
CONTINUOUS
 10
6.6261025496
 20
5.3702859167
 11
6.6266122046
 21
5.3702859167
  0
LINE
  5
2B8
100
AcDbEntity
  8
0
100
AcDbLine
 62
7
  6
CONTINUOUS
 10
3.0388340293
 20
5.3709027998
 11
3.0383227915
 21
5.3709027998
  0
LINE
  5
2B9
100
AcDbEntity
  8
0
100
AcDbLine
 62
7
  6
CONTINUOUS
 10
3.0387295579
 20
5.3715713824
 11
3.0382183905
 21
5.3715713824
  0
LINE
  5
2BA
100
AcDbEntity
  8
0
100
AcDbLine
 62
7
  6
CONTINUOUS
 10
3.0416850698
 20
5.3721923012
 11
3.0411719026
 21
5.3721923012
  0
LINE
  5
2BB
100
AcDbEntity
  8
0
100
AcDbLine
 62
7
  6
CONTINUOUS
 10
3.0382374251
 20
5.3725940774
 11
3.0377265892
 21
5.3725940774
  0
LINE
  5
2BC
100
AcDbEntity
  8
0
100
AcDbLine
 62
7
  6
CONTINUOUS
 10
6.6235238015
 20
5.3729926041
 11
6.6240351902
 21
5.3729926041
  0
LINE
  5
2BD
100
AcDbEntity
  8
0
100
AcDbLine
 62
7
  6
CONTINUOUS
 10
3.0377345092
 20
5.3731507102
 11
3.0372240116
 21
5.3731507102
  0
LINE
  5
2BE
100
AcDbEntity
  8
0
100
AcDbLine
 62
7
  6
CONTINUOUS
 10
6.6377050413
 20
5.3735201764
 11
6.6384953485
 21
5.3735201764
  0
LINE
  5
2BF
100
AcDbEntity
  8
0
100
AcDbLine
 62
7
  6
CONTINUOUS
 10
6.6233312746
 20
5.3739306942
 11
6.6238427933
 21
5.3739306942
  0
LINE
  5
2C0
100
AcDbEntity
  8
0
100
AcDbLine
 62
7
  6
CONTINUOUS
 10
3.0363503736
 20
5.374183087
 11
3.0358408048
 21
5.374183087
  0
LINE
  5
2C1
100
AcDbEntity
  8
0
100
AcDbLine
 62
7
  6
CONTINUOUS
 10
6.637830155
 20
5.3750201764
 11
6.6381346032
 21
5.3750201764
  0
LINE
  5
2C2
100
AcDbEntity
  8
0
100
AcDbLine
 62
7
  6
CONTINUOUS
 10
3.0246885888
 20
5.3757701764
 11
3.0243850293
 21
5.3757701764
  0
LINE
  5
2C3
100
AcDbEntity
  8
0
100
AcDbLine
 62
7
  6
CONTINUOUS
 10
3.0232797909
 20
5.3837701764
 11
3.0240271183
 21
5.3837701764
  0
LINE
  5
2C4
100
AcDbEntity
  8
0
100
AcDbLine
 62
7
  6
CONTINUOUS
 10
6.6388521935
 20
5.3887701764
 11
6.6391555909
 21
5.3887701764
  0
LINE
  5
2C5
100
AcDbEntity
  8
0
100
AcDbLine
 62
7
  6
CONTINUOUS
 10
3.0223493262
 20
5.3987701764
 11
3.0230957599
 21
5.3987701764
  0
LINE
  5
2C6
100
AcDbEntity
  8
0
100
AcDbLine
 62
7
  6
CONTINUOUS
 10
6.6397802837
 20
5.4022701764
 11
6.6402809363
 21
5.4022701764
  0
LINE
  5
2C7
100
AcDbEntity
  8
0
100
AcDbLine
 62
7
  6
CONTINUOUS
 10
3.0224605671
 20
5.4067701764
 11
3.0227633717
 21
5.4067701764
  0
LINE
  5
2C8
100
AcDbEntity
  8
0
100
AcDbLine
 62
7
  6
CONTINUOUS
 10
3.0218785565
 20
5.427644486
 11
3.0215888656
 21
5.427644486
  0
LINE
  5
2C9
100
AcDbEntity
  8
0
100
AcDbLine
 62
7
  6
CONTINUOUS
 10
3.0218717057
 20
5.4280967914
 11
3.0215266193
 21
5.4280967914
  0
LINE
  5
2CA
100
AcDbEntity
  8
0
100
AcDbLine
 62
7
  6
CONTINUOUS
 10
3.0218568505
 20
5.4291942569
 11
3.021457087
 21
5.4291942569
  0
LINE
  5
2CB
100
AcDbEntity
  8
0
100
AcDbLine
 62
7
  6
CONTINUOUS
 10
3.0218216003
 20
5.4328339592
 11
3.0213215805
 21
5.4328339592
  0
LINE
  5
2CC
100
AcDbEntity
  8
0
100
AcDbLine
 62
7
  6
CONTINUOUS
 10
4.4910408351
 20
5.4392701764
 11
4.0940865671
 21
5.4392701764
  0
LINE
  5
2CD
100
AcDbEntity
  8
0
100
AcDbLine
 62
7
  6
CONTINUOUS
 10
3.9312908351
 20
5.4392701764
 11
3.8312908351
 21
5.4392701764
  0
LINE
  5
2CE
100
AcDbEntity
  8
0
100
AcDbLine
 62
7
  6
CONTINUOUS
 10
5.1715408351
 20
5.4392701764
 11
5.5684951031
 21
5.4392701764
  0
LINE
  5
2CF
100
AcDbEntity
  8
0
100
AcDbLine
 62
7
  6
CONTINUOUS
 10
5.7312908351
 20
5.4392701764
 11
5.8312908351
 21
5.4392701764
  0
LINE
  5
2D0
100
AcDbEntity
  8
0
100
AcDbLine
 62
7
  6
CONTINUOUS
 10
6.640786802
 20
5.4417701764
 11
6.6412868046
 21
5.4417701764
  0
LINE
  5
2D1
100
AcDbEntity
  8
0
100
AcDbLine
 62
7
  6
CONTINUOUS
 10
3.0221286609
 20
5.4420108431
 11
3.021628443
 21
5.4420108431
  0
LINE
  5
2D2
100
AcDbEntity
  8
0
100
AcDbLine
 62
7
  6
CONTINUOUS
 10
3.0216260354
 20
5.4511877269
 11
3.0213864629
 21
5.4511877269
  0
LINE
  5
2D3
100
AcDbEntity
  8
0
100
AcDbLine
 62
7
  6
CONTINUOUS
 10
6.0403443336
 20
5.6378958277
 11
6.0403443336
 21
5.2406445251
  0
LINE
  5
2D4
100
AcDbEntity
  8
0
100
AcDbLine
 62
7
  6
CONTINUOUS
 10
6.0437908351
 20
5.6281507972
 11
6.0437908351
 21
5.2503895556
  0
LINE
  5
2D5
100
AcDbEntity
  8
0
100
AcDbLine
 62
7
  6
CONTINUOUS
 10
6.0937908351
 20
5.2642701764
 11
6.0937908351
 21
5.6142701764
  0
LINE
  5
2D6
100
AcDbEntity
  8
0
100
AcDbLine
 62
7
  6
CONTINUOUS
 10
6.1037908351
 20
5.2830204199
 11
6.1037908351
 21
5.5955199329
  0
LINE
  5
2D7
100
AcDbEntity
  8
0
100
AcDbLine
 62
7
  6
CONTINUOUS
 10
6.6243902935
 20
5.353914427
 11
6.6241005784
 21
5.3531022029
  0
LINE
  5
2D8
100
AcDbEntity
  8
0
100
AcDbLine
 62
7
  6
CONTINUOUS
 10
6.6225470906
 20
5.3323359691
 11
6.6224836724
 21
5.3321670264
  0
LINE
  5
2D9
100
AcDbEntity
  8
0
100
AcDbLine
 62
7
  6
CONTINUOUS
 10
6.6231262733
 20
5.3490458457
 11
6.6228216761
 21
5.3482355396
  0
LINE
  5
2DA
100
AcDbEntity
  8
0
100
AcDbLine
 62
7
  6
CONTINUOUS
 10
6.6223094657
 20
5.3482355365
 11
6.6216923213
 21
5.3466159007
  0
LINE
  5
2DB
100
AcDbEntity
  8
0
100
AcDbLine
 62
7
  6
CONTINUOUS
 10
3.0229895432
 20
5.4767701764
 11
3.02268665
 21
5.4767701764
  0
LINE
  5
2DC
100
AcDbEntity
  8
0
100
AcDbLine
 62
7
  6
CONTINUOUS
 10
6.6398828519
 20
5.4767701764
 11
6.6403834381
 21
5.4767701764
  0
LINE
  5
2DD
100
AcDbEntity
  8
0
100
AcDbLine
 62
7
  6
CONTINUOUS
 10
3.0232371881
 20
5.4840201764
 11
3.0225844176
 21
5.4840201764
  0
LINE
  5
2DE
100
AcDbEntity
  8
0
100
AcDbLine
 62
7
  6
CONTINUOUS
 10
6.6386665587
 20
5.4967701764
 11
6.6383631838
 21
5.4967701764
  0
LINE
  5
2DF
100
AcDbEntity
  8
0
100
AcDbLine
 62
7
  6
CONTINUOUS
 10
3.0237327018
 20
5.5005201764
 11
3.024368754
 21
5.5005201764
  0
LINE
  5
2E0
100
AcDbEntity
  8
0
100
AcDbLine
 62
7
  6
CONTINUOUS
 10
6.6262312967
 20
5.5043572658
 11
6.6267408655
 21
5.5043572658
  0
LINE
  5
2E1
100
AcDbEntity
  8
0
100
AcDbLine
 62
7
  6
CONTINUOUS
 10
3.0392503957
 20
5.5046096586
 11
3.038738877
 21
5.5046096586
  0
LINE
  5
2E2
100
AcDbEntity
  8
0
100
AcDbLine
 62
7
  6
CONTINUOUS
 10
6.6248471611
 20
5.5053896426
 11
6.6253576587
 21
5.5053896426
  0
LINE
  5
2E3
100
AcDbEntity
  8
0
100
AcDbLine
 62
7
  6
CONTINUOUS
 10
6.6377962399
 20
5.5055201764
 11
6.6384552201
 21
5.5055201764
  0
LINE
  5
2E4
100
AcDbEntity
  8
0
100
AcDbLine
 62
7
  6
CONTINUOUS
 10
3.0390578688
 20
5.5055477487
 11
3.03854648
 21
5.5055477487
  0
LINE
  5
2E5
100
AcDbEntity
  8
0
100
AcDbLine
 62
7
  6
CONTINUOUS
 10
6.6243442452
 20
5.5059462754
 11
6.6248550811
 21
5.5059462754
  0
LINE
  5
2E6
100
AcDbEntity
  8
0
100
AcDbLine
 62
7
  6
CONTINUOUS
 10
6.6208966005
 20
5.5063480516
 11
6.6214097677
 21
5.5063480516
  0
LINE
  5
2E7
100
AcDbEntity
  8
0
100
AcDbLine
 62
7
  6
CONTINUOUS
 10
3.024628294
 20
5.5067701764
 11
3.0250280693
 21
5.5067701764
  0
LINE
  5
2E8
100
AcDbEntity
  8
0
100
AcDbLine
 62
7
  6
CONTINUOUS
 10
6.6238521124
 20
5.5069689704
 11
6.6243632797
 21
5.5069689704
  0
LINE
  5
2E9
100
AcDbEntity
  8
0
100
AcDbLine
 62
7
  6
CONTINUOUS
 10
6.6237476409
 20
5.507637553
 11
6.6242588787
 21
5.507637553
  0
LINE
  5
2EA
100
AcDbEntity
  8
0
100
AcDbLine
 62
7
  6
CONTINUOUS
 10
3.0364791207
 20
5.5082544361
 11
3.0359694656
 21
5.5082544361
  0
LINE
  5
2EB
100
AcDbEntity
  8
0
100
AcDbLine
 62
7
  6
CONTINUOUS
 10
6.6230151915
 20
5.5087194033
 11
6.6235269236
 21
5.5087194033
  0
LINE
  5
2EC
100
AcDbEntity
  8
0
100
AcDbLine
 62
7
  6
CONTINUOUS
 10
6.6229671758
 20
5.5087700062
 11
6.6234789403
 21
5.5087700062
  0
LINE
  5
2ED
100
AcDbEntity
  8
0
100
AcDbLine
 62
7
  6
CONTINUOUS
 10
6.6237512508
 20
5.5088094364
 11
6.6242624862
 21
5.5088094364
  0
LINE
  5
2EE
100
AcDbEntity
  8
0
100
AcDbLine
 62
7
  6
CONTINUOUS
 10
3.041824665
 20
5.5089176344
 11
3.041311403
 21
5.5089176344
  0
LINE
  5
2EF
100
AcDbEntity
  8
0
100
AcDbLine
 62
7
  6
CONTINUOUS
 10
6.6237896956
 20
5.509075021
 11
6.6243009051
 21
5.509075021
  0
LINE
  5
2F0
100
AcDbEntity
  8
0
100
AcDbLine
 62
7
  6
CONTINUOUS
 10
3.0376559582
 20
5.509304198
 11
3.0371455134
 21
5.509304198
  0
LINE
  5
2F1
100
AcDbEntity
  8
0
100
AcDbLine
 62
7
  6
CONTINUOUS
 10
3.0378834085
 20
5.5095226465
 11
3.0373728108
 21
5.5095226465
  0
LINE
  5
2F2
100
AcDbEntity
  8
0
100
AcDbLine
 62
7
  6
CONTINUOUS
 10
3.041617193
 20
5.5098557245
 11
3.0411040719
 21
5.5098557245
  0
LINE
  5
2F3
100
AcDbEntity
  8
0
100
AcDbLine
 62
7
  6
CONTINUOUS
 10
6.6261781891
 20
5.5128958093
 11
6.6266877935
 21
5.5128958093
  0
LINE
  5
2F4
100
AcDbEntity
  8
0
100
AcDbLine
 62
7
  6
CONTINUOUS
 10
6.6205780431
 20
5.5134127463
 11
6.6210914268
 21
5.5134127463
  0
LINE
  5
2F5
100
AcDbEntity
  8
0
100
AcDbLine
 62
7
  6
CONTINUOUS
 10
6.6204633774
 20
5.5140813289
 11
6.620976839
 21
5.5140813289
  0
LINE
  5
2F6
100
AcDbEntity
  8
0
100
AcDbLine
 62
7
  6
CONTINUOUS
 10
3.0257209368
 20
5.5142701764
 11
3.0253208024
 21
5.5142701764
  0
LINE
  5
2F7
100
AcDbEntity
  8
0
100
AcDbLine
 62
7
  6
CONTINUOUS
 10
6.6237363328
 20
5.5148240237
 11
6.6242475782
 21
5.5148240237
  0
LINE
  5
2F8
100
AcDbEntity
  8
0
100
AcDbLine
 62
7
  6
CONTINUOUS
 10
3.0416614993
 20
5.5160047818
 11
3.0411483481
 21
5.5160047818
  0
LINE
  5
2F9
100
AcDbEntity
  8
0
100
AcDbLine
 62
7
  6
CONTINUOUS
 10
3.0422910106
 20
5.5183688141
 11
3.0417774315
 21
5.5183688141
  0
LINE
  5
2FA
100
AcDbEntity
  8
0
100
AcDbLine
 62
7
  6
CONTINUOUS
 10
6.6204615837
 20
5.519433248
 11
6.6209750466
 21
5.519433248
  0
LINE
  5
2FB
100
AcDbEntity
  8
0
100
AcDbLine
 62
7
  6
CONTINUOUS
 10
3.0262162042
 20
5.5205201764
 11
3.025713334
 21
5.5205201764
  0
LINE
  5
2FC
100
AcDbEntity
  8
0
100
AcDbLine
 62
7
  6
CONTINUOUS
 10
6.6363616441
 20
5.5205201764
 11
6.6370198787
 21
5.5205201764
  0
LINE
  5
2FD
100
AcDbEntity
  8
0
100
AcDbLine
 62
7
  6
CONTINUOUS
 10
6.6260300272
 20
5.5205355587
 11
6.6265397309
 21
5.5205355587
  0
LINE
  5
2FE
100
AcDbEntity
  8
0
100
AcDbLine
 62
7
  6
CONTINUOUS
 10
3.0363921664
 20
5.5206822441
 11
3.0358825695
 21
5.5206822441
  0
LINE
  5
2FF
100
AcDbEntity
  8
0
100
AcDbLine
 62
7
  6
CONTINUOUS
 10
6.6211746493
 20
5.5226881368
 11
6.6216876277
 21
5.5226881368
  0
LINE
  5
300
100
AcDbEntity
  8
0
100
AcDbLine
 62
7
  6
CONTINUOUS
 10
3.0381913767
 20
5.5246259258
 11
3.0376805718
 21
5.5246259258
  0
LINE
  5
301
100
AcDbEntity
  8
0
100
AcDbLine
 62
7
  6
CONTINUOUS
 10
6.6352538023
 20
5.5292701764
 11
6.6355584029
 21
5.5292701764
  0
LINE
  5
302
100
AcDbEntity
  8
0
100
AcDbLine
 62
7
  6
CONTINUOUS
 10
3.041688697
 20
5.5305478077
 11
3.0411755274
 21
5.5305478077
  0
LINE
  5
303
100
AcDbEntity
  8
0
100
AcDbLine
 62
7
  6
CONTINUOUS
 10
3.040889349
 20
5.5319244522
 11
3.0403767218
 21
5.5319244522
  0
LINE
  5
304
100
AcDbEntity
  8
0
100
AcDbLine
 62
7
  6
CONTINUOUS
 10
6.6349572086
 20
5.5342701764
 11
6.6346523698
 21
5.5342701764
  0
LINE
  5
305
100
AcDbEntity
  8
0
100
AcDbLine
 62
7
  6
CONTINUOUS
 10
6.6209773975
 20
5.5356895273
 11
6.6213919932
 21
5.5356895273
  0
LINE
  5
306
100
AcDbEntity
  8
0
100
AcDbLine
 62
7
  6
CONTINUOUS
 10
6.6262036746
 20
5.5364336369
 11
6.626713262
 21
5.5364336369
  0
LINE
  5
307
100
AcDbEntity
  8
0
100
AcDbLine
 62
7
  6
CONTINUOUS
 10
3.02747741
 20
5.5370201764
 11
3.0281354322
 21
5.5370201764
  0
LINE
  5
308
100
AcDbEntity
  8
0
100
AcDbLine
 62
7
  6
CONTINUOUS
 10
6.634156887
 20
5.5382701764
 11
6.6349443671
 21
5.5382701764
  0
LINE
  5
309
100
AcDbEntity
  8
0
100
AcDbLine
 62
7
  6
CONTINUOUS
 10
3.0420643548
 20
5.5382707873
 11
3.0415509299
 21
5.5382707873
  0
LINE
  5
30A
100
AcDbEntity
  8
0
100
AcDbLine
 62
7
  6
CONTINUOUS
 10
6.624986785
 20
5.5387308086
 11
6.6253049166
 21
5.5387308086
  0
LINE
  5
30B
100
AcDbEntity
  8
0
100
AcDbLine
 62
7
  6
CONTINUOUS
 10
3.0364981962
 20
5.5392793265
 11
3.0359885284
 21
5.5392793265
  0
LINE
  5
30C
100
AcDbEntity
  8
0
100
AcDbLine
 62
7
  6
CONTINUOUS
 10
6.6241624327
 20
5.5401087387
 11
6.624673391
 21
5.5401087387
  0
LINE
  5
30D
100
AcDbEntity
  8
0
100
AcDbLine
 62
7
  6
CONTINUOUS
 10
3.0375600476
 20
5.5401603676
 11
3.0371949446
 21
5.5401603676
  0
LINE
  5
30E
100
AcDbEntity
  8
0
100
AcDbLine
 62
7
  6
CONTINUOUS
 10
6.620455653
 20
5.5411034159
 11
6.6209691199
 21
5.5411034159
  0
LINE
  5
30F
100
AcDbEntity
  8
0
100
AcDbLine
 62
7
  6
CONTINUOUS
 10
3.038211649
 20
5.5412107742
 11
3.0377008305
 21
5.5412107742
  0
LINE
  5
310
100
AcDbEntity
  8
0
100
AcDbLine
 62
7
  6
CONTINUOUS
 10
3.0289259508
 20
5.5442701764
 11
3.0292313067
 21
5.5442701764
  0
LINE
  5
311
100
AcDbEntity
  8
0
100
AcDbLine
 62
7
  6
CONTINUOUS
 10
6.6204930394
 20
5.544763905
 11
6.6210064808
 21
5.544763905
  0
LINE
  5
312
100
AcDbEntity
  8
0
100
AcDbLine
 62
7
  6
CONTINUOUS
 10
6.6205397315
 20
5.5449560742
 11
6.6210531412
 21
5.5449560742
  0
LINE
  5
313
100
AcDbEntity
  8
0
100
AcDbLine
 62
7
  6
CONTINUOUS
 10
3.0408719821
 20
5.5460822496
 11
3.0403593666
 21
5.5460822496
  0
LINE
  5
314
100
AcDbEntity
  8
0
100
AcDbLine
 62
7
  6
CONTINUOUS
 10
3.0409096937
 20
5.5485093005
 11
3.0403970527
 21
5.5485093005
  0
LINE
  5
315
100
AcDbEntity
  8
0
100
AcDbLine
 62
7
  6
CONTINUOUS
 10
6.6206119108
 20
5.5499721495
 11
6.6211252714
 21
5.5499721495
  0
LINE
  5
316
100
AcDbEntity
  8
0
100
AcDbLine
 62
7
  6
CONTINUOUS
 10
6.6204930394
 20
5.5506739856
 11
6.6210064808
 21
5.5506739856
  0
LINE
  5
317
100
AcDbEntity
  8
0
100
AcDbLine
 62
7
  6
CONTINUOUS
 10
3.0303951619
 20
5.5539864909
 11
3.0298895509
 21
5.5539864909
  0
LINE
  5
318
100
AcDbEntity
  8
0
100
AcDbLine
 62
7
  6
CONTINUOUS
 10
6.620455653
 20
5.5543344747
 11
6.6209691199
 21
5.5543344747
  0
LINE
  5
319
100
AcDbEntity
  8
0
100
AcDbLine
 62
7
  6
CONTINUOUS
 10
3.0421934143
 20
5.5548556357
 11
3.0416799016
 21
5.5548556357
  0
LINE
  5
31A
100
AcDbEntity
  8
0
100
AcDbLine
 62
7
  6
CONTINUOUS
 10
6.6315342082
 20
5.5567701764
 11
6.6323356854
 21
5.5567701764
  0
LINE
  5
31B
100
AcDbEntity
  8
0
100
AcDbLine
 62
7
  6
CONTINUOUS
 10
6.620878814
 20
5.5571010189
 11
6.6213919932
 21
5.5571010189
  0
LINE
  5
31C
100
AcDbEntity
  8
0
100
AcDbLine
 62
7
  6
CONTINUOUS
 10
6.6205246731
 20
5.5590861112
 11
6.6210380931
 21
5.5590861112
  0
LINE
  5
31D
100
AcDbEntity
  8
0
100
AcDbLine
 62
7
  6
CONTINUOUS
 10
6.6311432299
 20
5.5592701764
 11
6.6314544389
 21
5.5592701764
  0
LINE
  5
31E
100
AcDbEntity
  8
0
100
AcDbLine
 62
7
  6
CONTINUOUS
 10
3.0326974415
 20
5.5674485679
 11
3.03238752
 21
5.5674485679
  0
LINE
  5
31F
100
AcDbEntity
  8
0
100
AcDbLine
 62
7
  6
CONTINUOUS
 10
6.6295128811
 20
5.5692701764
 11
6.6298197709
 21
5.5692701764
  0
LINE
  5
320
100
AcDbEntity
  8
0
100
AcDbLine
 62
7
  6
CONTINUOUS
 10
3.5687908351
 20
5.5853860566
 11
3.5587908351
 21
5.5853860566
  0
LINE
  5
321
100
AcDbEntity
  8
0
100
AcDbLine
 62
7
  6
CONTINUOUS
 10
6.0937908351
 20
5.5853860566
 11
6.1037908351
 21
5.5853860566
  0
LINE
  5
322
100
AcDbEntity
  8
0
100
AcDbLine
 62
7
  6
CONTINUOUS
 10
6.6262714445
 20
5.5882685316
 11
6.6267151861
 21
5.5882685316
  0
LINE
  5
323
100
AcDbEntity
  8
0
100
AcDbLine
 62
7
  6
CONTINUOUS
 10
6.62593361
 20
5.5902718212
 11
6.6264433782
 21
5.5902718212
  0
LINE
  5
324
100
AcDbEntity
  8
0
100
AcDbLine
 62
7
  6
CONTINUOUS
 10
6.2996642474
 20
5.5955201764
 11
6.1037908351
 21
5.5955201764
  0
LINE
  5
325
100
AcDbEntity
  8
0
100
AcDbLine
 62
7
  6
CONTINUOUS
 10
3.3629174229
 20
5.5955201764
 11
3.5587908351
 21
5.5955201764
  0
LINE
  5
326
100
AcDbEntity
  8
0
100
AcDbLine
 62
7
  6
CONTINUOUS
 10
3.0380756213
 20
5.5966819886
 11
3.0375648943
 21
5.5966819886
  0
LINE
  5
327
100
AcDbEntity
  8
0
100
AcDbLine
 62
7
  6
CONTINUOUS
 10
3.038490728
 20
5.5992701764
 11
3.0379797216
 21
5.5992701764
  0
LINE
  5
328
100
AcDbEntity
  8
0
100
AcDbLine
 62
7
  6
CONTINUOUS
 10
6.0937908351
 20
5.6142701764
 11
6.0437908351
 21
5.6142701764
  0
LINE
  5
329
100
AcDbEntity
  8
0
100
AcDbLine
 62
7
  6
CONTINUOUS
 10
3.5687908351
 20
5.6142701764
 11
3.6187908351
 21
5.6142701764
  0
LINE
  5
32A
100
AcDbEntity
  8
0
100
AcDbLine
 62
7
  6
CONTINUOUS
 10
5.6812908351
 20
5.1284262582
 11
5.6829469169
 21
5.1267701764
  0
LINE
  5
32B
100
AcDbEntity
  8
0
100
AcDbLine
 62
7
  6
CONTINUOUS
 10
6.2996642474
 20
5.2830201764
 11
6.2996642474
 21
5.5955201764
  0
LINE
  5
32C
100
AcDbEntity
  8
0
100
AcDbLine
 62
7
  6
CONTINUOUS
 10
6.6257768831
 20
5.3383496673
 11
6.6257249208
 21
5.3381961681
  0
LINE
  5
32D
100
AcDbEntity
  8
0
100
AcDbLine
 62
7
  6
CONTINUOUS
 10
6.626131764
 20
5.3378923175
 11
6.6258968608
 21
5.3372037779
  0
LINE
  5
32E
100
AcDbEntity
  8
0
100
AcDbLine
 62
7
  6
CONTINUOUS
 10
4.6854690202
 20
5.7466781344
 11
4.1389996356
 21
5.7275956325
  0
LINE
  5
32F
100
AcDbEntity
  8
0
100
AcDbLine
 62
7
  6
CONTINUOUS
 10
4.6875688685
 20
5.7476638345
 11
4.1334323812
 21
5.7318313634
  0
LINE
  5
330
100
AcDbEntity
  8
0
100
AcDbLine
 62
7
  6
CONTINUOUS
 10
6.6037908351
 20
5.6892701764
 11
6.3537908351
 21
5.6892701764
  0
LINE
  5
331
100
AcDbEntity
  8
0
100
AcDbLine
 62
7
  6
CONTINUOUS
 10
3.0587908351
 20
5.6892701764
 11
3.3087908351
 21
5.6892701764
  0
LINE
  5
332
100
AcDbEntity
  8
0
100
AcDbLine
 62
7
  6
CONTINUOUS
 10
5.6812908351
 20
5.7317701764
 11
5.5334341171
 21
5.7317701764
  0
LINE
  5
333
100
AcDbEntity
  8
0
100
AcDbLine
 62
7
  6
CONTINUOUS
 10
4.1291475531
 20
5.7317701764
 11
3.9812908351
 21
5.7317701764
  0
LINE
  5
334
100
AcDbEntity
  8
0
100
AcDbLine
 62
7
  6
CONTINUOUS
 10
5.9007908351
 20
5.7430201764
 11
5.8812908351
 21
5.7430201764
  0
LINE
  5
335
100
AcDbEntity
  8
0
100
AcDbLine
 62
7
  6
CONTINUOUS
 10
3.7617908351
 20
5.7430201764
 11
3.7812908351
 21
5.7430201764
  0
LINE
  5
336
100
AcDbEntity
  8
0
100
AcDbLine
 62
7
  6
CONTINUOUS
 10
3.7871231688
 20
5.7517701764
 11
3.9796347534
 21
5.7517701764
  0
LINE
  5
337
100
AcDbEntity
  8
0
100
AcDbLine
 62
7
  6
CONTINUOUS
 10
5.6829469169
 20
5.7517701764
 11
5.8754585015
 21
5.7517701764
  0
LINE
  5
338
100
AcDbEntity
  8
0
100
AcDbLine
 62
7
  6
CONTINUOUS
 10
4.9750128018
 20
5.7476638345
 11
5.5291492891
 21
5.7318313634
  0
LINE
  5
339
100
AcDbEntity
  8
0
100
AcDbLine
 62
7
  6
CONTINUOUS
 10
4.97711265
 20
5.7466781344
 11
5.5235820347
 21
5.7275956325
  0
LINE
  5
33A
100
AcDbEntity
  8
0
100
AcDbLine
 62
7
  6
CONTINUOUS
 10
6.3537908351
 20
5.1892701764
 11
6.3537908351
 21
5.3509937055
  0
LINE
  5
33B
100
AcDbEntity
  8
0
100
AcDbLine
 62
7
  6
CONTINUOUS
 10
6.3537908351
 20
5.5275466473
 11
6.3537908351
 21
5.6892701764
  0
LINE
  5
33C
100
AcDbEntity
  8
0
100
AcDbLine
 62
7
  6
CONTINUOUS
 10
6.6261895039
 20
5.3578581087
 11
6.6255395322
 21
5.3538100943
  0
LINE
  5
33D
100
AcDbEntity
  8
0
100
AcDbLine
 62
7
  6
CONTINUOUS
 10
6.6257791216
 20
5.3552771737
 11
6.6255260832
 21
5.3537288125
  0
LINE
  5
33E
100
AcDbEntity
  8
0
100
AcDbLine
 62
7
  6
CONTINUOUS
 10
6.6217280109
 20
5.3325532704
 11
6.6217096882
 21
5.3324581033
  0
LINE
  5
33F
100
AcDbEntity
  8
0
100
AcDbLine
 62
7
  6
CONTINUOUS
 10
6.6412868046
 20
5.4417701764
 11
6.6403834381
 21
5.4767701764
  0
LINE
  5
340
100
AcDbEntity
  8
0
100
AcDbLine
 62
7
  6
CONTINUOUS
 10
6.6260300272
 20
5.5205355587
 11
6.6260511622
 21
5.5196876444
  0
LINE
  5
341
100
AcDbEntity
  8
0
100
AcDbLine
 62
7
  6
CONTINUOUS
 10
6.6260880496
 20
5.3633392197
 11
6.6260910711
 21
5.3632160244
  0
LINE
  5
342
100
AcDbEntity
  8
0
100
AcDbLine
 62
7
  6
CONTINUOUS
 10
6.6395200861
 20
5.4908297919
 11
6.6395113356
 21
5.4917701764
  0
LINE
  5
343
100
AcDbEntity
  8
0
100
AcDbLine
 62
7
  6
CONTINUOUS
 10
6.6262162474
 20
5.3875233107
 11
6.6262260554
 21
5.3859247135
  0
LINE
  5
344
100
AcDbEntity
  8
0
100
AcDbLine
 62
7
  6
CONTINUOUS
 10
6.6037908351
 20
5.6892701764
 11
6.6037908351
 21
5.5275466473
  0
LINE
  5
345
100
AcDbEntity
  8
0
100
AcDbLine
 62
7
  6
CONTINUOUS
 10
6.6037908351
 20
5.1892701764
 11
6.6037908351
 21
5.3509937055
  0
LINE
  5
346
100
AcDbEntity
  8
0
100
AcDbLine
 62
7
  6
CONTINUOUS
 10
6.6156954818
 20
5.6368425047
 11
6.6156954818
 21
5.5139069574
  0
LINE
  5
347
100
AcDbEntity
  8
0
100
AcDbLine
 62
7
  6
CONTINUOUS
 10
6.6156954818
 20
5.3646333954
 11
6.6156954818
 21
5.2416978481
  0
LINE
  5
348
100
AcDbEntity
  8
0
100
AcDbLine
 62
7
  6
CONTINUOUS
 10
6.6237512508
 20
5.5088094364
 11
6.6237495223
 21
5.5081583818
  0
LINE
  5
349
100
AcDbEntity
  8
0
100
AcDbLine
 62
7
  6
CONTINUOUS
 10
6.6204930394
 20
5.544763905
 11
6.6204902969
 21
5.5443570945
  0
LINE
  5
34A
100
AcDbEntity
  8
0
100
AcDbLine
 62
7
  6
CONTINUOUS
 10
6.6262283737
 20
5.5296041932
 11
6.6262178686
 21
5.5277291135
  0
LINE
  5
34B
100
AcDbEntity
  8
0
100
AcDbLine
 62
7
  6
CONTINUOUS
 10
6.6210064808
 20
5.544763905
 11
6.6210006471
 21
5.5439503063
  0
LINE
  5
34C
100
AcDbEntity
  8
0
100
AcDbLine
 62
7
  6
CONTINUOUS
 10
6.6262084632
 20
5.346612191
 11
6.6261927752
 21
5.3451914662
  0
LINE
  5
34D
100
AcDbEntity
  8
0
100
AcDbLine
 62
7
  6
CONTINUOUS
 10
6.6262082191
 20
5.3466121925
 11
6.6261927752
 21
5.3451914662
  0
LINE
  5
34E
100
AcDbEntity
  8
0
100
AcDbLine
 62
7
  6
CONTINUOUS
 10
6.6261678422
 20
5.4959668159
 11
6.6261475944
 21
5.4946571896
  0
LINE
  5
34F
100
AcDbEntity
  8
0
100
AcDbLine
 62
7
  6
CONTINUOUS
 10
6.6403716113
 20
5.4764158205
 11
6.6403683249
 21
5.4762541201
  0
LINE
  5
350
100
AcDbEntity
  8
0
100
AcDbLine
 62
7
  6
CONTINUOUS
 10
6.6403834381
 20
5.4767701764
 11
6.6403683249
 21
5.4762541201
  0
LWPOLYLINE
  5
351
100
AcDbEntity
  8
0
100
AcDbPolyline
 62
7
  6
CONTINUOUS
 90
4
 70
0
 10
6.6412856904
 20
5.441780561
 10
6.6412862166
 20
5.4417944986
 10
6.6412865824
 20
5.4417967852
 10
6.6412867697
 20
5.4417743519
  0
LWPOLYLINE
  5
352
100
AcDbEntity
  8
0
100
AcDbPolyline
 62
7
  6
CONTINUOUS
 90
3
 70
0
 10
6.6398798474
 20
5.4767256032
 10
6.6398815974
 20
5.4767683887
 10
6.6398828519
 20
5.4767701764
  0
LINE
  5
353
100
AcDbEntity
  8
0
100
AcDbLine
 62
7
  6
CONTINUOUS
 10
6.6398802638
 20
5.4767170227
 11
6.6398828519
 21
5.4767701764
  0
LINE
  5
354
100
AcDbEntity
  8
0
100
AcDbLine
 62
7
  6
CONTINUOUS
 10
6.3537908351
 20
5.1892701764
 11
6.2996642474
 21
5.2830201764
  0
LINE
  5
355
100
AcDbEntity
  8
0
100
AcDbLine
 62
7
  6
CONTINUOUS
 10
6.6412856904
 20
5.441780561
 11
6.6412868046
 21
5.4417701764
  0
LINE
  5
356
100
AcDbEntity
  8
0
100
AcDbLine
 62
7
  6
CONTINUOUS
 10
6.6412849218
 20
5.4417880388
 11
6.6412856904
 21
5.441780561
  0
LINE
  5
357
100
AcDbEntity
  8
0
100
AcDbLine
 62
7
  6
CONTINUOUS
 10
6.6379533836
 20
5.5055201764
 11
6.6365190803
 21
5.5205201764
  0
LINE
  5
358
100
AcDbEntity
  8
0
100
AcDbLine
 62
7
  6
CONTINUOUS
 10
6.6411900657
 20
5.4267701764
 11
6.6411413353
 21
5.4279292648
  0
LINE
  5
359
100
AcDbEntity
  8
0
100
AcDbLine
 62
7
  6
CONTINUOUS
 10
6.6295128811
 20
5.5692701764
 11
6.6235304932
 21
5.6042701764
  0
LINE
  5
35A
100
AcDbEntity
  8
0
100
AcDbLine
 62
7
  6
CONTINUOUS
 10
6.641284942
 20
5.4417817235
 11
6.6412856904
 21
5.441780561
  0
LINE
  5
35B
100
AcDbEntity
  8
0
100
AcDbLine
 62
7
  6
CONTINUOUS
 10
6.6234090514
 20
5.5089099661
 11
6.6234789403
 21
5.5087700062
  0
LINE
  5
35C
100
AcDbEntity
  8
0
100
AcDbLine
 62
7
  6
CONTINUOUS
 10
6.6256451891
 20
5.5056505856
 11
6.6260338833
 21
5.5047958382
  0
LINE
  5
35D
100
AcDbEntity
  8
0
100
AcDbLine
 62
7
  6
CONTINUOUS
 10
6.625635882
 20
5.5214079661
 11
6.6260300272
 21
5.5205355587
  0
LINE
  5
35E
100
AcDbEntity
  8
0
100
AcDbLine
 62
7
  6
CONTINUOUS
 10
6.6260338833
 20
5.5047958382
 11
6.6262312967
 21
5.5043572658
  0
LINE
  5
35F
100
AcDbEntity
  8
0
100
AcDbLine
 62
7
  6
CONTINUOUS
 10
6.6258151066
 20
5.5392041135
 11
6.6260169982
 21
5.5385887354
  0
LINE
  5
360
100
AcDbEntity
  8
0
100
AcDbLine
 62
7
  6
CONTINUOUS
 10
6.6254604214
 20
5.5387308136
 11
6.6256074637
 21
5.538280986
  0
LINE
  5
361
100
AcDbEntity
  8
0
100
AcDbLine
 62
7
  6
CONTINUOUS
 10
6.6264433782
 20
5.5902718212
 11
6.6264482925
 21
5.5902522852
  0
LINE
  5
362
100
AcDbEntity
  8
0
100
AcDbLine
 62
7
  6
CONTINUOUS
 10
6.620322717
 20
5.5593779229
 11
6.6205246731
 21
5.5590861112
  0
ARC
  5
363
100
AcDbEntity
  8
0
100
AcDbCircle
 62
7
  6
CONTINUOUS
 10
2.7067383213
 20
5.3297096045
 40
0.3205332874
100
AcDbArc
 50
5.589662656
 51
5.7404717352
  0
ARC
  5
364
100
AcDbEntity
  8
0
100
AcDbCircle
 62
7
  6
CONTINUOUS
 10
2.7480910419
 20
5.2993429012
 40
0.2829482592
100
AcDbArc
 50
7.6011358242
 51
7.832885936
  0
ARC
  5
365
100
AcDbEntity
  8
0
100
AcDbCircle
 62
7
  6
CONTINUOUS
 10
2.8639621688
 20
5.3147909545
 40
0.1661098717
100
AcDbArc
 50
6.3921008436
 51
6.7344048945
  0
ARC
  5
366
100
AcDbEntity
  8
0
100
AcDbCircle
 62
7
  6
CONTINUOUS
 10
3.0984251355
 20
5.3292365307
 40
0.0723581489
100
AcDbArc
 50
146.2225994363
 51
149.7904523227
  0
ARC
  5
367
100
AcDbEntity
  8
0
100
AcDbCircle
 62
7
  6
CONTINUOUS
 10
3.0985969795
 20
5.3294138719
 40
0.0719770297
100
AcDbArc
 50
146.612333132
 51
149.7771648429
  0
ARC
  5
368
100
AcDbEntity
  8
0
100
AcDbCircle
 62
7
  6
CONTINUOUS
 10
3.0750887308
 20
5.2940093633
 40
0.0594527903
100
AcDbArc
 50
124.3489615557
 51
124.7630856984
  0
ARC
  5
369
100
AcDbEntity
  8
0
100
AcDbCircle
 62
7
  6
CONTINUOUS
 10
3.000507424
 20
5.3366987122
 40
0.0411447957
100
AcDbArc
 50
7.5127618772
 51
8.5993128687
  0
ARC
  5
36A
100
AcDbEntity
  8
0
100
AcDbCircle
 62
7
  6
CONTINUOUS
 10
3.0017776526
 20
5.3367892324
 40
0.0403824721
100
AcDbArc
 50
5.3367452252
 51
7.3511087634
  0
ARC
  5
36B
100
AcDbEntity
  8
0
100
AcDbCircle
 62
7
  6
CONTINUOUS
 10
3.0613910086
 20
5.2455201764
 40
0.015
100
AcDbArc
 50
194.7630312681
 51
260.0152417639
  0
ARC
  5
36C
100
AcDbEntity
  8
0
100
AcDbCircle
 62
7
  6
CONTINUOUS
 10
2.5780315995
 20
5.4898491743
 40
0.4448473605
100
AcDbArc
 50
358.3151987597
 51
358.4519969425
  0
ARC
  5
36D
100
AcDbEntity
  8
0
100
AcDbCircle
 62
7
  6
CONTINUOUS
 10
2.6429672609
 20
5.5465098316
 40
0.3837103414
100
AcDbArc
 50
355.1802797852
 51
355.3149807617
  0
ARC
  5
36E
100
AcDbEntity
  8
0
100
AcDbCircle
 62
7
  6
CONTINUOUS
 10
2.6471141167
 20
5.5446423005
 40
0.3794090825
100
AcDbArc
 50
354.1400834194
 51
354.271269074
  0
ARC
  5
36F
100
AcDbEntity
  8
0
100
AcDbCircle
 62
7
  6
CONTINUOUS
 10
2.7054121277
 20
5.3495416025
 40
0.3200494493
100
AcDbArc
 50
4.7007543158
 51
4.8438712544
  0
ARC
  5
370
100
AcDbEntity
  8
0
100
AcDbCircle
 62
7
  6
CONTINUOUS
 10
2.7057957007
 20
5.3934755406
 40
0.3169438198
100
AcDbArc
 50
2.2525913126
 51
2.4040540559
  0
ARC
  5
371
100
AcDbEntity
  8
0
100
AcDbCircle
 62
7
  6
CONTINUOUS
 10
3.1678518289
 20
5.4390599484
 40
0.1489323163
100
AcDbArc
 50
151.6624356529
 51
152.3154304303
  0
ARC
  5
372
100
AcDbEntity
  8
0
100
AcDbCircle
 62
7
  6
CONTINUOUS
 10
3.1430497036
 20
5.3894460961
 40
0.123297824
100
AcDbArc
 50
214.5875564134
 51
215.3436902621
  0
ARC
  5
373
100
AcDbEntity
  8
0
100
AcDbCircle
 62
7
  6
CONTINUOUS
 10
3.1429126432
 20
5.3890414172
 40
0.1225325956
100
AcDbArc
 50
214.7703782913
 51
214.9356051799
  0
ARC
  5
374
100
AcDbEntity
  8
0
100
AcDbCircle
 62
7
  6
CONTINUOUS
 10
3.1131701337
 20
5.4560969264
 40
0.0916758675
100
AcDbArc
 50
184.170363859
 51
186.6250326649
  0
ARC
  5
375
100
AcDbEntity
  8
0
100
AcDbCircle
 62
7
  6
CONTINUOUS
 10
3.1126351671
 20
5.4343600844
 40
0.0913277501
100
AcDbArc
 50
175.1945544932
 51
176.3299382345
  0
ARC
  5
376
100
AcDbEntity
  8
0
100
AcDbCircle
 62
7
  6
CONTINUOUS
 10
3.1125754498
 20
5.449012921
 40
0.0912161562
100
AcDbArc
 50
182.8991104037
 51
184.4025596827
  0
ARC
  5
377
100
AcDbEntity
  8
0
100
AcDbCircle
 62
7
  6
CONTINUOUS
 10
3.1124873696
 20
5.4344107432
 40
0.0911796253
100
AcDbArc
 50
183.2797451849
 51
183.9707614144
  0
ARC
  5
378
100
AcDbEntity
  8
0
100
AcDbCircle
 62
7
  6
CONTINUOUS
 10
3.1129787693
 20
5.4343668663
 40
0.0911711079
100
AcDbArc
 50
175.5358415336
 51
176.6576981189
  0
ARC
  5
379
100
AcDbEntity
  8
0
100
AcDbCircle
 62
7
  6
CONTINUOUS
 10
3.1129613995
 20
5.4490095568
 40
0.0911019624
100
AcDbArc
 50
182.9006998677
 51
184.0605456688
  0
ARC
  5
37A
100
AcDbEntity
  8
0
100
AcDbCircle
 62
7
  6
CONTINUOUS
 10
3.1125805782
 20
5.4560537926
 40
0.0910847306
100
AcDbArc
 50
182.9416789114
 51
183.734999178
  0
ARC
  5
37B
100
AcDbEntity
  8
0
100
AcDbCircle
 62
7
  6
CONTINUOUS
 10
3.1125890436
 20
5.4202895745
 40
0.0910350873
100
AcDbArc
 50
173.5474197164
 51
180.8509565603
  0
ARC
  5
37C
100
AcDbEntity
  8
0
100
AcDbCircle
 62
7
  6
CONTINUOUS
 10
3.1127464113
 20
5.434380402
 40
0.0909383559
100
AcDbArc
 50
176.6576766378
 51
177.6456334125
  0
ARC
  5
37D
100
AcDbEntity
  8
0
100
AcDbCircle
 62
7
  6
CONTINUOUS
 10
3.1122514203
 20
5.4489954626
 40
0.0908916583
100
AcDbArc
 50
181.5459382241
 51
182.8984501533
  0
ARC
  5
37E
100
AcDbEntity
  8
0
100
AcDbCircle
 62
7
  6
CONTINUOUS
 10
3.1126930996
 20
5.4489954693
 40
0.0908332933
100
AcDbArc
 50
181.5467969273
 51
182.9003894757
  0
ARC
  5
37F
100
AcDbEntity
  8
0
100
AcDbCircle
 62
7
  6
CONTINUOUS
 10
3.1121057935
 20
5.4343897079
 40
0.090797566
100
AcDbArc
 50
176.3272103441
 51
180.1044213755
  0
ARC
  5
380
100
AcDbEntity
  8
0
100
AcDbCircle
 62
7
  6
CONTINUOUS
 10
3.1120917622
 20
5.4489896258
 40
0.0907319291
100
AcDbArc
 50
178.6763922952
 51
179.1865102017
  0
ARC
  5
381
100
AcDbEntity
  8
0
100
AcDbCircle
 62
7
  6
CONTINUOUS
 10
3.1122773128
 20
5.4202957473
 40
0.0907234832
100
AcDbArc
 50
180.8577783327
 51
181.5882366222
  0
ARC
  5
382
100
AcDbEntity
  8
0
100
AcDbCircle
 62
7
  6
CONTINUOUS
 10
3.1122114249
 20
5.456037349
 40
0.0907152348
100
AcDbArc
 50
178.5965789695
 51
182.9433300677
  0
ARC
  5
383
100
AcDbEntity
  8
0
100
AcDbCircle
 62
7
  6
CONTINUOUS
 10
3.1120695159
 20
5.4489901677
 40
0.0907096773
100
AcDbArc
 50
179.1866529403
 51
181.5456947197
  0
ARC
  5
384
100
AcDbEntity
  8
0
100
AcDbCircle
 62
7
  6
CONTINUOUS
 10
3.1120060086
 20
5.434390346
 40
0.0906977824
100
AcDbArc
 50
180.1049393877
 51
180.9831636849
  0
ARC
  5
385
100
AcDbEntity
  8
0
100
AcDbCircle
 62
7
  6
CONTINUOUS
 10
3.1124998251
 20
5.4343898582
 40
0.0906915894
100
AcDbArc
 50
177.6452028701
 51
179.7170916024
  0
ARC
  5
386
100
AcDbEntity
  8
0
100
AcDbCircle
 62
7
  6
CONTINUOUS
 10
3.1125408131
 20
5.4489908034
 40
0.0906809363
100
AcDbArc
 50
180.7289737085
 51
181.5464472278
  0
ARC
  5
387
100
AcDbEntity
  8
0
100
AcDbCircle
 62
7
  6
CONTINUOUS
 10
3.1124471065
 20
5.4343903391
 40
0.0906388691
100
AcDbArc
 50
179.7172310703
 51
180.4086482881
  0
ARC
  5
388
100
AcDbEntity
  8
0
100
AcDbCircle
 62
7
  6
CONTINUOUS
 10
3.0903122875
 20
5.5347006256
 40
0.0626127194
100
AcDbArc
 50
162.7478188465
 51
168.8858001643
  0
ARC
  5
389
100
AcDbEntity
  8
0
100
AcDbCircle
 62
7
  6
CONTINUOUS
 10
3.0693555179
 20
5.3629313765
 40
0.0305205867
100
AcDbArc
 50
179.2272038828
 51
180.6865953102
  0
ARC
  5
38A
100
AcDbEntity
  8
0
100
AcDbCircle
 62
7
  6
CONTINUOUS
 10
3.0657362162
 20
5.362979964
 40
0.026900959
100
AcDbArc
 50
178.4314357137
 51
179.2267097834
  0
ARC
  5
38B
100
AcDbEntity
  8
0
100
AcDbCircle
 62
7
  6
CONTINUOUS
 10
3.0411758554
 20
5.5303257199
 40
0.0002220864
100
AcDbArc
 50
90.0846642397
 51
99.1741422868
  0
ARC
  5
38C
100
AcDbEntity
  8
0
100
AcDbCircle
 62
7
  6
CONTINUOUS
 10
3.5082829501
 20
5.3472287858
 40
0.4724423085
100
AcDbArc
 50
179.3788051328
 51
180.6211948672
  0
ARC
  5
38D
100
AcDbEntity
  8
0
100
AcDbCircle
 62
7
  6
CONTINUOUS
 10
3.5084659258
 20
5.3472288162
 40
0.4721157165
100
AcDbArc
 50
179.7927970139
 51
180.621628285
  0
ARC
  5
38E
100
AcDbEntity
  8
0
100
AcDbCircle
 62
7
  6
CONTINUOUS
 10
3.5104632085
 20
5.3308211543
 40
0.4688973323
100
AcDbArc
 50
179.1915735703
 51
179.5394643467
  0
ARC
  5
38F
100
AcDbEntity
  8
0
100
AcDbCircle
 62
7
  6
CONTINUOUS
 10
3.510459537
 20
5.3308216147
 40
0.4688936605
100
AcDbArc
 50
180.3611145641
 51
180.8084271376
  0
ARC
  5
390
100
AcDbEntity
  8
0
100
AcDbCircle
 62
7
  6
CONTINUOUS
 10
3.510655935
 20
5.330821178
 40
0.4685766235
100
AcDbArc
 50
179.1910231145
 51
179.5888939944
  0
ARC
  5
391
100
AcDbEntity
  8
0
100
AcDbCircle
 62
7
  6
CONTINUOUS
 10
3.51065417
 20
5.330821615
 40
0.4685748583
100
AcDbArc
 50
180.3613602917
 51
180.8089772345
  0
ARC
  5
392
100
AcDbEntity
  8
0
100
AcDbCircle
 62
7
  6
CONTINUOUS
 10
3.5108099656
 20
5.328758046
 40
0.4684547186
100
AcDbArc
 50
178.6986478699
 51
179.4101207072
  0
ARC
  5
393
100
AcDbEntity
  8
0
100
AcDbCircle
 62
7
  6
CONTINUOUS
 10
3.510763201
 20
5.3287589881
 40
0.4684079468
100
AcDbArc
 50
179.4101770476
 51
181.3013782154
  0
ARC
  5
394
100
AcDbEntity
  8
0
100
AcDbCircle
 62
7
  6
CONTINUOUS
 10
3.2132017127
 20
5.3193023348
 40
0.1804197541
100
AcDbArc
 50
165.7489915894
 51
167.4602321991
  0
ARC
  5
395
100
AcDbEntity
  8
0
100
AcDbCircle
 62
7
  6
CONTINUOUS
 10
3.6342908351
 20
5.2503894301
 40
0.0155
100
AcDbArc
 50
180.0
 51
218.9545376239
  0
ARC
  5
396
100
AcDbEntity
  8
0
100
AcDbCircle
 62
7
  6
CONTINUOUS
 10
3.7617908351
 20
5.1510201764
 40
0.0155
100
AcDbArc
 50
180.0
 51
270.0
  0
ARC
  5
397
100
AcDbEntity
  8
0
100
AcDbCircle
 62
7
  6
CONTINUOUS
 10
3.1820624291
 20
5.4308049806
 40
0.1653702074
100
AcDbArc
 50
147.5680424338
 51
148.0281958652
  0
ARC
  5
398
100
AcDbEntity
  8
0
100
AcDbCircle
 62
7
  6
CONTINUOUS
 10
3.1781750198
 20
5.4256492716
 40
0.1609223413
100
AcDbArc
 50
148.6497389591
 51
149.1948755459
  0
ARC
  5
399
100
AcDbEntity
  8
0
100
AcDbCircle
 62
7
  6
CONTINUOUS
 10
3.1717148665
 20
5.4294081233
 40
0.1534479105
100
AcDbArc
 50
150.4950861395
 51
151.1804105272
  0
ARC
  5
39A
100
AcDbEntity
  8
0
100
AcDbCircle
 62
7
  6
CONTINUOUS
 10
3.2061058504
 20
5.4505110406
 40
0.1865908418
100
AcDbArc
 50
204.146170583
 51
204.811740459
  0
ARC
  5
39B
100
AcDbEntity
  8
0
100
AcDbCircle
 62
7
  6
CONTINUOUS
 10
3.2062742239
 20
5.4343382438
 40
0.1865631963
100
AcDbArc
 50
204.1518265611
 51
204.8175253278
  0
ARC
  5
39C
100
AcDbEntity
  8
0
100
AcDbCircle
 62
7
  6
CONTINUOUS
 10
3.1744268878
 20
5.4340353187
 40
0.1564677667
100
AcDbArc
 50
148.4074982752
 51
151.1106444276
  0
ARC
  5
39D
100
AcDbEntity
  8
0
100
AcDbCircle
 62
7
  6
CONTINUOUS
 10
3.1747981416
 20
5.4340644468
 40
0.1563316476
100
AcDbArc
 50
148.3893472073
 51
151.1393994576
  0
ARC
  5
39E
100
AcDbEntity
  8
0
100
AcDbCircle
 62
7
  6
CONTINUOUS
 10
3.1837897393
 20
5.4392697225
 40
0.1562488184
100
AcDbArc
 50
197.5056214391
 51
207.4943785609
  0
ARC
  5
39F
100
AcDbEntity
  8
0
100
AcDbCircle
 62
7
  6
CONTINUOUS
 10
3.1837903812
 20
5.4392690806
 40
0.1562488184
100
AcDbArc
 50
242.5056214391
 51
252.4943785609
  0
ARC
  5
3A0
100
AcDbEntity
  8
0
100
AcDbCircle
 62
7
  6
CONTINUOUS
 10
3.1837912891
 20
5.4392690806
 40
0.1562488184
100
AcDbArc
 50
287.5056214391
 51
297.4943785609
  0
ARC
  5
3A1
100
AcDbEntity
  8
0
100
AcDbCircle
 62
7
  6
CONTINUOUS
 10
3.183791931
 20
5.4392697225
 40
0.1562488184
100
AcDbArc
 50
332.505621439
 51
342.4943785609
  0
ARC
  5
3A2
100
AcDbEntity
  8
0
100
AcDbCircle
 62
7
  6
CONTINUOUS
 10
3.183791931
 20
5.4392706303
 40
0.1562488184
100
AcDbArc
 50
17.5056214391
 51
27.4943785609
  0
ARC
  5
3A3
100
AcDbEntity
  8
0
100
AcDbCircle
 62
7
  6
CONTINUOUS
 10
3.1837912891
 20
5.4392712723
 40
0.1562488184
100
AcDbArc
 50
62.5056214391
 51
72.4943785609
  0
ARC
  5
3A4
100
AcDbEntity
  8
0
100
AcDbCircle
 62
7
  6
CONTINUOUS
 10
3.1837903812
 20
5.4392712723
 40
0.1562488184
100
AcDbArc
 50
107.5056214391
 51
117.4943785609
  0
ARC
  5
3A5
100
AcDbEntity
  8
0
100
AcDbCircle
 62
7
  6
CONTINUOUS
 10
3.1837897393
 20
5.4392706303
 40
0.1562488184
100
AcDbArc
 50
152.5056214391
 51
162.4943785609
  0
ARC
  5
3A6
100
AcDbEntity
  8
0
100
AcDbCircle
 62
7
  6
CONTINUOUS
 10
3.3288916307
 20
5.4154628576
 40
0.3089462798
100
AcDbArc
 50
157.9534521078
 51
158.3644849935
  0
ARC
  5
3A7
100
AcDbEntity
  8
0
100
AcDbCircle
 62
7
  6
CONTINUOUS
 10
3.3285261158
 20
5.4244686785
 40
0.3087161759
100
AcDbArc
 50
157.9575092659
 51
158.3688364232
  0
ARC
  5
3A8
100
AcDbEntity
  8
0
100
AcDbCircle
 62
7
  6
CONTINUOUS
 10
3.3285424807
 20
5.4245888553
 40
0.3082098283
100
AcDbArc
 50
158.1928765127
 51
158.3555413494
  0
ARC
  5
3A9
100
AcDbEntity
  8
0
100
AcDbCircle
 62
7
  6
CONTINUOUS
 10
3.3249786036
 20
5.422626239
 40
0.3048677263
100
AcDbArc
 50
158.9912647772
 51
159.3169751591
  0
ARC
  5
3AA
100
AcDbEntity
  8
0
100
AcDbCircle
 62
7
  6
CONTINUOUS
 10
3.3242475252
 20
5.420488559
 40
0.3040407665
100
AcDbArc
 50
158.9898309888
 51
159.9683179886
  0
ARC
  5
3AB
100
AcDbEntity
  8
0
100
AcDbCircle
 62
7
  6
CONTINUOUS
 10
3.3241836452
 20
5.4230465311
 40
0.3034963688
100
AcDbArc
 50
159.3040455758
 51
159.6308145695
  0
ARC
  5
3AC
100
AcDbEntity
  8
0
100
AcDbCircle
 62
7
  6
CONTINUOUS
 10
3.3219708668
 20
5.42374664
 40
0.3016580881
100
AcDbArc
 50
159.4787113101
 51
160.4629719582
  0
ARC
  5
3AD
100
AcDbEntity
  8
0
100
AcDbCircle
 62
7
  6
CONTINUOUS
 10
3.322408915
 20
5.4237021536
 40
0.3016044125
100
AcDbArc
 50
159.630225548
 51
160.2865651515
  0
ARC
  5
3AE
100
AcDbEntity
  8
0
100
AcDbCircle
 62
7
  6
CONTINUOUS
 10
3.3215840768
 20
5.4214671705
 40
0.3012032346
100
AcDbArc
 50
159.9696632459
 51
160.4620578515
  0
ARC
  5
3AF
100
AcDbEntity
  8
0
100
AcDbCircle
 62
7
  6
CONTINUOUS
 10
3.3180842849
 20
5.4194723141
 40
0.2974177483
100
AcDbArc
 50
161.0915624276
 51
161.5099657107
  0
ARC
  5
3B0
100
AcDbEntity
  8
0
100
AcDbCircle
 62
7
  6
CONTINUOUS
 10
3.3508080523
 20
5.4453288449
 40
0.3301728919
100
AcDbArc
 50
199.8432617023
 51
200.7098007615
  0
ARC
  5
3B1
100
AcDbEntity
  8
0
100
AcDbCircle
 62
7
  6
CONTINUOUS
 10
3.3490861887
 20
5.4448003379
 40
0.3288555864
100
AcDbArc
 50
198.8717658841
 51
200.698129585
  0
ARC
  5
3B2
100
AcDbEntity
  8
0
100
AcDbCircle
 62
7
  6
CONTINUOUS
 10
3.3480360585
 20
5.4495446493
 40
0.3277397202
100
AcDbArc
 50
198.8686564792
 51
200.70123899
  0
ARC
  5
3B3
100
AcDbEntity
  8
0
100
AcDbCircle
 62
7
  6
CONTINUOUS
 10
3.3476672949
 20
5.444191494
 40
0.326832546
100
AcDbArc
 50
198.880197689
 51
199.8426138105
  0
ARC
  5
3B4
100
AcDbEntity
  8
0
100
AcDbCircle
 62
7
  6
CONTINUOUS
 10
3.3425152907
 20
5.4399873854
 40
0.3218896331
100
AcDbArc
 50
197.7029108581
 51
198.1060386606
  0
ARC
  5
3B5
100
AcDbEntity
  8
0
100
AcDbCircle
 62
7
  6
CONTINUOUS
 10
3.3424562667
 20
5.4502121415
 40
0.32182751
100
AcDbArc
 50
197.7028186799
 51
198.2213270993
  0
ARC
  5
3B6
100
AcDbEntity
  8
0
100
AcDbCircle
 62
7
  6
CONTINUOUS
 10
3.3427387682
 20
5.4399612867
 40
0.3216091416
100
AcDbArc
 50
197.7139809304
 51
198.0598087544
  0
ARC
  5
3B7
100
AcDbEntity
  8
0
100
AcDbCircle
 62
7
  6
CONTINUOUS
 10
3.3286145287
 20
5.4410501719
 40
0.3086797107
100
AcDbArc
 50
157.9540968797
 51
158.3654823633
  0
ARC
  5
3B8
100
AcDbEntity
  8
0
100
AcDbCircle
 62
7
  6
CONTINUOUS
 10
3.3285897415
 20
5.4411867637
 40
0.3081289806
100
AcDbArc
 50
158.2116662537
 51
158.3521883613
  0
ARC
  5
3B9
100
AcDbEntity
  8
0
100
AcDbCircle
 62
7
  6
CONTINUOUS
 10
3.3251287844
 20
5.4392804217
 40
0.3044855325
100
AcDbArc
 50
158.9776205618
 51
159.4075959806
  0
ARC
  5
3BA
100
AcDbEntity
  8
0
100
AcDbCircle
 62
7
  6
CONTINUOUS
 10
3.3243244601
 20
5.4394643839
 40
0.3041472777
100
AcDbArc
 50
158.990257477
 51
159.6427843537
  0
ARC
  5
3BB
100
AcDbEntity
  8
0
100
AcDbCircle
 62
7
  6
CONTINUOUS
 10
3.3240520533
 20
5.4396850479
 40
0.3033352835
100
AcDbArc
 50
159.4416939555
 51
159.6303309481
  0
ARC
  5
3BC
100
AcDbEntity
  8
0
100
AcDbCircle
 62
7
  6
CONTINUOUS
 10
3.3235013927
 20
5.4373418617
 40
0.3033049272
100
AcDbArc
 50
158.9907681536
 51
160.4605974003
  0
ARC
  5
3BD
100
AcDbEntity
  8
0
100
AcDbCircle
 62
7
  6
CONTINUOUS
 10
3.3217533833
 20
5.4404139782
 40
0.3014064479
100
AcDbArc
 50
159.6420009279
 51
160.46263659
  0
ARC
  5
3BE
100
AcDbEntity
  8
0
100
AcDbCircle
 62
7
  6
CONTINUOUS
 10
3.3221012089
 20
5.4404039632
 40
0.3012561955
100
AcDbArc
 50
159.6293642259
 51
160.4504745813
  0
ARC
  5
3BF
100
AcDbEntity
  8
0
100
AcDbCircle
 62
7
  6
CONTINUOUS
 10
3.3179700928
 20
5.4360599117
 40
0.2974683175
100
AcDbArc
 50
161.0954585365
 51
161.513781164
  0
ARC
  5
3C0
100
AcDbEntity
  8
0
100
AcDbCircle
 62
7
  6
CONTINUOUS
 10
3.3176607944
 20
5.4450925633
 40
0.2970023768
100
AcDbArc
 50
161.2322369126
 51
161.5108776258
  0
ARC
  5
3C1
100
AcDbEntity
  8
0
100
AcDbCircle
 62
7
  6
CONTINUOUS
 10
3.3179332242
 20
5.4451088143
 40
0.2967722365
100
AcDbArc
 50
161.3136888278
 51
161.4993282397
  0
ARC
  5
3C2
100
AcDbEntity
  8
0
100
AcDbCircle
 62
7
  6
CONTINUOUS
 10
3.2190990876
 20
5.4677251766
 40
0.2009976729
100
AcDbArc
 50
208.0742450032
 51
208.4999659463
  0
ARC
  5
3C3
100
AcDbEntity
  8
0
100
AcDbCircle
 62
7
  6
CONTINUOUS
 10
3.2157106316
 20
5.4576558118
 40
0.1972668558
100
AcDbArc
 50
206.5017534495
 51
207.9727089879
  0
ARC
  5
3C4
100
AcDbEntity
  8
0
100
AcDbCircle
 62
7
  6
CONTINUOUS
 10
3.2160741477
 20
5.4576395822
 40
0.1971268925
100
AcDbArc
 50
206.471308626
 51
207.9889746064
  0
ARC
  5
3C5
100
AcDbEntity
  8
0
100
AcDbCircle
 62
7
  6
CONTINUOUS
 10
3.2120000652
 20
5.4615944979
 40
0.1930469848
100
AcDbArc
 50
205.5162420027
 51
207.4017995686
  0
ARC
  5
3C6
100
AcDbEntity
  8
0
100
AcDbCircle
 62
7
  6
CONTINUOUS
 10
3.20993382
 20
5.4547767937
 40
0.1908122878
100
AcDbArc
 50
205.5119468109
 51
205.8526974694
  0
ARC
  5
3C7
100
AcDbEntity
  8
0
100
AcDbCircle
 62
7
  6
CONTINUOUS
 10
3.2103627604
 20
5.4547930421
 40
0.1907453822
100
AcDbArc
 50
205.5269466534
 51
205.8678599974
  0
ARC
  5
3C8
100
AcDbEntity
  8
0
100
AcDbCircle
 62
7
  6
CONTINUOUS
 10
3.205842769
 20
5.4611404949
 40
0.1861933729
100
AcDbArc
 50
204.1483682395
 51
204.8153743858
  0
ARC
  5
3C9
100
AcDbEntity
  8
0
100
AcDbCircle
 62
7
  6
CONTINUOUS
 10
3.7407120277
 20
5.4502605619
 40
0.7183506539
100
AcDbArc
 50
171.6977787244
 51
172.2790288267
  0
ARC
  5
3CA
100
AcDbEntity
  8
0
100
AcDbCircle
 62
7
  6
CONTINUOUS
 10
3.7335514179
 20
5.4108113678
 40
0.7062672521
100
AcDbArc
 50
168.9579533618
 51
171.050400362
  0
ARC
  5
3CB
100
AcDbEntity
  8
0
100
AcDbCircle
 62
7
  6
CONTINUOUS
 10
3.734079786
 20
5.4088293167
 40
0.7059608489
100
AcDbArc
 50
168.4626727992
 51
170.559286968
  0
ARC
  5
3CC
100
AcDbEntity
  8
0
100
AcDbCircle
 62
7
  6
CONTINUOUS
 10
3.7336963244
 20
5.4107928878
 40
0.7059098951
100
AcDbArc
 50
168.9586314009
 51
170.7048576185
  0
ARC
  5
3CD
100
AcDbEntity
  8
0
100
AcDbCircle
 62
7
  6
CONTINUOUS
 10
3.6505010442
 20
5.3737346643
 40
0.6146604106
100
AcDbArc
 50
180.7541451397
 51
181.4664252978
  0
ARC
  5
3CE
100
AcDbEntity
  8
0
100
AcDbCircle
 62
7
  6
CONTINUOUS
 10
3.6504586974
 20
5.373733476
 40
0.6146180571
100
AcDbArc
 50
178.9525821379
 51
179.9580864712
  0
ARC
  5
3CF
100
AcDbEntity
  8
0
100
AcDbCircle
 62
7
  6
CONTINUOUS
 10
3.6505926924
 20
5.3737345506
 40
0.614242489
100
AcDbArc
 50
180.7546476721
 51
181.3882956712
  0
ARC
  5
3D0
100
AcDbEntity
  8
0
100
AcDbCircle
 62
7
  6
CONTINUOUS
 10
3.650544197
 20
5.3737335851
 40
0.6141939879
100
AcDbArc
 50
179.1753266359
 51
179.9580677038
  0
ARC
  5
3D1
100
AcDbEntity
  8
0
100
AcDbCircle
 62
7
  6
CONTINUOUS
 10
3.6510349929
 20
5.3670684525
 40
0.6120481033
100
AcDbArc
 50
179.7686172572
 51
180.2696291356
  0
ARC
  5
3D2
100
AcDbEntity
  8
0
100
AcDbCircle
 62
7
  6
CONTINUOUS
 10
3.6515371325
 20
5.3619873412
 40
0.6099373093
100
AcDbArc
 50
179.7678165133
 51
180.2705622416
  0
ARC
  5
3D3
100
AcDbEntity
  8
0
100
AcDbCircle
 62
7
  6
CONTINUOUS
 10
3.6516358061
 20
5.3619873412
 40
0.6095225247
100
AcDbArc
 50
179.7676585099
 51
180.2707463627
  0
ARC
  5
3D4
100
AcDbEntity
  8
0
100
AcDbCircle
 62
7
  6
CONTINUOUS
 10
3.6517230723
 20
5.360582413
 40
0.609367817
100
AcDbArc
 50
178.9435634049
 51
180.5493039459
  0
ARC
  5
3D5
100
AcDbEntity
  8
0
100
AcDbCircle
 62
7
  6
CONTINUOUS
 10
3.6899113037
 20
5.4952736657
 40
0.6540706597
100
AcDbArc
 50
178.8628259388
 51
180.4988268715
  0
ARC
  5
3D6
100
AcDbEntity
  8
0
100
AcDbCircle
 62
7
  6
CONTINUOUS
 10
3.6899735938
 20
5.4952734818
 40
0.6536233867
100
AcDbArc
 50
178.8620315497
 51
179.4602287027
  0
ARC
  5
3D7
100
AcDbEntity
  8
0
100
AcDbCircle
 62
7
  6
CONTINUOUS
 10
3.689944175
 20
5.4952738438
 40
0.6535939657
100
AcDbArc
 50
179.4602361388
 51
180.2330258927
  0
ARC
  5
3D8
100
AcDbEntity
  8
0
100
AcDbCircle
 62
7
  6
CONTINUOUS
 10
3.69002876
 20
5.4973342015
 40
0.65308665
100
AcDbArc
 50
179.6410647614
 51
180.40821698
  0
ARC
  5
3D9
100
AcDbEntity
  8
0
100
AcDbCircle
 62
7
  6
CONTINUOUS
 10
3.6902762782
 20
5.5005183508
 40
0.6515502467
100
AcDbArc
 50
179.6402177614
 51
180.2798789359
  0
ARC
  5
3DA
100
AcDbEntity
  8
0
100
AcDbCircle
 62
7
  6
CONTINUOUS
 10
3.69034631
 20
5.5005183483
 40
0.6511087685
100
AcDbArc
 50
179.6399735912
 51
180.170861212
  0
ARC
  5
3DB
100
AcDbEntity
  8
0
100
AcDbCircle
 62
7
  6
CONTINUOUS
 10
3.6904142307
 20
5.5022040764
 40
0.6507034254
100
AcDbArc
 50
179.5989280496
 51
180.2184050424
  0
ARC
  5
3DC
100
AcDbEntity
  8
0
100
AcDbCircle
 62
7
  6
CONTINUOUS
 10
3.6906350247
 20
5.5048263233
 40
0.649336511
100
AcDbArc
 50
179.6389908715
 51
180.1276236756
  0
ARC
  5
3DD
100
AcDbEntity
  8
0
100
AcDbCircle
 62
7
  6
CONTINUOUS
 10
3.6907063181
 20
5.5048263223
 40
0.6488945511
100
AcDbArc
 50
179.638744893
 51
180.0295678419
  0
ARC
  5
3DE
100
AcDbEntity
  8
0
100
AcDbCircle
 62
7
  6
CONTINUOUS
 10
3.6908140137
 20
5.5065118184
 40
0.6484587613
100
AcDbArc
 50
178.8529793008
 51
180.0739914812
  0
ARC
  5
3DF
100
AcDbEntity
  8
0
100
AcDbCircle
 62
7
  6
CONTINUOUS
 10
3.5957594848
 20
5.4809004038
 40
0.5710916929
100
AcDbArc
 50
193.9634263082
 51
194.3459982183
  0
ARC
  5
3E0
100
AcDbEntity
  8
0
100
AcDbCircle
 62
7
  6
CONTINUOUS
 10
3.5338931962
 20
5.5271455443
 40
0.4980525661
100
AcDbArc
 50
180.7435564852
 51
181.5359920568
  0
ARC
  5
3E1
100
AcDbEntity
  8
0
100
AcDbCircle
 62
7
  6
CONTINUOUS
 10
3.5338593056
 20
5.5271432856
 40
0.4980186686
100
AcDbArc
 50
178.6036411694
 51
179.6276055645
  0
ARC
  5
3E2
100
AcDbEntity
  8
0
100
AcDbCircle
 62
7
  6
CONTINUOUS
 10
3.5340847386
 20
5.5271459615
 40
0.4977345452
100
AcDbArc
 50
181.184804888
 51
181.3609531109
  0
ARC
  5
3E3
100
AcDbEntity
  8
0
100
AcDbCircle
 62
7
  6
CONTINUOUS
 10
3.5340520167
 20
5.5271429161
 40
0.4977018151
100
AcDbArc
 50
178.6027094749
 51
179.2855458352
  0
ARC
  5
3E4
100
AcDbEntity
  8
0
100
AcDbCircle
 62
7
  6
CONTINUOUS
 10
3.5340332369
 20
5.5271449223
 40
0.497683033
100
AcDbArc
 50
180.7440370009
 51
181.1848078784
  0
ARC
  5
3E5
100
AcDbEntity
  8
0
100
AcDbCircle
 62
7
  6
CONTINUOUS
 10
3.5361318507
 20
5.5447788091
 40
0.4937766054
100
AcDbArc
 50
180.5164561844
 51
181.5492625394
  0
ARC
  5
3E6
100
AcDbEntity
  8
0
100
AcDbCircle
 62
7
  6
CONTINUOUS
 10
3.5361212196
 20
5.5447765926
 40
0.4937659738
100
AcDbArc
 50
178.5915831532
 51
179.3908640369
  0
ARC
  5
3E7
100
AcDbEntity
  8
0
100
AcDbCircle
 62
7
  6
CONTINUOUS
 10
-0.2511762732
 20
6.1670952676
 40
3.3378686835
100
AcDbArc
 50
349.6506506262
 51
349.9957578355
  0
ARC
  5
3E8
100
AcDbEntity
  8
0
100
AcDbCircle
 62
7
  6
CONTINUOUS
 10
2.5806269833
 20
5.6141779244
 40
0.4537169355
100
AcDbArc
 50
351.0076892883
 51
351.136679187
  0
ARC
  5
3E9
100
AcDbEntity
  8
0
100
AcDbCircle
 62
7
  6
CONTINUOUS
 10
3.6342908351
 20
5.6281509227
 40
0.0155
100
AcDbArc
 50
141.0454623761
 51
180.0
  0
ARC
  5
3EA
100
AcDbEntity
  8
0
100
AcDbCircle
 62
7
  6
CONTINUOUS
 10
3.7617908351
 20
5.7275201764
 40
0.0155
100
AcDbArc
 50
90.0
 51
180.0
  0
ARC
  5
3EB
100
AcDbEntity
  8
0
100
AcDbCircle
 62
7
  6
CONTINUOUS
 10
3.0613910086
 20
5.6330201764
 40
0.015
100
AcDbArc
 50
99.9847582361
 51
165.2369687319
  0
ARC
  5
3EC
100
AcDbEntity
  8
0
100
AcDbCircle
 62
7
  6
CONTINUOUS
 10
5.3525143526
 20
5.1533375091
 40
2.3564886114
100
AcDbArc
 50
169.3713422405
 51
169.9630878711
  0
ARC
  5
3ED
100
AcDbEntity
  8
0
100
AcDbCircle
 62
7
  6
CONTINUOUS
 10
5.6703957166
 20
5.2697708709
 40
0.25
100
AcDbArc
 50
325.1099960306
 51
327.5201628999
  0
ARC
  5
3EE
100
AcDbEntity
  8
0
100
AcDbCircle
 62
7
  6
CONTINUOUS
 10
3.9921859537
 20
5.2697708709
 40
0.25
100
AcDbArc
 50
212.4798371001
 51
214.8900039694
  0
ARC
  5
3EF
100
AcDbEntity
  8
0
100
AcDbCircle
 62
7
  6
CONTINUOUS
 10
4.1258735043
 20
5.0009832124
 40
0.1505348454
100
AcDbArc
 50
84.9976496546
 51
91.0434040871
  0
ARC
  5
3F0
100
AcDbEntity
  8
0
100
AcDbCircle
 62
7
  6
CONTINUOUS
 10
5.536708166
 20
5.0009832124
 40
0.1505348454
100
AcDbArc
 50
88.9565959129
 51
95.0023503454
  0
ARC
  5
3F1
100
AcDbEntity
  8
0
100
AcDbCircle
 62
7
  6
CONTINUOUS
 10
4.1291484151
 20
4.9967701764
 40
0.15
100
AcDbArc
 50
88.3634229584
 51
90.0
  0
ARC
  5
3F2
100
AcDbEntity
  8
0
100
AcDbCircle
 62
7
  6
CONTINUOUS
 10
5.5334332551
 20
4.9967701764
 40
0.15
100
AcDbArc
 50
90.0
 51
91.6365770416
  0
ARC
  5
3F3
100
AcDbEntity
  8
0
100
AcDbCircle
 62
7
  6
CONTINUOUS
 10
3.7925416053
 20
5.3783306031
 40
0.219
100
AcDbArc
 50
218.9545376239
 51
257.807858722
  0
ARC
  5
3F4
100
AcDbEntity
  8
0
100
AcDbCircle
 62
7
  6
CONTINUOUS
 10
3.7857495229
 20
5.4531545875
 40
0.7561205408
100
AcDbArc
 50
190.0320337327
 51
190.1848278715
  0
ARC
  5
3F5
100
AcDbEntity
  8
0
100
AcDbCircle
 62
7
  6
CONTINUOUS
 10
3.7857573651
 20
5.4531546678
 40
0.7556229491
100
AcDbArc
 50
190.0387146142
 51
190.191612575
  0
ARC
  5
3F6
100
AcDbEntity
  8
0
100
AcDbCircle
 62
7
  6
CONTINUOUS
 10
3.7966258429
 20
5.4392701764
 40
0.7753350077
100
AcDbArc
 50
189.4649975128
 51
191.9834474438
  0
ARC
  5
3F7
100
AcDbEntity
  8
0
100
AcDbCircle
 62
7
  6
CONTINUOUS
 10
3.7966258429
 20
5.4392701764
 40
0.7753350077
100
AcDbArc
 50
184.1048548666
 51
186.3311632972
  0
ARC
  5
3F8
100
AcDbEntity
  8
0
100
AcDbCircle
 62
7
  6
CONTINUOUS
 10
3.7966258429
 20
5.4392701764
 40
0.7753350077
100
AcDbArc
 50
179.1865301677
 51
180.0
  0
ARC
  5
3F9
100
AcDbEntity
  8
0
100
AcDbCircle
 62
7
  6
CONTINUOUS
 10
3.7966258429
 20
5.4392701764
 40
0.7753350077
100
AcDbArc
 50
193.0445666344
 51
194.7630312681
  0
ARC
  5
3FA
100
AcDbEntity
  8
0
100
AcDbCircle
 62
7
  6
CONTINUOUS
 10
3.7966258429
 20
5.4392701764
 40
0.7753350077
100
AcDbArc
 50
165.2369687319
 51
166.7657300092
  0
ARC
  5
3FB
100
AcDbEntity
  8
0
100
AcDbCircle
 62
7
  6
CONTINUOUS
 10
3.7966258429
 20
5.4392701764
 40
0.7753350077
100
AcDbArc
 50
168.0912065538
 51
172.7571869964
  0
ARC
  5
3FC
100
AcDbEntity
  8
0
100
AcDbCircle
 62
7
  6
CONTINUOUS
 10
3.7966258429
 20
5.4392701764
 40
0.7753350077
100
AcDbArc
 50
176.6912214816
 51
178.596611855
  0
ARC
  5
3FD
100
AcDbEntity
  8
0
100
AcDbCircle
 62
7
  6
CONTINUOUS
 10
3.7966258429
 20
5.4392701764
 40
0.7753350077
100
AcDbArc
 50
181.5881964352
 51
182.9942355247
  0
ARC
  5
3FE
100
AcDbEntity
  8
0
100
AcDbCircle
 62
7
  6
CONTINUOUS
 10
3.7966258429
 20
5.4392701764
 40
0.7753350077
100
AcDbArc
 50
187.075235814
 51
188.0816638455
  0
ARC
  5
3FF
100
AcDbEntity
  8
0
100
AcDbCircle
 62
7
  6
CONTINUOUS
 10
3.7966258429
 20
5.4392701764
 40
0.7753296381
100
AcDbArc
 50
174.170431953
 51
175.2836393802
  0
ARC
  5
400
100
AcDbEntity
  8
0
100
AcDbCircle
 62
7
  6
CONTINUOUS
 10
3.7966258429
 20
5.4392701764
 40
0.7752342383
100
AcDbArc
 50
180.4763717073
 51
180.7447090068
  0
ARC
  5
401
100
AcDbEntity
  8
0
100
AcDbCircle
 62
7
  6
CONTINUOUS
 10
3.7966258429
 20
5.4392701764
 40
0.7752342383
100
AcDbArc
 50
178.9333573202
 51
179.1193732693
  0
ARC
  5
402
100
AcDbEntity
  8
0
100
AcDbCircle
 62
7
  6
CONTINUOUS
 10
3.7966258429
 20
5.4392701764
 40
0.7748471618
100
AcDbArc
 50
189.6584792833
 51
190.4094165999
  0
ARC
  5
403
100
AcDbEntity
  8
0
100
AcDbCircle
 62
7
  6
CONTINUOUS
 10
3.7966258429
 20
5.4392701764
 40
0.7748350077
100
AcDbArc
 50
188.0869138298
 51
189.465194752
  0
ARC
  5
404
100
AcDbEntity
  8
0
100
AcDbCircle
 62
7
  6
CONTINUOUS
 10
3.7966258429
 20
5.4392701764
 40
0.7748350077
100
AcDbArc
 50
182.9961694635
 51
184.1075082697
  0
ARC
  5
405
100
AcDbEntity
  8
0
100
AcDbCircle
 62
7
  6
CONTINUOUS
 10
3.7966258429
 20
5.4392701764
 40
0.7748350077
100
AcDbArc
 50
175.4651945945
 51
176.6890839522
  0
ARC
  5
406
100
AcDbEntity
  8
0
100
AcDbCircle
 62
7
  6
CONTINUOUS
 10
3.7966258429
 20
5.4392701764
 40
0.7748350077
100
AcDbArc
 50
172.7569740147
 51
173.9836165142
  0
ARC
  5
407
100
AcDbEntity
  8
0
100
AcDbCircle
 62
7
  6
CONTINUOUS
 10
3.7966258429
 20
5.4392701764
 40
0.7748350077
100
AcDbArc
 50
180.4086494119
 51
180.8395702364
  0
ARC
  5
408
100
AcDbEntity
  8
0
100
AcDbCircle
 62
7
  6
CONTINUOUS
 10
3.7966258429
 20
5.4392701764
 40
0.7745446238
100
AcDbArc
 50
170.9749445987
 51
171.53627275
  0
ARC
  5
409
100
AcDbEntity
  8
0
100
AcDbCircle
 62
7
  6
CONTINUOUS
 10
3.7966258429
 20
5.4392701764
 40
0.7745446238
100
AcDbArc
 50
172.2087928987
 51
174.4432805085
  0
ARC
  5
40A
100
AcDbEntity
  8
0
100
AcDbCircle
 62
7
  6
CONTINUOUS
 10
3.7966258429
 20
5.4392701764
 40
0.7745446238
100
AcDbArc
 50
175.0004464256
 51
177.2249087285
  0
ARC
  5
40B
100
AcDbEntity
  8
0
100
AcDbCircle
 62
7
  6
CONTINUOUS
 10
3.7966258429
 20
5.4392701764
 40
0.7745446238
100
AcDbArc
 50
179.537660585
 51
180.6472819248
  0
ARC
  5
40C
100
AcDbEntity
  8
0
100
AcDbCircle
 62
7
  6
CONTINUOUS
 10
3.7966258429
 20
5.4392701764
 40
0.7745446238
100
AcDbArc
 50
182.4048449023
 51
184.7025954868
  0
ARC
  5
40D
100
AcDbEntity
  8
0
100
AcDbCircle
 62
7
  6
CONTINUOUS
 10
3.7966258429
 20
5.4392701764
 40
0.7745446238
100
AcDbArc
 50
185.7425560351
 51
187.6045915016
  0
ARC
  5
40E
100
AcDbEntity
  8
0
100
AcDbCircle
 62
7
  6
CONTINUOUS
 10
3.7966258429
 20
5.4392701764
 40
0.7745446238
100
AcDbArc
 50
187.7912071013
 51
190.4135278913
  0
ARC
  5
40F
100
AcDbEntity
  8
0
100
AcDbCircle
 62
7
  6
CONTINUOUS
 10
3.7925416053
 20
5.5002097498
 40
0.219
100
AcDbArc
 50
102.192141278
 51
141.0454623761
  0
ARC
  5
410
100
AcDbEntity
  8
0
100
AcDbCircle
 62
7
  6
CONTINUOUS
 10
4.8312908351
 20
5.4392701764
 40
0.55
100
AcDbArc
 50
212.9721607671
 51
251.2806843507
  0
ARC
  5
411
100
AcDbEntity
  8
0
100
AcDbCircle
 62
7
  6
CONTINUOUS
 10
4.8312908351
 20
5.4392701764
 40
0.55
100
AcDbArc
 50
288.7193156493
 51
327.0278392329
  0
ARC
  5
412
100
AcDbEntity
  8
0
100
AcDbCircle
 62
7
  6
CONTINUOUS
 10
4.8312908351
 20
5.4392701764
 40
0.55
100
AcDbArc
 50
32.9721607671
 51
147.0278392329
  0
ARC
  5
413
100
AcDbEntity
  8
0
100
AcDbCircle
 62
7
  6
CONTINUOUS
 10
4.8312908351
 20
5.4392701764
 40
0.5260543277
100
AcDbArc
 50
214.7938429726
 51
250.3957483894
  0
ARC
  5
414
100
AcDbEntity
  8
0
100
AcDbCircle
 62
7
  6
CONTINUOUS
 10
4.8312908351
 20
5.4392701764
 40
0.5260543277
100
AcDbArc
 50
34.7938429726
 51
145.2061570274
  0
ARC
  5
415
100
AcDbEntity
  8
0
100
AcDbCircle
 62
7
  6
CONTINUOUS
 10
4.8312908351
 20
5.4392701764
 40
0.5260543277
100
AcDbArc
 50
289.6042516106
 51
325.2061570274
  0
ARC
  5
416
100
AcDbEntity
  8
0
100
AcDbCircle
 62
7
  6
CONTINUOUS
 10
4.8312908351
 20
5.4392701764
 40
0.3723641807
100
AcDbArc
 50
235.3944551271
 51
241.7031866788
  0
ARC
  5
417
100
AcDbEntity
  8
0
100
AcDbCircle
 62
7
  6
CONTINUOUS
 10
4.8312908351
 20
5.4392701764
 40
0.3723641807
100
AcDbArc
 50
298.2968133212
 51
304.6055448729
  0
ARC
  5
418
100
AcDbEntity
  8
0
100
AcDbCircle
 62
7
  6
CONTINUOUS
 10
4.8312908351
 20
5.4392701764
 40
0.3723641807
100
AcDbArc
 50
55.3944551271
 51
124.6055448729
  0
ARC
  5
419
100
AcDbEntity
  8
0
100
AcDbCircle
 62
7
  6
CONTINUOUS
 10
4.8312908351
 20
5.4392701764
 40
0.34025
100
AcDbArc
 50
301.2478127551
 51
238.7521872449
  0
ARC
  5
41A
100
AcDbEntity
  8
0
100
AcDbCircle
 62
7
  6
CONTINUOUS
 10
4.8312908351
 20
5.4392701764
 40
0.312
100
AcDbArc
 50
304.4535696948
 51
235.5464303052
  0
ARC
  5
41B
100
AcDbEntity
  8
0
100
AcDbCircle
 62
7
  6
CONTINUOUS
 10
4.8312908351
 20
5.4392701764
 40
0.3072588067
100
AcDbArc
 50
305.060470689
 51
234.939529311
  0
ARC
  5
41C
100
AcDbEntity
  8
0
100
AcDbCircle
 62
7
  6
CONTINUOUS
 10
4.8312908351
 20
5.4392701764
 40
0.2339044211
100
AcDbArc
 50
318.9921379707
 51
221.0078620293
  0
ARC
  5
41D
100
AcDbEntity
  8
0
100
AcDbCircle
 62
7
  6
CONTINUOUS
 10
4.8312908351
 20
5.4392701764
 40
0.2175
100
AcDbArc
 50
324.2460314208
 51
215.7539685792
  0
ARC
  5
41E
100
AcDbEntity
  8
0
100
AcDbCircle
 62
7
  6
CONTINUOUS
 10
4.8312908351
 20
5.4392701764
 40
0.2020589822
100
AcDbArc
 50
330.87163733
 51
209.12836267
  0
ARC
  5
41F
100
AcDbEntity
  8
0
100
AcDbCircle
 62
7
  6
CONTINUOUS
 10
4.8312908351
 20
5.4392701764
 40
0.1765
100
AcDbArc
 50
0.0
 51
180.0
  0
ARC
  5
420
100
AcDbEntity
  8
0
100
AcDbCircle
 62
7
  6
CONTINUOUS
 10
7.5617085832
 20
5.1987857952
 40
0.9377116368
100
AcDbArc
 50
171.6547461822
 51
171.9311268258
  0
ARC
  5
421
100
AcDbEntity
  8
0
100
AcDbCircle
 62
7
  6
CONTINUOUS
 10
7.3427351614
 20
5.2309269094
 40
0.7163919355
100
AcDbArc
 50
171.4966622076
 51
171.6563046052
  0
ARC
  5
422
100
AcDbEntity
  8
0
100
AcDbCircle
 62
7
  6
CONTINUOUS
 10
7.0877628181
 20
5.2692064981
 40
0.458562177
100
AcDbArc
 50
171.2026918005
 51
171.5162524014
  0
ARC
  5
423
100
AcDbEntity
  8
0
100
AcDbCircle
 62
7
  6
CONTINUOUS
 10
7.032623175
 20
5.1938787883
 40
0.4173625569
100
AcDbArc
 50
167.5993868991
 51
167.7378662137
  0
ARC
  5
424
100
AcDbEntity
  8
0
100
AcDbCircle
 62
7
  6
CONTINUOUS
 10
6.0282908351
 20
5.2503894301
 40
0.0155
100
AcDbArc
 50
321.0454623761
 51
360.0
  0
ARC
  5
425
100
AcDbEntity
  8
0
100
AcDbCircle
 62
7
  6
CONTINUOUS
 10
5.9007908351
 20
5.1510201764
 40
0.0155
100
AcDbArc
 50
270.0
 51
360.0
  0
ARC
  5
426
100
AcDbEntity
  8
0
100
AcDbCircle
 62
7
  6
CONTINUOUS
 10
6.6011906616
 20
5.2455201764
 40
0.015
100
AcDbArc
 50
279.9847582361
 51
345.2369687319
  0
ARC
  5
427
100
AcDbEntity
  8
0
100
AcDbCircle
 62
7
  6
CONTINUOUS
 10
5.8768321475
 20
5.4253857654
 40
0.7561205406
100
AcDbArc
 50
10.0320337327
 51
10.1848278716
  0
ARC
  5
428
100
AcDbEntity
  8
0
100
AcDbCircle
 62
7
  6
CONTINUOUS
 10
5.876824307
 20
5.4253856853
 40
0.7556229473
100
AcDbArc
 50
10.038714614
 51
10.1916125752
  0
ARC
  5
429
100
AcDbEntity
  8
0
100
AcDbCircle
 62
7
  6
CONTINUOUS
 10
5.9726703666
 20
5.3832666871
 40
0.6540706597
100
AcDbArc
 50
358.8628259388
 51
0.4988268715
  0
ARC
  5
42A
100
AcDbEntity
  8
0
100
AcDbCircle
 62
7
  6
CONTINUOUS
 10
5.9726080765
 20
5.383266871
 40
0.6536233866
100
AcDbArc
 50
358.8620315497
 51
359.4602287027
  0
ARC
  5
42B
100
AcDbEntity
  8
0
100
AcDbCircle
 62
7
  6
CONTINUOUS
 10
5.9726374952
 20
5.383266509
 40
0.6535939658
100
AcDbArc
 50
359.4602361388
 51
0.2330258927
  0
ARC
  5
42C
100
AcDbEntity
  8
0
100
AcDbCircle
 62
7
  6
CONTINUOUS
 10
5.9725529103
 20
5.3812061513
 40
0.65308665
100
AcDbArc
 50
359.6410647614
 51
0.40821698
  0
ARC
  5
42D
100
AcDbEntity
  8
0
100
AcDbCircle
 62
7
  6
CONTINUOUS
 10
5.972305392
 20
5.378022002
 40
0.6515502467
100
AcDbArc
 50
359.6402177614
 51
0.2798789359
  0
ARC
  5
42E
100
AcDbEntity
  8
0
100
AcDbCircle
 62
7
  6
CONTINUOUS
 10
5.9722353604
 20
5.3780220045
 40
0.6511087684
100
AcDbArc
 50
359.6399735912
 51
0.170861212
  0
ARC
  5
42F
100
AcDbEntity
  8
0
100
AcDbCircle
 62
7
  6
CONTINUOUS
 10
5.9721674395
 20
5.3763362764
 40
0.6507034255
100
AcDbArc
 50
359.5989280496
 51
0.2184050423
  0
ARC
  5
430
100
AcDbEntity
  8
0
100
AcDbCircle
 62
7
  6
CONTINUOUS
 10
5.9719466456
 20
5.3737140295
 40
0.6493365109
100
AcDbArc
 50
359.6389908715
 51
0.1276236756
  0
ARC
  5
431
100
AcDbEntity
  8
0
100
AcDbCircle
 62
7
  6
CONTINUOUS
 10
5.9718753522
 20
5.3737140305
 40
0.6488945511
100
AcDbArc
 50
359.638744893
 51
0.0295678419
  0
ARC
  5
432
100
AcDbEntity
  8
0
100
AcDbCircle
 62
7
  6
CONTINUOUS
 10
5.9717676566
 20
5.3720285344
 40
0.6484587613
100
AcDbArc
 50
358.8529793008
 51
0.0739914812
  0
ARC
  5
433
100
AcDbEntity
  8
0
100
AcDbCircle
 62
7
  6
CONTINUOUS
 10
6.0668221849
 20
5.3976399489
 40
0.5710916934
100
AcDbArc
 50
13.9634263084
 51
14.3459982181
  0
ARC
  5
434
100
AcDbEntity
  8
0
100
AcDbCircle
 62
7
  6
CONTINUOUS
 10
6.128688474
 20
5.3513948085
 40
0.4980525661
100
AcDbArc
 50
0.7435564853
 51
1.5359920568
  0
ARC
  5
435
100
AcDbEntity
  8
0
100
AcDbCircle
 62
7
  6
CONTINUOUS
 10
6.1287223646
 20
5.3513970672
 40
0.4980186687
100
AcDbArc
 50
358.6036411695
 51
359.6276055645
  0
ARC
  5
436
100
AcDbEntity
  8
0
100
AcDbCircle
 62
7
  6
CONTINUOUS
 10
6.1284969316
 20
5.3513943913
 40
0.4977345452
100
AcDbArc
 50
1.184804888
 51
1.3609531109
  0
ARC
  5
437
100
AcDbEntity
  8
0
100
AcDbCircle
 62
7
  6
CONTINUOUS
 10
6.1285296536
 20
5.3513974367
 40
0.4977018151
100
AcDbArc
 50
358.6027094749
 51
359.2855458352
  0
ARC
  5
438
100
AcDbEntity
  8
0
100
AcDbCircle
 62
7
  6
CONTINUOUS
 10
6.1285484334
 20
5.3513954305
 40
0.4976830329
100
AcDbArc
 50
0.7440370008
 51
1.1848078784
  0
ARC
  5
439
100
AcDbEntity
  8
0
100
AcDbCircle
 62
7
  6
CONTINUOUS
 10
6.1264498196
 20
5.3337615437
 40
0.4937766054
100
AcDbArc
 50
0.5164561844
 51
1.5492625394
  0
ARC
  5
43A
100
AcDbEntity
  8
0
100
AcDbCircle
 62
7
  6
CONTINUOUS
 10
6.1264604507
 20
5.3337637602
 40
0.4937659738
100
AcDbArc
 50
358.5915831532
 51
359.3908640368
  0
ARC
  5
43B
100
AcDbEntity
  8
0
100
AcDbCircle
 62
7
  6
CONTINUOUS
 10
6.1732046062
 20
5.4210538625
 40
0.4675451821
100
AcDbArc
 50
356.7542927428
 51
357.0821020861
  0
ARC
  5
43C
100
AcDbEntity
  8
0
100
AcDbCircle
 62
7
  6
CONTINUOUS
 10
6.1966433806
 20
5.4117036391
 40
0.4435003039
100
AcDbArc
 50
355.1342527159
 51
355.2554449755
  0
ARC
  5
43D
100
AcDbEntity
  8
0
100
AcDbCircle
 62
7
  6
CONTINUOUS
 10
6.2404811689
 20
5.3811716378
 40
0.3963281366
100
AcDbArc
 50
353.9410753509
 51
354.8753037139
  0
ARC
  5
43E
100
AcDbEntity
  8
0
100
AcDbCircle
 62
7
  6
CONTINUOUS
 10
6.2528320909
 20
5.4049710059
 40
0.3869484593
100
AcDbArc
 50
349.7355771013
 51
351.1995211556
  0
ARC
  5
43F
100
AcDbEntity
  8
0
100
AcDbCircle
 62
7
  6
CONTINUOUS
 10
6.2592149436
 20
5.4254019364
 40
0.3818314369
100
AcDbArc
 50
357.8111713268
 51
357.9769434424
  0
ARC
  5
440
100
AcDbEntity
  8
0
100
AcDbCircle
 62
7
  6
CONTINUOUS
 10
6.3145456117
 20
5.4289957036
 40
0.3277397202
100
AcDbArc
 50
18.8686564793
 51
20.7012389899
  0
ARC
  5
441
100
AcDbEntity
  8
0
100
AcDbCircle
 62
7
  6
CONTINUOUS
 10
6.3201254035
 20
5.4283282113
 40
0.32182751
100
AcDbArc
 50
17.7028186799
 51
18.2213270992
  0
ARC
  5
442
100
AcDbEntity
  8
0
100
AcDbCircle
 62
7
  6
CONTINUOUS
 10
5.8700400649
 20
5.3783306031
 40
0.219
100
AcDbArc
 50
282.192141278
 51
321.0454623761
  0
ARC
  5
443
100
AcDbEntity
  8
0
100
AcDbCircle
 62
7
  6
CONTINUOUS
 10
6.4434825826
 20
5.4108151762
 40
0.200997673
100
AcDbArc
 50
28.0742450033
 51
28.4999659462
  0
ARC
  5
444
100
AcDbEntity
  8
0
100
AcDbCircle
 62
7
  6
CONTINUOUS
 10
6.4468710387
 20
5.4208845411
 40
0.1972668558
100
AcDbArc
 50
26.5017534495
 51
27.9727089879
  0
ARC
  5
445
100
AcDbEntity
  8
0
100
AcDbCircle
 62
7
  6
CONTINUOUS
 10
6.4465075226
 20
5.4209007706
 40
0.1971268926
100
AcDbArc
 50
26.471308626
 51
27.9889746064
  0
ARC
  5
446
100
AcDbEntity
  8
0
100
AcDbCircle
 62
7
  6
CONTINUOUS
 10
6.4505816051
 20
5.416945855
 40
0.1930469847
100
AcDbArc
 50
25.5162420026
 51
27.4017995688
  0
ARC
  5
447
100
AcDbEntity
  8
0
100
AcDbCircle
 62
7
  6
CONTINUOUS
 10
6.4526478503
 20
5.4237635591
 40
0.1908122878
100
AcDbArc
 50
25.5119468109
 51
25.8526974694
  0
ARC
  5
448
100
AcDbEntity
  8
0
100
AcDbCircle
 62
7
  6
CONTINUOUS
 10
6.4522189101
 20
5.4237473108
 40
0.190745382
100
AcDbArc
 50
25.5269466532
 51
25.8678599976
  0
ARC
  5
449
100
AcDbEntity
  8
0
100
AcDbCircle
 62
7
  6
CONTINUOUS
 10
6.4564758199
 20
5.4280293123
 40
0.1865908418
100
AcDbArc
 50
24.146170583
 51
24.8117404591
  0
ARC
  5
44A
100
AcDbEntity
  8
0
100
AcDbCircle
 62
7
  6
CONTINUOUS
 10
6.4567389013
 20
5.417399858
 40
0.1861933728
100
AcDbArc
 50
24.1483682394
 51
24.8153743859
  0
ARC
  5
44B
100
AcDbEntity
  8
0
100
AcDbCircle
 62
7
  6
CONTINUOUS
 10
6.6214058149
 20
5.3482146329
 40
0.0002220864
100
AcDbArc
 50
270.08466425
 51
279.1741422729
  0
ARC
  5
44C
100
AcDbEntity
  8
0
100
AcDbCircle
 62
7
  6
CONTINUOUS
 10
5.8659558274
 20
5.4392701764
 40
0.7753350077
100
AcDbArc
 50
8.7166109662
 51
11.2290359667
  0
ARC
  5
44D
100
AcDbEntity
  8
0
100
AcDbCircle
 62
7
  6
CONTINUOUS
 10
5.8659558274
 20
5.4392701764
 40
0.7753350077
100
AcDbArc
 50
345.2369687319
 51
348.9014323639
  0
ARC
  5
44E
100
AcDbEntity
  8
0
100
AcDbCircle
 62
7
  6
CONTINUOUS
 10
5.8659558274
 20
5.4392701764
 40
0.7753350077
100
AcDbArc
 50
12.2871488332
 51
14.7630312681
  0
ARC
  5
44F
100
AcDbEntity
  8
0
100
AcDbCircle
 62
7
  6
CONTINUOUS
 10
5.8659558274
 20
5.4392701764
 40
0.7753350077
100
AcDbArc
 50
6.0152642091
 51
7.3359382713
  0
ARC
  5
450
100
AcDbEntity
  8
0
100
AcDbCircle
 62
7
  6
CONTINUOUS
 10
5.8659558274
 20
5.4392701764
 40
0.7753350077
100
AcDbArc
 50
3.8826207867
 51
4.9017258622
  0
ARC
  5
451
100
AcDbEntity
  8
0
100
AcDbCircle
 62
7
  6
CONTINUOUS
 10
5.8659558274
 20
5.4392701764
 40
0.7753350077
100
AcDbArc
 50
358.3445118032
 51
359.0762338006
  0
ARC
  5
452
100
AcDbEntity
  8
0
100
AcDbCircle
 62
7
  6
CONTINUOUS
 10
5.8659558274
 20
5.4392701764
 40
0.7753350077
100
AcDbArc
 50
351.507607116
 51
354.0218881388
  0
ARC
  5
453
100
AcDbEntity
  8
0
100
AcDbCircle
 62
7
  6
CONTINUOUS
 10
5.8659558274
 20
5.4392701764
 40
0.7753348465
100
AcDbArc
 50
355.2465955527
 51
356.2655017874
  0
ARC
  5
454
100
AcDbEntity
  8
0
100
AcDbCircle
 62
7
  6
CONTINUOUS
 10
5.8659558274
 20
5.4392701764
 40
0.7753246895
100
AcDbArc
 50
350.3287857847
 51
350.6472356225
  0
ARC
  5
455
100
AcDbEntity
  8
0
100
AcDbCircle
 62
7
  6
CONTINUOUS
 10
5.8659558274
 20
5.4392701764
 40
0.7752342383
100
AcDbArc
 50
351.0204541713
 51
351.5064950683
  0
ARC
  5
456
100
AcDbEntity
  8
0
100
AcDbCircle
 62
7
  6
CONTINUOUS
 10
5.8659558274
 20
5.4392701764
 40
0.7750084672
100
AcDbArc
 50
350.1372592239
 51
351.9250619509
  0
ARC
  5
457
100
AcDbEntity
  8
0
100
AcDbCircle
 62
7
  6
CONTINUOUS
 10
5.8659558274
 20
5.4392701764
 40
0.7748471618
100
AcDbArc
 50
8.9092133515
 51
9.6584792833
  0
ARC
  5
458
100
AcDbEntity
  8
0
100
AcDbCircle
 62
7
  6
CONTINUOUS
 10
5.8659558274
 20
5.4392701764
 40
0.7748471618
100
AcDbArc
 50
355.2435968959
 51
356.2631479768
  0
ARC
  5
459
100
AcDbEntity
  8
0
100
AcDbCircle
 62
7
  6
CONTINUOUS
 10
5.8659558274
 20
5.4392701764
 40
0.7748350077
100
AcDbArc
 50
7.3406982066
 51
8.7168022606
  0
ARC
  5
45A
100
AcDbEntity
  8
0
100
AcDbCircle
 62
7
  6
CONTINUOUS
 10
5.8659558274
 20
5.4392701764
 40
0.7748350077
100
AcDbArc
 50
348.9012265489
 51
349.9466518822
  0
ARC
  5
45B
100
AcDbEntity
  8
0
100
AcDbCircle
 62
7
  6
CONTINUOUS
 10
5.8659558274
 20
5.4392701764
 40
0.7748350077
100
AcDbArc
 50
357.2624630484
 51
357.9773458886
  0
ARC
  5
45C
100
AcDbEntity
  8
0
100
AcDbCircle
 62
7
  6
CONTINUOUS
 10
5.8659558274
 20
5.4392701764
 40
0.7748350077
100
AcDbArc
 50
354.0180163975
 51
355.1321944254
  0
ARC
  5
45D
100
AcDbEntity
  8
0
100
AcDbCircle
 62
7
  6
CONTINUOUS
 10
5.8659558274
 20
5.4392701764
 40
0.7748350077
100
AcDbArc
 50
0.1437837118
 51
0.1848647723
  0
ARC
  5
45E
100
AcDbEntity
  8
0
100
AcDbCircle
 62
7
  6
CONTINUOUS
 10
5.8659558274
 20
5.4392701764
 40
0.7745446238
100
AcDbArc
 50
348.324007258
 51
352.3394324304
  0
ARC
  5
45F
100
AcDbEntity
  8
0
100
AcDbCircle
 62
7
  6
CONTINUOUS
 10
5.8659558274
 20
5.4392701764
 40
0.7745446238
100
AcDbArc
 50
7.0452230783
 51
9.6622880644
  0
ARC
  5
460
100
AcDbEntity
  8
0
100
AcDbCircle
 62
7
  6
CONTINUOUS
 10
5.8659558274
 20
5.4392701764
 40
0.7745446238
100
AcDbArc
 50
4.2573931076
 51
6.6726887355
  0
ARC
  5
461
100
AcDbEntity
  8
0
100
AcDbCircle
 62
7
  6
CONTINUOUS
 10
5.8659558274
 20
5.4392701764
 40
0.7745446238
100
AcDbArc
 50
353.5506949051
 51
356.81750313
  0
ARC
  5
462
100
AcDbEntity
  8
0
100
AcDbCircle
 62
7
  6
CONTINUOUS
 10
5.8893062232
 20
5.4403082697
 40
0.7520399742
100
AcDbArc
 50
357.0592563158
 51
357.7526944365
  0
ARC
  5
463
100
AcDbEntity
  8
0
100
AcDbCircle
 62
7
  6
CONTINUOUS
 10
5.940753656
 20
5.4344333512
 40
0.7003808088
100
AcDbArc
 50
356.2617989344
 51
356.7381668281
  0
ARC
  5
464
100
AcDbEntity
  8
0
100
AcDbCircle
 62
7
  6
CONTINUOUS
 10
5.9290302524
 20
5.467728985
 40
0.7062672521
100
AcDbArc
 50
348.9579533618
 51
351.050400362
  0
ARC
  5
465
100
AcDbEntity
  8
0
100
AcDbCircle
 62
7
  6
CONTINUOUS
 10
5.9285018842
 20
5.4697110361
 40
0.7059608489
100
AcDbArc
 50
348.4626727992
 51
350.559286968
  0
ARC
  5
466
100
AcDbEntity
  8
0
100
AcDbCircle
 62
7
  6
CONTINUOUS
 10
5.9288853459
 20
5.467747465
 40
0.7059098951
100
AcDbArc
 50
348.9586314009
 51
350.7048576186
  0
ARC
  5
467
100
AcDbEntity
  8
0
100
AcDbCircle
 62
7
  6
CONTINUOUS
 10
6.3117736179
 20
5.4332115079
 40
0.330172892
100
AcDbArc
 50
19.8432617024
 51
20.7098007614
  0
ARC
  5
468
100
AcDbEntity
  8
0
100
AcDbCircle
 62
7
  6
CONTINUOUS
 10
6.3134954816
 20
5.433740015
 40
0.3288555864
100
AcDbArc
 50
18.8717658841
 51
20.6981295851
  0
ARC
  5
469
100
AcDbEntity
  8
0
100
AcDbCircle
 62
7
  6
CONTINUOUS
 10
6.3149143754
 20
5.4343488588
 40
0.326832546
100
AcDbArc
 50
18.8801976891
 51
19.8426138105
  0
ARC
  5
46A
100
AcDbEntity
  8
0
100
AcDbCircle
 62
7
  6
CONTINUOUS
 10
6.3200663797
 20
5.4385529674
 40
0.321889633
100
AcDbArc
 50
17.702910858
 51
18.1060386607
  0
ARC
  5
46B
100
AcDbEntity
  8
0
100
AcDbCircle
 62
7
  6
CONTINUOUS
 10
6.319842902
 20
5.4385790661
 40
0.3216091417
100
AcDbArc
 50
17.7139809304
 51
18.0598087543
  0
ARC
  5
46C
100
AcDbEntity
  8
0
100
AcDbCircle
 62
7
  6
CONTINUOUS
 10
6.012080626
 20
5.5048056885
 40
0.6146604106
100
AcDbArc
 50
0.7541451397
 51
1.4664252978
  0
ARC
  5
46D
100
AcDbEntity
  8
0
100
AcDbCircle
 62
7
  6
CONTINUOUS
 10
6.0121229728
 20
5.5048068768
 40
0.6146180571
100
AcDbArc
 50
358.9525821379
 51
359.9580864712
  0
ARC
  5
46E
100
AcDbEntity
  8
0
100
AcDbCircle
 62
7
  6
CONTINUOUS
 10
6.0119889779
 20
5.5048058022
 40
0.6142424891
100
AcDbArc
 50
0.7546476721
 51
1.3882956712
  0
ARC
  5
46F
100
AcDbEntity
  8
0
100
AcDbCircle
 62
7
  6
CONTINUOUS
 10
6.0120374732
 20
5.5048067677
 40
0.6141939879
100
AcDbArc
 50
359.1753266359
 51
359.9580677038
  0
ARC
  5
470
100
AcDbEntity
  8
0
100
AcDbCircle
 62
7
  6
CONTINUOUS
 10
6.0115466774
 20
5.5114719003
 40
0.6120481033
100
AcDbArc
 50
359.7686172572
 51
0.2696291356
  0
ARC
  5
471
100
AcDbEntity
  8
0
100
AcDbCircle
 62
7
  6
CONTINUOUS
 10
6.0110445378
 20
5.5165530116
 40
0.6099373093
100
AcDbArc
 50
359.7678165132
 51
0.2705622416
  0
ARC
  5
472
100
AcDbEntity
  8
0
100
AcDbCircle
 62
7
  6
CONTINUOUS
 10
6.0109458642
 20
5.5165530116
 40
0.6095225247
100
AcDbArc
 50
359.7676585099
 51
0.2707463627
  0
ARC
  5
473
100
AcDbEntity
  8
0
100
AcDbCircle
 62
7
  6
CONTINUOUS
 10
6.010858598
 20
5.5179579398
 40
0.609367817
100
AcDbArc
 50
358.9435634049
 51
0.5493039459
  0
ARC
  5
474
100
AcDbEntity
  8
0
100
AcDbCircle
 62
7
  6
CONTINUOUS
 10
6.1542987202
 20
5.531311567
 40
0.4724423085
100
AcDbArc
 50
359.3788051328
 51
0.6211948672
  0
ARC
  5
475
100
AcDbEntity
  8
0
100
AcDbCircle
 62
7
  6
CONTINUOUS
 10
6.1541157444
 20
5.5313115366
 40
0.4721157165
100
AcDbArc
 50
359.7927970139
 51
0.621628285
  0
ARC
  5
476
100
AcDbEntity
  8
0
100
AcDbCircle
 62
7
  6
CONTINUOUS
 10
6.1521184618
 20
5.5477191985
 40
0.4688973323
100
AcDbArc
 50
359.1915735703
 51
359.5394643467
  0
ARC
  5
477
100
AcDbEntity
  8
0
100
AcDbCircle
 62
7
  6
CONTINUOUS
 10
6.1521221333
 20
5.5477187381
 40
0.4688936605
100
AcDbArc
 50
0.3611145641
 51
0.8084271376
  0
ARC
  5
478
100
AcDbEntity
  8
0
100
AcDbCircle
 62
7
  6
CONTINUOUS
 10
6.1519257353
 20
5.5477191748
 40
0.4685766235
100
AcDbArc
 50
359.1910231145
 51
359.5888939944
  0
ARC
  5
479
100
AcDbEntity
  8
0
100
AcDbCircle
 62
7
  6
CONTINUOUS
 10
6.1519275004
 20
5.5477187378
 40
0.4685748582
100
AcDbArc
 50
0.3613602916
 51
0.8089772345
  0
ARC
  5
47A
100
AcDbEntity
  8
0
100
AcDbCircle
 62
7
  6
CONTINUOUS
 10
6.1517717047
 20
5.5497823068
 40
0.4684547186
100
AcDbArc
 50
358.6986478698
 51
359.4101207073
  0
ARC
  5
47B
100
AcDbEntity
  8
0
100
AcDbCircle
 62
7
  6
CONTINUOUS
 10
6.1518184693
 20
5.5497813647
 40
0.4684079468
100
AcDbArc
 50
359.4101770475
 51
1.3013782154
  0
ARC
  5
47C
100
AcDbEntity
  8
0
100
AcDbCircle
 62
7
  6
CONTINUOUS
 10
5.8700400649
 20
5.5002097498
 40
0.219
100
AcDbArc
 50
38.9545376239
 51
77.807858722
  0
ARC
  5
47D
100
AcDbEntity
  8
0
100
AcDbCircle
 62
7
  6
CONTINUOUS
 10
6.3336900394
 20
5.4630774953
 40
0.30894628
100
AcDbArc
 50
337.9534521079
 51
338.3644849934
  0
ARC
  5
47E
100
AcDbEntity
  8
0
100
AcDbCircle
 62
7
  6
CONTINUOUS
 10
6.3340555544
 20
5.4540716743
 40
0.308716176
100
AcDbArc
 50
337.957509266
 51
338.3688364231
  0
ARC
  5
47F
100
AcDbEntity
  8
0
100
AcDbCircle
 62
7
  6
CONTINUOUS
 10
6.3339671414
 20
5.437490181
 40
0.3086797109
100
AcDbArc
 50
337.9540968799
 51
338.3654823631
  0
ARC
  5
480
100
AcDbEntity
  8
0
100
AcDbCircle
 62
7
  6
CONTINUOUS
 10
6.334039189
 20
5.4539514978
 40
0.308209829
100
AcDbArc
 50
338.1928765129
 51
338.3555413492
  0
ARC
  5
481
100
AcDbEntity
  8
0
100
AcDbCircle
 62
7
  6
CONTINUOUS
 10
6.3339919291
 20
5.4373535889
 40
0.3081289802
100
AcDbArc
 50
338.2116662537
 51
338.3521883615
  0
ARC
  5
482
100
AcDbEntity
  8
0
100
AcDbCircle
 62
7
  6
CONTINUOUS
 10
6.3376030663
 20
5.455914114
 40
0.3048677267
100
AcDbArc
 50
338.9912647774
 51
339.3169751582
  0
ARC
  5
483
100
AcDbEntity
  8
0
100
AcDbCircle
 62
7
  6
CONTINUOUS
 10
6.3374528857
 20
5.4392599311
 40
0.3044855326
100
AcDbArc
 50
338.9776205619
 51
339.4075959806
  0
ARC
  5
484
100
AcDbEntity
  8
0
100
AcDbCircle
 62
7
  6
CONTINUOUS
 10
6.3382572101
 20
5.4390759689
 40
0.3041472777
100
AcDbArc
 50
338.9902574771
 51
339.6427843537
  0
ARC
  5
485
100
AcDbEntity
  8
0
100
AcDbCircle
 62
7
  6
CONTINUOUS
 10
6.338334145
 20
5.4580517939
 40
0.3040407665
100
AcDbArc
 50
338.9898309888
 51
339.9683179882
  0
ARC
  5
486
100
AcDbEntity
  8
0
100
AcDbCircle
 62
7
  6
CONTINUOUS
 10
6.3383980251
 20
5.4554938217
 40
0.3034963688
100
AcDbArc
 50
339.3040455758
 51
339.6308145695
  0
ARC
  5
487
100
AcDbEntity
  8
0
100
AcDbCircle
 62
7
  6
CONTINUOUS
 10
6.3385296161
 20
5.4388553052
 40
0.3033352845
100
AcDbArc
 50
339.4416939558
 51
339.6303309479
  0
ARC
  5
488
100
AcDbEntity
  8
0
100
AcDbCircle
 62
7
  6
CONTINUOUS
 10
6.3390802776
 20
5.4411984911
 40
0.3033049272
100
AcDbArc
 50
338.9907681536
 51
340.4605974003
  0
ARC
  5
489
100
AcDbEntity
  8
0
100
AcDbCircle
 62
7
  6
CONTINUOUS
 10
6.3406108035
 20
5.4547937129
 40
0.3016580881
100
AcDbArc
 50
339.4787113091
 51
340.4629719583
  0
ARC
  5
48A
100
AcDbEntity
  8
0
100
AcDbCircle
 62
7
  6
CONTINUOUS
 10
6.3401727553
 20
5.4548381992
 40
0.3016044126
100
AcDbArc
 50
339.630225548
 51
340.2865651514
  0
ARC
  5
48B
100
AcDbEntity
  8
0
100
AcDbCircle
 62
7
  6
CONTINUOUS
 10
6.340828287
 20
5.4381263746
 40
0.3014064479
100
AcDbArc
 50
339.6420009278
 51
340.46263659
  0
ARC
  5
48C
100
AcDbEntity
  8
0
100
AcDbCircle
 62
7
  6
CONTINUOUS
 10
6.3404804614
 20
5.4381363896
 40
0.3012561955
100
AcDbArc
 50
339.6293642258
 51
340.4504745813
  0
ARC
  5
48D
100
AcDbEntity
  8
0
100
AcDbCircle
 62
7
  6
CONTINUOUS
 10
6.3409975935
 20
5.4570731823
 40
0.3012032345
100
AcDbArc
 50
339.9696632455
 51
340.4620578516
  0
ARC
  5
48E
100
AcDbEntity
  8
0
100
AcDbCircle
 62
7
  6
CONTINUOUS
 10
6.3446115772
 20
5.4424804412
 40
0.2974683177
100
AcDbArc
 50
341.0954585367
 51
341.5137811638
  0
ARC
  5
48F
100
AcDbEntity
  8
0
100
AcDbCircle
 62
7
  6
CONTINUOUS
 10
6.3444973852
 20
5.4590680387
 40
0.2974177484
100
AcDbArc
 50
341.0915624276
 51
341.5099657106
  0
ARC
  5
490
100
AcDbEntity
  8
0
100
AcDbCircle
 62
7
  6
CONTINUOUS
 10
6.3449208753
 20
5.4334477897
 40
0.2970023774
100
AcDbArc
 50
341.2322369127
 51
341.5108776255
  0
ARC
  5
491
100
AcDbEntity
  8
0
100
AcDbCircle
 62
7
  6
CONTINUOUS
 10
6.3446484464
 20
5.4334315384
 40
0.2967722362
100
AcDbArc
 50
341.3136888276
 51
341.4993282398
  0
ARC
  5
492
100
AcDbEntity
  8
0
100
AcDbCircle
 62
7
  6
CONTINUOUS
 10
6.4563074464
 20
5.444202109
 40
0.1865631963
100
AcDbArc
 50
24.1518265611
 51
24.8175253278
  0
ARC
  5
493
100
AcDbEntity
  8
0
100
AcDbCircle
 62
7
  6
CONTINUOUS
 10
6.4805192413
 20
5.4477353721
 40
0.1653702072
100
AcDbArc
 50
327.5680424336
 51
328.0281958654
  0
ARC
  5
494
100
AcDbEntity
  8
0
100
AcDbCircle
 62
7
  6
CONTINUOUS
 10
6.4844066505
 20
5.4528910812
 40
0.1609223413
100
AcDbArc
 50
328.6497389591
 51
329.1948755459
  0
ARC
  5
495
100
AcDbEntity
  8
0
100
AcDbCircle
 62
7
  6
CONTINUOUS
 10
6.4881547825
 20
5.4445050341
 40
0.1564677667
100
AcDbArc
 50
328.4074982753
 51
331.1106444276
  0
ARC
  5
496
100
AcDbEntity
  8
0
100
AcDbCircle
 62
7
  6
CONTINUOUS
 10
6.4877835286
 20
5.444475906
 40
0.1563316476
100
AcDbArc
 50
328.3893472073
 51
331.1393994576
  0
ARC
  5
497
100
AcDbEntity
  8
0
100
AcDbCircle
 62
7
  6
CONTINUOUS
 10
6.478791931
 20
5.4392706303
 40
0.1562488184
100
AcDbArc
 50
17.5056214391
 51
27.4943785609
  0
ARC
  5
498
100
AcDbEntity
  8
0
100
AcDbCircle
 62
7
  6
CONTINUOUS
 10
6.4787912891
 20
5.4392712723
 40
0.1562488184
100
AcDbArc
 50
62.5056214391
 51
72.4943785609
  0
ARC
  5
499
100
AcDbEntity
  8
0
100
AcDbCircle
 62
7
  6
CONTINUOUS
 10
6.4787903812
 20
5.4392712723
 40
0.1562488184
100
AcDbArc
 50
107.5056214391
 51
117.4943785609
  0
ARC
  5
49A
100
AcDbEntity
  8
0
100
AcDbCircle
 62
7
  6
CONTINUOUS
 10
6.4787897393
 20
5.4392706303
 40
0.1562488184
100
AcDbArc
 50
152.505621439
 51
162.4943785609
  0
ARC
  5
49B
100
AcDbEntity
  8
0
100
AcDbCircle
 62
7
  6
CONTINUOUS
 10
6.4787897393
 20
5.4392697225
 40
0.1562488184
100
AcDbArc
 50
197.5056214391
 51
207.4943785609
  0
ARC
  5
49C
100
AcDbEntity
  8
0
100
AcDbCircle
 62
7
  6
CONTINUOUS
 10
6.4787903812
 20
5.4392690806
 40
0.1562488184
100
AcDbArc
 50
242.5056214391
 51
252.4943785609
  0
ARC
  5
49D
100
AcDbEntity
  8
0
100
AcDbCircle
 62
7
  6
CONTINUOUS
 10
6.4787912891
 20
5.4392690806
 40
0.1562488184
100
AcDbArc
 50
287.5056214391
 51
297.4943785609
  0
ARC
  5
49E
100
AcDbEntity
  8
0
100
AcDbCircle
 62
7
  6
CONTINUOUS
 10
6.478791931
 20
5.4392697225
 40
0.1562488184
100
AcDbArc
 50
332.5056214391
 51
342.4943785609
  0
ARC
  5
49F
100
AcDbEntity
  8
0
100
AcDbCircle
 62
7
  6
CONTINUOUS
 10
6.4908668038
 20
5.4491322295
 40
0.1534479105
100
AcDbArc
 50
330.4950861395
 51
331.1804105272
  0
ARC
  5
4A0
100
AcDbEntity
  8
0
100
AcDbCircle
 62
7
  6
CONTINUOUS
 10
6.4947298415
 20
5.4394804043
 40
0.1489323163
100
AcDbArc
 50
331.6624356527
 51
332.3154304305
  0
ARC
  5
4A1
100
AcDbEntity
  8
0
100
AcDbCircle
 62
7
  6
CONTINUOUS
 10
6.5195319665
 20
5.4890942566
 40
0.1232978241
100
AcDbArc
 50
34.5875564137
 51
35.3436902617
  0
ARC
  5
4A2
100
AcDbEntity
  8
0
100
AcDbCircle
 62
7
  6
CONTINUOUS
 10
6.519669027
 20
5.4894989355
 40
0.1225325958
100
AcDbArc
 50
34.7703785054
 51
34.9356051794
  0
ARC
  5
4A3
100
AcDbEntity
  8
0
100
AcDbCircle
 62
7
  6
CONTINUOUS
 10
6.4493799575
 20
5.559238018
 40
0.1804197541
100
AcDbArc
 50
345.7489915894
 51
347.4602321991
  0
ARC
  5
4A4
100
AcDbEntity
  8
0
100
AcDbCircle
 62
7
  6
CONTINUOUS
 10
6.7996688652
 20
5.5515447234
 40
0.165615035
100
AcDbArc
 50
185.6445582431
 51
185.987150739
  0
ARC
  5
4A5
100
AcDbEntity
  8
0
100
AcDbCircle
 62
7
  6
CONTINUOUS
 10
6.5641565348
 20
5.5493038221
 40
0.0723581489
100
AcDbArc
 50
326.2225994363
 51
329.7904523227
  0
ARC
  5
4A6
100
AcDbEntity
  8
0
100
AcDbCircle
 62
7
  6
CONTINUOUS
 10
6.5639846908
 20
5.5491264809
 40
0.0719770297
100
AcDbArc
 50
326.612333132
 51
329.7771648429
  0
ARC
  5
4A7
100
AcDbEntity
  8
0
100
AcDbCircle
 62
7
  6
CONTINUOUS
 10
6.6620742463
 20
5.5418416406
 40
0.0411447957
100
AcDbArc
 50
187.512761877
 51
188.5993128688
  0
ARC
  5
4A8
100
AcDbEntity
  8
0
100
AcDbCircle
 62
7
  6
CONTINUOUS
 10
6.6608040177
 20
5.5417511205
 40
0.0403824721
100
AcDbArc
 50
185.3367452296
 51
187.3511087678
  0
ARC
  5
4A9
100
AcDbEntity
  8
0
100
AcDbCircle
 62
7
  6
CONTINUOUS
 10
6.5932261522
 20
5.5156089763
 40
0.0305205869
100
AcDbArc
 50
359.2272039207
 51
0.6865953754
  0
ARC
  5
4AA
100
AcDbEntity
  8
0
100
AcDbCircle
 62
7
  6
CONTINUOUS
 10
6.596845454
 20
5.5155603888
 40
0.0269009591
100
AcDbArc
 50
358.4314357151
 51
359.2267098205
  0
ARC
  5
4AB
100
AcDbEntity
  8
0
100
AcDbCircle
 62
7
  6
CONTINUOUS
 10
7.7850769006
 20
5.3325749414
 40
1.1475400692
100
AcDbArc
 50
176.5553417051
 51
176.8181113776
  0
ARC
  5
4AC
100
AcDbEntity
  8
0
100
AcDbCircle
 62
7
  6
CONTINUOUS
 10
7.3118270711
 20
5.3449903194
 40
0.6740946493
100
AcDbArc
 50
175.7221089074
 51
176.2762383634
  0
ARC
  5
4AD
100
AcDbEntity
  8
0
100
AcDbCircle
 62
7
  6
CONTINUOUS
 10
7.0533675299
 20
5.364239164
 40
0.41491934
100
AcDbArc
 50
175.4266974835
 51
175.7104684294
  0
ARC
  5
4AE
100
AcDbEntity
  8
0
100
AcDbCircle
 62
7
  6
CONTINUOUS
 10
6.9840315496
 20
5.3057758693
 40
0.3512192941
100
AcDbArc
 50
172.2308451276
 51
172.3928718116
  0
ARC
  5
4AF
100
AcDbEntity
  8
0
100
AcDbCircle
 62
7
  6
CONTINUOUS
 10
7.1506137056
 20
5.5291492954
 40
0.512970066
100
AcDbArc
 50
183.4956330295
 51
183.6189655501
  0
ARC
  5
4B0
100
AcDbEntity
  8
0
100
AcDbCircle
 62
7
  6
CONTINUOUS
 10
7.1658946357
 20
5.5972451747
 40
0.5346747799
100
AcDbArc
 50
187.3039710516
 51
187.419820437
  0
ARC
  5
4B1
100
AcDbEntity
  8
0
100
AcDbCircle
 62
7
  6
CONTINUOUS
 10
5.6703957166
 20
5.6087694819
 40
0.25
100
AcDbArc
 50
32.4798371001
 51
34.8900039694
  0
ARC
  5
4B2
100
AcDbEntity
  8
0
100
AcDbCircle
 62
7
  6
CONTINUOUS
 10
3.9921859537
 20
5.6087694819
 40
0.25
100
AcDbArc
 50
145.1099960306
 51
147.5201628999
  0
ARC
  5
4B3
100
AcDbEntity
  8
0
100
AcDbCircle
 62
7
  6
CONTINUOUS
 10
5.536708166
 20
5.8775571404
 40
0.1505348454
100
AcDbArc
 50
264.9976496546
 51
271.0434040871
  0
ARC
  5
4B4
100
AcDbEntity
  8
0
100
AcDbCircle
 62
7
  6
CONTINUOUS
 10
4.1258735043
 20
5.8775571404
 40
0.1505348454
100
AcDbArc
 50
268.9565959129
 51
275.0023503454
  0
ARC
  5
4B5
100
AcDbEntity
  8
0
100
AcDbCircle
 62
7
  6
CONTINUOUS
 10
4.1291484151
 20
5.8817701764
 40
0.15
100
AcDbArc
 50
270.0
 51
271.6365770416
  0
ARC
  5
4B6
100
AcDbEntity
  8
0
100
AcDbCircle
 62
7
  6
CONTINUOUS
 10
5.5334332551
 20
5.8817701764
 40
0.15
100
AcDbArc
 50
268.3634229584
 51
270.0
  0
ARC
  5
4B7
100
AcDbEntity
  8
0
100
AcDbCircle
 62
7
  6
CONTINUOUS
 10
6.5874929394
 20
5.5845309897
 40
0.0594527905
100
AcDbArc
 50
304.3489615565
 51
304.7630856981
  0
ARC
  5
4B8
100
AcDbEntity
  8
0
100
AcDbCircle
 62
7
  6
CONTINUOUS
 10
6.0282908351
 20
5.6281509227
 40
0.0155
100
AcDbArc
 50
0.0
 51
38.9545376239
  0
ARC
  5
4B9
100
AcDbEntity
  8
0
100
AcDbCircle
 62
7
  6
CONTINUOUS
 10
5.9007908351
 20
5.7275201764
 40
0.0155
100
AcDbArc
 50
0.0
 51
90.0
  0
ARC
  5
4BA
100
AcDbEntity
  8
0
100
AcDbCircle
 62
7
  6
CONTINUOUS
 10
6.6011906616
 20
5.6330201764
 40
0.015
100
AcDbArc
 50
14.7630312681
 51
80.0152417639
  0
SPLINE
  5
4BB
100
AcDbEntity
  8
0
100
AcDbSpline
 62
7
  6
CONTINUOUS
 70
0
 71
3
 72
15
 73
11
 74
0
 42
0.0000001
 43
0.0000001
 44
0.0000000001
 40
0.0
 40
0.0
 40
0.0
 40
0.0
 40
0.1254153101
 40
0.2506781021
 40
0.3758006804
 40
0.5007994906
 40
0.6256945906
 40
0.7505091051
 40
0.8752685291
 40
1.0
 40
1.0
 40
1.0
 40
1.0
 10
4.6547825816
 20
3.0025246446
 30
0.0
 10
4.6507227642
 20
2.9975942999
 30
0.0
 10
4.643024867
 20
2.9873876249
 30
0.0
 10
4.6328389427
 20
2.9711596304
 30
0.0
 10
4.6240908243
 20
2.9541356328
 30
0.0
 10
4.6168451651
 20
2.9364404539
 30
0.0
 10
4.611154273
 20
2.918202165
 30
0.0
 10
4.607059578
 20
2.8995526409
 30
0.0
 10
4.6045908144
 20
2.8806290019
 30
0.0
 10
4.6040408491
 20
2.867916902
 30
0.0
 10
4.6040408491
 20
2.8615649887
 30
0.0
  0
SPLINE
  5
4BC
100
AcDbEntity
  8
0
100
AcDbSpline
 62
7
  6
CONTINUOUS
 70
0
 71
3
 72
15
 73
11
 74
0
 42
0.0000001
 43
0.0000001
 44
0.0000000001
 40
0.0
 40
0.0
 40
0.0
 40
0.0
 40
0.1254153101
 40
0.2506781021
 40
0.3758006804
 40
0.5007994906
 40
0.6256945906
 40
0.7505091051
 40
0.8752685291
 40
1.0
 40
1.0
 40
1.0
 40
1.0
 10
5.0077990887
 20
3.0025246446
 30
0.0
 10
5.0118589061
 20
2.9975942999
 30
0.0
 10
5.0195568033
 20
2.9873876249
 30
0.0
 10
5.0297427275
 20
2.9711596304
 30
0.0
 10
5.038490846
 20
2.9541356328
 30
0.0
 10
5.0457365052
 20
2.9364404539
 30
0.0
 10
5.0514273973
 20
2.918202165
 30
0.0
 10
5.0555220923
 20
2.8995526409
 30
0.0
 10
5.0579908559
 20
2.8806290019
 30
0.0
 10
5.0585408211
 20
2.867916902
 30
0.0
 10
5.0585408211
 20
2.8615649887
 30
0.0
  0
LINE
  5
4BD
100
AcDbEntity
  8
0
100
AcDbLine
 62
7
  6
CONTINUOUS
 10
3.037084483
 20
5.3398095333
 11
3.0367665637
 21
5.3393362393
  0
SPLINE
  5
4BE
100
AcDbEntity
  8
0
100
AcDbSpline
 62
7
  6
CONTINUOUS
 70
0
 71
3
 72
13
 73
9
 74
0
 42
0.0000001
 43
0.0000001
 44
0.0000000001
 40
0.0
 40
0.0
 40
0.0
 40
0.0
 40
0.1467290766
 40
0.2429818479
 40
0.3570953193
 40
0.4898702045
 40
0.6415095121
 40
1.0
 40
1.0
 40
1.0
 40
1.0
 10
3.0411404469
 20
5.5305449654
 30
0.0
 10
3.0410773381
 20
5.5305348448
 30
0.0
 10
3.0409815114
 20
5.5304757457
 30
0.0
 10
3.0408739269
 20
5.5303645107
 30
0.0
 10
3.040783666
 20
5.530244556
 30
0.0
 10
3.0406926212
 20
5.5300966719
 30
0.0
 10
3.0405625941
 20
5.5298484073
 30
0.0
 10
3.0404763462
 20
5.5296431781
 30
0.0
 10
3.0404203595
 20
5.5294974012
 30
0.0
  0
LINE
  5
4BF
100
AcDbEntity
  8
0
100
AcDbLine
 62
7
  6
CONTINUOUS
 10
3.0390547463
 20
5.3698209535
 11
3.0389918804
 21
5.3695401351
  0
SPLINE
  5
4C0
100
AcDbEntity
  8
0
100
AcDbSpline
 62
7
  6
CONTINUOUS
 70
0
 71
3
 72
15
 73
11
 74
0
 42
0.0000001
 43
0.0000001
 44
0.0000000001
 40
0.0
 40
0.0
 40
0.0
 40
0.0
 40
0.067821609
 40
0.1431350528
 40
0.2333412015
 40
0.3427198275
 40
0.4734512326
 40
0.626542097
 40
0.8022124657
 40
1.0
 40
1.0
 40
1.0
 40
1.0
 10
3.037224013
 20
5.3731506951
 30
0.0
 10
3.0371987657
 20
5.373150698
 30
0.0
 10
3.0371449724
 20
5.3731393907
 30
0.0
 10
3.0370716091
 20
5.3730901737
 30
0.0
 10
3.0370041102
 20
5.373012226
 30
0.0
 10
3.0369412885
 20
5.3729060121
 30
0.0
 10
3.0368828276
 20
5.3727715373
 30
0.0
 10
3.0368289
 20
5.3726090324
 30
0.0
 10
3.0367798195
 20
5.3724191504
 30
0.0
 10
3.0367521272
 20
5.3722828523
 30
0.0
 10
3.0367389275
 20
5.3722104168
 30
0.0
  0
LINE
  5
4C1
100
AcDbEntity
  8
0
100
AcDbLine
 62
7
  6
CONTINUOUS
 10
3.041104072
 20
5.5098557262
 11
3.0409756823
 21
5.5097465003
  0
LINE
  5
4C2
100
AcDbEntity
  8
0
100
AcDbLine
 62
7
  6
CONTINUOUS
 10
3.0385464802
 20
5.5055477502
 11
3.0384270462
 21
5.5054385245
  0
LINE
  5
4C3
100
AcDbEntity
  8
0
100
AcDbLine
 62
7
  6
CONTINUOUS
 10
3.0215888655
 20
5.4276444977
 11
3.0215266193
 21
5.4280967914
  0
SPLINE
  5
4C4
100
AcDbEntity
  8
0
100
AcDbSpline
 62
7
  6
CONTINUOUS
 70
0
 71
3
 72
39
 73
35
 74
0
 42
0.0000001
 43
0.0000001
 44
0.0000000001
 40
0.0
 40
0.0
 40
0.0
 40
0.0
 40
0.0045496781
 40
0.0100050203
 40
0.0163639212
 40
0.0236195931
 40
0.0317625303
 40
0.0407803624
 40
0.0613771447
 40
0.0852651847
 40
0.1122706235
 40
0.1421937946
 40
0.1748115668
 40
0.2098796401
 40
0.2471346827
 40
0.3270695038
 40
0.412212446
 40
0.5
 40
0.587787554
 40
0.6729304962
 40
0.7528653173
 40
0.7901203599
 40
0.8251884332
 40
0.8578062054
 40
0.8877293765
 40
0.9147348153
 40
0.9386228553
 40
0.9592196376
 40
0.9682374697
 40
0.9763804069
 40
0.9836360788
 40
0.9899949797
 40
0.9954503219
 40
1.0
 40
1.0
 40
1.0
 40
1.0
 10
3.0451882668
 20
5.3671356455
 30
0.0
 10
3.0452542324
 20
5.3670088962
 30
0.0
 10
3.0454098671
 20
5.3667356796
 30
0.0
 10
3.0456845385
 20
5.3663011972
 30
0.0
 10
3.0460214304
 20
5.3658059093
 30
0.0
 10
3.0464199864
 20
5.365250798
 30
0.0
 10
3.0468795647
 20
5.3646368991
 30
0.0
 10
3.0476054951
 20
5.3636991994
 30
0.0
 10
3.0486612676
 20
5.362391783
 30
0.0
 10
3.0501043861
 20
5.3606716549
 30
0.0
 10
3.0517638571
 20
5.3587510666
 30
0.0
 10
3.053627232
 20
5.3566446117
 30
0.0
 10
3.055680552
 20
5.3543683172
 30
0.0
 10
3.0579083289
 20
5.3519394481
 30
0.0
 10
3.0611662185
 20
5.3484391157
 30
0.0
 10
3.0655416841
 20
5.3438307668
 30
0.0
 10
3.0710727259
 20
5.3381318844
 30
0.0
 10
3.0768343704
 20
5.3323137116
 30
0.0
 10
3.0826525432
 20
5.3265520672
 30
0.0
 10
3.0883514256
 20
5.3210210254
 30
0.0
 10
3.0929597745
 20
5.3166455598
 30
0.0
 10
3.0964601068
 20
5.3133876701
 30
0.0
 10
3.0988889759
 20
5.3111598932
 30
0.0
 10
3.1011652705
 20
5.3091065733
 30
0.0
 10
3.1032717254
 20
5.3072431984
 30
0.0
 10
3.1051923136
 20
5.3055837273
 30
0.0
 10
3.1069124418
 20
5.3041406088
 30
0.0
 10
3.1082198582
 20
5.3030848364
 30
0.0
 10
3.1091575578
 20
5.3023589059
 30
0.0
 10
3.1097714568
 20
5.3018993276
 30
0.0
 10
3.1103265681
 20
5.3015007717
 30
0.0
 10
3.110821856
 20
5.3011638798
 30
0.0
 10
3.1112563383
 20
5.3008892084
 30
0.0
 10
3.1115295549
 20
5.3007335737
 30
0.0
 10
3.1116563042
 20
5.3006676081
 30
0.0
  0
SPLINE
  5
4C5
100
AcDbEntity
  8
0
100
AcDbSpline
 62
7
  6
CONTINUOUS
 70
0
 71
3
 72
23
 73
19
 74
0
 42
0.0000001
 43
0.0000001
 44
0.0000000001
 40
0.0
 40
0.0
 40
0.0
 40
0.0
 40
0.1755767394
 40
0.3458623554
 40
0.5057320195
 40
0.5802419905
 40
0.6503779627
 40
0.7156132911
 40
0.7754594237
 40
0.8294701229
 40
0.877246055
 40
0.9184394982
 40
0.9364751057
 40
0.9527609452
 40
0.9672722407
 40
0.9799900013
 40
0.9909006559
 40
1.0
 40
1.0
 40
1.0
 40
1.0
 10
3.0325450111
 20
5.4392701764
 30
0.0
 10
3.0325450111
 20
5.4365130883
 30
0.0
 10
3.0325715233
 20
5.4310819565
 30
0.0
 10
3.0326902063
 20
5.4231411862
 30
0.0
 10
3.03285488
 20
5.4167886742
 30
0.0
 10
3.0330263134
 20
5.412009894
 30
0.0
 10
3.0331685071
 20
5.4087171559
 30
0.0
 10
3.033326174
 20
5.4056556655
 30
0.0
 10
3.0334980574
 20
5.4028485815
 30
0.0
 10
3.0336826948
 20
5.4003171057
 30
0.0
 10
3.0338785699
 20
5.3980803596
 30
0.0
 10
3.0340565087
 20
5.3964093378
 30
0.0
 10
3.0342062521
 20
5.395232977
 30
0.0
 10
3.0343153729
 20
5.3944739162
 30
0.0
 10
3.0344260742
 20
5.3937995736
 30
0.0
 10
3.0345380766
 20
5.3932111354
 30
0.0
 10
3.0346510798
 20
5.3927096892
 30
0.0
 10
3.0347342227
 20
5.3924064462
 30
0.0
 10
3.0347772032
 20
5.3922701764
 30
0.0
  0
SPLINE
  5
4C6
100
AcDbEntity
  8
0
100
AcDbSpline
 62
7
  6
CONTINUOUS
 70
0
 71
3
 72
23
 73
19
 74
0
 42
0.0000001
 43
0.0000001
 44
0.0000000001
 40
0.0
 40
0.0
 40
0.0
 40
0.0
 40
0.0090993441
 40
0.0200099987
 40
0.0327277593
 40
0.0472390548
 40
0.0635248943
 40
0.0815605018
 40
0.122753945
 40
0.1705298771
 40
0.2245405763
 40
0.2843867089
 40
0.3496220373
 40
0.4197580095
 40
0.4942679805
 40
0.6541376446
 40
0.8244232606
 40
1.0
 40
1.0
 40
1.0
 40
1.0
 10
3.3328044671
 20
5.3922701764
 30
0.0
 10
3.3328474476
 20
5.3924064462
 30
0.0
 10
3.3329305905
 20
5.3927096892
 30
0.0
 10
3.3330435936
 20
5.3932111354
 30
0.0
 10
3.3331555961
 20
5.3937995736
 30
0.0
 10
3.3332662974
 20
5.3944739162
 30
0.0
 10
3.3333754182
 20
5.395232977
 30
0.0
 10
3.3335251616
 20
5.3964093378
 30
0.0
 10
3.3337031003
 20
5.3980803596
 30
0.0
 10
3.3338989755
 20
5.4003171057
 30
0.0
 10
3.3340836129
 20
5.4028485815
 30
0.0
 10
3.3342554963
 20
5.4056556655
 30
0.0
 10
3.3344131631
 20
5.4087171559
 30
0.0
 10
3.3345553569
 20
5.412009894
 30
0.0
 10
3.3347267902
 20
5.4167886742
 30
0.0
 10
3.334891464
 20
5.4231411862
 30
0.0
 10
3.335010147
 20
5.4310819565
 30
0.0
 10
3.3350366592
 20
5.4365130883
 30
0.0
 10
3.3350366592
 20
5.4392701764
 30
0.0
  0
SPLINE
  5
4C7
100
AcDbEntity
  8
0
100
AcDbSpline
 62
7
  6
CONTINUOUS
 70
0
 71
3
 72
39
 73
35
 74
0
 42
0.0000001
 43
0.0000001
 44
0.0000000001
 40
0.0
 40
0.0
 40
0.0
 40
0.0
 40
0.0045496781
 40
0.0100050203
 40
0.0163639212
 40
0.0236195931
 40
0.0317625303
 40
0.0407803624
 40
0.0613771447
 40
0.0852651847
 40
0.1122706235
 40
0.1421937946
 40
0.1748115668
 40
0.2098796401
 40
0.2471346827
 40
0.3270695038
 40
0.412212446
 40
0.5
 40
0.587787554
 40
0.6729304962
 40
0.7528653173
 40
0.7901203599
 40
0.8251884332
 40
0.8578062054
 40
0.8877293765
 40
0.9147348153
 40
0.9386228553
 40
0.9592196376
 40
0.9682374697
 40
0.9763804069
 40
0.9836360788
 40
0.9899949797
 40
0.9954503219
 40
1.0
 40
1.0
 40
1.0
 40
1.0
 10
3.255925366
 20
5.3006676081
 30
0.0
 10
3.2560521154
 20
5.3007335737
 30
0.0
 10
3.256325332
 20
5.3008892084
 30
0.0
 10
3.2567598143
 20
5.3011638798
 30
0.0
 10
3.2572551022
 20
5.3015007717
 30
0.0
 10
3.2578102135
 20
5.3018993276
 30
0.0
 10
3.2584241124
 20
5.3023589059
 30
0.0
 10
3.2593618121
 20
5.3030848364
 30
0.0
 10
3.2606692285
 20
5.3041406088
 30
0.0
 10
3.2623893567
 20
5.3055837273
 30
0.0
 10
3.2643099449
 20
5.3072431984
 30
0.0
 10
3.2664163998
 20
5.3091065733
 30
0.0
 10
3.2686926944
 20
5.3111598932
 30
0.0
 10
3.2711215635
 20
5.3133876701
 30
0.0
 10
3.2746218958
 20
5.3166455598
 30
0.0
 10
3.2792302447
 20
5.3210210254
 30
0.0
 10
3.2849291271
 20
5.3265520672
 30
0.0
 10
3.2907472999
 20
5.3323137116
 30
0.0
 10
3.2965089444
 20
5.3381318844
 30
0.0
 10
3.3020399861
 20
5.3438307668
 30
0.0
 10
3.3064154518
 20
5.3484391157
 30
0.0
 10
3.3096733414
 20
5.3519394481
 30
0.0
 10
3.3119011183
 20
5.3543683172
 30
0.0
 10
3.3139544383
 20
5.3566446117
 30
0.0
 10
3.3158178131
 20
5.3587510666
 30
0.0
 10
3.3174772842
 20
5.3606716549
 30
0.0
 10
3.3189204027
 20
5.362391783
 30
0.0
 10
3.3199761751
 20
5.3636991994
 30
0.0
 10
3.3207021056
 20
5.3646368991
 30
0.0
 10
3.3211616839
 20
5.365250798
 30
0.0
 10
3.3215602399
 20
5.3658059093
 30
0.0
 10
3.3218971318
 20
5.3663011972
 30
0.0
 10
3.3221718032
 20
5.3667356796
 30
0.0
 10
3.3223274379
 20
5.3670088962
 30
0.0
 10
3.3223934035
 20
5.3671356455
 30
0.0
  0
SPLINE
  5
4C8
100
AcDbEntity
  8
0
100
AcDbSpline
 62
7
  6
CONTINUOUS
 70
0
 71
3
 72
39
 73
35
 74
0
 42
0.0000001
 43
0.0000001
 44
0.0000000001
 40
0.0
 40
0.0
 40
0.0
 40
0.0
 40
0.0045496781
 40
0.0100050203
 40
0.0163639212
 40
0.0236195931
 40
0.0317625303
 40
0.0407803624
 40
0.0613771447
 40
0.0852651847
 40
0.1122706235
 40
0.1421937946
 40
0.1748115668
 40
0.2098796401
 40
0.2471346827
 40
0.3270695038
 40
0.412212446
 40
0.5
 40
0.587787554
 40
0.6729304962
 40
0.7528653173
 40
0.7901203599
 40
0.8251884332
 40
0.8578062054
 40
0.8877293765
 40
0.9147348153
 40
0.9386228553
 40
0.9592196376
 40
0.9682374697
 40
0.9763804069
 40
0.9836360788
 40
0.9899949797
 40
0.9954503219
 40
1.0
 40
1.0
 40
1.0
 40
1.0
 10
3.1367908351
 20
5.2902565445
 30
0.0
 10
3.1369271052
 20
5.2902135639
 30
0.0
 10
3.1372303488
 20
5.290130421
 30
0.0
 10
3.1377317962
 20
5.2900174175
 30
0.0
 10
3.1383202363
 20
5.2899054147
 30
0.0
 10
3.1389945808
 20
5.2897947133
 30
0.0
 10
3.1397536438
 20
5.2896855922
 30
0.0
 10
3.140930008
 20
5.2895358487
 30
0.0
 10
3.1426010348
 20
5.2893579096
 30
0.0
 10
3.144837788
 20
5.2891620341
 30
0.0
 10
3.1473692722
 20
5.2889773964
 30
0.0
 10
3.1501763658
 20
5.2888055129
 30
0.0
 10
3.1532378656
 20
5.288647846
 30
0.0
 10
3.1565306115
 20
5.2885056524
 30
0.0
 10
3.1613093961
 20
5.2883342195
 30
0.0
 10
3.1676619123
 20
5.2881695462
 30
0.0
 10
3.1756026678
 20
5.2880508649
 30
0.0
 10
3.1837908351
 20
5.2880108933
 30
0.0
 10
3.1919790024
 20
5.2880508649
 30
0.0
 10
3.199919758
 20
5.2881695462
 30
0.0
 10
3.2062722742
 20
5.2883342195
 30
0.0
 10
3.2110510587
 20
5.2885056524
 30
0.0
 10
3.2143438047
 20
5.288647846
 30
0.0
 10
3.2174053045
 20
5.2888055129
 30
0.0
 10
3.220212398
 20
5.2889773964
 30
0.0
 10
3.2227438823
 20
5.2891620341
 30
0.0
 10
3.2249806354
 20
5.2893579096
 30
0.0
 10
3.2266516623
 20
5.2895358487
 30
0.0
 10
3.2278280264
 20
5.2896855922
 30
0.0
 10
3.2285870895
 20
5.2897947133
 30
0.0
 10
3.229261434
 20
5.2899054147
 30
0.0
 10
3.229849874
 20
5.2900174175
 30
0.0
 10
3.2303513215
 20
5.290130421
 30
0.0
 10
3.2306545651
 20
5.2902135639
 30
0.0
 10
3.2307908351
 20
5.2902565445
 30
0.0
  0
SPLINE
  5
4C9
100
AcDbEntity
  8
0
100
AcDbSpline
 62
7
  6
CONTINUOUS
 70
0
 71
3
 72
23
 73
19
 74
0
 42
0.0000001
 43
0.0000001
 44
0.0000000001
 40
0.0
 40
0.0
 40
0.0
 40
0.0
 40
0.1755767394
 40
0.3458623554
 40
0.5057320195
 40
0.5802419905
 40
0.6503779627
 40
0.7156132911
 40
0.7754594237
 40
0.8294701229
 40
0.877246055
 40
0.9184394982
 40
0.9364751057
 40
0.9527609452
 40
0.9672722407
 40
0.9799900013
 40
0.9909006559
 40
1.0
 40
1.0
 40
1.0
 40
1.0
 10
3.3350366592
 20
5.4392701764
 30
0.0
 10
3.3350366592
 20
5.4420272645
 30
0.0
 10
3.335010147
 20
5.4474583963
 30
0.0
 10
3.334891464
 20
5.4553991666
 30
0.0
 10
3.3347267902
 20
5.4617516787
 30
0.0
 10
3.3345553569
 20
5.4665304589
 30
0.0
 10
3.3344131631
 20
5.4698231969
 30
0.0
 10
3.3342554963
 20
5.4728846873
 30
0.0
 10
3.3340836129
 20
5.4756917713
 30
0.0
 10
3.3338989755
 20
5.4782232471
 30
0.0
 10
3.3337031003
 20
5.4804599933
 30
0.0
 10
3.3335251616
 20
5.482131015
 30
0.0
 10
3.3333754182
 20
5.4833073758
 30
0.0
 10
3.3332662974
 20
5.4840664366
 30
0.0
 10
3.3331555961
 20
5.4847407792
 30
0.0
 10
3.3330435936
 20
5.4853292174
 30
0.0
 10
3.3329305905
 20
5.4858306636
 30
0.0
 10
3.3328474476
 20
5.4861339066
 30
0.0
 10
3.3328044671
 20
5.4862701764
 30
0.0
  0
SPLINE
  5
4CA
100
AcDbEntity
  8
0
100
AcDbSpline
 62
7
  6
CONTINUOUS
 70
0
 71
3
 72
23
 73
19
 74
0
 42
0.0000001
 43
0.0000001
 44
0.0000000001
 40
0.0
 40
0.0
 40
0.0
 40
0.0
 40
0.0090993441
 40
0.0200099987
 40
0.0327277593
 40
0.0472390548
 40
0.0635248943
 40
0.0815605018
 40
0.122753945
 40
0.1705298771
 40
0.2245405763
 40
0.2843867089
 40
0.3496220373
 40
0.4197580095
 40
0.4942679805
 40
0.6541376446
 40
0.8244232606
 40
1.0
 40
1.0
 40
1.0
 40
1.0
 10
3.0347772032
 20
5.4862701764
 30
0.0
 10
3.0347342227
 20
5.4861339066
 30
0.0
 10
3.0346510798
 20
5.4858306636
 30
0.0
 10
3.0345380766
 20
5.4853292174
 30
0.0
 10
3.0344260742
 20
5.4847407792
 30
0.0
 10
3.0343153729
 20
5.4840664366
 30
0.0
 10
3.0342062521
 20
5.4833073758
 30
0.0
 10
3.0340565087
 20
5.482131015
 30
0.0
 10
3.0338785699
 20
5.4804599933
 30
0.0
 10
3.0336826948
 20
5.4782232471
 30
0.0
 10
3.0334980574
 20
5.4756917713
 30
0.0
 10
3.033326174
 20
5.4728846873
 30
0.0
 10
3.0331685071
 20
5.4698231969
 30
0.0
 10
3.0330263134
 20
5.4665304589
 30
0.0
 10
3.03285488
 20
5.4617516787
 30
0.0
 10
3.0326902063
 20
5.4553991666
 30
0.0
 10
3.0325715233
 20
5.4474583963
 30
0.0
 10
3.0325450111
 20
5.4420272645
 30
0.0
 10
3.0325450111
 20
5.4392701764
 30
0.0
  0
SPLINE
  5
4CB
100
AcDbEntity
  8
0
100
AcDbSpline
 62
7
  6
CONTINUOUS
 70
0
 71
3
 72
39
 73
35
 74
0
 42
0.0000001
 43
0.0000001
 44
0.0000000001
 40
0.0
 40
0.0
 40
0.0
 40
0.0
 40
0.0045496781
 40
0.0100050203
 40
0.0163639212
 40
0.0236195931
 40
0.0317625303
 40
0.0407803624
 40
0.0613771447
 40
0.0852651847
 40
0.1122706235
 40
0.1421937946
 40
0.1748115668
 40
0.2098796401
 40
0.2471346827
 40
0.3270695038
 40
0.412212446
 40
0.5
 40
0.587787554
 40
0.6729304962
 40
0.7528653173
 40
0.7901203599
 40
0.8251884332
 40
0.8578062054
 40
0.8877293765
 40
0.9147348153
 40
0.9386228553
 40
0.9592196376
 40
0.9682374697
 40
0.9763804069
 40
0.9836360788
 40
0.9899949797
 40
0.9954503219
 40
1.0
 40
1.0
 40
1.0
 40
1.0
 10
3.1116563042
 20
5.5778727447
 30
0.0
 10
3.1115295549
 20
5.5778067791
 30
0.0
 10
3.1112563383
 20
5.5776511444
 30
0.0
 10
3.110821856
 20
5.577376473
 30
0.0
 10
3.1103265681
 20
5.5770395811
 30
0.0
 10
3.1097714568
 20
5.5766410252
 30
0.0
 10
3.1091575578
 20
5.5761814469
 30
0.0
 10
3.1082198582
 20
5.5754555164
 30
0.0
 10
3.1069124418
 20
5.574399744
 30
0.0
 10
3.1051923136
 20
5.5729566255
 30
0.0
 10
3.1032717254
 20
5.5712971544
 30
0.0
 10
3.1011652705
 20
5.5694337796
 30
0.0
 10
3.0988889759
 20
5.5673804596
 30
0.0
 10
3.0964601068
 20
5.5651526827
 30
0.0
 10
3.0929597745
 20
5.561894793
 30
0.0
 10
3.0883514256
 20
5.5575193274
 30
0.0
 10
3.0826525432
 20
5.5519882856
 30
0.0
 10
3.0768343704
 20
5.5462266412
 30
0.0
 10
3.0710727259
 20
5.5404084684
 30
0.0
 10
3.0655416841
 20
5.534709586
 30
0.0
 10
3.0611662185
 20
5.5301012371
 30
0.0
 10
3.0579083289
 20
5.5266009047
 30
0.0
 10
3.055680552
 20
5.5241720356
 30
0.0
 10
3.053627232
 20
5.5218957411
 30
0.0
 10
3.0517638571
 20
5.5197892862
 30
0.0
 10
3.0501043861
 20
5.517868698
 30
0.0
 10
3.0486612676
 20
5.5161485698
 30
0.0
 10
3.0476054951
 20
5.5148411534
 30
0.0
 10
3.0468795647
 20
5.5139034537
 30
0.0
 10
3.0464199864
 20
5.5132895548
 30
0.0
 10
3.0460214304
 20
5.5127344435
 30
0.0
 10
3.0456845385
 20
5.5122391556
 30
0.0
 10
3.0454098671
 20
5.5118046732
 30
0.0
 10
3.0452542324
 20
5.5115314566
 30
0.0
 10
3.0451882668
 20
5.5114047073
 30
0.0
  0
SPLINE
  5
4CC
100
AcDbEntity
  8
0
100
AcDbSpline
 62
7
  6
CONTINUOUS
 70
0
 71
3
 72
39
 73
35
 74
0
 42
0.0000001
 43
0.0000001
 44
0.0000000001
 40
0.0
 40
0.0
 40
0.0
 40
0.0
 40
0.0045496781
 40
0.0100050203
 40
0.0163639212
 40
0.0236195931
 40
0.0317625303
 40
0.0407803624
 40
0.0613771447
 40
0.0852651847
 40
0.1122706235
 40
0.1421937946
 40
0.1748115668
 40
0.2098796401
 40
0.2471346827
 40
0.3270695038
 40
0.412212446
 40
0.5
 40
0.587787554
 40
0.6729304962
 40
0.7528653173
 40
0.7901203599
 40
0.8251884332
 40
0.8578062054
 40
0.8877293765
 40
0.9147348153
 40
0.9386228553
 40
0.9592196376
 40
0.9682374697
 40
0.9763804069
 40
0.9836360788
 40
0.9899949797
 40
0.9954503219
 40
1.0
 40
1.0
 40
1.0
 40
1.0
 10
3.2307908351
 20
5.5882838083
 30
0.0
 10
3.2306545651
 20
5.5883267889
 30
0.0
 10
3.2303513215
 20
5.5884099319
 30
0.0
 10
3.229849874
 20
5.5885229353
 30
0.0
 10
3.229261434
 20
5.5886349382
 30
0.0
 10
3.2285870895
 20
5.5887456395
 30
0.0
 10
3.2278280264
 20
5.5888547607
 30
0.0
 10
3.2266516623
 20
5.5890045041
 30
0.0
 10
3.2249806354
 20
5.5891824433
 30
0.0
 10
3.2227438823
 20
5.5893783187
 30
0.0
 10
3.220212398
 20
5.5895629564
 30
0.0
 10
3.2174053045
 20
5.5897348399
 30
0.0
 10
3.2143438047
 20
5.5898925068
 30
0.0
 10
3.2110510587
 20
5.5900347004
 30
0.0
 10
3.2062722742
 20
5.5902061333
 30
0.0
 10
3.199919758
 20
5.5903708067
 30
0.0
 10
3.1919790024
 20
5.5904894879
 30
0.0
 10
3.1837908351
 20
5.5905294595
 30
0.0
 10
3.1756026678
 20
5.5904894879
 30
0.0
 10
3.1676619123
 20
5.5903708067
 30
0.0
 10
3.1613093961
 20
5.5902061333
 30
0.0
 10
3.1565306115
 20
5.5900347004
 30
0.0
 10
3.1532378656
 20
5.5898925068
 30
0.0
 10
3.1501763658
 20
5.5897348399
 30
0.0
 10
3.1473692722
 20
5.5895629564
 30
0.0
 10
3.144837788
 20
5.5893783187
 30
0.0
 10
3.1426010348
 20
5.5891824433
 30
0.0
 10
3.140930008
 20
5.5890045041
 30
0.0
 10
3.1397536438
 20
5.5888547607
 30
0.0
 10
3.1389945808
 20
5.5887456395
 30
0.0
 10
3.1383202363
 20
5.5886349382
 30
0.0
 10
3.1377317962
 20
5.5885229353
 30
0.0
 10
3.1372303488
 20
5.5884099319
 30
0.0
 10
3.1369271052
 20
5.5883267889
 30
0.0
 10
3.1367908351
 20
5.5882838083
 30
0.0
  0
SPLINE
  5
4CD
100
AcDbEntity
  8
0
100
AcDbSpline
 62
7
  6
CONTINUOUS
 70
0
 71
3
 72
39
 73
35
 74
0
 42
0.0000001
 43
0.0000001
 44
0.0000000001
 40
0.0
 40
0.0
 40
0.0
 40
0.0
 40
0.0045496781
 40
0.0100050203
 40
0.0163639212
 40
0.0236195931
 40
0.0317625303
 40
0.0407803624
 40
0.0613771447
 40
0.0852651847
 40
0.1122706235
 40
0.1421937946
 40
0.1748115668
 40
0.2098796401
 40
0.2471346827
 40
0.3270695038
 40
0.412212446
 40
0.5
 40
0.587787554
 40
0.6729304962
 40
0.7528653173
 40
0.7901203599
 40
0.8251884332
 40
0.8578062054
 40
0.8877293765
 40
0.9147348153
 40
0.9386228553
 40
0.9592196376
 40
0.9682374697
 40
0.9763804069
 40
0.9836360788
 40
0.9899949797
 40
0.9954503219
 40
1.0
 40
1.0
 40
1.0
 40
1.0
 10
3.3223934035
 20
5.5114047073
 30
0.0
 10
3.3223274379
 20
5.5115314566
 30
0.0
 10
3.3221718032
 20
5.5118046732
 30
0.0
 10
3.3218971318
 20
5.5122391556
 30
0.0
 10
3.3215602399
 20
5.5127344435
 30
0.0
 10
3.3211616839
 20
5.5132895548
 30
0.0
 10
3.3207021056
 20
5.5139034537
 30
0.0
 10
3.3199761751
 20
5.5148411534
 30
0.0
 10
3.3189204027
 20
5.5161485698
 30
0.0
 10
3.3174772842
 20
5.517868698
 30
0.0
 10
3.3158178131
 20
5.5197892862
 30
0.0
 10
3.3139544383
 20
5.5218957411
 30
0.0
 10
3.3119011183
 20
5.5241720356
 30
0.0
 10
3.3096733414
 20
5.5266009047
 30
0.0
 10
3.3064154518
 20
5.5301012371
 30
0.0
 10
3.3020399861
 20
5.534709586
 30
0.0
 10
3.2965089444
 20
5.5404084684
 30
0.0
 10
3.2907472999
 20
5.5462266412
 30
0.0
 10
3.2849291271
 20
5.5519882856
 30
0.0
 10
3.2792302447
 20
5.5575193274
 30
0.0
 10
3.2746218958
 20
5.561894793
 30
0.0
 10
3.2711215635
 20
5.5651526827
 30
0.0
 10
3.2686926944
 20
5.5673804596
 30
0.0
 10
3.2664163998
 20
5.5694337796
 30
0.0
 10
3.2643099449
 20
5.5712971544
 30
0.0
 10
3.2623893567
 20
5.5729566255
 30
0.0
 10
3.2606692285
 20
5.574399744
 30
0.0
 10
3.2593618121
 20
5.5754555164
 30
0.0
 10
3.2584241124
 20
5.5761814469
 30
0.0
 10
3.2578102135
 20
5.5766410252
 30
0.0
 10
3.2572551022
 20
5.5770395811
 30
0.0
 10
3.2567598143
 20
5.577376473
 30
0.0
 10
3.256325332
 20
5.5776511444
 30
0.0
 10
3.2560521154
 20
5.5778067791
 30
0.0
 10
3.255925366
 20
5.5778727447
 30
0.0
  0
LINE
  5
4CE
100
AcDbEntity
  8
0
100
AcDbLine
 62
7
  6
CONTINUOUS
 10
6.6254971872
 20
5.5387308196
 11
6.6258151066
 21
5.5392041135
  0
SPLINE
  5
4CF
100
AcDbEntity
  8
0
100
AcDbSpline
 62
7
  6
CONTINUOUS
 70
0
 71
3
 72
13
 73
9
 74
0
 42
0.0000001
 43
0.0000001
 44
0.0000000001
 40
0.0
 40
0.0
 40
0.0
 40
0.0
 40
0.1467290766
 40
0.2429818479
 40
0.3570953193
 40
0.4898702045
 40
0.6415095121
 40
1.0
 40
1.0
 40
1.0
 40
1.0
 10
6.6214412234
 20
5.3479953874
 30
0.0
 10
6.6215043322
 20
5.3480055081
 30
0.0
 10
6.6216001588
 20
5.3480646071
 30
0.0
 10
6.6217077434
 20
5.3481758421
 30
0.0
 10
6.6217980043
 20
5.3482957968
 30
0.0
 10
6.6218890491
 20
5.3484436809
 30
0.0
 10
6.6220190762
 20
5.3486919455
 30
0.0
 10
6.622105324
 20
5.3488971747
 30
0.0
 10
6.6221613108
 20
5.3490429516
 30
0.0
  0
LINE
  5
4D0
100
AcDbEntity
  8
0
100
AcDbLine
 62
7
  6
CONTINUOUS
 10
6.6235269239
 20
5.5087193994
 11
6.6235897899
 21
5.5090002177
  0
SPLINE
  5
4D1
100
AcDbEntity
  8
0
100
AcDbSpline
 62
7
  6
CONTINUOUS
 70
0
 71
3
 72
15
 73
11
 74
0
 42
0.0000001
 43
0.0000001
 44
0.0000000001
 40
0.0
 40
0.0
 40
0.0
 40
0.0
 40
0.067821609
 40
0.1431350529
 40
0.2333412015
 40
0.3427198275
 40
0.4734512326
 40
0.626542097
 40
0.8022124657
 40
1.0
 40
1.0
 40
1.0
 40
1.0
 10
6.6253576573
 20
5.5053896577
 30
0.0
 10
6.6253829045
 20
5.5053896548
 30
0.0
 10
6.6254366979
 20
5.5054009621
 30
0.0
 10
6.6255100612
 20
5.5054501791
 30
0.0
 10
6.6255775601
 20
5.5055281269
 30
0.0
 10
6.6256403818
 20
5.5056343408
 30
0.0
 10
6.6256988427
 20
5.5057688156
 30
0.0
 10
6.6257527703
 20
5.5059313204
 30
0.0
 10
6.6258018508
 20
5.5061212025
 30
0.0
 10
6.625829543
 20
5.5062575005
 30
0.0
 10
6.6258427428
 20
5.506329936
 30
0.0
  0
LINE
  5
4D2
100
AcDbEntity
  8
0
100
AcDbLine
 62
7
  6
CONTINUOUS
 10
6.6214775982
 20
5.3686846266
 11
6.621605988
 21
5.3687938525
  0
LINE
  5
4D3
100
AcDbEntity
  8
0
100
AcDbLine
 62
7
  6
CONTINUOUS
 10
6.6240351901
 20
5.3729926026
 11
6.624154624
 21
5.3731018283
  0
SPLINE
  5
4D4
100
AcDbEntity
  8
0
100
AcDbSpline
 62
7
  6
CONTINUOUS
 70
0
 71
3
 72
39
 73
35
 74
0
 42
0.0000001
 43
0.0000001
 44
0.0000000001
 40
0.0
 40
0.0
 40
0.0
 40
0.0
 40
0.0045496781
 40
0.0100050203
 40
0.0163639212
 40
0.0236195931
 40
0.0317625303
 40
0.0407803624
 40
0.0613771447
 40
0.0852651847
 40
0.1122706235
 40
0.1421937946
 40
0.1748115668
 40
0.2098796401
 40
0.2471346827
 40
0.3270695038
 40
0.412212446
 40
0.5
 40
0.587787554
 40
0.6729304962
 40
0.7528653173
 40
0.7901203599
 40
0.8251884332
 40
0.8578062054
 40
0.8877293765
 40
0.9147348153
 40
0.9386228553
 40
0.9592196376
 40
0.9682374697
 40
0.9763804069
 40
0.9836360788
 40
0.9899949797
 40
0.9954503219
 40
1.0
 40
1.0
 40
1.0
 40
1.0
 10
6.6173934035
 20
5.5114047073
 30
0.0
 10
6.6173274379
 20
5.5115314566
 30
0.0
 10
6.6171718032
 20
5.5118046732
 30
0.0
 10
6.6168971318
 20
5.5122391556
 30
0.0
 10
6.6165602399
 20
5.5127344435
 30
0.0
 10
6.6161616839
 20
5.5132895548
 30
0.0
 10
6.6157021056
 20
5.5139034537
 30
0.0
 10
6.6149761751
 20
5.5148411534
 30
0.0
 10
6.6139204027
 20
5.5161485698
 30
0.0
 10
6.6124772842
 20
5.517868698
 30
0.0
 10
6.6108178131
 20
5.5197892862
 30
0.0
 10
6.6089544383
 20
5.5218957411
 30
0.0
 10
6.6069011183
 20
5.5241720356
 30
0.0
 10
6.6046733414
 20
5.5266009047
 30
0.0
 10
6.6014154518
 20
5.5301012371
 30
0.0
 10
6.5970399861
 20
5.534709586
 30
0.0
 10
6.5915089444
 20
5.5404084684
 30
0.0
 10
6.5857472999
 20
5.5462266412
 30
0.0
 10
6.5799291271
 20
5.5519882856
 30
0.0
 10
6.5742302447
 20
5.5575193274
 30
0.0
 10
6.5696218958
 20
5.561894793
 30
0.0
 10
6.5661215635
 20
5.5651526827
 30
0.0
 10
6.5636926944
 20
5.5673804596
 30
0.0
 10
6.5614163998
 20
5.5694337796
 30
0.0
 10
6.5593099449
 20
5.5712971544
 30
0.0
 10
6.5573893567
 20
5.5729566255
 30
0.0
 10
6.5556692285
 20
5.574399744
 30
0.0
 10
6.5543618121
 20
5.5754555164
 30
0.0
 10
6.5534241124
 20
5.5761814469
 30
0.0
 10
6.5528102135
 20
5.5766410252
 30
0.0
 10
6.5522551022
 20
5.5770395811
 30
0.0
 10
6.5517598143
 20
5.577376473
 30
0.0
 10
6.551325332
 20
5.5776511444
 30
0.0
 10
6.5510521154
 20
5.5778067791
 30
0.0
 10
6.550925366
 20
5.5778727447
 30
0.0
  0
SPLINE
  5
4D5
100
AcDbEntity
  8
0
100
AcDbSpline
 62
7
  6
CONTINUOUS
 70
0
 71
3
 72
23
 73
19
 74
0
 42
0.0000001
 43
0.0000001
 44
0.0000000001
 40
0.0
 40
0.0
 40
0.0
 40
0.0
 40
0.1755767394
 40
0.3458623554
 40
0.5057320195
 40
0.5802419905
 40
0.6503779627
 40
0.7156132911
 40
0.7754594237
 40
0.8294701229
 40
0.877246055
 40
0.9184394982
 40
0.9364751057
 40
0.9527609452
 40
0.9672722407
 40
0.9799900013
 40
0.9909006559
 40
1.0
 40
1.0
 40
1.0
 40
1.0
 10
6.6300366592
 20
5.4392701764
 30
0.0
 10
6.6300366592
 20
5.4420272645
 30
0.0
 10
6.630010147
 20
5.4474583963
 30
0.0
 10
6.629891464
 20
5.4553991666
 30
0.0
 10
6.6297267902
 20
5.4617516787
 30
0.0
 10
6.6295553569
 20
5.4665304589
 30
0.0
 10
6.6294131631
 20
5.4698231969
 30
0.0
 10
6.6292554963
 20
5.4728846873
 30
0.0
 10
6.6290836129
 20
5.4756917713
 30
0.0
 10
6.6288989755
 20
5.4782232471
 30
0.0
 10
6.6287031003
 20
5.4804599933
 30
0.0
 10
6.6285251616
 20
5.482131015
 30
0.0
 10
6.6283754182
 20
5.4833073758
 30
0.0
 10
6.6282662974
 20
5.4840664366
 30
0.0
 10
6.6281555961
 20
5.4847407792
 30
0.0
 10
6.6280435936
 20
5.4853292174
 30
0.0
 10
6.6279305905
 20
5.4858306636
 30
0.0
 10
6.6278474476
 20
5.4861339066
 30
0.0
 10
6.6278044671
 20
5.4862701764
 30
0.0
  0
SPLINE
  5
4D6
100
AcDbEntity
  8
0
100
AcDbSpline
 62
7
  6
CONTINUOUS
 70
0
 71
3
 72
23
 73
19
 74
0
 42
0.0000001
 43
0.0000001
 44
0.0000000001
 40
0.0
 40
0.0
 40
0.0
 40
0.0
 40
0.0090993441
 40
0.0200099987
 40
0.0327277593
 40
0.0472390548
 40
0.0635248943
 40
0.0815605018
 40
0.122753945
 40
0.1705298771
 40
0.2245405763
 40
0.2843867089
 40
0.3496220373
 40
0.4197580095
 40
0.4942679805
 40
0.6541376446
 40
0.8244232606
 40
1.0
 40
1.0
 40
1.0
 40
1.0
 10
6.3297772032
 20
5.4862701764
 30
0.0
 10
6.3297342227
 20
5.4861339066
 30
0.0
 10
6.3296510798
 20
5.4858306636
 30
0.0
 10
6.3295380766
 20
5.4853292174
 30
0.0
 10
6.3294260742
 20
5.4847407792
 30
0.0
 10
6.3293153729
 20
5.4840664366
 30
0.0
 10
6.3292062521
 20
5.4833073758
 30
0.0
 10
6.3290565087
 20
5.482131015
 30
0.0
 10
6.3288785699
 20
5.4804599933
 30
0.0
 10
6.3286826948
 20
5.4782232471
 30
0.0
 10
6.3284980574
 20
5.4756917713
 30
0.0
 10
6.328326174
 20
5.4728846873
 30
0.0
 10
6.3281685071
 20
5.4698231969
 30
0.0
 10
6.3280263134
 20
5.4665304589
 30
0.0
 10
6.32785488
 20
5.4617516787
 30
0.0
 10
6.3276902063
 20
5.4553991666
 30
0.0
 10
6.3275715233
 20
5.4474583963
 30
0.0
 10
6.3275450111
 20
5.4420272645
 30
0.0
 10
6.3275450111
 20
5.4392701764
 30
0.0
  0
SPLINE
  5
4D7
100
AcDbEntity
  8
0
100
AcDbSpline
 62
7
  6
CONTINUOUS
 70
0
 71
3
 72
39
 73
35
 74
0
 42
0.0000001
 43
0.0000001
 44
0.0000000001
 40
0.0
 40
0.0
 40
0.0
 40
0.0
 40
0.0045496781
 40
0.0100050203
 40
0.0163639212
 40
0.0236195931
 40
0.0317625303
 40
0.0407803624
 40
0.0613771447
 40
0.0852651847
 40
0.1122706235
 40
0.1421937946
 40
0.1748115668
 40
0.2098796401
 40
0.2471346827
 40
0.3270695038
 40
0.412212446
 40
0.5
 40
0.587787554
 40
0.6729304962
 40
0.7528653173
 40
0.7901203599
 40
0.8251884332
 40
0.8578062054
 40
0.8877293765
 40
0.9147348153
 40
0.9386228553
 40
0.9592196376
 40
0.9682374697
 40
0.9763804069
 40
0.9836360788
 40
0.9899949797
 40
0.9954503219
 40
1.0
 40
1.0
 40
1.0
 40
1.0
 10
6.4066563042
 20
5.5778727447
 30
0.0
 10
6.4065295549
 20
5.5778067791
 30
0.0
 10
6.4062563383
 20
5.5776511444
 30
0.0
 10
6.405821856
 20
5.577376473
 30
0.0
 10
6.4053265681
 20
5.5770395811
 30
0.0
 10
6.4047714568
 20
5.5766410252
 30
0.0
 10
6.4041575578
 20
5.5761814469
 30
0.0
 10
6.4032198582
 20
5.5754555164
 30
0.0
 10
6.4019124418
 20
5.574399744
 30
0.0
 10
6.4001923136
 20
5.5729566255
 30
0.0
 10
6.3982717254
 20
5.5712971544
 30
0.0
 10
6.3961652705
 20
5.5694337796
 30
0.0
 10
6.3938889759
 20
5.5673804596
 30
0.0
 10
6.3914601068
 20
5.5651526827
 30
0.0
 10
6.3879597745
 20
5.561894793
 30
0.0
 10
6.3833514256
 20
5.5575193274
 30
0.0
 10
6.3776525432
 20
5.5519882856
 30
0.0
 10
6.3718343704
 20
5.5462266412
 30
0.0
 10
6.3660727259
 20
5.5404084684
 30
0.0
 10
6.3605416841
 20
5.534709586
 30
0.0
 10
6.3561662185
 20
5.5301012371
 30
0.0
 10
6.3529083289
 20
5.5266009047
 30
0.0
 10
6.350680552
 20
5.5241720356
 30
0.0
 10
6.348627232
 20
5.5218957411
 30
0.0
 10
6.3467638571
 20
5.5197892862
 30
0.0
 10
6.3451043861
 20
5.517868698
 30
0.0
 10
6.3436612676
 20
5.5161485698
 30
0.0
 10
6.3426054951
 20
5.5148411534
 30
0.0
 10
6.3418795647
 20
5.5139034537
 30
0.0
 10
6.3414199864
 20
5.5132895548
 30
0.0
 10
6.3410214304
 20
5.5127344435
 30
0.0
 10
6.3406845385
 20
5.5122391556
 30
0.0
 10
6.3404098671
 20
5.5118046732
 30
0.0
 10
6.3402542324
 20
5.5115314566
 30
0.0
 10
6.3401882668
 20
5.5114047073
 30
0.0
  0
SPLINE
  5
4D8
100
AcDbEntity
  8
0
100
AcDbSpline
 62
7
  6
CONTINUOUS
 70
0
 71
3
 72
39
 73
35
 74
0
 42
0.0000001
 43
0.0000001
 44
0.0000000001
 40
0.0
 40
0.0
 40
0.0
 40
0.0
 40
0.0045496781
 40
0.0100050203
 40
0.0163639212
 40
0.0236195931
 40
0.0317625303
 40
0.0407803624
 40
0.0613771447
 40
0.0852651847
 40
0.1122706235
 40
0.1421937946
 40
0.1748115668
 40
0.2098796401
 40
0.2471346827
 40
0.3270695038
 40
0.412212446
 40
0.5
 40
0.587787554
 40
0.6729304962
 40
0.7528653173
 40
0.7901203599
 40
0.8251884332
 40
0.8578062054
 40
0.8877293765
 40
0.9147348153
 40
0.9386228553
 40
0.9592196376
 40
0.9682374697
 40
0.9763804069
 40
0.9836360788
 40
0.9899949797
 40
0.9954503219
 40
1.0
 40
1.0
 40
1.0
 40
1.0
 10
6.5257908351
 20
5.5882838083
 30
0.0
 10
6.5256545651
 20
5.5883267889
 30
0.0
 10
6.5253513215
 20
5.5884099319
 30
0.0
 10
6.524849874
 20
5.5885229353
 30
0.0
 10
6.524261434
 20
5.5886349382
 30
0.0
 10
6.5235870895
 20
5.5887456395
 30
0.0
 10
6.5228280264
 20
5.5888547607
 30
0.0
 10
6.5216516623
 20
5.5890045041
 30
0.0
 10
6.5199806354
 20
5.5891824433
 30
0.0
 10
6.5177438823
 20
5.5893783187
 30
0.0
 10
6.515212398
 20
5.5895629564
 30
0.0
 10
6.5124053045
 20
5.5897348399
 30
0.0
 10
6.5093438047
 20
5.5898925068
 30
0.0
 10
6.5060510587
 20
5.5900347004
 30
0.0
 10
6.5012722742
 20
5.5902061333
 30
0.0
 10
6.494919758
 20
5.5903708067
 30
0.0
 10
6.4869790024
 20
5.5904894879
 30
0.0
 10
6.4787908351
 20
5.5905294595
 30
0.0
 10
6.4706026678
 20
5.5904894879
 30
0.0
 10
6.4626619123
 20
5.5903708067
 30
0.0
 10
6.4563093961
 20
5.5902061333
 30
0.0
 10
6.4515306115
 20
5.5900347004
 30
0.0
 10
6.4482378656
 20
5.5898925068
 30
0.0
 10
6.4451763658
 20
5.5897348399
 30
0.0
 10
6.4423692722
 20
5.5895629564
 30
0.0
 10
6.439837788
 20
5.5893783187
 30
0.0
 10
6.4376010348
 20
5.5891824433
 30
0.0
 10
6.435930008
 20
5.5890045041
 30
0.0
 10
6.4347536438
 20
5.5888547607
 30
0.0
 10
6.4339945808
 20
5.5887456395
 30
0.0
 10
6.4333202363
 20
5.5886349382
 30
0.0
 10
6.4327317962
 20
5.5885229353
 30
0.0
 10
6.4322303488
 20
5.5884099319
 30
0.0
 10
6.4319271052
 20
5.5883267889
 30
0.0
 10
6.4317908351
 20
5.5882838083
 30
0.0
  0
SPLINE
  5
4D9
100
AcDbEntity
  8
0
100
AcDbSpline
 62
7
  6
CONTINUOUS
 70
0
 71
3
 72
23
 73
19
 74
0
 42
0.0000001
 43
0.0000001
 44
0.0000000001
 40
0.0
 40
0.0
 40
0.0
 40
0.0
 40
0.1755767394
 40
0.3458623554
 40
0.5057320195
 40
0.5802419905
 40
0.6503779627
 40
0.7156132911
 40
0.7754594237
 40
0.8294701229
 40
0.877246055
 40
0.9184394982
 40
0.9364751057
 40
0.9527609452
 40
0.9672722407
 40
0.9799900013
 40
0.9909006559
 40
1.0
 40
1.0
 40
1.0
 40
1.0
 10
6.3275450111
 20
5.4392701764
 30
0.0
 10
6.3275450111
 20
5.4365130883
 30
0.0
 10
6.3275715233
 20
5.4310819565
 30
0.0
 10
6.3276902063
 20
5.4231411862
 30
0.0
 10
6.32785488
 20
5.4167886742
 30
0.0
 10
6.3280263134
 20
5.412009894
 30
0.0
 10
6.3281685071
 20
5.4087171559
 30
0.0
 10
6.328326174
 20
5.4056556655
 30
0.0
 10
6.3284980574
 20
5.4028485815
 30
0.0
 10
6.3286826948
 20
5.4003171057
 30
0.0
 10
6.3288785699
 20
5.3980803596
 30
0.0
 10
6.3290565087
 20
5.3964093378
 30
0.0
 10
6.3292062521
 20
5.395232977
 30
0.0
 10
6.3293153729
 20
5.3944739162
 30
0.0
 10
6.3294260742
 20
5.3937995736
 30
0.0
 10
6.3295380766
 20
5.3932111354
 30
0.0
 10
6.3296510798
 20
5.3927096892
 30
0.0
 10
6.3297342227
 20
5.3924064462
 30
0.0
 10
6.3297772032
 20
5.3922701764
 30
0.0
  0
SPLINE
  5
4DA
100
AcDbEntity
  8
0
100
AcDbSpline
 62
7
  6
CONTINUOUS
 70
0
 71
3
 72
23
 73
19
 74
0
 42
0.0000001
 43
0.0000001
 44
0.0000000001
 40
0.0
 40
0.0
 40
0.0
 40
0.0
 40
0.0090993441
 40
0.0200099987
 40
0.0327277593
 40
0.0472390548
 40
0.0635248943
 40
0.0815605018
 40
0.122753945
 40
0.1705298771
 40
0.2245405763
 40
0.2843867089
 40
0.3496220373
 40
0.4197580095
 40
0.4942679805
 40
0.6541376446
 40
0.8244232606
 40
1.0
 40
1.0
 40
1.0
 40
1.0
 10
6.6278044671
 20
5.3922701764
 30
0.0
 10
6.6278474476
 20
5.3924064462
 30
0.0
 10
6.6279305905
 20
5.3927096892
 30
0.0
 10
6.6280435936
 20
5.3932111354
 30
0.0
 10
6.6281555961
 20
5.3937995736
 30
0.0
 10
6.6282662974
 20
5.3944739162
 30
0.0
 10
6.6283754182
 20
5.395232977
 30
0.0
 10
6.6285251616
 20
5.3964093378
 30
0.0
 10
6.6287031003
 20
5.3980803596
 30
0.0
 10
6.6288989755
 20
5.4003171057
 30
0.0
 10
6.6290836129
 20
5.4028485815
 30
0.0
 10
6.6292554963
 20
5.4056556655
 30
0.0
 10
6.6294131631
 20
5.4087171559
 30
0.0
 10
6.6295553569
 20
5.412009894
 30
0.0
 10
6.6297267902
 20
5.4167886742
 30
0.0
 10
6.629891464
 20
5.4231411862
 30
0.0
 10
6.630010147
 20
5.4310819565
 30
0.0
 10
6.6300366592
 20
5.4365130883
 30
0.0
 10
6.6300366592
 20
5.4392701764
 30
0.0
  0
SPLINE
  5
4DB
100
AcDbEntity
  8
0
100
AcDbSpline
 62
7
  6
CONTINUOUS
 70
0
 71
3
 72
39
 73
35
 74
0
 42
0.0000001
 43
0.0000001
 44
0.0000000001
 40
0.0
 40
0.0
 40
0.0
 40
0.0
 40
0.0045496781
 40
0.0100050203
 40
0.0163639212
 40
0.0236195931
 40
0.0317625303
 40
0.0407803624
 40
0.0613771447
 40
0.0852651847
 40
0.1122706235
 40
0.1421937946
 40
0.1748115668
 40
0.2098796401
 40
0.2471346827
 40
0.3270695038
 40
0.412212446
 40
0.5
 40
0.587787554
 40
0.6729304962
 40
0.7528653173
 40
0.7901203599
 40
0.8251884332
 40
0.8578062054
 40
0.8877293765
 40
0.9147348153
 40
0.9386228553
 40
0.9592196376
 40
0.9682374697
 40
0.9763804069
 40
0.9836360788
 40
0.9899949797
 40
0.9954503219
 40
1.0
 40
1.0
 40
1.0
 40
1.0
 10
6.550925366
 20
5.3006676081
 30
0.0
 10
6.5510521154
 20
5.3007335737
 30
0.0
 10
6.551325332
 20
5.3008892084
 30
0.0
 10
6.5517598143
 20
5.3011638798
 30
0.0
 10
6.5522551022
 20
5.3015007717
 30
0.0
 10
6.5528102135
 20
5.3018993276
 30
0.0
 10
6.5534241124
 20
5.3023589059
 30
0.0
 10
6.5543618121
 20
5.3030848364
 30
0.0
 10
6.5556692285
 20
5.3041406088
 30
0.0
 10
6.5573893567
 20
5.3055837273
 30
0.0
 10
6.5593099449
 20
5.3072431984
 30
0.0
 10
6.5614163998
 20
5.3091065733
 30
0.0
 10
6.5636926944
 20
5.3111598932
 30
0.0
 10
6.5661215635
 20
5.3133876701
 30
0.0
 10
6.5696218958
 20
5.3166455598
 30
0.0
 10
6.5742302447
 20
5.3210210254
 30
0.0
 10
6.5799291271
 20
5.3265520672
 30
0.0
 10
6.5857472999
 20
5.3323137116
 30
0.0
 10
6.5915089444
 20
5.3381318844
 30
0.0
 10
6.5970399861
 20
5.3438307668
 30
0.0
 10
6.6014154518
 20
5.3484391157
 30
0.0
 10
6.6046733414
 20
5.3519394481
 30
0.0
 10
6.6069011183
 20
5.3543683172
 30
0.0
 10
6.6089544383
 20
5.3566446117
 30
0.0
 10
6.6108178131
 20
5.3587510666
 30
0.0
 10
6.6124772842
 20
5.3606716549
 30
0.0
 10
6.6139204027
 20
5.362391783
 30
0.0
 10
6.6149761751
 20
5.3636991994
 30
0.0
 10
6.6157021056
 20
5.3646368991
 30
0.0
 10
6.6161616839
 20
5.365250798
 30
0.0
 10
6.6165602399
 20
5.3658059093
 30
0.0
 10
6.6168971318
 20
5.3663011972
 30
0.0
 10
6.6171718032
 20
5.3667356796
 30
0.0
 10
6.6173274379
 20
5.3670088962
 30
0.0
 10
6.6173934035
 20
5.3671356455
 30
0.0
  0
SPLINE
  5
4DC
100
AcDbEntity
  8
0
100
AcDbSpline
 62
7
  6
CONTINUOUS
 70
0
 71
3
 72
39
 73
35
 74
0
 42
0.0000001
 43
0.0000001
 44
0.0000000001
 40
0.0
 40
0.0
 40
0.0
 40
0.0
 40
0.0045496781
 40
0.0100050203
 40
0.0163639212
 40
0.0236195931
 40
0.0317625303
 40
0.0407803624
 40
0.0613771447
 40
0.0852651847
 40
0.1122706235
 40
0.1421937946
 40
0.1748115668
 40
0.2098796401
 40
0.2471346827
 40
0.3270695038
 40
0.412212446
 40
0.5
 40
0.587787554
 40
0.6729304962
 40
0.7528653173
 40
0.7901203599
 40
0.8251884332
 40
0.8578062054
 40
0.8877293765
 40
0.9147348153
 40
0.9386228553
 40
0.9592196376
 40
0.9682374697
 40
0.9763804069
 40
0.9836360788
 40
0.9899949797
 40
0.9954503219
 40
1.0
 40
1.0
 40
1.0
 40
1.0
 10
6.4317908351
 20
5.2902565445
 30
0.0
 10
6.4319271052
 20
5.2902135639
 30
0.0
 10
6.4322303488
 20
5.290130421
 30
0.0
 10
6.4327317962
 20
5.2900174175
 30
0.0
 10
6.4333202363
 20
5.2899054147
 30
0.0
 10
6.4339945808
 20
5.2897947133
 30
0.0
 10
6.4347536438
 20
5.2896855922
 30
0.0
 10
6.435930008
 20
5.2895358487
 30
0.0
 10
6.4376010348
 20
5.2893579096
 30
0.0
 10
6.439837788
 20
5.2891620341
 30
0.0
 10
6.4423692722
 20
5.2889773964
 30
0.0
 10
6.4451763658
 20
5.2888055129
 30
0.0
 10
6.4482378656
 20
5.288647846
 30
0.0
 10
6.4515306115
 20
5.2885056524
 30
0.0
 10
6.4563093961
 20
5.2883342195
 30
0.0
 10
6.4626619123
 20
5.2881695462
 30
0.0
 10
6.4706026678
 20
5.2880508649
 30
0.0
 10
6.4787908351
 20
5.2880108933
 30
0.0
 10
6.4869790024
 20
5.2880508649
 30
0.0
 10
6.494919758
 20
5.2881695462
 30
0.0
 10
6.5012722742
 20
5.2883342195
 30
0.0
 10
6.5060510587
 20
5.2885056524
 30
0.0
 10
6.5093438047
 20
5.288647846
 30
0.0
 10
6.5124053045
 20
5.2888055129
 30
0.0
 10
6.515212398
 20
5.2889773964
 30
0.0
 10
6.5177438823
 20
5.2891620341
 30
0.0
 10
6.5199806354
 20
5.2893579096
 30
0.0
 10
6.5216516623
 20
5.2895358487
 30
0.0
 10
6.5228280264
 20
5.2896855922
 30
0.0
 10
6.5235870895
 20
5.2897947133
 30
0.0
 10
6.524261434
 20
5.2899054147
 30
0.0
 10
6.524849874
 20
5.2900174175
 30
0.0
 10
6.5253513215
 20
5.290130421
 30
0.0
 10
6.5256545651
 20
5.2902135639
 30
0.0
 10
6.5257908351
 20
5.2902565445
 30
0.0
  0
SPLINE
  5
4DD
100
AcDbEntity
  8
0
100
AcDbSpline
 62
7
  6
CONTINUOUS
 70
0
 71
3
 72
39
 73
35
 74
0
 42
0.0000001
 43
0.0000001
 44
0.0000000001
 40
0.0
 40
0.0
 40
0.0
 40
0.0
 40
0.0045496781
 40
0.0100050203
 40
0.0163639212
 40
0.0236195931
 40
0.0317625303
 40
0.0407803624
 40
0.0613771447
 40
0.0852651847
 40
0.1122706235
 40
0.1421937946
 40
0.1748115668
 40
0.2098796401
 40
0.2471346827
 40
0.3270695038
 40
0.412212446
 40
0.5
 40
0.587787554
 40
0.6729304962
 40
0.7528653173
 40
0.7901203599
 40
0.8251884332
 40
0.8578062054
 40
0.8877293765
 40
0.9147348153
 40
0.9386228553
 40
0.9592196376
 40
0.9682374697
 40
0.9763804069
 40
0.9836360788
 40
0.9899949797
 40
0.9954503219
 40
1.0
 40
1.0
 40
1.0
 40
1.0
 10
6.3401882668
 20
5.3671356455
 30
0.0
 10
6.3402542324
 20
5.3670088962
 30
0.0
 10
6.3404098671
 20
5.3667356796
 30
0.0
 10
6.3406845385
 20
5.3663011972
 30
0.0
 10
6.3410214304
 20
5.3658059093
 30
0.0
 10
6.3414199864
 20
5.365250798
 30
0.0
 10
6.3418795647
 20
5.3646368991
 30
0.0
 10
6.3426054951
 20
5.3636991994
 30
0.0
 10
6.3436612676
 20
5.362391783
 30
0.0
 10
6.3451043861
 20
5.3606716549
 30
0.0
 10
6.3467638571
 20
5.3587510666
 30
0.0
 10
6.348627232
 20
5.3566446117
 30
0.0
 10
6.350680552
 20
5.3543683172
 30
0.0
 10
6.3529083289
 20
5.3519394481
 30
0.0
 10
6.3561662185
 20
5.3484391157
 30
0.0
 10
6.3605416841
 20
5.3438307668
 30
0.0
 10
6.3660727259
 20
5.3381318844
 30
0.0
 10
6.3718343704
 20
5.3323137116
 30
0.0
 10
6.3776525432
 20
5.3265520672
 30
0.0
 10
6.3833514256
 20
5.3210210254
 30
0.0
 10
6.3879597745
 20
5.3166455598
 30
0.0
 10
6.3914601068
 20
5.3133876701
 30
0.0
 10
6.3938889759
 20
5.3111598932
 30
0.0
 10
6.3961652705
 20
5.3091065733
 30
0.0
 10
6.3982717254
 20
5.3072431984
 30
0.0
 10
6.4001923136
 20
5.3055837273
 30
0.0
 10
6.4019124418
 20
5.3041406088
 30
0.0
 10
6.4032198582
 20
5.3030848364
 30
0.0
 10
6.4041575578
 20
5.3023589059
 30
0.0
 10
6.4047714568
 20
5.3018993276
 30
0.0
 10
6.4053265681
 20
5.3015007717
 30
0.0
 10
6.405821856
 20
5.3011638798
 30
0.0
 10
6.4062563383
 20
5.3008892084
 30
0.0
 10
6.4065295549
 20
5.3007335737
 30
0.0
 10
6.4066563042
 20
5.3006676081
 30
0.0
  0
LINE
  5
4DE
100
AcDbEntity
  8
0
100
AcDbLine
 62
7
  6
CONTINUOUS
 10
6.6309737188
 20
5.3132701764
 11
6.631738025
 21
5.3182701764
  0
LINE
  5
4DF
100
AcDbEntity
  8
0
100
AcDbLine
 62
7
  6
CONTINUOUS
 10
6.6293500976
 20
5.3040201764
 11
6.6294662312
 21
5.304546583
  0
LINE
  5
4E0
100
AcDbEntity
  8
0
100
AcDbLine
 62
7
  6
CONTINUOUS
 10
6.6294662312
 20
5.304546583
 11
6.6302615985
 21
5.3090201764
  0
LINE
  5
4E1
100
AcDbEntity
  8
0
100
AcDbLine
 62
7
  6
CONTINUOUS
 10
6.6411413353
 20
5.4279292648
 11
6.640793656
 21
5.4384751687
  0
LINE
  5
4E2
100
AcDbEntity
  8
0
100
AcDbLine
 62
7
  6
CONTINUOUS
 10
6.640793656
 20
5.4384751687
 11
6.6407428854
 21
5.4403093949
  0
LINE
  5
4E3
100
AcDbEntity
  8
0
100
AcDbLine
 62
7
  6
CONTINUOUS
 10
6.6407428854
 20
5.4403093949
 11
6.6407163719
 21
5.4412834698
  0
LINE
  5
4E4
100
AcDbEntity
  8
0
100
AcDbLine
 62
7
  6
CONTINUOUS
 10
6.6407163719
 20
5.4412834698
 11
6.6406888317
 21
5.4423036272
  0
LINE
  5
4E5
100
AcDbEntity
  8
0
100
AcDbLine
 62
7
  6
CONTINUOUS
 10
6.6406888317
 20
5.4423036272
 11
6.639818748
 21
5.4759764527
  0
LINE
  5
4E6
100
AcDbEntity
  8
0
100
AcDbLine
 62
7
  6
CONTINUOUS
 10
6.639818748
 20
5.4759764527
 11
6.6397933208
 21
5.4770056389
  0
LINE
  5
4E7
100
AcDbEntity
  8
0
100
AcDbLine
 62
7
  6
CONTINUOUS
 10
6.6397933208
 20
5.4770056389
 11
6.6395200861
 21
5.4908297919
  0
LINE
  5
4E8
100
AcDbEntity
  8
0
100
AcDbLine
 62
7
  6
CONTINUOUS
 10
6.6396100929
 20
5.4015242183
 11
6.6396618179
 21
5.4023768619
  0
SPLINE
  5
4E9
100
AcDbEntity
  8
0
100
AcDbSpline
 62
7
  6
CONTINUOUS
 70
0
 71
3
 72
28
 73
24
 74
0
 42
0.0000001
 43
0.0000001
 44
0.0000000001
 40
0.0
 40
0.0
 40
0.0
 40
0.0
 40
0.2085070284
 40
0.3072242781
 40
0.4014107474
 40
0.4904685257
 40
0.5738340801
 40
0.6509759854
 40
0.7214035305
 40
0.7846681796
 40
0.8403643209
 40
0.8881388091
 40
0.9089591507
 40
0.927689645
 40
0.9443015811
 40
0.9587695121
 40
0.9710716109
 40
0.9811913697
 40
0.9891171003
 40
0.9948475474
 40
0.9984045805
 40
0.9994082991
 40
1.0
 40
1.0
 40
1.0
 40
1.0
 10
6.6396618179
 20
5.4023768619
 30
0.0
 10
6.6397251719
 20
5.4034141514
 30
0.0
 10
6.639820809
 20
5.4049424058
 30
0.0
 10
6.6399511088
 20
5.4069388352
 30
0.0
 10
6.6400453286
 20
5.4083410019
 30
0.0
 10
6.6401372358
 20
5.4096666339
 30
0.0
 10
6.6402262419
 20
5.4109073078
 30
0.0
 10
6.6403117762
 20
5.4120551329
 30
0.0
 10
6.6403932847
 20
5.4131027899
 30
0.0
 10
6.640470226
 20
5.4140435848
 30
0.0
 10
6.6405420972
 20
5.4148715022
 30
0.0
 10
6.6405996755
 20
5.415488308
 30
0.0
 10
6.6406432505
 20
5.4159213625
 30
0.0
 10
6.6406728661
 20
5.4161997142
 30
0.0
 10
6.6407008834
 20
5.4164463932
 30
0.0
 10
6.6407272438
 20
5.4166609988
 30
0.0
 10
6.6407518921
 20
5.4168432261
 30
0.0
 10
6.6407747226
 20
5.4169927093
 30
0.0
 10
6.6407956811
 20
5.4171094944
 30
0.0
 10
6.6408143876
 20
5.4171929616
 30
0.0
 10
6.6408299283
 20
5.4172425119
 30
0.0
 10
6.640842071
 20
5.4172648353
 30
0.0
 10
6.6408492418
 20
5.4172701766
 30
0.0
 10
6.6408521909
 20
5.4172701762
 30
0.0
  0
LINE
  5
4EA
100
AcDbEntity
  8
0
100
AcDbLine
 62
7
  6
CONTINUOUS
 10
6.6257139298
 20
5.3686001871
 11
6.6254361565
 21
5.3692361507
  0
LINE
  5
4EB
100
AcDbEntity
  8
0
100
AcDbLine
 62
7
  6
CONTINUOUS
 10
6.6253089503
 20
5.3751621646
 11
6.625626745
 21
5.3771148503
  0
LINE
  5
4EC
100
AcDbEntity
  8
0
100
AcDbLine
 62
7
  6
CONTINUOUS
 10
6.6226251179
 20
5.3704795822
 11
6.6228549227
 21
5.3717813726
  0
SPLINE
  5
4ED
100
AcDbEntity
  8
0
100
AcDbSpline
 62
7
  6
CONTINUOUS
 70
0
 71
3
 72
14
 73
10
 74
0
 42
0.0000001
 43
0.0000001
 44
0.0000000001
 40
0.0
 40
0.0
 40
0.0
 40
0.0
 40
0.3052079719
 40
0.4492428913
 40
0.5844648012
 40
0.7087878923
 40
0.8204098326
 40
0.9178744099
 40
1.0
 40
1.0
 40
1.0
 40
1.0
 10
6.625740089
 20
5.4955444074
 30
0.0
 10
6.6256987311
 20
5.4960181014
 30
0.0
 10
6.625620508
 20
5.4967140629
 30
0.0
 10
6.6254803546
 20
5.4976138728
 30
0.0
 10
6.625364309
 20
5.4982319492
 30
0.0
 10
6.6252374411
 20
5.4987962542
 30
0.0
 10
6.625102058
 20
5.4992979538
 30
0.0
 10
6.62496053
 20
5.4997292312
 30
0.0
 10
6.6248545156
 20
5.499988644
 30
0.0
 10
6.6247994063
 20
5.5001041141
 30
0.0
  0
LINE
  5
4EE
100
AcDbEntity
  8
0
100
AcDbLine
 62
7
  6
CONTINUOUS
 10
6.6254958968
 20
5.5200657883
 11
6.6256413704
 21
5.5225082288
  0
SPLINE
  5
4EF
100
AcDbEntity
  8
0
100
AcDbSpline
 62
7
  6
CONTINUOUS
 70
0
 71
3
 72
19
 73
15
 74
0
 42
0.0000001
 43
0.0000001
 44
0.0000000001
 40
0.0
 40
0.0
 40
0.0
 40
0.0
 40
0.2034388962
 40
0.3884812211
 40
0.5517430031
 40
0.6905954848
 40
0.7503120409
 40
0.8033917221
 40
0.8498489398
 40
0.8898434525
 40
0.9237763048
 40
0.9524107554
 40
0.9771125821
 40
1.0
 40
1.0
 40
1.0
 40
1.0
 10
6.6201984105
 20
5.5237999586
 30
0.0
 10
6.6201949103
 20
5.5241650072
 30
0.0
 10
6.6201997471
 20
5.5248622867
 30
0.0
 10
6.6202462672
 20
5.5258516166
 30
0.0
 10
6.620330492
 20
5.526722114
 30
0.0
 10
6.6204343583
 20
5.5273638393
 30
0.0
 10
6.6205388164
 20
5.5278033734
 30
0.0
 10
6.6206211529
 20
5.5280772438
 30
0.0
 10
6.6207109446
 20
5.5283112915
 30
0.0
 10
6.620807892
 20
5.5285048509
 30
0.0
 10
6.6209117906
 20
5.5286576465
 30
0.0
 10
6.6210232383
 20
5.5287694562
 30
0.0
 10
6.6211433789
 20
5.5288390315
 30
0.0
 10
6.6212294961
 20
5.5288546103
 30
0.0
 10
6.621270567
 20
5.5288546081
 30
0.0
  0
LINE
  5
4F0
100
AcDbEntity
  8
0
100
AcDbLine
 62
7
  6
CONTINUOUS
 10
6.6219688978
 20
5.5057914188
 11
6.6214097687
 21
5.5063480383
  0
SPLINE
  5
4F1
100
AcDbEntity
  8
0
100
AcDbSpline
 62
7
  6
CONTINUOUS
 70
0
 71
3
 72
17
 73
13
 74
0
 42
0.0000001
 43
0.0000001
 44
0.0000000001
 40
0.0
 40
0.0
 40
0.0
 40
0.0
 40
0.2085326566
 40
0.3929224179
 40
0.5521124756
 40
0.6857975058
 40
0.7943170425
 40
0.879199117
 40
0.9139799869
 40
0.9447448292
 40
0.9728360815
 40
1.0
 40
1.0
 40
1.0
 40
1.0
 10
6.6258968608
 20
5.3372037779
 30
0.0
 10
6.6258916467
 20
5.3372934952
 30
0.0
 10
6.6258791335
 20
5.3374624085
 30
0.0
 10
6.6258516837
 20
5.3376988484
 30
0.0
 10
6.6258169034
 20
5.3379016829
 30
0.0
 10
6.6257751657
 20
5.3380698288
 30
0.0
 10
6.6257268275
 20
5.3382024968
 30
0.0
 10
6.6256782001
 20
5.3382890918
 30
0.0
 10
6.6256344974
 20
5.3383373655
 30
0.0
 10
6.6256020326
 20
5.3383618461
 30
0.0
 10
6.6255676587
 20
5.3383767525
 30
0.0
 10
6.6255437091
 20
5.3383799848
 30
0.0
 10
6.6255320026
 20
5.3383799827
 30
0.0
  0
SPLINE
  5
4F2
100
AcDbEntity
  8
0
100
AcDbSpline
 62
7
  6
CONTINUOUS
 70
0
 71
3
 72
13
 73
9
 74
0
 42
0.0000001
 43
0.0000001
 44
0.0000000001
 40
0.0
 40
0.0
 40
0.0
 40
0.0
 40
0.0932890826
 40
0.2013135391
 40
0.3216485006
 40
0.451497959
 40
0.7269527854
 40
1.0
 40
1.0
 40
1.0
 40
1.0
 10
6.624918392
 20
5.3397566296
 30
0.0
 10
6.6249855593
 20
5.3399459249
 30
0.0
 10
6.6251157178
 20
5.340359669
 30
0.0
 10
6.6252921444
 20
5.3410295192
 30
0.0
 10
6.6254605491
 20
5.3417823277
 30
0.0
 10
6.6256725458
 20
5.342894188
 30
0.0
 10
6.6258849243
 20
5.344339923
 30
0.0
 10
6.6259968805
 20
5.345516269
 30
0.0
 10
6.626034359
 20
5.3461029648
 30
0.0
  0
SPLINE
  5
4F3
100
AcDbEntity
  8
0
100
AcDbSpline
 62
7
  6
CONTINUOUS
 70
0
 71
3
 72
13
 73
9
 74
0
 42
0.0000001
 43
0.0000001
 44
0.0000000001
 40
0.0
 40
0.0
 40
0.0
 40
0.0
 40
0.093265735
 40
0.2012194789
 40
0.3214992274
 40
0.4513369218
 40
0.7268704036
 40
1.0
 40
1.0
 40
1.0
 40
1.0
 10
6.6248576158
 20
5.356341478
 30
0.0
 10
6.6249246198
 20
5.3565302977
 30
0.0
 10
6.6250530559
 20
5.3569434053
 30
0.0
 10
6.6252236421
 20
5.3576128602
 30
0.0
 10
6.6253827415
 20
5.3583656459
 30
0.0
 10
6.6255775879
 20
5.3594781076
 30
0.0
 10
6.6257615857
 20
5.3609248849
 30
0.0
 10
6.6258445201
 20
5.3621014546
 30
0.0
 10
6.6258657722
 20
5.3626878132
 30
0.0
  0
SPLINE
  5
4F4
100
AcDbEntity
  8
0
100
AcDbSpline
 62
7
  6
CONTINUOUS
 70
0
 71
3
 72
13
 73
9
 74
0
 42
0.0000001
 43
0.0000001
 44
0.0000000001
 40
0.0
 40
0.0
 40
0.0
 40
0.0
 40
0.2801094676
 40
0.5513956755
 40
0.6781686862
 40
0.7963393001
 40
0.9041454277
 40
1.0
 40
1.0
 40
1.0
 40
1.0
 10
6.6258151066
 20
5.5289599737
 30
0.0
 10
6.6257609271
 20
5.5295311899
 30
0.0
 10
6.6256284028
 20
5.5306532994
 30
0.0
 10
6.6254047748
 20
5.5320249051
 30
0.0
 10
6.625194698
 20
5.533061395
 30
0.0
 10
6.6250311137
 20
5.5337653335
 30
0.0
 10
6.6248607758
 20
5.5344023174
 30
0.0
 10
6.6247368855
 20
5.5348008687
 30
0.0
 10
6.624673391
 20
5.5349866688
 30
0.0
  0
LINE
  5
4F5
100
AcDbEntity
  8
0
100
AcDbLine
 62
7
  6
CONTINUOUS
 10
6.6211252714
 20
5.5448500796
 11
6.621053142
 21
5.5449560688
  0
SPLINE
  5
4F6
100
AcDbEntity
  8
0
100
AcDbSpline
 62
7
  6
CONTINUOUS
 70
0
 71
3
 72
31
 73
27
 74
0
 42
0.0000001
 43
0.0000001
 44
0.0000000001
 40
0.0
 40
0.0
 40
0.0
 40
0.0
 40
0.0312572816
 40
0.0625165426
 40
0.0937740912
 40
0.1250320281
 40
0.1875286327
 40
0.2500244619
 40
0.2812813768
 40
0.3125380292
 40
0.343794415
 40
0.375050496
 40
0.4375428932
 40
0.5000340096
 40
0.5625237753
 40
0.6250123047
 40
0.656265534
 40
0.6875184949
 40
0.7187712134
 40
0.7500236876
 40
0.8125090954
 40
0.8749938592
 40
0.9062455425
 40
0.9374966581
 40
0.9687493142
 40
1.0
 40
1.0
 40
1.0
 40
1.0
 10
4.8312908351
 20
2.591316933
 30
0.0
 10
4.8275759132
 20
2.591316933
 30
0.0
 10
4.8201445394
 20
2.5914989084
 30
0.0
 10
4.8090253699
 20
2.5923168755
 30
0.0
 10
4.7979589708
 20
2.5936782298
 30
0.0
 10
4.7833140318
 20
2.5962125021
 30
0.0
 10
4.7652665817
 20
2.6007206937
 30
0.0
 10
4.747746968
 20
2.606973123
 30
0.0
 10
4.7341538508
 20
2.6129827671
 30
0.0
 10
4.7241898233
 20
2.6179849204
 30
0.0
 10
4.7144829666
 20
2.6234693256
 30
0.0
 10
4.7019174639
 20
2.6314052008
 30
0.0
 10
4.6869623672
 20
2.6424668886
 30
0.0
 10
4.6704075335
 20
2.6574320612
 30
0.0
 10
4.6553991544
 20
2.673947155
 30
0.0
 10
4.6443001863
 20
2.6888735393
 30
0.0
 10
4.6363350605
 20
2.7014191221
 30
0.0
 10
4.6308293378
 20
2.711112535
 30
0.0
 10
4.6258067435
 20
2.7210647362
 30
0.0
 10
4.6197714821
 20
2.7346440901
 30
0.0
 10
4.6134906693
 20
2.7521504406
 30
0.0
 10
4.6089607512
 20
2.7701892597
 30
0.0
 10
4.606413986
 20
2.7848291226
 30
0.0
 10
4.605045828
 20
2.7958924197
 30
0.0
 10
4.6042237319
 20
2.807008988
 30
0.0
 10
4.6040408351
 20
2.8144388063
 30
0.0
 10
4.6040408351
 20
2.8181529443
 30
0.0
  0
SPLINE
  5
4F7
100
AcDbEntity
  8
0
100
AcDbSpline
 62
7
  6
CONTINUOUS
 70
0
 71
3
 72
31
 73
27
 74
0
 42
0.0000001
 43
0.0000001
 44
0.0000000001
 40
0.0
 40
0.0
 40
0.0
 40
0.0
 40
0.0312506638
 40
0.0625032746
 40
0.09375437
 40
0.1250060382
 40
0.1874907817
 40
0.249976189
 40
0.2812286697
 40
0.3124813981
 40
0.3437343721
 40
0.3749876171
 40
0.4374761841
 40
0.4999659917
 40
0.56245715
 40
0.6249495843
 40
0.6562056811
 40
0.6874620796
 40
0.7187187415
 40
0.7499756624
 40
0.8124714909
 40
0.8749680744
 40
0.9062259964
 40
0.9374835247
 40
0.9687427401
 40
1.0
 40
1.0
 40
1.0
 40
1.0
 10
5.0585408351
 20
2.8181529443
 30
0.0
 10
5.0585408351
 20
2.8144388089
 30
0.0
 10
5.0583579395
 20
2.8070089986
 30
0.0
 10
5.0575358439
 20
2.7958924407
 30
0.0
 10
5.0561676882
 20
2.784829153
 30
0.0
 10
5.0536209277
 20
2.770189296
 30
0.0
 10
5.0490910122
 20
2.7521504806
 30
0.0
 10
5.0428102047
 20
2.7346441301
 30
0.0
 10
5.0367749445
 20
2.7210647736
 30
0.0
 10
5.03175235
 20
2.7111125686
 30
0.0
 10
5.0262466273
 20
2.7014191504
 30
0.0
 10
5.0182814986
 20
2.68887356
 30
0.0
 10
5.0071825251
 20
2.6739471656
 30
0.0
 10
4.9921741367
 20
2.6574320606
 30
0.0
 10
4.9756192919
 20
2.6424668788
 30
0.0
 10
4.9606641849
 20
2.6314051859
 30
0.0
 10
4.9480986748
 20
2.6234693078
 30
0.0
 10
4.9383918129
 20
2.6179849026
 30
0.0
 10
4.9284277816
 20
2.6129827493
 30
0.0
 10
4.914834662
 20
2.6069731064
 30
0.0
 10
4.8973150484
 20
2.6007206826
 30
0.0
 10
4.8792676021
 20
2.5962124935
 30
0.0
 10
4.8646226691
 20
2.5936782259
 30
0.0
 10
4.8535562794
 20
2.5923168739
 30
0.0
 10
4.8424371203
 20
2.5914989073
 30
0.0
 10
4.8350057545
 20
2.591316933
 30
0.0
 10
4.8312908351
 20
2.591316933
 30
0.0
  0
SPLINE
  5
4F8
100
AcDbEntity
  8
0
100
AcDbSpline
 62
7
  6
CONTINUOUS
 70
0
 71
3
 72
25
 73
21
 74
0
 42
0.0000001
 43
0.0000001
 44
0.0000000001
 40
0.0
 40
0.0
 40
0.0
 40
0.0
 40
0.1605906556
 40
0.3296609653
 40
0.4962742846
 40
0.5754082763
 40
0.6501789484
 40
0.7195347821
 40
0.7825433177
 40
0.8384106236
 40
0.8634650814
 40
0.8865096216
 40
0.9074997182
 40
0.9264082002
 40
0.943231168
 40
0.9580057864
 40
0.9708197558
 40
0.9818486913
 40
0.9914067042
 40
1.0
 40
1.0
 40
1.0
 40
1.0
 10
3.0389936667
 20
5.364188216
 30
0.0
 10
3.0389958737
 20
5.3637192375
 30
0.0
 10
3.039031809
 20
5.3627565417
 30
0.0
 10
3.0391605442
 20
5.3613124501
 30
0.0
 10
3.0393275688
 20
5.3601119856
 30
0.0
 10
3.0394944248
 20
5.3591908377
 30
0.0
 10
3.0396296179
 20
5.3585528952
 30
0.0
 10
3.0397747062
 20
5.3579655039
 30
0.0
 10
3.039927361
 20
5.3574372626
 30
0.0
 10
3.0400632943
 20
5.3570392604
 30
0.0
 10
3.0401752978
 20
5.3567569942
 30
0.0
 10
3.0402566546
 20
5.3565722982
 30
0.0
 10
3.0403381195
 20
5.3564074401
 30
0.0
 10
3.0404193908
 20
5.3562629882
 30
0.0
 10
3.0405002063
 20
5.3561394395
 30
0.0
 10
3.040580294
 20
5.3560371672
 30
0.0
 10
3.0406595061
 20
5.3559564624
 30
0.0
 10
3.0407379213
 20
5.3558976102
 30
0.0
 10
3.0408157228
 20
5.3558610366
 30
0.0
 10
3.0408689463
 20
5.3558522193
 30
0.0
 10
3.0408940419
 20
5.3558522233
 30
0.0
  0
LINE
  5
4F9
100
AcDbEntity
  8
0
100
AcDbLine
 62
7
  6
CONTINUOUS
 10
3.0414563988
 20
5.3336902732
 11
3.0415285283
 21
5.333584284
  0
SPLINE
  5
4FA
100
AcDbEntity
  8
0
100
AcDbSpline
 62
7
  6
CONTINUOUS
 70
0
 71
3
 72
13
 73
9
 74
0
 42
0.0000001
 43
0.0000001
 44
0.0000000001
 40
0.0
 40
0.0
 40
0.0
 40
0.0
 40
0.2801094676
 40
0.5513956755
 40
0.6781686862
 40
0.7963393001
 40
0.9041454277
 40
1.0
 40
1.0
 40
1.0
 40
1.0
 10
3.0367665637
 20
5.3495803791
 30
0.0
 10
3.0368207432
 20
5.3490091629
 30
0.0
 10
3.0369532675
 20
5.3478870534
 30
0.0
 10
3.0371768955
 20
5.3465154477
 30
0.0
 10
3.0373869723
 20
5.3454789578
 30
0.0
 10
3.0375505565
 20
5.3447750194
 30
0.0
 10
3.0377208944
 20
5.3441380354
 30
0.0
 10
3.0378447847
 20
5.3437394841
 30
0.0
 10
3.0379082792
 20
5.3435536841
 30
0.0
  0
SPLINE
  5
4FB
100
AcDbEntity
  8
0
100
AcDbSpline
 62
7
  6
CONTINUOUS
 70
0
 71
3
 72
13
 73
9
 74
0
 42
0.0000001
 43
0.0000001
 44
0.0000000001
 40
0.0
 40
0.0
 40
0.0
 40
0.0
 40
0.093265735
 40
0.2012194789
 40
0.3214992274
 40
0.4513369218
 40
0.7268704036
 40
1.0
 40
1.0
 40
1.0
 40
1.0
 10
3.0377240545
 20
5.5221988748
 30
0.0
 10
3.0376570505
 20
5.5220100551
 30
0.0
 10
3.0375286144
 20
5.5215969475
 30
0.0
 10
3.0373580281
 20
5.5209274926
 30
0.0
 10
3.0371989288
 20
5.5201747069
 30
0.0
 10
3.0370040824
 20
5.5190622452
 30
0.0
 10
3.0368200846
 20
5.517615468
 30
0.0
 10
3.0367371502
 20
5.5164388983
 30
0.0
 10
3.0367158981
 20
5.5158525396
 30
0.0
  0
SPLINE
  5
4FC
100
AcDbEntity
  8
0
100
AcDbSpline
 62
7
  6
CONTINUOUS
 70
0
 71
3
 72
13
 73
9
 74
0
 42
0.0000001
 43
0.0000001
 44
0.0000000001
 40
0.0
 40
0.0
 40
0.0
 40
0.0
 40
0.0932890826
 40
0.2013135391
 40
0.3216485006
 40
0.451497959
 40
0.7269527854
 40
1.0
 40
1.0
 40
1.0
 40
1.0
 10
3.0376632783
 20
5.5387837232
 30
0.0
 10
3.0375961109
 20
5.5385944279
 30
0.0
 10
3.0374659525
 20
5.5381806838
 30
0.0
 10
3.0372895259
 20
5.5375108336
 30
0.0
 10
3.0371211212
 20
5.5367580251
 30
0.0
 10
3.0369091245
 20
5.5356461648
 30
0.0
 10
3.036696746
 20
5.5342004298
 30
0.0
 10
3.0365847897
 20
5.5330240838
 30
0.0
 10
3.0365473113
 20
5.532437388
 30
0.0
  0
SPLINE
  5
4FD
100
AcDbEntity
  8
0
100
AcDbSpline
 62
7
  6
CONTINUOUS
 70
0
 71
3
 72
17
 73
13
 74
0
 42
0.0000001
 43
0.0000001
 44
0.0000000001
 40
0.0
 40
0.0
 40
0.0
 40
0.0
 40
0.2085326566
 40
0.3929224179
 40
0.5521124756
 40
0.6857975058
 40
0.7943170425
 40
0.879199117
 40
0.9139799869
 40
0.9447448292
 40
0.9728360815
 40
1.0
 40
1.0
 40
1.0
 40
1.0
 10
3.0366848095
 20
5.5413365749
 30
0.0
 10
3.0366900235
 20
5.5412468576
 30
0.0
 10
3.0367025368
 20
5.5410779443
 30
0.0
 10
3.0367299866
 20
5.5408415044
 30
0.0
 10
3.0367647669
 20
5.5406386699
 30
0.0
 10
3.0368065046
 20
5.540470524
 30
0.0
 10
3.0368548428
 20
5.540337856
 30
0.0
 10
3.0369034702
 20
5.540251261
 30
0.0
 10
3.0369471729
 20
5.5402029873
 30
0.0
 10
3.0369796376
 20
5.5401785068
 30
0.0
 10
3.0370140115
 20
5.5401636004
 30
0.0
 10
3.0370379611
 20
5.540160368
 30
0.0
 10
3.0370496676
 20
5.5401603702
 30
0.0
  0
LINE
  5
4FE
100
AcDbEntity
  8
0
100
AcDbLine
 62
7
  6
CONTINUOUS
 10
3.0406127725
 20
5.372748934
 11
3.0411719016
 21
5.3721923145
  0
SPLINE
  5
4FF
100
AcDbEntity
  8
0
100
AcDbSpline
 62
7
  6
CONTINUOUS
 70
0
 71
3
 72
19
 73
15
 74
0
 42
0.0000001
 43
0.0000001
 44
0.0000000001
 40
0.0
 40
0.0
 40
0.0
 40
0.0
 40
0.2034388962
 40
0.3884812211
 40
0.5517430031
 40
0.6905954848
 40
0.7503120409
 40
0.8033917221
 40
0.8498489398
 40
0.8898434525
 40
0.9237763048
 40
0.9524107554
 40
0.9771125821
 40
1.0
 40
1.0
 40
1.0
 40
1.0
 10
3.0423832597
 20
5.3547403943
 30
0.0
 10
3.0423867599
 20
5.3543753456
 30
0.0
 10
3.0423819232
 20
5.3536780661
 30
0.0
 10
3.042335403
 20
5.3526887362
 30
0.0
 10
3.0422511783
 20
5.3518182388
 30
0.0
 10
3.042147312
 20
5.3511765135
 30
0.0
 10
3.0420428538
 20
5.3507369794
 30
0.0
 10
3.0419605174
 20
5.350463109
 30
0.0
 10
3.0418707257
 20
5.3502290613
 30
0.0
 10
3.0417737783
 20
5.3500355019
 30
0.0
 10
3.0416698796
 20
5.3498827063
 30
0.0
 10
3.041558432
 20
5.3497708967
 30
0.0
 10
3.0414382913
 20
5.3497013213
 30
0.0
 10
3.0413521741
 20
5.3496857425
 30
0.0
 10
3.0413111033
 20
5.3496857447
 30
0.0
  0
LINE
  5
500
100
AcDbEntity
  8
0
100
AcDbLine
 62
7
  6
CONTINUOUS
 10
3.0370857734
 20
5.3584745645
 11
3.0369402999
 21
5.356032124
  0
SPLINE
  5
501
100
AcDbEntity
  8
0
100
AcDbSpline
 62
7
  6
CONTINUOUS
 70
0
 71
3
 72
14
 73
10
 74
0
 42
0.0000001
 43
0.0000001
 44
0.0000000001
 40
0.0
 40
0.0
 40
0.0
 40
0.0
 40
0.3052079719
 40
0.4492428913
 40
0.5844648012
 40
0.7087878923
 40
0.8204098326
 40
0.9178744099
 40
1.0
 40
1.0
 40
1.0
 40
1.0
 10
3.0368415812
 20
5.3829959454
 30
0.0
 10
3.0368829392
 20
5.3825222514
 30
0.0
 10
3.0369611623
 20
5.3818262899
 30
0.0
 10
3.0371013156
 20
5.38092648
 30
0.0
 10
3.0372173613
 20
5.3803084037
 30
0.0
 10
3.0373442291
 20
5.3797440986
 30
0.0
 10
3.0374796123
 20
5.379242399
 30
0.0
 10
3.0376211402
 20
5.3788111216
 30
0.0
 10
3.0377271547
 20
5.3785517089
 30
0.0
 10
3.037782264
 20
5.3784362387
 30
0.0
  0
LINE
  5
502
100
AcDbEntity
  8
0
100
AcDbLine
 62
7
  6
CONTINUOUS
 10
3.0399565524
 20
5.5080607706
 11
3.0397267476
 21
5.5067589802
  0
LINE
  5
503
100
AcDbEntity
  8
0
100
AcDbLine
 62
7
  6
CONTINUOUS
 10
3.03727272
 20
5.5033781882
 11
3.0369549253
 21
5.5014255025
  0
LINE
  5
504
100
AcDbEntity
  8
0
100
AcDbLine
 62
7
  6
CONTINUOUS
 10
3.0368677404
 20
5.5099401658
 11
3.0371455138
 21
5.5093042021
  0
LINE
  5
505
100
AcDbEntity
  8
0
100
AcDbLine
 62
7
  6
CONTINUOUS
 10
3.0384535836
 20
5.598607178
 11
3.0364555005
 21
5.5879752546
  0
LINE
  5
506
100
AcDbEntity
  8
0
100
AcDbLine
 62
7
  6
CONTINUOUS
 10
3.0320902019
 20
5.5640324531
 11
3.0316702074
 21
5.5607701764
  0
LINE
  5
507
100
AcDbEntity
  8
0
100
AcDbLine
 62
7
  6
CONTINUOUS
 10
3.0255786281
 20
5.5205201764
 11
3.0255152223
 21
5.5200034315
  0
LINE
  5
508
100
AcDbEntity
  8
0
100
AcDbLine
 62
7
  6
CONTINUOUS
 10
3.0255152223
 20
5.5200034315
 11
3.0253058799
 21
5.5180201764
  0
LINE
  5
509
100
AcDbEntity
  8
0
100
AcDbLine
 62
7
  6
CONTINUOUS
 10
3.0239215105
 20
5.5030201764
 11
3.0237327018
 21
5.5005201764
  0
LINE
  5
50A
100
AcDbEntity
  8
0
100
AcDbLine
 62
7
  6
CONTINUOUS
 10
3.0272313574
 20
5.3437701764
 11
3.0272373124
 21
5.3442894241
  0
LINE
  5
50B
100
AcDbEntity
  8
0
100
AcDbLine
 62
7
  6
CONTINUOUS
 10
3.0272373124
 20
5.3442894241
 11
3.027213817
 21
5.3447850022
  0
LINE
  5
50C
100
AcDbEntity
  8
0
100
AcDbLine
 62
7
  6
CONTINUOUS
 10
3.027213817
 20
5.3447850022
 11
3.0266227985
 21
5.3529173171
  0
LINE
  5
50D
100
AcDbEntity
  8
0
100
AcDbLine
 62
7
  6
CONTINUOUS
 10
3.0234089322
 20
5.3894068616
 11
3.0225578855
 21
5.397661787
  0
LINE
  5
50E
100
AcDbEntity
  8
0
100
AcDbLine
 62
7
  6
CONTINUOUS
 10
3.0225578855
 20
5.397661787
 11
3.0223961731
 21
5.3987540836
  0
SPLINE
  5
50F
100
AcDbEntity
  8
0
100
AcDbSpline
 62
7
  6
CONTINUOUS
 70
0
 71
3
 72
25
 73
21
 74
0
 42
0.0000001
 43
0.0000001
 44
0.0000000001
 40
0.0
 40
0.0
 40
0.0
 40
0.0
 40
0.1605906556
 40
0.3296609653
 40
0.4962742846
 40
0.5754082763
 40
0.6501789484
 40
0.7195347821
 40
0.7825433177
 40
0.8384106236
 40
0.8634650814
 40
0.8865096216
 40
0.9074997182
 40
0.9264082002
 40
0.943231168
 40
0.9580057864
 40
0.9708197558
 40
0.9818486913
 40
0.9914067042
 40
1.0
 40
1.0
 40
1.0
 40
1.0
 10
6.6235880036
 20
5.5143521368
 30
0.0
 10
6.6235857966
 20
5.5148211154
 30
0.0
 10
6.6235498613
 20
5.5157838111
 30
0.0
 10
6.6234211261
 20
5.5172279027
 30
0.0
 10
6.6232541015
 20
5.5184283672
 30
0.0
 10
6.6230872455
 20
5.5193495151
 30
0.0
 10
6.6229520524
 20
5.5199874576
 30
0.0
 10
6.6228069641
 20
5.5205748489
 30
0.0
 10
6.6226543093
 20
5.5211030902
 30
0.0
 10
6.622518376
 20
5.5215010924
 30
0.0
 10
6.6224063725
 20
5.5217833586
 30
0.0
 10
6.6223250157
 20
5.5219680546
 30
0.0
 10
6.6222435508
 20
5.5221329128
 30
0.0
 10
6.6221622795
 20
5.5222773647
 30
0.0
 10
6.622081464
 20
5.5224009133
 30
0.0
 10
6.6220013763
 20
5.5225031856
 30
0.0
 10
6.6219221642
 20
5.5225838904
 30
0.0
 10
6.6218437489
 20
5.5226427427
 30
0.0
 10
6.6217659475
 20
5.5226793162
 30
0.0
 10
6.621712724
 20
5.5226881335
 30
0.0
 10
6.6216876284
 20
5.5226881295
 30
0.0
  0
LINE
  5
510
100
AcDbEntity
  8
0
100
AcDbLine
 62
7
  6
CONTINUOUS
 10
6.6384953485
 20
5.3735201764
 11
6.6385453904
 21
5.3740853801
  0
LINE
  5
511
100
AcDbEntity
  8
0
100
AcDbLine
 62
7
  6
CONTINUOUS
 10
6.6401436181
 20
5.3972535147
 11
6.6402809359
 21
5.4022701715
  0
SPLINE
  5
512
100
AcDbEntity
  8
0
100
AcDbSpline
 62
7
  6
CONTINUOUS
 70
0
 71
3
 72
19
 73
15
 74
0
 42
0.0000001
 43
0.0000001
 44
0.0000000001
 40
0.0
 40
0.0
 40
0.0
 40
0.0
 40
0.0230686919
 40
0.0479474404
 40
0.0767373765
 40
0.1107837319
 40
0.1508634981
 40
0.1973663637
 40
0.2504618935
 40
0.3101686896
 40
0.4489289467
 40
0.6120086925
 40
0.7968363519
 40
1.0
 40
1.0
 40
1.0
 40
1.0
 10
3.0408940419
 20
5.3558522233
 30
0.0
 10
3.0409207419
 20
5.3558522276
 30
0.0
 10
3.0409766889
 20
5.35586226
 30
0.0
 10
3.0410549368
 20
5.3559069792
 30
0.0
 10
3.0411276746
 20
5.3559789672
 30
0.0
 10
3.0411956983
 20
5.3560773207
 30
0.0
 10
3.041259277
 20
5.3562019557
 30
0.0
 10
3.0413183699
 20
5.3563526385
 30
0.0
 10
3.0413727243
 20
5.3565289666
 30
0.0
 10
3.0414419651
 20
5.3568119091
 30
0.0
 10
3.0415114799
 20
5.3572250713
 30
0.0
 10
3.0415689855
 20
5.3577856497
 30
0.0
 10
3.0416023621
 20
5.3584228128
 30
0.0
 10
3.0416077341
 20
5.3588719631
 30
0.0
 10
3.0416066237
 20
5.3591071048
 30
0.0
  0
SPLINE
  5
513
100
AcDbEntity
  8
0
100
AcDbSpline
 62
7
  6
CONTINUOUS
 70
0
 71
3
 72
15
 73
11
 74
0
 42
0.0000001
 43
0.0000001
 44
0.0000000001
 40
0.0
 40
0.0
 40
0.0
 40
0.0
 40
0.0740515486
 40
0.1543937336
 40
0.247567251
 40
0.3577396128
 40
0.4872485253
 40
0.6373062444
 40
0.8083178826
 40
1.0
 40
1.0
 40
1.0
 40
1.0
 10
3.0411719016
 20
5.3721923145
 30
0.0
 10
3.0412007264
 20
5.3721923109
 30
0.0
 10
3.0412612992
 20
5.3722032691
 30
0.0
 10
3.0413461938
 20
5.37225171
 30
0.0
 10
3.0414257706
 20
5.3723294912
 30
0.0
 10
3.0415007108
 20
5.3724357934
 30
0.0
 10
3.0415713202
 20
5.3725704194
 30
0.0
 10
3.0416374167
 20
5.3727331002
 30
0.0
 10
3.0416986635
 20
5.3729232053
 30
0.0
 10
3.0417340531
 20
5.3730599556
 30
0.0
 10
3.0417511021
 20
5.3731325946
 30
0.0
  0
SPLINE
  5
514
100
AcDbEntity
  8
0
100
AcDbSpline
 62
7
  6
CONTINUOUS
 70
0
 71
3
 72
35
 73
31
 74
0
 42
0.0000001
 43
0.0000001
 44
0.0000000001
 40
0.0
 40
0.0
 40
0.0
 40
0.0
 40
0.0978512231
 40
0.1951988264
 40
0.2890834274
 40
0.3769971103
 40
0.4599213854
 40
0.5399181772
 40
0.6181423625
 40
0.6926127599
 40
0.7275984169
 40
0.7606428103
 40
0.8209127838
 40
0.8484384291
 40
0.8744319645
 40
0.8990520047
 40
0.9221693441
 40
0.9431573058
 40
0.9613337967
 40
0.9760222343
 40
0.9818580862
 40
0.986617142
 40
0.9903959183
 40
0.9933383338
 40
0.9955828403
 40
0.9972572712
 40
0.9984706169
 40
0.999302511
 40
0.9997965884
 40
1.0
 40
1.0
 40
1.0
 40
1.0
 10
4.1389996322
 20
5.150944689
 30
0.0
 10
4.1388516031
 20
5.1507691921
 30
0.0
 10
4.1385372981
 20
5.1504350604
 30
0.0
 10
4.1380403587
 20
5.1499731403
 30
0.0
 10
4.137545977
 20
5.1495434794
 30
0.0
 10
4.1370786828
 20
5.149134309
 30
0.0
 10
4.136629967
 20
5.1487533821
 30
0.0
 10
4.1361832193
 20
5.1484056724
 30
0.0
 10
4.1357322762
 20
5.1480974254
 30
0.0
 10
4.1353599654
 20
5.1478622102
 30
0.0
 10
4.1350751189
 20
5.1476871273
 30
0.0
 10
4.1348185555
 20
5.1475296619
 30
0.0
 10
4.13457684
 20
5.1473814493
 30
0.0
 10
4.1343471928
 20
5.1472452614
 30
0.0
 10
4.134188116
 20
5.1471540925
 30
0.0
 10
4.1340361396
 20
5.1470714045
 30
0.0
 10
4.1338926794
 20
5.1469977561
 30
0.0
 10
4.1337619475
 20
5.1469324512
 30
0.0
 10
4.1336490588
 20
5.1468757056
 30
0.0
 10
4.1335687945
 20
5.1468331632
 30
0.0
 10
4.133517921
 20
5.1468026064
 30
0.0
 10
4.1334901357
 20
5.1467834361
 30
0.0
 10
4.1334692552
 20
5.146766369
 30
0.0
 10
4.1334543184
 20
5.1467514839
 30
0.0
 10
4.1334443412
 20
5.1467388224
 30
0.0
 10
4.1334382329
 20
5.1467283234
 30
0.0
 10
4.1334351722
 20
5.1467202483
 30
0.0
 10
4.1334336977
 20
5.1467141888
 30
0.0
 10
4.1334336338
 20
5.1467110133
 30
0.0
 10
4.1334328579
 20
5.146708964
 30
0.0
 10
4.1334323806
 20
5.1467089682
 30
0.0
  0
SPLINE
  5
515
100
AcDbEntity
  8
0
100
AcDbSpline
 62
7
  6
CONTINUOUS
 70
0
 71
3
 72
31
 73
27
 74
0
 42
0.0000001
 43
0.0000001
 44
0.0000000001
 40
0.0
 40
0.0
 40
0.0
 40
0.0
 40
0.0310153081
 40
0.0620329422
 40
0.0930551858
 40
0.1240842916
 40
0.186152541
 40
0.2482732087
 40
0.2793673117
 40
0.3104796437
 40
0.3416115776
 40
0.3727642974
 40
0.4351167993
 40
0.4975614046
 40
0.5600997659
 40
0.6227299593
 40
0.6540872336
 40
0.6854651441
 40
0.7168624909
 40
0.74827789
 40
0.8111380447
 40
0.8740499823
 40
0.9055296009
 40
0.9370154934
 40
0.9685077277
 40
1.0
 40
1.0
 40
1.0
 40
1.0
 10
4.6040408491
 20
2.8615649887
 30
0.0
 10
4.6040408491
 20
2.8579034435
 30
0.0
 10
4.6042234215
 20
2.850578754
 30
0.0
 10
4.6050443256
 20
2.8396194537
 30
0.0
 10
4.6064104227
 20
2.8287125096
 30
0.0
 10
4.60895386
 20
2.8142767512
 30
0.0
 10
4.6134790187
 20
2.7964865392
 30
0.0
 10
4.6197513835
 20
2.7792266968
 30
0.0
 10
4.6257781109
 20
2.7658379965
 30
0.0
 10
4.6307953801
 20
2.7560221195
 30
0.0
 10
4.6362957417
 20
2.7464605699
 30
0.0
 10
4.6442566347
 20
2.734080092
 30
0.0
 10
4.6553525987
 20
2.7193479166
 30
0.0
 10
4.6703544284
 20
2.7030501809
 30
0.0
 10
4.6869053417
 20
2.6882790534
 30
0.0
 10
4.7018545446
 20
2.6773624064
 30
0.0
 10
4.714417092
 20
2.6695285706
 30
0.0
 10
4.7241259411
 20
2.6641122549
 30
0.0
 10
4.7340929594
 20
2.6591717533
 30
0.0
 10
4.7476948097
 20
2.6532341495
 30
0.0
 10
4.7652263756
 20
2.6470569998
 30
0.0
 10
4.7832808844
 20
2.6426043797
 30
0.0
 10
4.7979339335
 20
2.6401006669
 30
0.0
 10
4.8090084453
 20
2.6387555016
 30
0.0
 10
4.8201360149
 20
2.6379472473
 30
0.0
 10
4.8275729814
 20
2.6377674269
 30
0.0
 10
4.8312908351
 20
2.6377674269
 30
0.0
  0
SPLINE
  5
516
100
AcDbEntity
  8
0
100
AcDbSpline
 62
7
  6
CONTINUOUS
 70
0
 71
3
 72
31
 73
27
 74
0
 42
0.0000001
 43
0.0000001
 44
0.0000000001
 40
0.0
 40
0.0
 40
0.0
 40
0.0
 40
0.0310153095
 40
0.0620329408
 40
0.0930551852
 40
0.1240842926
 40
0.18615254
 40
0.2482732102
 40
0.2793673102
 40
0.3104796435
 40
0.3416115788
 40
0.3727642962
 40
0.4351168002
 40
0.4975614034
 40
0.5600997674
 40
0.6227299589
 40
0.6540872347
 40
0.6854651434
 40
0.7168624899
 40
0.7482778908
 40
0.8111380433
 40
0.8740499837
 40
0.9055295994
 40
0.9370154928
 40
0.9685077284
 40
1.0
 40
1.0
 40
1.0
 40
1.0
 10
4.6040408492
 20
2.8181529443
 30
0.0
 10
4.6040408492
 20
2.8144913989
 30
0.0
 10
4.6042234214
 20
2.8071667096
 30
0.0
 10
4.6050443256
 20
2.7962074093
 30
0.0
 10
4.6064104228
 20
2.7853004653
 30
0.0
 10
4.6089538599
 20
2.7708647069
 30
0.0
 10
4.6134790187
 20
2.7530744946
 30
0.0
 10
4.6197513834
 20
2.7358146525
 30
0.0
 10
4.6257781108
 20
2.7224259521
 30
0.0
 10
4.6307953802
 20
2.7126100752
 30
0.0
 10
4.6362957416
 20
2.7030485255
 30
0.0
 10
4.6442566348
 20
2.6906680475
 30
0.0
 10
4.6553525986
 20
2.6759358723
 30
0.0
 10
4.6703544285
 20
2.6596381364
 30
0.0
 10
4.6869053417
 20
2.6448670089
 30
0.0
 10
4.7018545449
 20
2.633950362
 30
0.0
 10
4.7144170919
 20
2.6261165261
 30
0.0
 10
4.724125941
 20
2.6207002106
 30
0.0
 10
4.7340929593
 20
2.6157597089
 30
0.0
 10
4.7476948096
 20
2.6098221052
 30
0.0
 10
4.7652263757
 20
2.6036449553
 30
0.0
 10
4.7832808842
 20
2.5991923352
 30
0.0
 10
4.7979339334
 20
2.5966886224
 30
0.0
 10
4.8090084451
 20
2.5953434573
 30
0.0
 10
4.8201360149
 20
2.5945352028
 30
0.0
 10
4.8275729814
 20
2.5943553824
 30
0.0
 10
4.8312908351
 20
2.5943553824
 30
0.0
  0
SPLINE
  5
517
100
AcDbEntity
  8
0
100
AcDbSpline
 62
7
  6
CONTINUOUS
 70
0
 71
3
 72
31
 73
27
 74
0
 42
0.0000001
 43
0.0000001
 44
0.0000000001
 40
0.0
 40
0.0
 40
0.0
 40
0.0
 40
0.0310153081
 40
0.0620329422
 40
0.0930551858
 40
0.1240842916
 40
0.186152541
 40
0.2482732087
 40
0.2793673117
 40
0.3104796437
 40
0.3416115776
 40
0.3727642974
 40
0.4351167993
 40
0.4975614046
 40
0.5600997659
 40
0.6227299593
 40
0.6540872336
 40
0.6854651441
 40
0.7168624909
 40
0.74827789
 40
0.8111380447
 40
0.8740499823
 40
0.9055296009
 40
0.9370154934
 40
0.9685077277
 40
1.0
 40
1.0
 40
1.0
 40
1.0
 10
5.0585408211
 20
2.8615649887
 30
0.0
 10
5.0585408211
 20
2.8579034435
 30
0.0
 10
5.0583582487
 20
2.850578754
 30
0.0
 10
5.0575373447
 20
2.8396194537
 30
0.0
 10
5.0561712475
 20
2.8287125096
 30
0.0
 10
5.0536278103
 20
2.8142767512
 30
0.0
 10
5.0491026516
 20
2.7964865392
 30
0.0
 10
5.0428302868
 20
2.7792266968
 30
0.0
 10
5.0368035594
 20
2.7658379965
 30
0.0
 10
5.0317862902
 20
2.7560221195
 30
0.0
 10
5.0262859286
 20
2.7464605699
 30
0.0
 10
5.0183250356
 20
2.734080092
 30
0.0
 10
5.0072290715
 20
2.7193479166
 30
0.0
 10
4.9922272419
 20
2.7030501809
 30
0.0
 10
4.9756763286
 20
2.6882790534
 30
0.0
 10
4.9607271256
 20
2.6773624064
 30
0.0
 10
4.9481645783
 20
2.6695285706
 30
0.0
 10
4.9384557292
 20
2.6641122549
 30
0.0
 10
4.9284887109
 20
2.6591717533
 30
0.0
 10
4.9148868605
 20
2.6532341495
 30
0.0
 10
4.8973552946
 20
2.6470569998
 30
0.0
 10
4.8793007859
 20
2.6426043797
 30
0.0
 10
4.8646477368
 20
2.6401006669
 30
0.0
 10
4.853573225
 20
2.6387555016
 30
0.0
 10
4.8424456554
 20
2.6379472473
 30
0.0
 10
4.8350086889
 20
2.6377674269
 30
0.0
 10
4.8312908351
 20
2.6377674269
 30
0.0
  0
SPLINE
  5
518
100
AcDbEntity
  8
0
100
AcDbSpline
 62
7
  6
CONTINUOUS
 70
0
 71
3
 72
27
 73
23
 74
0
 42
0.0000001
 43
0.0000001
 44
0.0000000001
 40
0.0
 40
0.0
 40
0.0
 40
0.0
 40
0.0084549378
 40
0.0179870344
 40
0.0291438881
 40
0.0422449695
 40
0.0574593435
 40
0.0748623944
 40
0.094475856
 40
0.1162801018
 40
0.1662618281
 40
0.2242500876
 40
0.2894514555
 40
0.3608966627
 40
0.4374648849
 40
0.5178991547
 40
0.6008245244
 40
0.6847709314
 40
0.768204622
 40
0.8495647522
 40
0.9273191892
 40
1.0
 40
1.0
 40
1.0
 40
1.0
 10
3.0413111033
 20
5.3496857447
 30
0.0
 10
3.0412696935
 20
5.349685747
 30
0.0
 10
3.041181234
 20
5.349701661
 30
0.0
 10
3.0410526951
 20
5.3497667783
 30
0.0
 10
3.0409230876
 20
5.3498710564
 30
0.0
 10
3.0407919356
 20
5.3500137799
 30
0.0
 10
3.0406591544
 20
5.3501944859
 30
0.0
 10
3.0405250691
 20
5.3504125986
 30
0.0
 10
3.0403901905
 20
5.3506673381
 30
0.0
 10
3.040201315
 20
5.3510733583
 30
0.0
 10
3.0399710647
 20
5.3516664544
 30
0.0
 10
3.0397111986
 20
5.3524741408
 30
0.0
 10
3.0394615016
 20
5.3533944237
 30
0.0
 10
3.039226506
 20
5.3544121153
 30
0.0
 10
3.0390106418
 20
5.3555101471
 30
0.0
 10
3.0388180381
 20
5.3566695101
 30
0.0
 10
3.0386524954
 20
5.3578695243
 30
0.0
 10
3.0385173645
 20
5.3590881215
 30
0.0
 10
3.0384154595
 20
5.360302256
 30
0.0
 10
3.0383489129
 20
5.361488487
 30
0.0
 10
3.038319133
 20
5.3626235308
 30
0.0
 10
3.0383243336
 20
5.3633604938
 30
0.0
 10
3.038334092
 20
5.3637163291
 30
0.0
  0
SPLINE
  5
519
100
AcDbEntity
  8
0
100
AcDbSpline
 62
7
  6
CONTINUOUS
 70
0
 71
3
 72
31
 73
27
 74
0
 42
0.0000001
 43
0.0000001
 44
0.0000000001
 40
0.0
 40
0.0
 40
0.0
 40
0.0
 40
0.0310153095
 40
0.0620329408
 40
0.0930551852
 40
0.1240842926
 40
0.18615254
 40
0.2482732102
 40
0.2793673102
 40
0.3104796435
 40
0.3416115788
 40
0.3727642962
 40
0.4351168002
 40
0.4975614034
 40
0.5600997674
 40
0.6227299589
 40
0.6540872347
 40
0.6854651434
 40
0.7168624899
 40
0.7482778908
 40
0.8111380433
 40
0.8740499837
 40
0.9055295994
 40
0.9370154928
 40
0.9685077284
 40
1.0
 40
1.0
 40
1.0
 40
1.0
 10
5.0585408211
 20
2.8181529443
 30
0.0
 10
5.0585408211
 20
2.8144913989
 30
0.0
 10
5.0583582488
 20
2.8071667096
 30
0.0
 10
5.0575373447
 20
2.7962074093
 30
0.0
 10
5.0561712475
 20
2.7853004653
 30
0.0
 10
5.0536278104
 20
2.7708647069
 30
0.0
 10
5.0491026515
 20
2.7530744946
 30
0.0
 10
5.0428302869
 20
2.7358146525
 30
0.0
 10
5.0368035595
 20
2.7224259521
 30
0.0
 10
5.0317862901
 20
2.7126100752
 30
0.0
 10
5.0262859287
 20
2.7030485255
 30
0.0
 10
5.0183250355
 20
2.6906680475
 30
0.0
 10
5.0072290716
 20
2.6759358723
 30
0.0
 10
4.9922272418
 20
2.6596381364
 30
0.0
 10
4.9756763286
 20
2.6448670089
 30
0.0
 10
4.9607271253
 20
2.633950362
 30
0.0
 10
4.9481645783
 20
2.6261165261
 30
0.0
 10
4.9384557292
 20
2.6207002106
 30
0.0
 10
4.928488711
 20
2.6157597089
 30
0.0
 10
4.9148868607
 20
2.6098221052
 30
0.0
 10
4.8973552946
 20
2.6036449553
 30
0.0
 10
4.8793007861
 20
2.5991923352
 30
0.0
 10
4.8646477369
 20
2.5966886224
 30
0.0
 10
4.8535732251
 20
2.5953434573
 30
0.0
 10
4.8424456554
 20
2.5945352028
 30
0.0
 10
4.8350086888
 20
2.5943553824
 30
0.0
 10
4.8312908351
 20
2.5943553824
 30
0.0
  0
SPLINE
  5
51A
100
AcDbEntity
  8
0
100
AcDbSpline
 62
7
  6
CONTINUOUS
 70
0
 71
3
 72
29
 73
25
 74
0
 42
0.0000001
 43
0.0000001
 44
0.0000000001
 40
0.0
 40
0.0
 40
0.0
 40
0.0
 40
0.063536123
 40
0.1267684449
 40
0.1896790511
 40
0.2522613336
 40
0.3145276597
 40
0.3455586333
 40
0.3765277384
 40
0.4074444693
 40
0.438320041
 40
0.469167246
 40
0.5
 40
0.530832754
 40
0.5616799591
 40
0.5925555308
 40
0.6234722617
 40
0.6544413667
 40
0.6854723403
 40
0.7477386664
 40
0.8103209489
 40
0.8732315551
 40
0.936463877
 40
1.0
 40
1.0
 40
1.0
 40
1.0
 10
5.7312908351
 20
5.4392701764
 30
0.0
 10
5.7277862921
 20
5.4332001299
 30
0.0
 10
5.7210217396
 20
5.4209552485
 30
0.0
 10
5.7117142428
 20
5.4022061663
 30
0.0
 10
5.7034125165
 20
5.3831019504
 30
0.0
 10
5.6962775077
 20
5.3636429382
 30
0.0
 10
5.6914400028
 20
5.3471247761
 30
0.0
 10
5.6883262531
 20
5.3337714905
 30
0.0
 10
5.6863879822
 20
5.3237033212
 30
0.0
 10
5.6848613714
 20
5.3135818135
 30
0.0
 10
5.6837602839
 20
5.303418557
 30
0.0
 10
5.6830952299
 20
5.2932266618
 30
0.0
 10
5.6828727778
 20
5.2830201764
 30
0.0
 10
5.6830952299
 20
5.272813691
 30
0.0
 10
5.6837602839
 20
5.2626217958
 30
0.0
 10
5.6848613714
 20
5.2524585393
 30
0.0
 10
5.6863879822
 20
5.2423370316
 30
0.0
 10
5.6883262531
 20
5.2322688623
 30
0.0
 10
5.6914400028
 20
5.2189155767
 30
0.0
 10
5.6962775077
 20
5.2023974146
 30
0.0
 10
5.7034125165
 20
5.1829384024
 30
0.0
 10
5.7117142428
 20
5.1638341865
 30
0.0
 10
5.7210217396
 20
5.1450851044
 30
0.0
 10
5.7277862921
 20
5.1328402229
 30
0.0
 10
5.7312908351
 20
5.1267701764
 30
0.0
  0
SPLINE
  5
51B
100
AcDbEntity
  8
0
100
AcDbSpline
 62
7
  6
CONTINUOUS
 70
0
 71
3
 72
13
 73
9
 74
0
 42
0.0000001
 43
0.0000001
 44
0.0000000001
 40
0.0
 40
0.0
 40
0.0
 40
0.0
 40
0.3133789755
 40
0.5948433748
 40
0.7182472643
 40
0.8277304661
 40
0.9219716
 40
1.0
 40
1.0
 40
1.0
 40
1.0
 10
6.6202906597
 20
5.3601715387
 30
0.0
 10
6.6203248624
 20
5.3604260777
 30
0.0
 10
6.6204024344
 20
5.3609076267
 30
0.0
 10
6.6205302478
 20
5.3614827542
 30
0.0
 10
6.620646726
 20
5.3618879997
 30
0.0
 10
6.6207333442
 20
5.3621418774
 30
0.0
 10
6.6208215742
 20
5.3623554221
 30
0.0
 10
6.6208866756
 20
5.3624810978
 30
0.0
 10
6.620920171
 20
5.362535571
 30
0.0
  0
SPLINE
  5
51C
100
AcDbEntity
  8
0
100
AcDbSpline
 62
7
  6
CONTINUOUS
 70
0
 71
3
 72
27
 73
23
 74
0
 42
0.0000001
 43
0.0000001
 44
0.0000000001
 40
0.0
 40
0.0
 40
0.0
 40
0.0
 40
0.0320816579
 40
0.0639813068
 40
0.0957143878
 40
0.1273003321
 40
0.1900838742
 40
0.2524733505
 40
0.3145767916
 40
0.3764844858
 40
0.4382710713
 40
0.5000000002
 40
0.5617289291
 40
0.6235155146
 40
0.6854232088
 40
0.7475266499
 40
0.8099161263
 40
0.8726996688
 40
0.9042856133
 40
0.9360186943
 40
0.9679183424
 40
1.0
 40
1.0
 40
1.0
 40
1.0
 10
5.8312908351
 20
5.1267701764
 30
0.0
 10
5.8332857536
 20
5.1296756197
 30
0.0
 10
5.8371224149
 20
5.1355688348
 30
0.0
 10
5.8424341067
 20
5.1446476287
 30
0.0
 10
5.8472964049
 20
5.153913531
 30
0.0
 10
5.8531838964
 20
5.1664575456
 30
0.0
 10
5.8594961527
 20
5.1825030734
 30
0.0
 10
5.8654991004
 20
5.2022013101
 30
0.0
 10
5.8700298522
 20
5.2221885283
 30
0.0
 10
5.8731871409
 20
5.2423687119
 30
0.0
 10
5.8750486456
 20
5.2626666798
 30
0.0
 10
5.8756635761
 20
5.2830201765
 30
0.0
 10
5.8750486456
 20
5.3033736731
 30
0.0
 10
5.8731871408
 20
5.3236716411
 30
0.0
 10
5.8700298521
 20
5.3438518247
 30
0.0
 10
5.8654991003
 20
5.3638390428
 30
0.0
 10
5.8594961527
 20
5.3835372797
 30
0.0
 10
5.8531838963
 20
5.3995828075
 30
0.0
 10
5.8472964048
 20
5.4121268221
 30
0.0
 10
5.8424341066
 20
5.4213927243
 30
0.0
 10
5.8371224148
 20
5.4304715182
 30
0.0
 10
5.8332857535
 20
5.4363647332
 30
0.0
 10
5.8312908351
 20
5.4392701764
 30
0.0
  0
SPLINE
  5
51D
100
AcDbEntity
  8
0
100
AcDbSpline
 62
7
  6
CONTINUOUS
 70
0
 71
3
 72
33
 73
29
 74
0
 42
0.0000001
 43
0.0000001
 44
0.0000000001
 40
0.0
 40
0.0
 40
0.0
 40
0.0
 40
0.1935289293
 40
0.2855282452
 40
0.374801188
 40
0.4615157781
 40
0.5451278286
 40
0.6248931995
 40
0.6999741503
 40
0.7688927162
 40
0.8004126038
 40
0.8296293093
 40
0.8562850168
 40
0.8801695567
 40
0.9013978678
 40
0.9202233552
 40
0.9368971816
 40
0.9516717155
 40
0.9648076038
 40
0.9764310119
 40
0.9815773615
 40
0.9862077195
 40
0.9902666697
 40
0.9936979563
 40
0.9964446077
 40
0.9984490527
 40
0.9996532812
 40
1.0
 40
1.0
 40
1.0
 40
1.0
 10
4.1231322903
 20
5.1514931083
 30
0.0
 10
4.1234552013
 20
5.1511158819
 30
0.0
 10
4.1239473396
 20
5.1505721719
 30
0.0
 10
4.1246332992
 20
5.1498978566
 30
0.0
 10
4.1251443469
 20
5.1494374379
 30
0.0
 10
4.1256600734
 20
5.1490155353
 30
0.0
 10
4.1261734061
 20
5.1486302291
 30
0.0
 10
4.1266760476
 20
5.1482811484
 30
0.0
 10
4.1271583599
 20
5.1479695251
 30
0.0
 10
4.1275424815
 20
5.1477343994
 30
0.0
 10
4.1278274367
 20
5.1475627311
 30
0.0
 10
4.1280194998
 20
5.147447008
 30
0.0
 10
4.1281942335
 20
5.1473404818
 30
0.0
 10
4.1283500947
 20
5.1472424045
 30
0.0
 10
4.1284877825
 20
5.1471532039
 30
0.0
 10
4.1286093718
 20
5.1470731941
 30
0.0
 10
4.1287171937
 20
5.1470023857
 30
0.0
 10
4.1288136007
 20
5.1469407951
 30
0.0
 10
4.1289006604
 20
5.146888689
 30
0.0
 10
4.128968375
 20
5.1468525105
 30
0.0
 10
4.1290175585
 20
5.1468281373
 30
0.0
 10
4.1290496969
 20
5.1468129402
 30
0.0
 10
4.1290778768
 20
5.1468001413
 30
0.0
 10
4.1291023755
 20
5.1467895194
 30
0.0
 10
4.1291205993
 20
5.1467816947
 30
0.0
 10
4.1291373423
 20
5.1467751279
 30
0.0
 10
4.1291412548
 20
5.1467730208
 30
0.0
 10
4.1291493047
 20
5.1467701879
 30
0.0
 10
4.1291484151
 20
5.1467701764
 30
0.0
  0
SPLINE
  5
51E
100
AcDbEntity
  8
0
100
AcDbSpline
 62
7
  6
CONTINUOUS
 70
0
 71
3
 72
9
 73
5
 74
0
 42
0.0000001
 43
0.0000001
 44
0.0000000001
 40
0.0
 40
0.0
 40
0.0
 40
0.0
 40
0.2467611433
 40
1.0
 40
1.0
 40
1.0
 40
1.0
 10
3.0377345106
 20
5.3731506951
 30
0.0
 10
3.0377379003
 20
5.3731506948
 30
0.0
 10
3.0377516355
 20
5.3731503304
 30
0.0
 10
3.0377653245
 20
5.3731485094
 30
0.0
 10
3.0377754562
 20
5.3731464096
 30
0.0
  0
LINE
  5
51F
100
AcDbEntity
  8
0
100
AcDbLine
 62
7
  6
CONTINUOUS
 10
3.0377754562
 20
5.3731464096
 11
3.0382374251
 21
5.3725940774
  0
LINE
  5
520
100
AcDbEntity
  8
0
100
AcDbLine
 62
7
  6
CONTINUOUS
 10
6.6238521124
 20
5.5069689704
 11
6.6237476409
 21
5.507637553
  0
LINE
  5
521
100
AcDbEntity
  8
0
100
AcDbLine
 62
7
  6
CONTINUOUS
 10
6.6237512508
 20
5.5088094364
 11
6.6237896956
 21
5.509075021
  0
SPLINE
  5
522
100
AcDbEntity
  8
0
100
AcDbSpline
 62
7
  6
CONTINUOUS
 70
0
 71
3
 72
31
 73
27
 74
0
 42
0.0000001
 43
0.0000001
 44
0.0000000001
 40
0.0
 40
0.0
 40
0.0
 40
0.0
 40
0.0639021759
 40
0.1277513399
 40
0.1914908542
 40
0.2233094215
 40
0.2550833568
 40
0.318468602
 40
0.3816190712
 40
0.4445067836
 40
0.5071161867
 40
0.5383181847
 40
0.5694500293
 40
0.6005138893
 40
0.6315122077
 40
0.6624466537
 40
0.6933185619
 40
0.724134238
 40
0.7549018568
 40
0.7856282498
 40
0.816316829
 40
0.8469696533
 40
0.8775941259
 40
0.9082008977
 40
0.9388001897
 40
1.0
 40
1.0
 40
1.0
 40
1.0
 10
4.4598216209
 20
5.4392701764
 30
0.0
 10
4.4598220485
 20
5.4327611047
 30
0.0
 10
4.4602596625
 20
5.4197442347
 30
0.0
 10
4.4622051255
 20
5.4003230546
 30
0.0
 10
4.4648903909
 20
5.3842960802
 30
0.0
 10
4.4676711273
 20
5.371625523
 30
0.0
 10
4.4708651714
 20
5.3590900122
 30
0.0
 10
4.475625452
 20
5.3436697682
 30
0.0
 10
4.4825284638
 20
5.3256374871
 30
0.0
 10
4.4905701158
 20
5.3081704314
 30
0.0
 10
4.4981886729
 20
5.2941306544
 30
0.0
 10
4.5047942311
 20
5.2832503444
 30
0.0
 10
4.5099920465
 20
5.2752802603
 30
0.0
 10
4.5154330071
 20
5.2674995829
 30
0.0
 10
4.5211089362
 20
5.2599137396
 30
0.0
 10
4.5270088294
 20
5.2525258517
 30
0.0
 10
4.5331229406
 20
5.245338675
 30
0.0
 10
4.5394468689
 20
5.2383582732
 30
0.0
 10
4.545977255
 20
5.2315911927
 30
0.0
 10
4.552707291
 20
5.2250412581
 30
0.0
 10
4.5596257213
 20
5.2187080794
 30
0.0
 10
4.5667222073
 20
5.2125910079
 30
0.0
 10
4.5739912781
 20
5.2066933248
 30
0.0
 10
4.5814294358
 20
5.2010190984
 30
0.0
 10
4.5915658679
 20
5.1937567451
 30
0.0
 10
4.599407914
 20
5.1886508464
 30
0.0
 10
4.6047285893
 20
5.1854026486
 30
0.0
  0
SPLINE
  5
523
100
AcDbEntity
  8
0
100
AcDbSpline
 62
7
  6
CONTINUOUS
 70
0
 71
3
 72
17
 73
13
 74
0
 42
0.0000001
 43
0.0000001
 44
0.0000000001
 40
0.0
 40
0.0
 40
0.0
 40
0.0
 40
0.1350439345
 40
0.2770044651
 40
0.4206565632
 40
0.5608656084
 40
0.6928382209
 40
0.8123016132
 40
0.8661864008
 40
0.9156424436
 40
0.9603363658
 40
1.0
 40
1.0
 40
1.0
 40
1.0
 10
6.6237445478
 20
5.5159747064
 30
0.0
 10
6.6237383195
 20
5.5165158365
 30
0.0
 10
6.6236988997
 20
5.5176255974
 30
0.0
 10
6.6235720838
 20
5.5193069092
 30
0.0
 10
6.6233803556
 20
5.5210029115
 30
0.0
 10
6.623131488
 20
5.5226510306
 30
0.0
 10
6.6228351916
 20
5.5241926949
 30
0.0
 10
6.6225493797
 20
5.5253830158
 30
0.0
 10
6.6223020058
 20
5.5262410552
 30
0.0
 10
6.6221181811
 20
5.5268052332
 30
0.0
 10
6.6219312568
 20
5.5273080023
 30
0.0
 10
6.6217974708
 20
5.5276187056
 30
0.0
 10
6.6217295293
 20
5.5277623982
 30
0.0
  0
LINE
  5
524
100
AcDbEntity
  8
0
100
AcDbLine
 62
7
  6
CONTINUOUS
 10
6.6217295293
 20
5.5277623982
 11
6.6210253247
 21
5.5287609275
  0
SPLINE
  5
525
100
AcDbEntity
  8
0
100
AcDbSpline
 62
7
  6
CONTINUOUS
 70
0
 71
3
 72
9
 73
5
 74
0
 42
0.0000001
 43
0.0000001
 44
0.0000000001
 40
0.0
 40
0.0
 40
0.0
 40
0.0
 40
0.4554975181
 40
1.0
 40
1.0
 40
1.0
 40
1.0
 10
3.0416171931
 20
5.5098557262
 30
0.0
 10
3.0416289138
 20
5.5098557267
 30
0.0
 10
3.0416548699
 20
5.509848118
 30
0.0
 10
3.0416740523
 20
5.5098300021
 30
0.0
 10
3.0416831189
 20
5.5098193202
 30
0.0
  0
LINE
  5
526
100
AcDbEntity
  8
0
100
AcDbLine
 62
7
  6
CONTINUOUS
 10
3.0416831189
 20
5.5098193202
 11
3.041824665
 21
5.5089176344
  0
LINE
  5
527
100
AcDbEntity
  8
0
100
AcDbLine
 62
7
  6
CONTINUOUS
 10
6.6205139313
 20
5.5059995373
 11
6.620813696
 21
5.506333919
  0
SPLINE
  5
528
100
AcDbEntity
  8
0
100
AcDbSpline
 62
7
  6
CONTINUOUS
 70
0
 71
3
 72
9
 73
5
 74
0
 42
0.0000001
 43
0.0000001
 44
0.0000000001
 40
0.0
 40
0.0
 40
0.0
 40
0.0
 40
0.2537416505
 40
1.0
 40
1.0
 40
1.0
 40
1.0
 10
6.620813696
 20
5.506333919
 30
0.0
 10
6.6208192044
 20
5.506335826
 30
0.0
 10
6.6208411482
 20
5.5063426415
 30
0.0
 10
6.620864019
 20
5.5063464972
 30
0.0
 10
6.6208811297
 20
5.50634756
 30
0.0
  0
LINE
  5
529
100
AcDbEntity
  8
0
100
AcDbLine
 62
7
  6
CONTINUOUS
 10
3.0390578689
 20
5.5055477502
 11
3.0391378602
 21
5.5054829315
  0
LINE
  5
52A
100
AcDbEntity
  8
0
100
AcDbLine
 62
7
  6
CONTINUOUS
 10
3.0391378602
 20
5.5054829315
 11
3.0392503957
 21
5.5046096586
  0
LINE
  5
52B
100
AcDbEntity
  8
0
100
AcDbLine
 62
7
  6
CONTINUOUS
 10
6.6205780431
 20
5.5134127463
 11
6.6204633774
 21
5.5140813289
  0
SPLINE
  5
52C
100
AcDbEntity
  8
0
100
AcDbSpline
 62
7
  6
CONTINUOUS
 70
0
 71
3
 72
19
 73
15
 74
0
 42
0.0000001
 43
0.0000001
 44
0.0000000001
 40
0.0
 40
0.0
 40
0.0
 40
0.0
 40
0.2031521985
 40
0.3879693502
 40
0.5510400745
 40
0.6897936829
 40
0.7494984899
 40
0.8025932159
 40
0.8490967805
 40
0.8891791354
 40
0.9232304618
 40
0.9520282616
 40
0.9769179866
 40
1.0
 40
1.0
 40
1.0
 40
1.0
 10
6.6204615837
 20
5.519433248
 30
0.0
 10
6.6204604725
 20
5.519668392
 30
0.0
 10
6.6204658483
 20
5.520117547
 30
0.0
 10
6.6204992484
 20
5.5207547157
 30
0.0
 10
6.6205567943
 20
5.5213152974
 30
0.0
 10
6.6206263576
 20
5.5217284596
 30
0.0
 10
6.6206956459
 20
5.5220113993
 30
0.0
 10
6.6207500378
 20
5.5221877263
 30
0.0
 10
6.6208091715
 20
5.522338408
 30
0.0
 10
6.6208727943
 20
5.522463042
 30
0.0
 10
6.6209408657
 20
5.5225613943
 30
0.0
 10
6.6210136543
 20
5.5226333802
 30
0.0
 10
6.6210919541
 20
5.522678095
 30
0.0
 10
6.6211479328
 20
5.5226881252
 30
0.0
 10
6.62117465
 20
5.5226881295
 30
0.0
  0
SPLINE
  5
52D
100
AcDbEntity
  8
0
100
AcDbSpline
 62
7
  6
CONTINUOUS
 70
0
 71
3
 72
29
 73
25
 74
0
 42
0.0000001
 43
0.0000001
 44
0.0000000001
 40
0.0
 40
0.0
 40
0.0
 40
0.0
 40
0.063536123
 40
0.1267684449
 40
0.1896790511
 40
0.2522613336
 40
0.3145276597
 40
0.3455586333
 40
0.3765277384
 40
0.4074444693
 40
0.438320041
 40
0.469167246
 40
0.5
 40
0.530832754
 40
0.5616799591
 40
0.5925555308
 40
0.6234722617
 40
0.6544413667
 40
0.6854723403
 40
0.7477386664
 40
0.8103209489
 40
0.8732315551
 40
0.936463877
 40
1.0
 40
1.0
 40
1.0
 40
1.0
 10
5.7312908351
 20
5.7517701764
 30
0.0
 10
5.7277862921
 20
5.7457001299
 30
0.0
 10
5.7210217396
 20
5.7334552485
 30
0.0
 10
5.7117142428
 20
5.7147061663
 30
0.0
 10
5.7034125165
 20
5.6956019504
 30
0.0
 10
5.6962775077
 20
5.6761429382
 30
0.0
 10
5.6914400028
 20
5.6596247761
 30
0.0
 10
5.6883262531
 20
5.6462714905
 30
0.0
 10
5.6863879822
 20
5.6362033212
 30
0.0
 10
5.6848613714
 20
5.6260818135
 30
0.0
 10
5.6837602839
 20
5.615918557
 30
0.0
 10
5.6830952299
 20
5.6057266618
 30
0.0
 10
5.6828727778
 20
5.5955201764
 30
0.0
 10
5.6830952299
 20
5.585313691
 30
0.0
 10
5.6837602839
 20
5.5751217958
 30
0.0
 10
5.6848613714
 20
5.5649585393
 30
0.0
 10
5.6863879822
 20
5.5548370316
 30
0.0
 10
5.6883262531
 20
5.5447688623
 30
0.0
 10
5.6914400028
 20
5.5314155767
 30
0.0
 10
5.6962775077
 20
5.5148974146
 30
0.0
 10
5.7034125165
 20
5.4954384024
 30
0.0
 10
5.7117142428
 20
5.4763341865
 30
0.0
 10
5.7210217396
 20
5.4575851044
 30
0.0
 10
5.7277862921
 20
5.4453402229
 30
0.0
 10
5.7312908351
 20
5.4392701764
 30
0.0
  0
SPLINE
  5
52E
100
AcDbEntity
  8
0
100
AcDbSpline
 62
7
  6
CONTINUOUS
 70
0
 71
3
 72
16
 73
12
 74
0
 42
0.0000001
 43
0.0000001
 44
0.0000000001
 40
0.0
 40
0.0
 40
0.0
 40
0.0
 40
0.1999987328
 40
0.3789664015
 40
0.5359286643
 40
0.670421945
 40
0.7824323676
 40
0.8726799416
 40
0.9102967596
 40
0.943515169
 40
1.0
 40
1.0
 40
1.0
 40
1.0
 10
6.6243700212
 20
5.3373295787
 30
0.0
 10
6.6243984842
 20
5.3374097368
 30
0.0
 10
6.6244546652
 20
5.3375608446
 30
0.0
 10
6.6245421521
 20
5.3377713969
 30
0.0
 10
6.6246277925
 20
5.3379523187
 30
0.0
 10
6.624711009
 20
5.3381025925
 30
0.0
 10
6.6247913705
 20
5.3382213859
 30
0.0
 10
6.6248593141
 20
5.3382982427
 30
0.0
 10
6.6249128776
 20
5.3383413348
 30
0.0
 10
6.6249593525
 20
5.3383691483
 30
0.0
 10
6.6249975987
 20
5.3383799783
 30
0.0
 10
6.6250216223
 20
5.3383799826
 30
0.0
  0
SPLINE
  5
52F
100
AcDbEntity
  8
0
100
AcDbSpline
 62
7
  6
CONTINUOUS
 70
0
 71
3
 72
27
 73
23
 74
0
 42
0.0000001
 43
0.0000001
 44
0.0000000001
 40
0.0
 40
0.0
 40
0.0
 40
0.0
 40
0.0320816573
 40
0.0639813046
 40
0.0957143852
 40
0.1273003299
 40
0.1900838723
 40
0.2524733492
 40
0.3145767907
 40
0.3764844852
 40
0.4382710708
 40
0.4999999999
 40
0.5617289289
 40
0.6235155144
 40
0.6854232089
 40
0.7475266504
 40
0.8099161271
 40
0.8726996692
 40
0.9042856136
 40
0.9360186942
 40
0.9679183423
 40
1.0
 40
1.0
 40
1.0
 40
1.0
 10
5.8312908351
 20
5.4392701764
 30
0.0
 10
5.8332857535
 20
5.4421756196
 30
0.0
 10
5.8371224147
 20
5.4480688345
 30
0.0
 10
5.8424341064
 20
5.4571476282
 30
0.0
 10
5.8472964046
 20
5.4664135303
 30
0.0
 10
5.8531838961
 20
5.4789575449
 30
0.0
 10
5.8594961525
 20
5.4950030728
 30
0.0
 10
5.8654991002
 20
5.5147013097
 30
0.0
 10
5.8700298521
 20
5.534688528
 30
0.0
 10
5.8731871408
 20
5.5548687117
 30
0.0
 10
5.8750486456
 20
5.5751666797
 30
0.0
 10
5.8756635761
 20
5.5955201764
 30
0.0
 10
5.8750486456
 20
5.615873673
 30
0.0
 10
5.8731871409
 20
5.636171641
 30
0.0
 10
5.8700298521
 20
5.6563518247
 30
0.0
 10
5.8654991003
 20
5.676339043
 30
0.0
 10
5.8594961526
 20
5.6960372798
 30
0.0
 10
5.8531838962
 20
5.7120828076
 30
0.0
 10
5.8472964047
 20
5.7246268222
 30
0.0
 10
5.8424341066
 20
5.7338927243
 30
0.0
 10
5.8371224148
 20
5.7429715181
 30
0.0
 10
5.8332857536
 20
5.7488647332
 30
0.0
 10
5.8312908351
 20
5.7517701764
 30
0.0
  0
LINE
  5
530
100
AcDbEntity
  8
0
100
AcDbLine
 62
7
  6
CONTINUOUS
 10
3.0371455138
 20
5.5093042021
 11
3.0373728108
 21
5.5095226465
  0
SPLINE
  5
531
100
AcDbEntity
  8
0
100
AcDbSpline
 62
7
  6
CONTINUOUS
 70
0
 71
3
 72
31
 73
27
 74
0
 42
0.0000001
 43
0.0000001
 44
0.0000000001
 40
0.0
 40
0.0
 40
0.0
 40
0.0
 40
0.0639021759
 40
0.1277513399
 40
0.1914908542
 40
0.2233094215
 40
0.2550833568
 40
0.318468602
 40
0.3816190712
 40
0.4445067836
 40
0.5071161867
 40
0.5383181847
 40
0.5694500293
 40
0.6005138893
 40
0.6315122077
 40
0.6624466537
 40
0.6933185619
 40
0.724134238
 40
0.7549018568
 40
0.7856282498
 40
0.816316829
 40
0.8469696533
 40
0.8775941259
 40
0.9082008977
 40
0.9388001897
 40
1.0
 40
1.0
 40
1.0
 40
1.0
 10
4.4598216209
 20
5.4392701764
 30
0.0
 10
4.4598220485
 20
5.4457792482
 30
0.0
 10
4.4602596625
 20
5.4587961182
 30
0.0
 10
4.4622051255
 20
5.4782172982
 30
0.0
 10
4.4648903909
 20
5.4942442726
 30
0.0
 10
4.4676711273
 20
5.5069148298
 30
0.0
 10
4.4708651714
 20
5.5194503406
 30
0.0
 10
4.475625452
 20
5.5348705846
 30
0.0
 10
4.4825284638
 20
5.5529028657
 30
0.0
 10
4.4905701158
 20
5.5703699215
 30
0.0
 10
4.4981886729
 20
5.5844096984
 30
0.0
 10
4.5047942311
 20
5.5952900084
 30
0.0
 10
4.5099920465
 20
5.6032600925
 30
0.0
 10
4.5154330071
 20
5.6110407699
 30
0.0
 10
4.5211089362
 20
5.6186266132
 30
0.0
 10
4.5270088294
 20
5.6260145011
 30
0.0
 10
4.5331229406
 20
5.6332016778
 30
0.0
 10
4.5394468689
 20
5.6401820796
 30
0.0
 10
4.545977255
 20
5.6469491601
 30
0.0
 10
4.552707291
 20
5.6534990947
 30
0.0
 10
4.5596257213
 20
5.6598322734
 30
0.0
 10
4.5667222073
 20
5.6659493449
 30
0.0
 10
4.5739912781
 20
5.671847028
 30
0.0
 10
4.5814294358
 20
5.6775212544
 30
0.0
 10
4.5915658679
 20
5.6847836077
 30
0.0
 10
4.599407914
 20
5.6898895064
 30
0.0
 10
4.6047285893
 20
5.6931377042
 30
0.0
  0
SPLINE
  5
532
100
AcDbEntity
  8
0
100
AcDbSpline
 62
7
  6
CONTINUOUS
 70
0
 71
3
 72
13
 73
9
 74
0
 42
0.0000001
 43
0.0000001
 44
0.0000000001
 40
0.0
 40
0.0
 40
0.0
 40
0.0
 40
0.272888804
 40
0.5481596662
 40
0.6779333323
 40
0.7982551691
 40
0.906391809
 40
1.0
 40
1.0
 40
1.0
 40
1.0
 10
6.6205173154
 20
5.3402695655
 30
0.0
 10
6.6205527574
 20
5.3408573302
 30
0.0
 10
6.6206650918
 20
5.3420356638
 30
0.0
 10
6.6208866523
 20
5.3434825021
 30
0.0
 10
6.6211110385
 20
5.3445938819
 30
0.0
 10
6.6212905381
 20
5.3453459409
 30
0.0
 10
6.6214797111
 20
5.3460148494
 30
0.0
 10
6.6216198652
 20
5.3464273584
 30
0.0
 10
6.6216923213
 20
5.3466159007
 30
0.0
  0
SPLINE
  5
533
100
AcDbEntity
  8
0
100
AcDbSpline
 62
7
  6
CONTINUOUS
 70
0
 71
3
 72
11
 73
7
 74
0
 42
0.0000001
 43
0.0000001
 44
0.0000000001
 40
0.0
 40
0.0
 40
0.0
 40
0.0
 40
0.2569316035
 40
0.5201593607
 40
0.7729256248
 40
1.0
 40
1.0
 40
1.0
 40
1.0
 10
6.6203882559
 20
5.3236847171
 30
0.0
 10
6.6204289658
 20
5.3241464832
 30
0.0
 10
6.6205349039
 20
5.3250793436
 30
0.0
 10
6.6207505501
 20
5.3264574788
 30
0.0
 10
6.6210135599
 20
5.3277724596
 30
0.0
 10
6.621223374
 20
5.3286129319
 30
0.0
 10
6.6213359637
 20
5.329006846
 30
0.0
  0
LINE
  5
534
100
AcDbEntity
  8
0
100
AcDbLine
 62
7
  6
CONTINUOUS
 10
6.6213359637
 20
5.329006846
 11
6.6216719766
 21
5.3300310523
  0
LINE
  5
535
100
AcDbEntity
  8
0
100
AcDbLine
 62
7
  6
CONTINUOUS
 10
6.6206119108
 20
5.5499721495
 11
6.6204930394
 21
5.5506739856
  0
SPLINE
  5
536
100
AcDbEntity
  8
0
100
AcDbSpline
 62
7
  6
CONTINUOUS
 70
0
 71
3
 72
16
 73
12
 74
0
 42
0.0000001
 43
0.0000001
 44
0.0000000001
 40
0.0
 40
0.0
 40
0.0
 40
0.0
 40
0.1923130476
 40
0.3674945176
 40
0.5238402368
 40
0.6601941883
 40
0.7757482087
 40
0.8701953557
 40
0.9096835555
 40
0.9442382033
 40
1.0
 40
1.0
 40
1.0
 40
1.0
 10
6.620455653
 20
5.5543344747
 30
0.0
 10
6.6204530785
 20
5.5545168076
 30
0.0
 10
6.6204526182
 20
5.5548653209
 30
0.0
 10
6.6204675416
 20
5.5553618985
 30
0.0
 10
6.6204979112
 20
5.5558046334
 30
0.0
 10
6.6205432283
 20
5.5561892928
 30
0.0
 10
6.6206028658
 20
5.5565125185
 30
0.0
 10
6.6206669324
 20
5.5567408323
 30
0.0
 10
6.6207274347
 20
5.5568890401
 30
0.0
 10
6.6207845457
 20
5.5569978749
 30
0.0
 10
6.6208377499
 20
5.5570677123
 30
0.0
 10
6.620878814
 20
5.5571010189
 30
0.0
  0
LINE
  5
537
100
AcDbEntity
  8
0
100
AcDbLine
 62
7
  6
CONTINUOUS
 10
6.6205965934
 20
5.537995181
 11
6.620462977
 21
5.5401472342
  0
LINE
  5
538
100
AcDbEntity
  8
0
100
AcDbLine
 62
7
  6
CONTINUOUS
 10
6.620462977
 20
5.5401472342
 11
6.620455653
 21
5.5411034159
  0
LINE
  5
539
100
AcDbEntity
  8
0
100
AcDbLine
 62
7
  6
CONTINUOUS
 10
6.6204930394
 20
5.544763905
 11
6.6205397322
 21
5.5449560688
  0
LINE
  5
53A
100
AcDbEntity
  8
0
100
AcDbLine
 62
7
  6
CONTINUOUS
 10
3.038832148
 20
5.370381971
 11
3.0388340293
 21
5.3709027998
  0
SPLINE
  5
53B
100
AcDbEntity
  8
0
100
AcDbSpline
 62
7
  6
CONTINUOUS
 70
0
 71
3
 72
47
 73
43
 74
0
 42
0.0000001
 43
0.0000001
 44
0.0000000001
 40
0.0
 40
0.0
 40
0.0
 40
0.0
 40
0.0155081584
 40
0.0310190065
 40
0.0465310475
 40
0.0620466883
 40
0.0930831582
 40
0.1241457913
 40
0.1396939909
 40
0.1552513085
 40
0.1708184278
 40
0.1863959395
 40
0.2175744981
 40
0.2487991099
 40
0.2800706062
 40
0.311388018
 40
0.3427486209
 40
0.3741480431
 40
0.4055804402
 40
0.4370387224
 40
0.4685148218
 40
0.5
 40
0.5314851782
 40
0.5629612776
 40
0.5944195598
 40
0.6258519569
 40
0.6572513791
 40
0.688611982
 40
0.7199293938
 40
0.7512008901
 40
0.7824255019
 40
0.8136040605
 40
0.8291815722
 40
0.8447486915
 40
0.8603060091
 40
0.8758542087
 40
0.9069168418
 40
0.9379533117
 40
0.9534689525
 40
0.9689809935
 40
0.9844918416
 40
1.0
 40
1.0
 40
1.0
 40
1.0
 10
5.0077908351
 20
2.8758909634
 30
0.0
 10
5.0077908351
 20
2.8730472409
 30
0.0
 10
5.0076489778
 20
2.8673582763
 30
0.0
 10
5.0070114712
 20
2.858846426
 30
0.0
 10
5.005950439
 20
2.8503751364
 30
0.0
 10
5.0039749714
 20
2.8391632575
 30
0.0
 10
5.0004604368
 20
2.8253459853
 30
0.0
 10
4.9955887878
 20
2.8119406568
 30
0.0
 10
4.990907985
 20
2.8015419431
 30
0.0
 10
4.9870111716
 20
2.7939181773
 30
0.0
 10
4.9827391697
 20
2.7864919308
 30
0.0
 10
4.9765561213
 20
2.7768762964
 30
0.0
 10
4.9679381097
 20
2.7654341134
 30
0.0
 10
4.9562866591
 20
2.7527761322
 30
0.0
 10
4.9434313687
 20
2.7413033877
 30
0.0
 10
4.9294966555
 20
2.7311272263
 30
0.0
 10
4.9146166076
 20
2.7223452729
 30
0.0
 10
4.8989345989
 20
2.7150419791
 30
0.0
 10
4.8826015887
 20
2.7092875462
 30
0.0
 10
4.8657747927
 20
2.7051373162
 30
0.0
 10
4.8486161713
 20
2.7026311054
 30
0.0
 10
4.8312908351
 20
2.7017929995
 30
0.0
 10
4.813965499
 20
2.7026311054
 30
0.0
 10
4.7968068776
 20
2.7051373162
 30
0.0
 10
4.7799800815
 20
2.7092875462
 30
0.0
 10
4.7636470714
 20
2.7150419791
 30
0.0
 10
4.7479650626
 20
2.7223452729
 30
0.0
 10
4.7330850148
 20
2.7311272263
 30
0.0
 10
4.7191503015
 20
2.7413033877
 30
0.0
 10
4.7062950111
 20
2.7527761322
 30
0.0
 10
4.6946435606
 20
2.7654341134
 30
0.0
 10
4.686025549
 20
2.7768762964
 30
0.0
 10
4.6798425006
 20
2.7864919308
 30
0.0
 10
4.6755704986
 20
2.7939181773
 30
0.0
 10
4.6716736853
 20
2.8015419431
 30
0.0
 10
4.6669928825
 20
2.8119406568
 30
0.0
 10
4.6621212335
 20
2.8253459853
 30
0.0
 10
4.6586066988
 20
2.8391632575
 30
0.0
 10
4.6566312313
 20
2.8503751364
 30
0.0
 10
4.6555701991
 20
2.858846426
 30
0.0
 10
4.6549326924
 20
2.8673582763
 30
0.0
 10
4.6547908351
 20
2.8730472409
 30
0.0
 10
4.6547908351
 20
2.8758909634
 30
0.0
  0
SPLINE
  5
53C
100
AcDbEntity
  8
0
100
AcDbSpline
 62
7
  6
CONTINUOUS
 70
0
 71
3
 72
31
 73
27
 74
0
 42
0.0000001
 43
0.0000001
 44
0.0000000001
 40
0.0
 40
0.0
 40
0.0
 40
0.0
 40
0.0310140151
 40
0.062033418
 40
0.0930552194
 40
0.1240842021
 40
0.1861525311
 40
0.2482732223
 40
0.2793673114
 40
0.3104796329
 40
0.341611571
 40
0.3727643045
 40
0.4351167952
 40
0.4975614022
 40
0.5600997708
 40
0.6227299477
 40
0.6540872435
 40
0.6854651527
 40
0.7168624838
 40
0.7482778802
 40
0.8111380438
 40
0.8740500374
 40
0.9055295042
 40
0.9370154162
 40
0.9685081246
 40
1.0
 40
1.0
 40
1.0
 40
1.0
 10
5.0077908351
 20
2.8663403136
 30
0.0
 10
5.0077908351
 20
2.8634965918
 30
0.0
 10
5.0076489782
 20
2.8578076276
 30
0.0
 10
5.0070114709
 20
2.8492957763
 30
0.0
 10
5.0059504389
 20
2.8408244855
 30
0.0
 10
5.0039749713
 20
2.8296126071
 30
0.0
 10
5.0004604365
 20
2.815795335
 30
0.0
 10
4.9955887879
 20
2.8023900068
 30
0.0
 10
4.9909079848
 20
2.7919912932
 30
0.0
 10
4.9870111723
 20
2.7843675286
 30
0.0
 10
4.9827391707
 20
2.7769412822
 30
0.0
 10
4.9765561174
 20
2.7673256445
 30
0.0
 10
4.9679381427
 20
2.7558834825
 30
0.0
 10
4.9562865377
 20
2.7432254124
 30
0.0
 10
4.943431822
 20
2.7317530005
 30
0.0
 10
4.9318211171
 20
2.7232742723
 30
0.0
 10
4.9220640626
 20
2.7171899124
 30
0.0
 10
4.9145234021
 20
2.7129832071
 30
0.0
 10
4.9067822624
 20
2.7091459921
 30
0.0
 10
4.896217999
 20
2.7045344123
 30
0.0
 10
4.8826016277
 20
2.6997367277
 30
0.0
 10
4.8685790903
 20
2.6962785267
 30
0.0
 10
4.8571984084
 20
2.6943339119
 30
0.0
 10
4.8485970498
 20
2.693289154
 30
0.0
 10
4.839954505
 20
2.6926614227
 30
0.0
 10
4.8341783727
 20
2.6925217452
 30
0.0
 10
4.8312908351
 20
2.6925217452
 30
0.0
  0
LINE
  5
53D
100
AcDbEntity
  8
0
100
AcDbLine
 62
7
  6
CONTINUOUS
 10
3.0378934561
 20
5.2802718212
 11
3.0381924034
 21
5.2782685316
  0
LINE
  5
53E
100
AcDbEntity
  8
0
100
AcDbLine
 62
7
  6
CONTINUOUS
 10
3.0378934561
 20
5.2802718212
 11
3.0346847415
 21
5.298433945
  0
LINE
  5
53F
100
AcDbEntity
  8
0
100
AcDbLine
 62
7
  6
CONTINUOUS
 10
3.0346847415
 20
5.298433945
 11
3.034531279
 21
5.2992701764
  0
LINE
  5
540
100
AcDbEntity
  8
0
100
AcDbLine
 62
7
  6
CONTINUOUS
 10
3.0327618993
 20
5.3092701764
 11
3.0322547784
 21
5.3117701764
  0
SPLINE
  5
541
100
AcDbEntity
  8
0
100
AcDbSpline
 62
7
  6
CONTINUOUS
 70
0
 71
3
 72
10
 73
6
 74
0
 42
0.0000001
 43
0.0000001
 44
0.0000000001
 40
0.0
 40
0.0
 40
0.0
 40
0.0
 40
0.3488789985
 40
0.6277172593
 40
1.0
 40
1.0
 40
1.0
 40
1.0
 10
3.03910273
 20
5.3697703466
 30
0.0
 10
3.0390990073
 20
5.3697778295
 30
0.0
 10
3.0390916245
 20
5.3697911261
 30
0.0
 10
3.0390778754
 20
5.3698101307
 30
0.0
 10
3.0390636648
 20
5.3698209549
 30
0.0
 10
3.0390547463
 20
5.3698209535
 30
0.0
  0
SPLINE
  5
542
100
AcDbEntity
  8
0
100
AcDbSpline
 62
7
  6
CONTINUOUS
 70
0
 71
3
 72
31
 73
27
 74
0
 42
0.0000001
 43
0.0000001
 44
0.0000000001
 40
0.0
 40
0.0
 40
0.0
 40
0.0
 40
0.0314918754
 40
0.0629845838
 40
0.0944704958
 40
0.1259499626
 40
0.1888619562
 40
0.2517221198
 40
0.2831375162
 40
0.3145348473
 40
0.3459127565
 40
0.3772700523
 40
0.4399002292
 40
0.5024385978
 40
0.5648832048
 40
0.6272356955
 40
0.658388429
 40
0.6895203671
 40
0.7206326886
 40
0.7517267777
 40
0.8138474689
 40
0.8759157979
 40
0.9069447806
 40
0.937966582
 40
0.9689859849
 40
1.0
 40
1.0
 40
1.0
 40
1.0
 10
4.8312908351
 20
2.6925217452
 30
0.0
 10
4.8284032976
 20
2.6925217452
 30
0.0
 10
4.8226271653
 20
2.6926614227
 30
0.0
 10
4.8139846205
 20
2.693289154
 30
0.0
 10
4.8053832619
 20
2.6943339119
 30
0.0
 10
4.79400258
 20
2.6962785267
 30
0.0
 10
4.7799800426
 20
2.6997367277
 30
0.0
 10
4.7663636713
 20
2.7045344123
 30
0.0
 10
4.7557994079
 20
2.7091459921
 30
0.0
 10
4.7480582681
 20
2.7129832071
 30
0.0
 10
4.7405176077
 20
2.7171899124
 30
0.0
 10
4.7307605531
 20
2.7232742723
 30
0.0
 10
4.7191498483
 20
2.7317530005
 30
0.0
 10
4.7062951325
 20
2.7432254124
 30
0.0
 10
4.6946435276
 20
2.7558834825
 30
0.0
 10
4.6860255529
 20
2.7673256445
 30
0.0
 10
4.6798424995
 20
2.7769412822
 30
0.0
 10
4.675570498
 20
2.7843675286
 30
0.0
 10
4.6716736855
 20
2.7919912932
 30
0.0
 10
4.6669928824
 20
2.8023900068
 30
0.0
 10
4.6621212337
 20
2.815795335
 30
0.0
 10
4.6586066989
 20
2.8296126071
 30
0.0
 10
4.6566312314
 20
2.8408244855
 30
0.0
 10
4.6555701994
 20
2.8492957763
 30
0.0
 10
4.654932692
 20
2.8578076276
 30
0.0
 10
4.6547908351
 20
2.8634965918
 30
0.0
 10
4.6547908351
 20
2.8663403136
 30
0.0
  0
SPLINE
  5
543
100
AcDbEntity
  8
0
100
AcDbSpline
 62
7
  6
CONTINUOUS
 70
0
 71
3
 72
39
 73
35
 74
0
 42
0.0000001
 43
0.0000001
 44
0.0000000001
 40
0.0
 40
0.0
 40
0.0
 40
0.0
 40
0.0311673866
 40
0.0623097177
 40
0.0934296859
 40
0.1245303725
 40
0.1556151957
 40
0.1866878513
 40
0.2177522481
 40
0.2488124404
 40
0.2798725557
 40
0.3109367233
 40
0.342009001
 40
0.3730933044
 40
0.4041933383
 40
0.4353125319
 40
0.4664539804
 40
0.4976203918
 40
0.5288140407
 40
0.5600367301
 40
0.5912897607
 40
0.6225739106
 40
0.6538894226
 40
0.6852360021
 40
0.7166128231
 40
0.7480185441
 40
0.7794513337
 40
0.8109088987
 40
0.8423885432
 40
0.8738871428
 40
0.9054014361
 40
0.9369273771
 40
0.9684619756
 40
1.0
 40
1.0
 40
1.0
 40
1.0
 10
5.0077941598
 20
2.9622977375
 30
0.0
 10
5.0100260707
 20
2.9585048968
 30
0.0
 10
5.0142393053
 20
2.9507726354
 30
0.0
 10
5.0197760462
 20
2.9387884876
 30
0.0
 10
5.0245046787
 20
2.9264725273
 30
0.0
 10
5.0284045066
 20
2.9138782285
 30
0.0
 10
5.0314588936
 20
2.9010594491
 30
0.0
 10
5.0336546991
 20
2.8880712307
 30
0.0
 10
5.0349825036
 20
2.8749692849
 30
0.0
 10
5.0354366044
 20
2.8618098286
 30
0.0
 10
5.0350150523
 20
2.8486493215
 30
0.0
 10
5.033719657
 20
2.8355442291
 30
0.0
 10
5.0315559796
 20
2.8225507785
 30
0.0
 10
5.0285333093
 20
2.8097247165
 30
0.0
 10
5.0246646218
 20
2.7971210701
 30
0.0
 10
5.0199665263
 20
2.7847939093
 30
0.0
 10
5.014459196
 20
2.7727961125
 30
0.0
 10
5.0081662744
 20
2.7611791411
 30
0.0
 10
5.0011147746
 20
2.7499928188
 30
0.0
 10
4.993334962
 20
2.7392851175
 30
0.0
 10
4.9848602235
 20
2.7291019526
 30
0.0
 10
4.9757269242
 20
2.7194869864
 30
0.0
 10
4.9659742506
 20
2.7104814414
 30
0.0
 10
4.9556440421
 20
2.702123924
 30
0.0
 10
4.944780611
 20
2.6944502613
 30
0.0
 10
4.9334305554
 20
2.6874933416
 30
0.0
 10
4.9216425567
 20
2.6812829791
 30
0.0
 10
4.9094671683
 20
2.6758457813
 30
0.0
 10
4.8969566063
 20
2.6712050567
 30
0.0
 10
4.8841644931
 20
2.6673806609
 30
0.0
 10
4.8711457565
 20
2.6643890396
 30
0.0
 10
4.8579559494
 20
2.6622429031
 30
0.0
 10
4.8446524337
 20
2.6609515938
 30
0.0
 10
4.8357439717
 20
2.6606642071
 30
0.0
 10
4.8312908351
 20
2.6606642071
 30
0.0
  0
LINE
  5
544
100
AcDbEntity
  8
0
100
AcDbLine
 62
7
  6
CONTINUOUS
 10
3.0416048313
 20
5.3644590239
 11
3.0414902435
 21
5.3651276065
  0
SPLINE
  5
545
100
AcDbEntity
  8
0
100
AcDbSpline
 62
7
  6
CONTINUOUS
 70
0
 71
3
 72
39
 73
35
 74
0
 42
0.0000001
 43
0.0000001
 44
0.0000000001
 40
0.0
 40
0.0
 40
0.0
 40
0.0
 40
0.0315380244
 40
0.0630726229
 40
0.0945985639
 40
0.1261128572
 40
0.1576114568
 40
0.1890911013
 40
0.2205486663
 40
0.2519814559
 40
0.2833871769
 40
0.3147639979
 40
0.3461105774
 40
0.3774260894
 40
0.4087102393
 40
0.4399632699
 40
0.4711859593
 40
0.5023796082
 40
0.5335460196
 40
0.5646874681
 40
0.5958066617
 40
0.6269066956
 40
0.657990999
 40
0.6890632767
 40
0.7201274443
 40
0.7511875596
 40
0.7822477519
 40
0.8133121487
 40
0.8443848043
 40
0.8754696275
 40
0.9065703141
 40
0.9376902823
 40
0.9688326134
 40
1.0
 40
1.0
 40
1.0
 40
1.0
 10
4.8312908351
 20
2.6606642071
 30
0.0
 10
4.8268376985
 20
2.6606642071
 30
0.0
 10
4.8179292365
 20
2.6609515938
 30
0.0
 10
4.8046257209
 20
2.6622429031
 30
0.0
 10
4.7914359137
 20
2.6643890396
 30
0.0
 10
4.7784171772
 20
2.6673806609
 30
0.0
 10
4.765625064
 20
2.6712050567
 30
0.0
 10
4.753114502
 20
2.6758457813
 30
0.0
 10
4.7409391135
 20
2.6812829791
 30
0.0
 10
4.7291511149
 20
2.6874933416
 30
0.0
 10
4.7178010593
 20
2.6944502613
 30
0.0
 10
4.7069376282
 20
2.702123924
 30
0.0
 10
4.6966074197
 20
2.7104814414
 30
0.0
 10
4.6868547461
 20
2.7194869864
 30
0.0
 10
4.6777214468
 20
2.7291019526
 30
0.0
 10
4.6692467083
 20
2.7392851175
 30
0.0
 10
4.6614668956
 20
2.7499928188
 30
0.0
 10
4.6544153959
 20
2.7611791411
 30
0.0
 10
4.6481224743
 20
2.7727961125
 30
0.0
 10
4.642615144
 20
2.7847939093
 30
0.0
 10
4.6379170485
 20
2.7971210701
 30
0.0
 10
4.6340483609
 20
2.8097247165
 30
0.0
 10
4.6310256906
 20
2.8225507785
 30
0.0
 10
4.6288620133
 20
2.8355442291
 30
0.0
 10
4.6275666179
 20
2.8486493215
 30
0.0
 10
4.6271450659
 20
2.8618098286
 30
0.0
 10
4.6275991667
 20
2.8749692849
 30
0.0
 10
4.6289269712
 20
2.8880712307
 30
0.0
 10
4.6311227767
 20
2.9010594491
 30
0.0
 10
4.6341771637
 20
2.9138782285
 30
0.0
 10
4.6380769916
 20
2.9264725273
 30
0.0
 10
4.6428056241
 20
2.9387884876
 30
0.0
 10
4.648342365
 20
2.9507726354
 30
0.0
 10
4.6525555996
 20
2.9585048968
 30
0.0
 10
4.6547875104
 20
2.9622977375
 30
0.0
  0
LINE
  5
546
100
AcDbEntity
  8
0
100
AcDbLine
 62
7
  6
CONTINUOUS
 10
6.6402809359
 20
5.4022701715
 11
6.6397692351
 21
5.3973225325
  0
LINE
  5
547
100
AcDbEntity
  8
0
100
AcDbLine
 62
7
  6
CONTINUOUS
 10
6.6408521909
 20
5.4172701762
 11
6.6408083857
 21
5.4119226522
  0
SPLINE
  5
548
100
AcDbEntity
  8
0
100
AcDbSpline
 62
7
  6
CONTINUOUS
 70
0
 71
3
 72
36
 73
32
 74
0
 42
0.0000001
 43
0.0000001
 44
0.0000000001
 40
0.0
 40
0.0
 40
0.0
 40
0.0
 40
0.0875624488
 40
0.1744587388
 40
0.2600307735
 40
0.3436304223
 40
0.424628816
 40
0.5024205546
 40
0.5764300499
 40
0.6461160732
 40
0.6791795957
 40
0.710977168
 40
0.7414531425
 40
0.7705543355
 40
0.7982312043
 40
0.8244372317
 40
0.8491307431
 40
0.8722739729
 40
0.8938337047
 40
0.913783033
 40
0.9231477116
 40
0.9321033079
 40
0.9406489021
 40
0.9487838952
 40
0.9565081785
 40
0.9638254542
 40
0.9707438554
 40
0.9772764944
 40
0.9834418871
 40
0.9892639082
 40
1.0
 40
1.0
 40
1.0
 40
1.0
 10
4.0940865671
 20
5.4392701764
 30
0.0
 10
4.0940852278
 20
5.4477633301
 30
0.0
 10
4.0941671036
 20
5.4646851522
 30
0.0
 10
4.0945363838
 20
5.4899046195
 30
0.0
 10
4.0951481714
 20
5.5147349391
 30
0.0
 10
4.0960045686
 20
5.5389856621
 30
0.0
 10
4.0971050335
 20
5.562471147
 30
0.0
 10
4.0984454114
 20
5.5850124882
 30
0.0
 10
4.1000188594
 20
5.6064387647
 30
0.0
 10
4.1015397859
 20
5.6235168749
 30
0.0
 10
4.1028738277
 20
5.6364991302
 30
0.0
 10
4.1039074544
 20
5.6456885945
 30
0.0
 10
4.1049892643
 20
5.6544854244
 30
0.0
 10
4.1061167688
 20
5.6628734184
 30
0.0
 10
4.1072866409
 20
5.6708372426
 30
0.0
 10
4.1084956826
 20
5.6783625461
 30
0.0
 10
4.1097433335
 20
5.6854354701
 30
0.0
 10
4.1110280213
 20
5.6920432778
 30
0.0
 10
4.1123476362
 20
5.6981742979
 30
0.0
 10
4.113499196
 20
5.7029732121
 30
0.0
 10
4.1144438087
 20
5.7065631172
 30
0.0
 10
4.1151467567
 20
5.7090725066
 30
0.0
 10
4.1158595315
 20
5.7114549008
 30
0.0
 10
4.1165822344
 20
5.7137092094
 30
0.0
 10
4.1173138317
 20
5.7158350566
 30
0.0
 10
4.1180570221
 20
5.7178314865
 30
0.0
 10
4.1188167614
 20
5.7196975805
 30
0.0
 10
4.1195993656
 20
5.7214323977
 30
0.0
 10
4.1204124237
 20
5.7230353204
 30
0.0
 10
4.1215159227
 20
5.7249435827
 30
0.0
 10
4.1224530667
 20
5.726257898
 30
0.0
 10
4.1231322903
 20
5.7270472445
 30
0.0
  0
LINE
  5
549
100
AcDbEntity
  8
0
100
AcDbLine
 62
7
  6
CONTINUOUS
 10
3.0416125504
 20
5.3374369369
 11
3.041299023
 21
5.3420782717
  0
SPLINE
  5
54A
100
AcDbEntity
  8
0
100
AcDbSpline
 62
7
  6
CONTINUOUS
 70
0
 71
3
 72
16
 73
12
 74
0
 42
0.0000001
 43
0.0000001
 44
0.0000000001
 40
0.0
 40
0.0
 40
0.0
 40
0.0
 40
0.0557487521
 40
0.0902996684
 40
0.1297854714
 40
0.2242310503
 40
0.3397869002
 40
0.4761444303
 40
0.6324945307
 40
0.8076811895
 40
1.0
 40
1.0
 40
1.0
 40
1.0
 10
3.0411896771
 20
5.3214393339
 30
0.0
 10
3.041230719
 20
5.3214726452
 30
0.0
 10
3.0412838858
 20
5.3215424865
 30
0.0
 10
3.0413409556
 20
5.3216513172
 30
0.0
 10
3.0414014171
 20
5.3217995276
 30
0.0
 10
3.0414654394
 20
5.3220278424
 30
0.0
 10
3.0415250356
 20
5.3223510675
 30
0.0
 10
3.0415703216
 20
5.3227357261
 30
0.0
 10
3.0416006701
 20
5.3231784594
 30
0.0
 10
3.0416155831
 20
5.3236750345
 30
0.0
 10
3.0416151232
 20
5.324023546
 30
0.0
 10
3.0416125504
 20
5.3242058782
 30
0.0
  0
LINE
  5
54B
100
AcDbEntity
  8
0
100
AcDbLine
 62
7
  6
CONTINUOUS
 10
3.0415751895
 20
5.3278663672
 11
3.0414563988
 21
5.3285682033
  0
SPLINE
  5
54C
100
AcDbEntity
  8
0
100
AcDbSpline
 62
7
  6
CONTINUOUS
 70
0
 71
3
 72
16
 73
12
 74
0
 42
0.0000001
 43
0.0000001
 44
0.0000000001
 40
0.0
 40
0.0
 40
0.0
 40
0.0
 40
0.2006600944
 40
0.3803166239
 40
0.5378921411
 40
0.6728277079
 40
0.7849781741
 40
0.8749082519
 40
0.9121645345
 40
0.9448865012
 40
1.0
 40
1.0
 40
1.0
 40
1.0
 10
3.0379082792
 20
5.3384316142
 30
0.0
 10
3.0378724582
 20
5.3385364351
 30
0.0
 10
3.0378016818
 20
5.3387341431
 30
0.0
 10
3.0376912752
 20
5.3390098858
 30
0.0
 10
3.0375830263
 20
5.3392471257
 30
0.0
 10
3.0374777322
 20
5.3394443978
 30
0.0
 10
3.0373760334
 20
5.3396004784
 30
0.0
 10
3.0372899976
 20
5.3397016924
 30
0.0
 10
3.0372220565
 20
5.3397585416
 30
0.0
 10
3.0371634806
 20
5.3397951063
 30
0.0
 10
3.037114908
 20
5.3398095371
 30
0.0
 10
3.037084483
 20
5.3398095333
 30
0.0
  0
LINE
  5
54D
100
AcDbEntity
  8
0
100
AcDbLine
 62
7
  6
CONTINUOUS
 10
6.6363616441
 20
5.5205201764
 11
6.6362778895
 21
5.5207839895
  0
LINE
  5
54E
100
AcDbEntity
  8
0
100
AcDbLine
 62
7
  6
CONTINUOUS
 10
6.6362778895
 20
5.5207839895
 11
6.6360759639
 21
5.5219142729
  0
LINE
  5
54F
100
AcDbEntity
  8
0
100
AcDbLine
 62
7
  6
CONTINUOUS
 10
6.6377764803
 20
5.5041616774
 11
6.6377962399
 21
5.5055201764
  0
SPLINE
  5
550
100
AcDbEntity
  8
0
100
AcDbSpline
 62
7
  6
CONTINUOUS
 70
0
 71
3
 72
53
 73
49
 74
0
 42
0.0000001
 43
0.0000001
 44
0.0000000001
 40
0.0
 40
0.0
 40
0.0
 40
0.0
 40
0.0451446233
 40
0.0901987443
 40
0.1350535331
 40
0.1796134907
 40
0.2237857188
 40
0.2456976714
 40
0.2674777131
 40
0.310591838
 40
0.3530307598
 40
0.3947121951
 40
0.4355552832
 40
0.4754712115
 40
0.5143753858
 40
0.5334241004
 40
0.5521918148
 40
0.588855735
 40
0.6067380711
 40
0.6243097972
 40
0.6584811315
 40
0.6750616221
 40
0.6912973961
 40
0.7227224899
 40
0.752723022
 40
0.7671713598
 40
0.7812418208
 40
0.7949294772
 40
0.8082311368
 40
0.8336638897
 40
0.8457902472
 40
0.857520378
 40
0.868851133
 40
0.879777755
 40
0.8902960841
 40
0.9004044753
 40
0.919390415
 40
0.9282675064
 40
0.9367331017
 40
0.9447876915
 40
0.9524341621
 40
0.9596797339
 40
0.9665319602
 40
0.9729947031
 40
0.9790747859
 40
0.9847851848
 40
0.9901493072
 40
1.0
 40
1.0
 40
1.0
 40
1.0
 10
5.4983988691
 20
5.4392701764
 30
0.0
 10
5.4983994844
 20
5.4436525407
 30
0.0
 10
5.4984140212
 20
5.4524084886
 30
0.0
 10
5.4984776321
 20
5.4655185285
 30
0.0
 10
5.4985849638
 20
5.4785715318
 30
0.0
 10
5.4987403675
 20
5.4915384401
 30
0.0
 10
5.4989092728
 20
5.5022777918
 30
0.0
 10
5.4990634549
 20
5.5108057233
 30
0.0
 10
5.499229375
 20
5.5192306994
 30
0.0
 10
5.4994651541
 20
5.5296473167
 30
0.0
 10
5.4998125895
 20
5.5419936344
 30
0.0
 10
5.5002096508
 20
5.5541178513
 30
0.0
 10
5.5006423795
 20
5.5659957788
 30
0.0
 10
5.5011253878
 20
5.5776019683
 30
0.0
 10
5.5015798877
 20
5.5870916727
 30
0.0
 10
5.5019741839
 20
5.594528809
 30
0.0
 10
5.502382489
 20
5.6017473812
 30
0.0
 10
5.502819374
 20
5.6088508818
 30
0.0
 10
5.5032780538
 20
5.6158366212
 30
0.0
 10
5.5037406515
 20
5.6225795815
 30
0.0
 10
5.5042321114
 20
5.6291939077
 30
0.0
 10
5.5047704954
 20
5.6356743638
 30
0.0
 10
5.5053209302
 20
5.6418862115
 30
0.0
 10
5.5060385285
 20
5.649390946
 30
0.0
 10
5.5067882929
 20
5.656718167
 30
0.0
 10
5.507414725
 20
5.662364261
 30
0.0
 10
5.5078950564
 20
5.6664331897
 30
0.0
 10
5.5083923389
 20
5.6703879205
 30
0.0
 10
5.50906507
 20
5.6754321072
 30
0.0
 10
5.5097729489
 20
5.6803185801
 30
0.0
 10
5.5105128571
 20
5.6850457553
 30
0.0
 10
5.5110651703
 20
5.688416599
 30
0.0
 10
5.5116228411
 20
5.6916684656
 30
0.0
 10
5.5121918763
 20
5.6947989011
 30
0.0
 10
5.5127786724
 20
5.6978052848
 30
0.0
 10
5.5135694074
 20
5.7015685514
 30
0.0
 10
5.5144011794
 20
5.7051601219
 30
0.0
 10
5.5152724832
 20
5.7085774524
 30
0.0
 10
5.5159175464
 20
5.710957103
 30
0.0
 10
5.5165739745
 20
5.7132095165
 30
0.0
 10
5.5172467321
 20
5.7153332821
 30
0.0
 10
5.5179449357
 20
5.7173256947
 30
0.0
 10
5.5186717299
 20
5.7191849915
 30
0.0
 10
5.5194180827
 20
5.7209139624
 30
0.0
 10
5.5201828398
 20
5.722512805
 30
0.0
 10
5.5209696309
 20
5.7239816233
 30
0.0
 10
5.5220274141
 20
5.72571566
 30
0.0
 10
5.5229248967
 20
5.7269009455
 30
0.0
 10
5.5235820336
 20
5.7275956222
 30
0.0
  0
SPLINE
  5
551
100
AcDbEntity
  8
0
100
AcDbSpline
 62
7
  6
CONTINUOUS
 70
0
 71
3
 72
13
 73
9
 74
0
 42
0.0000001
 43
0.0000001
 44
0.0000000001
 40
0.0
 40
0.0
 40
0.0
 40
0.0
 40
0.0936283665
 40
0.2018404199
 40
0.3222244531
 40
0.4520139956
 40
0.7271998947
 40
1.0
 40
1.0
 40
1.0
 40
1.0
 10
3.0403970527
 20
5.5485093005
 30
0.0
 10
3.0404696756
 20
5.5486984001
 30
0.0
 10
3.040611537
 20
5.549111706
 30
0.0
 10
3.0408065052
 20
5.5497811905
 30
0.0
 10
3.0409952558
 20
5.5505334047
 30
0.0
 10
3.0412367078
 20
5.5516442348
 30
0.0
 10
3.0414866179
 20
5.5530898852
 30
0.0
 10
3.0416281046
 20
5.5542677089
 30
0.0
 10
3.0416799016
 20
5.5548556357
 30
0.0
  0
SPLINE
  5
552
100
AcDbEntity
  8
0
100
AcDbSpline
 62
7
  6
CONTINUOUS
 70
0
 71
3
 72
36
 73
32
 74
0
 42
0.0000001
 43
0.0000001
 44
0.0000000001
 40
0.0
 40
0.0
 40
0.0
 40
0.0
 40
0.0875624488
 40
0.1744587388
 40
0.2600307735
 40
0.3436304223
 40
0.424628816
 40
0.5024205546
 40
0.5764300499
 40
0.6461160732
 40
0.6791795957
 40
0.710977168
 40
0.7414531425
 40
0.7705543355
 40
0.7982312043
 40
0.8244372317
 40
0.8491307431
 40
0.8722739729
 40
0.8938337047
 40
0.913783033
 40
0.9231477116
 40
0.9321033079
 40
0.9406489021
 40
0.9487838952
 40
0.9565081785
 40
0.9638254542
 40
0.9707438554
 40
0.9772764944
 40
0.9834418871
 40
0.9892639082
 40
1.0
 40
1.0
 40
1.0
 40
1.0
 10
5.5684951031
 20
5.4392701764
 30
0.0
 10
5.5684964425
 20
5.4477633301
 30
0.0
 10
5.5684145667
 20
5.4646851522
 30
0.0
 10
5.5680452865
 20
5.4899046195
 30
0.0
 10
5.5674334989
 20
5.5147349391
 30
0.0
 10
5.5665771017
 20
5.5389856621
 30
0.0
 10
5.5654766368
 20
5.562471147
 30
0.0
 10
5.5641362588
 20
5.5850124882
 30
0.0
 10
5.5625628109
 20
5.6064387647
 30
0.0
 10
5.5610418843
 20
5.6235168749
 30
0.0
 10
5.5597078426
 20
5.6364991302
 30
0.0
 10
5.5586742158
 20
5.6456885945
 30
0.0
 10
5.557592406
 20
5.6544854244
 30
0.0
 10
5.5564649015
 20
5.6628734184
 30
0.0
 10
5.5552950294
 20
5.6708372426
 30
0.0
 10
5.5540859877
 20
5.6783625461
 30
0.0
 10
5.5528383368
 20
5.6854354701
 30
0.0
 10
5.551553649
 20
5.6920432778
 30
0.0
 10
5.5502340341
 20
5.6981742979
 30
0.0
 10
5.5490824743
 20
5.7029732121
 30
0.0
 10
5.5481378616
 20
5.7065631172
 30
0.0
 10
5.5474349136
 20
5.7090725066
 30
0.0
 10
5.5467221388
 20
5.7114549008
 30
0.0
 10
5.5459994359
 20
5.7137092094
 30
0.0
 10
5.5452678386
 20
5.7158350566
 30
0.0
 10
5.5445246482
 20
5.7178314865
 30
0.0
 10
5.5437649089
 20
5.7196975805
 30
0.0
 10
5.5429823046
 20
5.7214323977
 30
0.0
 10
5.5421692466
 20
5.7230353204
 30
0.0
 10
5.5410657476
 20
5.7249435827
 30
0.0
 10
5.5401286036
 20
5.726257898
 30
0.0
 10
5.5394493799
 20
5.7270472445
 30
0.0
  0
SPLINE
  5
553
100
AcDbEntity
  8
0
100
AcDbSpline
 62
7
  6
CONTINUOUS
 70
0
 71
3
 72
13
 73
9
 74
0
 42
0.0000001
 43
0.0000001
 44
0.0000000001
 40
0.0
 40
0.0
 40
0.0
 40
0.0
 40
0.0936051877
 40
0.2017405673
 40
0.3220623689
 40
0.4518367055
 40
0.7271094518
 40
1.0
 40
1.0
 40
1.0
 40
1.0
 10
3.0403767218
 20
5.5319244522
 30
0.0
 10
3.0404491308
 20
5.5321129999
 30
0.0
 10
3.0405891925
 20
5.5325255181
 30
0.0
 10
3.0407782382
 20
5.5331944338
 30
0.0
 10
3.0409576164
 20
5.5339464993
 30
0.0
 10
3.04118185
 20
5.5350578849
 30
0.0
 10
3.041403257
 20
5.5365047161
 30
0.0
 10
3.0415155126
 20
5.5376830328
 30
0.0
 10
3.0415509299
 20
5.5382707873
 30
0.0
  0
LINE
  5
554
100
AcDbEntity
  8
0
100
AcDbLine
 62
7
  6
CONTINUOUS
 10
6.6295103845
 20
5.3065201764
 11
6.6291411337
 21
5.3040201764
  0
SPLINE
  5
555
100
AcDbEntity
  8
0
100
AcDbSpline
 62
7
  6
CONTINUOUS
 70
0
 71
3
 72
15
 73
11
 74
0
 42
0.0000001
 43
0.0000001
 44
0.0000000001
 40
0.0
 40
0.0
 40
0.0
 40
0.0
 40
0.1997891606
 40
0.3772647739
 40
0.531684384
 40
0.6631016945
 40
0.7723067947
 40
0.8613628745
 40
0.9346063081
 40
1.0
 40
1.0
 40
1.0
 40
1.0
 10
3.0417111959
 20
5.5293716004
 30
0.0
 10
3.0416988619
 20
5.5294616938
 30
0.0
 10
3.0416721798
 20
5.5296313912
 30
0.0
 10
3.0416222917
 20
5.5298683226
 30
0.0
 10
3.0415652066
 20
5.5300715322
 30
0.0
 10
3.0415014267
 20
5.5302399761
 30
0.0
 10
3.0414312091
 20
5.5303731838
 30
0.0
 10
3.0413543549
 20
5.5304711742
 30
0.0
 10
3.0412690607
 20
5.5305334193
 30
0.0
 10
3.041205291
 20
5.5305478097
 30
0.0
 10
3.0411755272
 20
5.5305478061
 30
0.0
  0
LINE
  5
556
100
AcDbEntity
  8
0
100
AcDbLine
 62
7
  6
CONTINUOUS
 10
6.626590259
 20
5.2900201764
 11
6.6249976947
 21
5.2835056354
  0
LINE
  5
557
100
AcDbEntity
  8
0
100
AcDbLine
 62
7
  6
CONTINUOUS
 10
6.6361795424
 20
5.3576092435
 11
6.6363912119
 21
5.3585201764
  0
SPLINE
  5
558
100
AcDbEntity
  8
0
100
AcDbSpline
 62
7
  6
CONTINUOUS
 70
0
 71
3
 72
35
 73
31
 74
0
 42
0.0000001
 43
0.0000001
 44
0.0000000001
 40
0.0
 40
0.0
 40
0.0
 40
0.0
 40
0.0978512231
 40
0.1951988264
 40
0.2890834274
 40
0.3769971103
 40
0.4599213854
 40
0.5399181772
 40
0.6181423625
 40
0.6926127599
 40
0.7275984169
 40
0.7606428103
 40
0.8209127838
 40
0.8484384291
 40
0.8744319645
 40
0.8990520047
 40
0.9221693441
 40
0.9431573058
 40
0.9613337967
 40
0.9760222343
 40
0.9818580862
 40
0.986617142
 40
0.9903959183
 40
0.9933383338
 40
0.9955828403
 40
0.9972572712
 40
0.9984706169
 40
0.999302511
 40
0.9997965884
 40
1.0
 40
1.0
 40
1.0
 40
1.0
 10
5.5235820381
 20
5.7275956638
 30
0.0
 10
5.5237300672
 20
5.7277711607
 30
0.0
 10
5.5240443722
 20
5.7281052924
 30
0.0
 10
5.5245413116
 20
5.7285672125
 30
0.0
 10
5.5250356933
 20
5.7289968734
 30
0.0
 10
5.5255029874
 20
5.7294060438
 30
0.0
 10
5.5259517032
 20
5.7297869707
 30
0.0
 10
5.526398451
 20
5.7301346804
 30
0.0
 10
5.5268493941
 20
5.7304429274
 30
0.0
 10
5.5272217049
 20
5.7306781426
 30
0.0
 10
5.5275065514
 20
5.7308532255
 30
0.0
 10
5.5277631148
 20
5.7310106909
 30
0.0
 10
5.5280048303
 20
5.7311589035
 30
0.0
 10
5.5282344775
 20
5.7312950914
 30
0.0
 10
5.5283935542
 20
5.7313862603
 30
0.0
 10
5.5285455307
 20
5.7314689484
 30
0.0
 10
5.5286889909
 20
5.7315425967
 30
0.0
 10
5.5288197228
 20
5.7316079017
 30
0.0
 10
5.5289326115
 20
5.7316646473
 30
0.0
 10
5.5290128758
 20
5.7317071896
 30
0.0
 10
5.5290637493
 20
5.7317377464
 30
0.0
 10
5.5290915346
 20
5.7317569167
 30
0.0
 10
5.5291124151
 20
5.7317739838
 30
0.0
 10
5.5291273518
 20
5.7317888689
 30
0.0
 10
5.5291373291
 20
5.7318015304
 30
0.0
 10
5.5291434374
 20
5.7318120294
 30
0.0
 10
5.5291464981
 20
5.7318201046
 30
0.0
 10
5.5291479725
 20
5.7318261641
 30
0.0
 10
5.5291480364
 20
5.7318293396
 30
0.0
 10
5.5291488124
 20
5.7318313888
 30
0.0
 10
5.5291492897
 20
5.7318313847
 30
0.0
  0
SPLINE
  5
559
100
AcDbEntity
  8
0
100
AcDbSpline
 62
7
  6
CONTINUOUS
 70
0
 71
3
 72
33
 73
29
 74
0
 42
0.0000001
 43
0.0000001
 44
0.0000000001
 40
0.0
 40
0.0
 40
0.0
 40
0.0
 40
0.1935289293
 40
0.2855282452
 40
0.374801188
 40
0.4615157781
 40
0.5451278286
 40
0.6248931995
 40
0.6999741503
 40
0.7688927162
 40
0.8004126038
 40
0.8296293093
 40
0.8562850168
 40
0.8801695567
 40
0.9013978678
 40
0.9202233552
 40
0.9368971816
 40
0.9516717155
 40
0.9648076038
 40
0.9764310119
 40
0.9815773615
 40
0.9862077195
 40
0.9902666697
 40
0.9936979563
 40
0.9964446077
 40
0.9984490527
 40
0.9996532812
 40
1.0
 40
1.0
 40
1.0
 40
1.0
 10
5.5394493799
 20
5.7270472445
 30
0.0
 10
5.539126469
 20
5.7274244709
 30
0.0
 10
5.5386343306
 20
5.7279681809
 30
0.0
 10
5.537948371
 20
5.7286424962
 30
0.0
 10
5.5374373234
 20
5.7291029149
 30
0.0
 10
5.5369215969
 20
5.7295248175
 30
0.0
 10
5.5364082642
 20
5.7299101237
 30
0.0
 10
5.5359056227
 20
5.7302592044
 30
0.0
 10
5.5354233104
 20
5.7305708277
 30
0.0
 10
5.5350391887
 20
5.7308059534
 30
0.0
 10
5.5347542336
 20
5.7309776217
 30
0.0
 10
5.5345621704
 20
5.7310933448
 30
0.0
 10
5.5343874368
 20
5.731199871
 30
0.0
 10
5.5342315756
 20
5.7312979483
 30
0.0
 10
5.5340938878
 20
5.7313871489
 30
0.0
 10
5.5339722984
 20
5.7314671587
 30
0.0
 10
5.5338644766
 20
5.7315379672
 30
0.0
 10
5.5337680696
 20
5.7315995578
 30
0.0
 10
5.5336810099
 20
5.7316516639
 30
0.0
 10
5.5336132953
 20
5.7316878423
 30
0.0
 10
5.5335641118
 20
5.7317122155
 30
0.0
 10
5.5335319734
 20
5.7317274126
 30
0.0
 10
5.5335037934
 20
5.7317402115
 30
0.0
 10
5.5334792948
 20
5.7317508334
 30
0.0
 10
5.533461071
 20
5.7317586581
 30
0.0
 10
5.533444328
 20
5.7317652249
 30
0.0
 10
5.5334404155
 20
5.731767332
 30
0.0
 10
5.5334323656
 20
5.7317701649
 30
0.0
 10
5.5334332551
 20
5.7317701764
 30
0.0
  0
LINE
  5
55A
100
AcDbEntity
  8
0
100
AcDbLine
 62
7
  6
CONTINUOUS
 10
6.634661202
 20
5.5382701764
 11
6.6348568628
 21
5.5352553508
  0
SPLINE
  5
55B
100
AcDbEntity
  8
0
100
AcDbSpline
 62
7
  6
CONTINUOUS
 70
0
 71
3
 72
53
 73
49
 74
0
 42
0.0000001
 43
0.0000001
 44
0.0000000001
 40
0.0
 40
0.0
 40
0.0
 40
0.0
 40
0.0451446233
 40
0.0901987443
 40
0.1350535331
 40
0.1796134907
 40
0.2237857188
 40
0.2456976714
 40
0.2674777131
 40
0.310591838
 40
0.3530307598
 40
0.3947121951
 40
0.4355552832
 40
0.4754712115
 40
0.5143753858
 40
0.5334241004
 40
0.5521918148
 40
0.588855735
 40
0.6067380711
 40
0.6243097972
 40
0.6584811315
 40
0.6750616221
 40
0.6912973961
 40
0.7227224899
 40
0.752723022
 40
0.7671713598
 40
0.7812418208
 40
0.7949294772
 40
0.8082311368
 40
0.8336638897
 40
0.8457902472
 40
0.857520378
 40
0.868851133
 40
0.879777755
 40
0.8902960841
 40
0.9004044753
 40
0.919390415
 40
0.9282675064
 40
0.9367331017
 40
0.9447876915
 40
0.9524341621
 40
0.9596797339
 40
0.9665319602
 40
0.9729947031
 40
0.9790747859
 40
0.9847851848
 40
0.9901493072
 40
1.0
 40
1.0
 40
1.0
 40
1.0
 10
4.1641828012
 20
5.4392701764
 30
0.0
 10
4.1641821858
 20
5.4436525407
 30
0.0
 10
4.1641676491
 20
5.4524084886
 30
0.0
 10
4.1641040382
 20
5.4655185285
 30
0.0
 10
4.1639967065
 20
5.4785715318
 30
0.0
 10
4.1638413027
 20
5.4915384401
 30
0.0
 10
4.1636723975
 20
5.5022777918
 30
0.0
 10
4.1635182154
 20
5.5108057233
 30
0.0
 10
4.1633522953
 20
5.5192306994
 30
0.0
 10
4.1631165161
 20
5.5296473167
 30
0.0
 10
4.1627690808
 20
5.5419936344
 30
0.0
 10
4.1623720195
 20
5.5541178513
 30
0.0
 10
4.1619392908
 20
5.5659957788
 30
0.0
 10
4.1614562825
 20
5.5776019683
 30
0.0
 10
4.1610017826
 20
5.5870916727
 30
0.0
 10
4.1606074863
 20
5.594528809
 30
0.0
 10
4.1601991813
 20
5.6017473812
 30
0.0
 10
4.1597622963
 20
5.6088508818
 30
0.0
 10
4.1593036165
 20
5.6158366212
 30
0.0
 10
4.1588410187
 20
5.6225795815
 30
0.0
 10
4.1583495589
 20
5.6291939077
 30
0.0
 10
4.1578111748
 20
5.6356743638
 30
0.0
 10
4.1572607401
 20
5.6418862115
 30
0.0
 10
4.1565431418
 20
5.649390946
 30
0.0
 10
4.1557933774
 20
5.656718167
 30
0.0
 10
4.1551669453
 20
5.662364261
 30
0.0
 10
4.1546866139
 20
5.6664331897
 30
0.0
 10
4.1541893313
 20
5.6703879205
 30
0.0
 10
4.1535166003
 20
5.6754321072
 30
0.0
 10
4.1528087214
 20
5.6803185801
 30
0.0
 10
4.1520688132
 20
5.6850457553
 30
0.0
 10
4.1515165
 20
5.688416599
 30
0.0
 10
4.1509588292
 20
5.6916684656
 30
0.0
 10
4.150389794
 20
5.6947989011
 30
0.0
 10
4.1498029979
 20
5.6978052848
 30
0.0
 10
4.1490122629
 20
5.7015685514
 30
0.0
 10
4.1481804909
 20
5.7051601219
 30
0.0
 10
4.1473091871
 20
5.7085774524
 30
0.0
 10
4.1466641238
 20
5.710957103
 30
0.0
 10
4.1460076958
 20
5.7132095165
 30
0.0
 10
4.1453349381
 20
5.7153332821
 30
0.0
 10
4.1446367346
 20
5.7173256947
 30
0.0
 10
4.1439099403
 20
5.7191849915
 30
0.0
 10
4.1431635876
 20
5.7209139624
 30
0.0
 10
4.1423988305
 20
5.722512805
 30
0.0
 10
4.1416120393
 20
5.7239816233
 30
0.0
 10
4.1405542562
 20
5.72571566
 30
0.0
 10
4.1396567736
 20
5.7269009455
 30
0.0
 10
4.1389996367
 20
5.7275956222
 30
0.0
  0
LINE
  5
55C
100
AcDbEntity
  8
0
100
AcDbLine
 62
7
  6
CONTINUOUS
 10
6.6356969292
 20
5.528198001
 11
6.6368645168
 21
5.5205201764
  0
SPLINE
  5
55D
100
AcDbEntity
  8
0
100
AcDbSpline
 62
7
  6
CONTINUOUS
 70
0
 71
3
 72
35
 73
31
 74
0
 42
0.0000001
 43
0.0000001
 44
0.0000000001
 40
0.0
 40
0.0
 40
0.0
 40
0.0
 40
0.0978512231
 40
0.1951988264
 40
0.2890834274
 40
0.3769971103
 40
0.4599213854
 40
0.5399181772
 40
0.6181423625
 40
0.6926127599
 40
0.7275984169
 40
0.7606428103
 40
0.8209127838
 40
0.8484384291
 40
0.8744319645
 40
0.8990520047
 40
0.9221693441
 40
0.9431573058
 40
0.9613337967
 40
0.9760222343
 40
0.9818580862
 40
0.986617142
 40
0.9903959183
 40
0.9933383338
 40
0.9955828403
 40
0.9972572712
 40
0.9984706169
 40
0.999302511
 40
0.9997965884
 40
1.0
 40
1.0
 40
1.0
 40
1.0
 10
4.1389996322
 20
5.7275956638
 30
0.0
 10
4.1388516031
 20
5.7277711607
 30
0.0
 10
4.1385372981
 20
5.7281052924
 30
0.0
 10
4.1380403587
 20
5.7285672125
 30
0.0
 10
4.137545977
 20
5.7289968734
 30
0.0
 10
4.1370786828
 20
5.7294060438
 30
0.0
 10
4.136629967
 20
5.7297869707
 30
0.0
 10
4.1361832193
 20
5.7301346804
 30
0.0
 10
4.1357322762
 20
5.7304429274
 30
0.0
 10
4.1353599654
 20
5.7306781426
 30
0.0
 10
4.1350751189
 20
5.7308532255
 30
0.0
 10
4.1348185555
 20
5.7310106909
 30
0.0
 10
4.13457684
 20
5.7311589035
 30
0.0
 10
4.1343471928
 20
5.7312950914
 30
0.0
 10
4.134188116
 20
5.7313862603
 30
0.0
 10
4.1340361396
 20
5.7314689484
 30
0.0
 10
4.1338926794
 20
5.7315425967
 30
0.0
 10
4.1337619475
 20
5.7316079017
 30
0.0
 10
4.1336490588
 20
5.7316646473
 30
0.0
 10
4.1335687945
 20
5.7317071896
 30
0.0
 10
4.133517921
 20
5.7317377464
 30
0.0
 10
4.1334901357
 20
5.7317569167
 30
0.0
 10
4.1334692552
 20
5.7317739838
 30
0.0
 10
4.1334543184
 20
5.7317888689
 30
0.0
 10
4.1334443412
 20
5.7318015304
 30
0.0
 10
4.1334382329
 20
5.7318120294
 30
0.0
 10
4.1334351722
 20
5.7318201046
 30
0.0
 10
4.1334336977
 20
5.7318261641
 30
0.0
 10
4.1334336338
 20
5.7318293396
 30
0.0
 10
4.1334328579
 20
5.7318313888
 30
0.0
 10
4.1334323806
 20
5.7318313847
 30
0.0
  0
LINE
  5
55E
100
AcDbEntity
  8
0
100
AcDbLine
 62
7
  6
CONTINUOUS
 10
6.6382981786
 20
5.5055201764
 11
6.6385980468
 21
5.4978722468
  0
LINE
  5
55F
100
AcDbEntity
  8
0
100
AcDbLine
 62
7
  6
CONTINUOUS
 10
3.0382807652
 20
5.3694653318
 11
3.0383191841
 21
5.3697309164
  0
LINE
  5
560
100
AcDbEntity
  8
0
100
AcDbLine
 62
7
  6
CONTINUOUS
 10
3.0383191841
 20
5.3697309164
 11
3.0383227915
 21
5.3709027998
  0
LINE
  5
561
100
AcDbEntity
  8
0
100
AcDbLine
 62
7
  6
CONTINUOUS
 10
3.0383227915
 20
5.3709027998
 11
3.0382183905
 21
5.3715713824
  0
LINE
  5
562
100
AcDbEntity
  8
0
100
AcDbLine
 62
7
  6
CONTINUOUS
 10
3.0377265892
 20
5.3725940774
 11
3.037224013
 21
5.3731506951
  0
LINE
  5
563
100
AcDbEntity
  8
0
100
AcDbLine
 62
7
  6
CONTINUOUS
 10
6.6286331686
 20
5.3040201764
 11
6.6286624198
 21
5.3043838686
  0
LINE
  5
564
100
AcDbEntity
  8
0
100
AcDbLine
 62
7
  6
CONTINUOUS
 10
6.6258115833
 20
5.2891876793
 11
6.6260805892
 21
5.2900201764
  0
LINE
  5
565
100
AcDbEntity
  8
0
100
AcDbLine
 62
7
  6
CONTINUOUS
 10
6.6368940653
 20
5.3585201764
 11
6.6360361819
 21
5.3532544607
  0
SPLINE
  5
566
100
AcDbEntity
  8
0
100
AcDbSpline
 62
7
  6
CONTINUOUS
 70
0
 71
3
 72
31
 73
27
 74
0
 42
0.0000001
 43
0.0000001
 44
0.0000000001
 40
0.0
 40
0.0
 40
0.0
 40
0.0
 40
0.0639021759
 40
0.1277513399
 40
0.1914908542
 40
0.2233094215
 40
0.2550833568
 40
0.318468602
 40
0.3816190712
 40
0.4445067836
 40
0.5071161867
 40
0.5383181847
 40
0.5694500293
 40
0.6005138893
 40
0.6315122077
 40
0.6624466537
 40
0.6933185619
 40
0.724134238
 40
0.7549018568
 40
0.7856282498
 40
0.816316829
 40
0.8469696533
 40
0.8775941259
 40
0.9082008977
 40
0.9388001897
 40
1.0
 40
1.0
 40
1.0
 40
1.0
 10
5.2027600494
 20
5.4392701764
 30
0.0
 10
5.2027596218
 20
5.4457792482
 30
0.0
 10
5.2023220078
 20
5.4587961182
 30
0.0
 10
5.2003765448
 20
5.4782172982
 30
0.0
 10
5.1976912794
 20
5.4942442726
 30
0.0
 10
5.194910543
 20
5.5069148298
 30
0.0
 10
5.1917164988
 20
5.5194503406
 30
0.0
 10
5.1869562183
 20
5.5348705846
 30
0.0
 10
5.1800532065
 20
5.5529028657
 30
0.0
 10
5.1720115545
 20
5.5703699215
 30
0.0
 10
5.1643929974
 20
5.5844096984
 30
0.0
 10
5.1577874391
 20
5.5952900084
 30
0.0
 10
5.1525896238
 20
5.6032600925
 30
0.0
 10
5.1471486631
 20
5.6110407699
 30
0.0
 10
5.1414727341
 20
5.6186266132
 30
0.0
 10
5.1355728409
 20
5.6260145011
 30
0.0
 10
5.1294587297
 20
5.6332016778
 30
0.0
 10
5.1231348014
 20
5.6401820796
 30
0.0
 10
5.1166044152
 20
5.6469491601
 30
0.0
 10
5.1098743792
 20
5.6534990947
 30
0.0
 10
5.102955949
 20
5.6598322734
 30
0.0
 10
5.0958594629
 20
5.6659493449
 30
0.0
 10
5.0885903922
 20
5.671847028
 30
0.0
 10
5.0811522345
 20
5.6775212544
 30
0.0
 10
5.0710158024
 20
5.6847836077
 30
0.0
 10
5.0631737563
 20
5.6898895064
 30
0.0
 10
5.057853081
 20
5.6931377042
 30
0.0
  0
SPLINE
  5
567
100
AcDbEntity
  8
0
100
AcDbSpline
 62
7
  6
CONTINUOUS
 70
0
 71
3
 72
13
 73
9
 74
0
 42
0.0000001
 43
0.0000001
 44
0.0000000001
 40
0.0
 40
0.0
 40
0.0
 40
0.0
 40
0.0780211073
 40
0.1722578508
 40
0.2817391874
 40
0.4051431215
 40
0.6866133697
 40
1.0
 40
1.0
 40
1.0
 40
1.0
 10
3.0411483481
 20
5.5160047818
 30
0.0
 10
3.0411818222
 20
5.5160592573
 30
0.0
 10
3.0412468804
 20
5.5161849362
 30
0.0
 10
3.0413350501
 20
5.5163984809
 30
0.0
 10
3.0414216091
 20
5.516652359
 30
0.0
 10
3.0415380088
 20
5.517057608
 30
0.0
 10
3.0416657343
 20
5.5176327352
 30
0.0
 10
3.0417432525
 20
5.5181142788
 30
0.0
 10
3.0417774315
 20
5.5183688141
 30
0.0
  0
LINE
  5
568
100
AcDbEntity
  8
0
100
AcDbLine
 62
7
  6
CONTINUOUS
 10
3.041311403
 20
5.5089176344
 11
3.041104072
 21
5.5098557262
  0
SPLINE
  5
569
100
AcDbEntity
  8
0
100
AcDbSpline
 62
7
  6
CONTINUOUS
 70
0
 71
3
 72
33
 73
29
 74
0
 42
0.0000001
 43
0.0000001
 44
0.0000000001
 40
0.0
 40
0.0
 40
0.0
 40
0.0
 40
0.1935289293
 40
0.2855282452
 40
0.374801188
 40
0.4615157781
 40
0.5451278286
 40
0.6248931995
 40
0.6999741503
 40
0.7688927162
 40
0.8004126038
 40
0.8296293093
 40
0.8562850168
 40
0.8801695567
 40
0.9013978678
 40
0.9202233552
 40
0.9368971816
 40
0.9516717155
 40
0.9648076038
 40
0.9764310119
 40
0.9815773615
 40
0.9862077195
 40
0.9902666697
 40
0.9936979563
 40
0.9964446077
 40
0.9984490527
 40
0.9996532812
 40
1.0
 40
1.0
 40
1.0
 40
1.0
 10
4.1231322903
 20
5.7270472445
 30
0.0
 10
4.1234552013
 20
5.7274244709
 30
0.0
 10
4.1239473396
 20
5.7279681809
 30
0.0
 10
4.1246332992
 20
5.7286424962
 30
0.0
 10
4.1251443469
 20
5.7291029149
 30
0.0
 10
4.1256600734
 20
5.7295248175
 30
0.0
 10
4.1261734061
 20
5.7299101237
 30
0.0
 10
4.1266760476
 20
5.7302592044
 30
0.0
 10
4.1271583599
 20
5.7305708277
 30
0.0
 10
4.1275424815
 20
5.7308059534
 30
0.0
 10
4.1278274367
 20
5.7309776217
 30
0.0
 10
4.1280194998
 20
5.7310933448
 30
0.0
 10
4.1281942335
 20
5.731199871
 30
0.0
 10
4.1283500947
 20
5.7312979483
 30
0.0
 10
4.1284877825
 20
5.7313871489
 30
0.0
 10
4.1286093718
 20
5.7314671587
 30
0.0
 10
4.1287171937
 20
5.7315379672
 30
0.0
 10
4.1288136007
 20
5.7315995578
 30
0.0
 10
4.1289006604
 20
5.7316516639
 30
0.0
 10
4.128968375
 20
5.7316878423
 30
0.0
 10
4.1290175585
 20
5.7317122155
 30
0.0
 10
4.1290496969
 20
5.7317274126
 30
0.0
 10
4.1290778768
 20
5.7317402115
 30
0.0
 10
4.1291023755
 20
5.7317508334
 30
0.0
 10
4.1291205993
 20
5.7317586581
 30
0.0
 10
4.1291373423
 20
5.7317652249
 30
0.0
 10
4.1291412548
 20
5.731767332
 30
0.0
 10
4.1291493047
 20
5.7317701649
 30
0.0
 10
4.1291484151
 20
5.7317701764
 30
0.0
  0
LINE
  5
56A
100
AcDbEntity
  8
0
100
AcDbLine
 62
7
  6
CONTINUOUS
 10
3.038738877
 20
5.5046096586
 11
3.0385464802
 21
5.5055477502
  0
LINE
  5
56B
100
AcDbEntity
  8
0
100
AcDbLine
 62
7
  6
CONTINUOUS
 10
6.6238427933
 20
5.3739306942
 11
6.6240351901
 21
5.3729926026
  0
LINE
  5
56C
100
AcDbEntity
  8
0
100
AcDbLine
 62
7
  6
CONTINUOUS
 10
3.0298895509
 20
5.5539864909
 11
3.0310349837
 21
5.5600840476
  0
LINE
  5
56D
100
AcDbEntity
  8
0
100
AcDbLine
 62
7
  6
CONTINUOUS
 10
3.0310349837
 20
5.5600840476
 11
3.0312443421
 21
5.5612178935
  0
LINE
  5
56E
100
AcDbEntity
  8
0
100
AcDbLine
 62
7
  6
CONTINUOUS
 10
3.0312443421
 20
5.5612178935
 11
3.0313549433
 21
5.5618180238
  0
LINE
  5
56F
100
AcDbEntity
  8
0
100
AcDbLine
 62
7
  6
CONTINUOUS
 10
3.0313549433
 20
5.5618180238
 11
3.0315880016
 21
5.5630848235
  0
LINE
  5
570
100
AcDbEntity
  8
0
100
AcDbLine
 62
7
  6
CONTINUOUS
 10
3.0315880016
 20
5.5630848235
 11
3.0319682847
 21
5.5651573278
  0
LINE
  5
571
100
AcDbEntity
  8
0
100
AcDbLine
 62
7
  6
CONTINUOUS
 10
3.0319682847
 20
5.5651573278
 11
3.03238752
 21
5.5674485679
  0
LINE
  5
572
100
AcDbEntity
  8
0
100
AcDbLine
 62
7
  6
CONTINUOUS
 10
3.0359397614
 20
5.5872370746
 11
3.0362128142
 21
5.5887911638
  0
LINE
  5
573
100
AcDbEntity
  8
0
100
AcDbLine
 62
7
  6
CONTINUOUS
 10
3.0362128142
 20
5.5887911638
 11
3.0375648943
 21
5.5966819886
  0
LINE
  5
574
100
AcDbEntity
  8
0
100
AcDbLine
 62
7
  6
CONTINUOUS
 10
3.0276313069
 20
5.5370201764
 11
3.0287674317
 21
5.5432610997
  0
LINE
  5
575
100
AcDbEntity
  8
0
100
AcDbLine
 62
7
  6
CONTINUOUS
 10
3.0232371881
 20
5.4840201764
 11
3.0232901218
 21
5.483523586
  0
LINE
  5
576
100
AcDbEntity
  8
0
100
AcDbLine
 62
7
  6
CONTINUOUS
 10
3.0232901218
 20
5.483523586
 11
3.0233011673
 21
5.4827176337
  0
LINE
  5
577
100
AcDbEntity
  8
0
100
AcDbLine
 62
7
  6
CONTINUOUS
 10
3.0253955403
 20
5.5151691685
 11
3.025713334
 21
5.5205201764
  0
LINE
  5
578
100
AcDbEntity
  8
0
100
AcDbLine
 62
7
  6
CONTINUOUS
 10
6.6212702673
 20
5.3696227184
 11
6.6214775982
 21
5.3686846266
  0
LINE
  5
579
100
AcDbEntity
  8
0
100
AcDbLine
 62
7
  6
CONTINUOUS
 10
3.0246646727
 20
5.502451362
 11
3.024368754
 21
5.5005201764
  0
LINE
  5
57A
100
AcDbEntity
  8
0
100
AcDbLine
 62
7
  6
CONTINUOUS
 10
6.621053142
 20
5.5449560688
 11
6.6210064808
 21
5.544763905
  0
LINE
  5
57B
100
AcDbEntity
  8
0
100
AcDbLine
 62
7
  6
CONTINUOUS
 10
3.023867086
 20
5.5005201764
 11
3.0245405917
 21
5.5059059118
  0
SPLINE
  5
57C
100
AcDbEntity
  8
0
100
AcDbSpline
 62
7
  6
CONTINUOUS
 70
0
 71
3
 72
13
 73
9
 74
0
 42
0.0000001
 43
0.0000001
 44
0.0000000001
 40
0.0
 40
0.0
 40
0.0
 40
0.0
 40
0.0780211081
 40
0.172257847
 40
0.2817391804
 40
0.4051431262
 40
0.6866133951
 40
1.0
 40
1.0
 40
1.0
 40
1.0
 10
6.6214333222
 20
5.362535571
 30
0.0
 10
6.6213998481
 20
5.3624810955
 30
0.0
 10
6.6213347899
 20
5.3623554166
 30
0.0
 10
6.6212466202
 20
5.3621418719
 30
0.0
 10
6.6211600612
 20
5.3618879939
 30
0.0
 10
6.6210436615
 20
5.3614827448
 30
0.0
 10
6.6209159359
 20
5.3609076176
 30
0.0
 10
6.6208384177
 20
5.360426074
 30
0.0
 10
6.6208042388
 20
5.3601715387
 30
0.0
  0
LINE
  5
57D
100
AcDbEntity
  8
0
100
AcDbLine
 62
7
  6
CONTINUOUS
 10
3.0262162042
 20
5.5205201764
 11
3.0262291691
 21
5.5199287964
  0
LINE
  5
57E
100
AcDbEntity
  8
0
100
AcDbLine
 62
7
  6
CONTINUOUS
 10
3.0262291691
 20
5.5199287964
 11
3.0261611341
 21
5.5186748385
  0
SPLINE
  5
57F
100
AcDbEntity
  8
0
100
AcDbSpline
 62
7
  6
CONTINUOUS
 70
0
 71
3
 72
9
 73
5
 74
0
 42
0.0000001
 43
0.0000001
 44
0.0000000001
 40
0.0
 40
0.0
 40
0.0
 40
0.0
 40
0.2413946942
 40
1.0
 40
1.0
 40
1.0
 40
1.0
 10
6.6249867835
 20
5.5387308196
 30
0.0
 10
6.6249818308
 20
5.5387308189
 30
0.0
 10
6.6249613148
 20
5.5387317534
 30
0.0
 10
6.6249410479
 20
5.5387364456
 30
0.0
 10
6.6249263432
 20
5.538741547
 30
0.0
  0
SPLINE
  5
580
100
AcDbEntity
  8
0
100
AcDbSpline
 62
7
  6
CONTINUOUS
 70
0
 71
3
 72
14
 73
10
 74
0
 42
0.0000001
 43
0.0000001
 44
0.0000000001
 40
0.0
 40
0.0
 40
0.0
 40
0.0
 40
0.0604982246
 40
0.1370714018
 40
0.2322868515
 40
0.3470790557
 40
0.4816354635
 40
0.6357242973
 40
1.0
 40
1.0
 40
1.0
 40
1.0
 10
6.6249263432
 20
5.538741547
 30
0.0
 10
6.6248959521
 20
5.5387520903
 30
0.0
 10
6.6248323873
 20
5.5387906449
 30
0.0
 10
6.6247445581
 20
5.5388781596
 30
0.0
 10
6.6246532042
 20
5.5390006334
 30
0.0
 10
6.6245587099
 20
5.5391578106
 30
0.0
 10
6.6244613622
 20
5.5393491204
 30
0.0
 10
6.6243205671
 20
5.539666578
 30
0.0
 10
6.6242251055
 20
5.5399254666
 30
0.0
 10
6.6241624327
 20
5.5401087387
 30
0.0
  0
LINE
  5
581
100
AcDbEntity
  8
0
100
AcDbLine
 62
7
  6
CONTINUOUS
 10
3.0227166098
 20
5.4778318616
 11
3.0227362536
 21
5.4840201764
  0
LINE
  5
582
100
AcDbEntity
  8
0
100
AcDbLine
 62
7
  6
CONTINUOUS
 10
3.0284577766
 20
5.5384102571
 11
3.0281354322
 21
5.5370201764
  0
LINE
  5
583
100
AcDbEntity
  8
0
100
AcDbLine
 62
7
  6
CONTINUOUS
 10
6.6248550811
 20
5.5059462754
 11
6.6253576573
 21
5.5053896577
  0
LINE
  5
584
100
AcDbEntity
  8
0
100
AcDbLine
 62
7
  6
CONTINUOUS
 10
6.6242588787
 20
5.507637553
 11
6.6243632797
 21
5.5069689704
  0
LINE
  5
585
100
AcDbEntity
  8
0
100
AcDbLine
 62
7
  6
CONTINUOUS
 10
6.6242624862
 20
5.5088094364
 11
6.6242588787
 21
5.507637553
  0
LINE
  5
586
100
AcDbEntity
  8
0
100
AcDbLine
 62
7
  6
CONTINUOUS
 10
6.6243009051
 20
5.509075021
 11
6.6242624862
 21
5.5088094364
  0
LINE
  5
587
100
AcDbEntity
  8
0
100
AcDbLine
 62
7
  6
CONTINUOUS
 10
3.0279459425
 20
5.3437701764
 11
3.0280222177
 21
5.3435381914
  0
LINE
  5
588
100
AcDbEntity
  8
0
100
AcDbLine
 62
7
  6
CONTINUOUS
 10
3.0267942711
 20
5.3539599964
 11
3.0267694996
 21
5.3537701764
  0
SPLINE
  5
589
100
AcDbEntity
  8
0
100
AcDbSpline
 62
7
  6
CONTINUOUS
 70
0
 71
3
 72
9
 73
5
 74
0
 42
0.0000001
 43
0.0000001
 44
0.0000000001
 40
0.0
 40
0.0
 40
0.0
 40
0.0
 40
0.7453824298
 40
1.0
 40
1.0
 40
1.0
 40
1.0
 10
6.6208929734
 20
5.3479925468
 30
0.0
 10
6.6208724528
 20
5.3479925442
 30
0.0
 10
6.6208446939
 20
5.3479966914
 30
0.0
 10
6.6208187377
 20
5.3480059064
 30
0.0
 10
6.6208122429
 20
5.3480085433
 30
0.0
  0
LINE
  5
58A
100
AcDbEntity
  8
0
100
AcDbLine
 62
7
  6
CONTINUOUS
 10
6.6208122429
 20
5.3480085433
 11
6.6205470236
 21
5.3483558049
  0
SPLINE
  5
58B
100
AcDbEntity
  8
0
100
AcDbSpline
 62
7
  6
CONTINUOUS
 70
0
 71
3
 72
16
 73
12
 74
0
 42
0.0000001
 43
0.0000001
 44
0.0000000001
 40
0.0
 40
0.0
 40
0.0
 40
0.0
 40
0.0564596977
 40
0.0896677303
 40
0.1272761488
 40
0.2175131153
 40
0.3295208124
 40
0.464018673
 40
0.6209922929
 40
0.7999776647
 40
1.0
 40
1.0
 40
1.0
 40
1.0
 10
6.6255320026
 20
5.3383799827
 30
0.0
 10
6.6255079945
 20
5.3383799783
 30
0.0
 10
6.6254697712
 20
5.3383691466
 30
0.0
 10
6.6254233301
 20
5.3383413341
 30
0.0
 10
6.625369801
 20
5.3382982405
 30
0.0
 10
6.6253019033
 20
5.3382213826
 30
0.0
 10
6.6252215969
 20
5.3381025905
 30
0.0
 10
6.625138437
 20
5.3379523176
 30
0.0
 10
6.6250528544
 20
5.3377713961
 30
0.0
 10
6.6249654263
 20
5.3375608436
 30
0.0
 10
6.6249092835
 20
5.3374097366
 30
0.0
 10
6.6248808398
 20
5.3373295787
 30
0.0
  0
LINE
  5
58C
100
AcDbEntity
  8
0
100
AcDbLine
 62
7
  6
CONTINUOUS
 10
3.0240271183
 20
5.3837701764
 11
3.024086142
 21
5.3835819052
  0
LINE
  5
58D
100
AcDbEntity
  8
0
100
AcDbLine
 62
7
  6
CONTINUOUS
 10
3.022594917
 20
5.3987701764
 11
3.0224946053
 21
5.4059330199
  0
SPLINE
  5
58E
100
AcDbEntity
  8
0
100
AcDbSpline
 62
7
  6
CONTINUOUS
 70
0
 71
3
 72
9
 73
5
 74
0
 42
0.0000001
 43
0.0000001
 44
0.0000000001
 40
0.0
 40
0.0
 40
0.0
 40
0.0
 40
0.415765677
 40
1.0
 40
1.0
 40
1.0
 40
1.0
 10
6.6230014528
 20
5.5087239605
 30
0.0
 10
6.6229947274
 20
5.508728319
 30
0.0
 10
6.622981652
 20
5.508743154
 30
0.0
 10
6.6229721946
 20
5.5087599248
 30
0.0
 10
6.6229671758
 20
5.5087700062
 30
0.0
  0
LINE
  5
58F
100
AcDbEntity
  8
0
100
AcDbLine
 62
7
  6
CONTINUOUS
 10
3.0231312865
 20
5.3989576295
 11
3.0230957599
 21
5.3987701764
  0
LINE
  5
590
100
AcDbEntity
  8
0
100
AcDbLine
 62
7
  6
CONTINUOUS
 10
3.0243185189
 20
5.376566844
 11
3.023525672
 21
5.3837701764
  0
LINE
  5
591
100
AcDbEntity
  8
0
100
AcDbLine
 62
7
  6
CONTINUOUS
 10
3.0262662682
 20
5.3537701764
 11
3.0257474696
 21
5.3609306168
  0
SPLINE
  5
592
100
AcDbEntity
  8
0
100
AcDbSpline
 62
7
  6
CONTINUOUS
 70
0
 71
3
 72
29
 73
25
 74
0
 42
0.0000001
 43
0.0000001
 44
0.0000000001
 40
0.0
 40
0.0
 40
0.0
 40
0.0
 40
0.063536123
 40
0.1267684449
 40
0.1896790511
 40
0.2522613336
 40
0.3145276597
 40
0.3455586333
 40
0.3765277384
 40
0.4074444693
 40
0.438320041
 40
0.469167246
 40
0.5
 40
0.530832754
 40
0.5616799591
 40
0.5925555308
 40
0.6234722617
 40
0.6544413667
 40
0.6854723403
 40
0.7477386664
 40
0.8103209489
 40
0.8732315551
 40
0.936463877
 40
1.0
 40
1.0
 40
1.0
 40
1.0
 10
3.9312908351
 20
5.1267701764
 30
0.0
 10
3.9347953781
 20
5.1328402229
 30
0.0
 10
3.9415599307
 20
5.1450851044
 30
0.0
 10
3.9508674274
 20
5.1638341865
 30
0.0
 10
3.9591691538
 20
5.1829384024
 30
0.0
 10
3.9663041626
 20
5.2023974146
 30
0.0
 10
3.9711416675
 20
5.2189155767
 30
0.0
 10
3.9742554172
 20
5.2322688623
 30
0.0
 10
3.9761936881
 20
5.2423370316
 30
0.0
 10
3.9777202989
 20
5.2524585393
 30
0.0
 10
3.9788213864
 20
5.2626217958
 30
0.0
 10
3.9794864404
 20
5.272813691
 30
0.0
 10
3.9797088925
 20
5.2830201764
 30
0.0
 10
3.9794864404
 20
5.2932266619
 30
0.0
 10
3.9788213864
 20
5.303418557
 30
0.0
 10
3.9777202989
 20
5.3135818135
 30
0.0
 10
3.9761936881
 20
5.3237033212
 30
0.0
 10
3.9742554172
 20
5.3337714906
 30
0.0
 10
3.9711416675
 20
5.3471247761
 30
0.0
 10
3.9663041626
 20
5.3636429382
 30
0.0
 10
3.9591691538
 20
5.3831019504
 30
0.0
 10
3.9508674274
 20
5.4022061663
 30
0.0
 10
3.9415599307
 20
5.4209552485
 30
0.0
 10
3.9347953781
 20
5.4332001299
 30
0.0
 10
3.9312908351
 20
5.4392701764
 30
0.0
  0
LINE
  5
593
100
AcDbEntity
  8
0
100
AcDbLine
 62
7
  6
CONTINUOUS
 10
3.0283993318
 20
5.3379042804
 11
3.0274419414
 21
5.3437701764
  0
SPLINE
  5
594
100
AcDbEntity
  8
0
100
AcDbSpline
 62
7
  6
CONTINUOUS
 70
0
 71
3
 72
19
 73
15
 74
0
 42
0.0000001
 43
0.0000001
 44
0.0000000001
 40
0.0
 40
0.0
 40
0.0
 40
0.0
 40
0.0230686919
 40
0.0479474404
 40
0.0767373765
 40
0.1107837319
 40
0.1508634981
 40
0.1973663637
 40
0.2504618935
 40
0.3101686896
 40
0.4489289467
 40
0.6120086925
 40
0.7968363519
 40
1.0
 40
1.0
 40
1.0
 40
1.0
 10
6.6216876284
 20
5.5226881295
 30
0.0
 10
6.6216609284
 20
5.5226881252
 30
0.0
 10
6.6216049814
 20
5.5226780928
 30
0.0
 10
6.6215267335
 20
5.5226333736
 30
0.0
 10
6.6214539957
 20
5.5225613856
 30
0.0
 10
6.6213859719
 20
5.5224630322
 30
0.0
 10
6.6213223932
 20
5.5223383971
 30
0.0
 10
6.6212633004
 20
5.5221877143
 30
0.0
 10
6.621208946
 20
5.5220113862
 30
0.0
 10
6.6211397052
 20
5.5217284437
 30
0.0
 10
6.6210701904
 20
5.5213152815
 30
0.0
 10
6.6210126848
 20
5.5207547032
 30
0.0
 10
6.6209793082
 20
5.52011754
 30
0.0
 10
6.6209739362
 20
5.5196683897
 30
0.0
 10
6.6209750466
 20
5.519433248
 30
0.0
  0
LINE
  5
595
100
AcDbEntity
  8
0
100
AcDbLine
 62
7
  6
CONTINUOUS
 10
3.0316679942
 20
5.5607691107
 11
3.0316220876
 21
5.5605206518
  0
LINE
  5
596
100
AcDbEntity
  8
0
100
AcDbLine
 62
7
  6
CONTINUOUS
 10
3.0316220876
 20
5.5605206518
 11
3.0315069634
 21
5.5598982291
  0
LINE
  5
597
100
AcDbEntity
  8
0
100
AcDbLine
 62
7
  6
CONTINUOUS
 10
3.0315069634
 20
5.5598982291
 11
3.0303951619
 21
5.5539864909
  0
LINE
  5
598
100
AcDbEntity
  8
0
100
AcDbLine
 62
7
  6
CONTINUOUS
 10
3.029274585
 20
5.3302701764
 11
3.0290393815
 21
5.3332842861
  0
SPLINE
  5
599
100
AcDbEntity
  8
0
100
AcDbSpline
 62
7
  6
CONTINUOUS
 70
0
 71
3
 72
27
 73
23
 74
0
 42
0.0000001
 43
0.0000001
 44
0.0000000001
 40
0.0
 40
0.0
 40
0.0
 40
0.0
 40
0.0320816573
 40
0.0639813046
 40
0.0957143852
 40
0.1273003299
 40
0.1900838723
 40
0.2524733492
 40
0.3145767907
 40
0.3764844852
 40
0.4382710708
 40
0.4999999999
 40
0.5617289289
 40
0.6235155144
 40
0.6854232089
 40
0.7475266504
 40
0.8099161271
 40
0.8726996692
 40
0.9042856136
 40
0.9360186942
 40
0.9679183423
 40
1.0
 40
1.0
 40
1.0
 40
1.0
 10
3.8312908351
 20
5.4392701764
 30
0.0
 10
3.8292959167
 20
5.4363647332
 30
0.0
 10
3.8254592556
 20
5.4304715183
 30
0.0
 10
3.8201475639
 20
5.4213927246
 30
0.0
 10
3.8152852657
 20
5.4121268225
 30
0.0
 10
3.8093977742
 20
5.3995828079
 30
0.0
 10
3.8030855177
 20
5.38353728
 30
0.0
 10
3.79708257
 20
5.3638390431
 30
0.0
 10
3.7925518182
 20
5.3438518248
 30
0.0
 10
3.7893945294
 20
5.3236716411
 30
0.0
 10
3.7875330247
 20
5.3033736731
 30
0.0
 10
3.7869180942
 20
5.2830201765
 30
0.0
 10
3.7875330247
 20
5.2626666798
 30
0.0
 10
3.7893945294
 20
5.2423687118
 30
0.0
 10
3.7925518181
 20
5.2221885281
 30
0.0
 10
3.79708257
 20
5.2022013098
 30
0.0
 10
3.8030855177
 20
5.182503073
 30
0.0
 10
3.8093977741
 20
5.1664575452
 30
0.0
 10
3.8152852655
 20
5.1539135306
 30
0.0
 10
3.8201475637
 20
5.1446476285
 30
0.0
 10
3.8254592555
 20
5.1355688347
 30
0.0
 10
3.8292959167
 20
5.1296756197
 30
0.0
 10
3.8312908351
 20
5.1267701764
 30
0.0
  0
SPLINE
  5
59A
100
AcDbEntity
  8
0
100
AcDbSpline
 62
7
  6
CONTINUOUS
 70
0
 71
3
 72
15
 73
11
 74
0
 42
0.0000001
 43
0.0000001
 44
0.0000000001
 40
0.0
 40
0.0
 40
0.0
 40
0.0
 40
0.1997891606
 40
0.3772647739
 40
0.531684384
 40
0.6631016945
 40
0.7723067947
 40
0.8613628745
 40
0.9346063081
 40
1.0
 40
1.0
 40
1.0
 40
1.0
 10
6.6208704744
 20
5.3491687524
 30
0.0
 10
6.6208828084
 20
5.349078659
 30
0.0
 10
6.6209094905
 20
5.3489089616
 30
0.0
 10
6.6209593785
 20
5.3486720302
 30
0.0
 10
6.6210164637
 20
5.3484688206
 30
0.0
 10
6.6210802435
 20
5.3483003768
 30
0.0
 10
6.6211504612
 20
5.348167169
 30
0.0
 10
6.6212273154
 20
5.3480691787
 30
0.0
 10
6.6213126096
 20
5.3480069335
 30
0.0
 10
6.6213763792
 20
5.3479925431
 30
0.0
 10
6.6214061431
 20
5.3479925468
 30
0.0
  0
SPLINE
  5
59B
100
AcDbEntity
  8
0
100
AcDbSpline
 62
7
  6
CONTINUOUS
 70
0
 71
3
 72
15
 73
11
 74
0
 42
0.0000001
 43
0.0000001
 44
0.0000000001
 40
0.0
 40
0.0
 40
0.0
 40
0.0
 40
0.0740515486
 40
0.1543937336
 40
0.247567251
 40
0.3577396128
 40
0.4872485253
 40
0.6373062444
 40
0.8083178826
 40
1.0
 40
1.0
 40
1.0
 40
1.0
 10
6.6214097687
 20
5.5063480383
 30
0.0
 10
6.6213809439
 20
5.5063480419
 30
0.0
 10
6.621320371
 20
5.5063370838
 30
0.0
 10
6.6212354765
 20
5.5062886428
 30
0.0
 10
6.6211558997
 20
5.5062108617
 30
0.0
 10
6.6210809594
 20
5.5061045594
 30
0.0
 10
6.6210103501
 20
5.5059699334
 30
0.0
 10
6.6209442536
 20
5.5058072526
 30
0.0
 10
6.6208830067
 20
5.5056171475
 30
0.0
 10
6.6208476172
 20
5.5054803973
 30
0.0
 10
6.6208305682
 20
5.5054077582
 30
0.0
  0
SPLINE
  5
59C
100
AcDbEntity
  8
0
100
AcDbSpline
 62
7
  6
CONTINUOUS
 70
0
 71
3
 72
29
 73
25
 74
0
 42
0.0000001
 43
0.0000001
 44
0.0000000001
 40
0.0
 40
0.0
 40
0.0
 40
0.0
 40
0.063536123
 40
0.1267684449
 40
0.1896790511
 40
0.2522613336
 40
0.3145276597
 40
0.3455586333
 40
0.3765277384
 40
0.4074444693
 40
0.438320041
 40
0.469167246
 40
0.5
 40
0.530832754
 40
0.5616799591
 40
0.5925555308
 40
0.6234722617
 40
0.6544413667
 40
0.6854723403
 40
0.7477386664
 40
0.8103209489
 40
0.8732315551
 40
0.936463877
 40
1.0
 40
1.0
 40
1.0
 40
1.0
 10
3.9312908351
 20
5.4392701764
 30
0.0
 10
3.9347953781
 20
5.4453402229
 30
0.0
 10
3.9415599307
 20
5.4575851044
 30
0.0
 10
3.9508674274
 20
5.4763341865
 30
0.0
 10
3.9591691538
 20
5.4954384024
 30
0.0
 10
3.9663041626
 20
5.5148974146
 30
0.0
 10
3.9711416675
 20
5.5314155767
 30
0.0
 10
3.9742554172
 20
5.5447688623
 30
0.0
 10
3.9761936881
 20
5.5548370316
 30
0.0
 10
3.9777202989
 20
5.5649585393
 30
0.0
 10
3.9788213864
 20
5.5751217958
 30
0.0
 10
3.9794864404
 20
5.585313691
 30
0.0
 10
3.9797088925
 20
5.5955201764
 30
0.0
 10
3.9794864404
 20
5.6057266619
 30
0.0
 10
3.9788213864
 20
5.615918557
 30
0.0
 10
3.9777202989
 20
5.6260818135
 30
0.0
 10
3.9761936881
 20
5.6362033212
 30
0.0
 10
3.9742554172
 20
5.6462714906
 30
0.0
 10
3.9711416675
 20
5.6596247761
 30
0.0
 10
3.9663041626
 20
5.6761429382
 30
0.0
 10
3.9591691538
 20
5.6956019504
 30
0.0
 10
3.9508674274
 20
5.7147061663
 30
0.0
 10
3.9415599307
 20
5.7334552485
 30
0.0
 10
3.9347953781
 20
5.7457001299
 30
0.0
 10
3.9312908351
 20
5.7517701764
 30
0.0
  0
SPLINE
  5
59D
100
AcDbEntity
  8
0
100
AcDbSpline
 62
7
  6
CONTINUOUS
 70
0
 71
3
 72
13
 73
9
 74
0
 42
0.0000001
 43
0.0000001
 44
0.0000000001
 40
0.0
 40
0.0
 40
0.0
 40
0.0
 40
0.0936051877
 40
0.2017405673
 40
0.3220623689
 40
0.4518367055
 40
0.7271094518
 40
1.0
 40
1.0
 40
1.0
 40
1.0
 10
6.6222049485
 20
5.3466159007
 30
0.0
 10
6.6221325394
 20
5.3464273529
 30
0.0
 10
6.6219924778
 20
5.3460148347
 30
0.0
 10
6.6218034321
 20
5.345345919
 30
0.0
 10
6.6216240538
 20
5.3445938535
 30
0.0
 10
6.6213998203
 20
5.3434824679
 30
0.0
 10
6.6211784132
 20
5.3420356367
 30
0.0
 10
6.6210661577
 20
5.34085732
 30
0.0
 10
6.6210307404
 20
5.3402695655
 30
0.0
  0
SPLINE
  5
59E
100
AcDbEntity
  8
0
100
AcDbSpline
 62
7
  6
CONTINUOUS
 70
0
 71
3
 72
27
 73
23
 74
0
 42
0.0000001
 43
0.0000001
 44
0.0000000001
 40
0.0
 40
0.0
 40
0.0
 40
0.0
 40
0.0084549378
 40
0.0179870344
 40
0.0291438881
 40
0.0422449695
 40
0.0574593435
 40
0.0748623944
 40
0.094475856
 40
0.1162801018
 40
0.1662618281
 40
0.2242500876
 40
0.2894514555
 40
0.3608966627
 40
0.4374648849
 40
0.5178991547
 40
0.6008245244
 40
0.6847709314
 40
0.768204622
 40
0.8495647522
 40
0.9273191892
 40
1.0
 40
1.0
 40
1.0
 40
1.0
 10
6.621270567
 20
5.5288546081
 30
0.0
 10
6.6213119768
 20
5.5288546058
 30
0.0
 10
6.6214004363
 20
5.5288386918
 30
0.0
 10
6.6215289752
 20
5.5287735745
 30
0.0
 10
6.6216585827
 20
5.5286692964
 30
0.0
 10
6.6217897347
 20
5.5285265729
 30
0.0
 10
6.6219225158
 20
5.5283458669
 30
0.0
 10
6.6220566012
 20
5.5281277542
 30
0.0
 10
6.6221914798
 20
5.5278730147
 30
0.0
 10
6.6223803553
 20
5.5274669945
 30
0.0
 10
6.6226106056
 20
5.5268738984
 30
0.0
 10
6.6228704717
 20
5.526066212
 30
0.0
 10
6.6231201687
 20
5.5251459291
 30
0.0
 10
6.6233551642
 20
5.5241282376
 30
0.0
 10
6.6235710285
 20
5.5230302057
 30
0.0
 10
6.6237636322
 20
5.5218708427
 30
0.0
 10
6.6239291748
 20
5.5206708285
 30
0.0
 10
6.6240643057
 20
5.5194522314
 30
0.0
 10
6.6241662108
 20
5.5182380968
 30
0.0
 10
6.6242327574
 20
5.5170518658
 30
0.0
 10
6.6242625373
 20
5.5159168221
 30
0.0
 10
6.6242573367
 20
5.515179859
 30
0.0
 10
6.6242475782
 20
5.5148240237
 30
0.0
  0
SPLINE
  5
59F
100
AcDbEntity
  8
0
100
AcDbSpline
 62
7
  6
CONTINUOUS
 70
0
 71
3
 72
13
 73
9
 74
0
 42
0.0000001
 43
0.0000001
 44
0.0000000001
 40
0.0
 40
0.0
 40
0.0
 40
0.0
 40
0.0936283665
 40
0.2018404199
 40
0.3222244531
 40
0.4520139956
 40
0.7271998947
 40
1.0
 40
1.0
 40
1.0
 40
1.0
 10
6.6221846176
 20
5.3300310523
 30
0.0
 10
6.6221119947
 20
5.3298419527
 30
0.0
 10
6.6219701333
 20
5.3294286468
 30
0.0
 10
6.6217751651
 20
5.3287591623
 30
0.0
 10
6.6215864145
 20
5.3280069481
 30
0.0
 10
6.6213449625
 20
5.3268961181
 30
0.0
 10
6.6210950523
 20
5.3254504676
 30
0.0
 10
6.6209535657
 20
5.3242726439
 30
0.0
 10
6.6209017687
 20
5.3236847171
 30
0.0
  0
SPLINE
  5
5A0
100
AcDbEntity
  8
0
100
AcDbSpline
 62
7
  6
CONTINUOUS
 70
0
 71
3
 72
27
 73
23
 74
0
 42
0.0000001
 43
0.0000001
 44
0.0000000001
 40
0.0
 40
0.0
 40
0.0
 40
0.0
 40
0.0320816579
 40
0.0639813068
 40
0.0957143878
 40
0.1273003321
 40
0.1900838742
 40
0.2524733505
 40
0.3145767916
 40
0.3764844858
 40
0.4382710713
 40
0.5000000002
 40
0.5617289291
 40
0.6235155146
 40
0.6854232088
 40
0.7475266499
 40
0.8099161263
 40
0.8726996688
 40
0.9042856133
 40
0.9360186943
 40
0.9679183424
 40
1.0
 40
1.0
 40
1.0
 40
1.0
 10
3.8312908351
 20
5.7517701764
 30
0.0
 10
3.8292959167
 20
5.7488647331
 30
0.0
 10
3.8254592554
 20
5.742971518
 30
0.0
 10
3.8201475636
 20
5.7338927241
 30
0.0
 10
3.8152852654
 20
5.7246268218
 30
0.0
 10
3.8093977739
 20
5.7120828072
 30
0.0
 10
3.8030855175
 20
5.6960372795
 30
0.0
 10
3.7970825699
 20
5.6763390427
 30
0.0
 10
3.7925518181
 20
5.6563518245
 30
0.0
 10
3.7893945294
 20
5.6361716409
 30
0.0
 10
3.7875330247
 20
5.615873673
 30
0.0
 10
3.7869180942
 20
5.5955201764
 30
0.0
 10
3.7875330247
 20
5.5751666797
 30
0.0
 10
3.7893945294
 20
5.5548687118
 30
0.0
 10
3.7925518181
 20
5.5346885282
 30
0.0
 10
3.79708257
 20
5.51470131
 30
0.0
 10
3.8030855176
 20
5.4950030732
 30
0.0
 10
3.809397774
 20
5.4789575453
 30
0.0
 10
3.8152852655
 20
5.4664135307
 30
0.0
 10
3.8201475637
 20
5.4571476285
 30
0.0
 10
3.8254592555
 20
5.4480688347
 30
0.0
 10
3.8292959167
 20
5.4421756196
 30
0.0
 10
3.8312908351
 20
5.4392701764
 30
0.0
  0
SPLINE
  5
5A1
100
AcDbEntity
  8
0
100
AcDbSpline
 62
7
  6
CONTINUOUS
 70
0
 71
3
 72
16
 73
12
 74
0
 42
0.0000001
 43
0.0000001
 44
0.0000000001
 40
0.0
 40
0.0
 40
0.0
 40
0.0
 40
0.2006600944
 40
0.3803166239
 40
0.5378921411
 40
0.6728277079
 40
0.7849781741
 40
0.874908252
 40
0.9121645345
 40
0.9448865012
 40
1.0
 40
1.0
 40
1.0
 40
1.0
 10
6.624673391
 20
5.5401087387
 30
0.0
 10
6.6247092121
 20
5.5400039177
 30
0.0
 10
6.6247799884
 20
5.5398062097
 30
0.0
 10
6.624890395
 20
5.539530467
 30
0.0
 10
6.6249986439
 20
5.5392932271
 30
0.0
 10
6.6251039381
 20
5.539095955
 30
0.0
 10
6.6252056368
 20
5.5389398744
 30
0.0
 10
6.6252916727
 20
5.5388386604
 30
0.0
 10
6.6253596138
 20
5.5387818112
 30
0.0
 10
6.6254181897
 20
5.5387452465
 30
0.0
 10
6.6254667623
 20
5.5387308158
 30
0.0
 10
6.6254971872
 20
5.5387308196
 30
0.0
  0
LINE
  5
5A2
100
AcDbEntity
  8
0
100
AcDbLine
 62
7
  6
CONTINUOUS
 10
6.6210064808
 20
5.5506739856
 11
6.6211252714
 21
5.5499721495
  0
LINE
  5
5A3
100
AcDbEntity
  8
0
100
AcDbLine
 62
7
  6
CONTINUOUS
 10
3.0378834085
 20
5.5095226465
 11
3.0376559586
 21
5.5093042021
  0
SPLINE
  5
5A4
100
AcDbEntity
  8
0
100
AcDbSpline
 62
7
  6
CONTINUOUS
 70
0
 71
3
 72
16
 73
12
 74
0
 42
0.0000001
 43
0.0000001
 44
0.0000000001
 40
0.0
 40
0.0
 40
0.0
 40
0.0
 40
0.0557487543
 40
0.0902996727
 40
0.1297854781
 40
0.2242310633
 40
0.3397869217
 40
0.4761444582
 40
0.632494553
 40
0.8076811952
 40
1.0
 40
1.0
 40
1.0
 40
1.0
 10
6.6213919932
 20
5.5571010189
 30
0.0
 10
6.6213509513
 20
5.5570677076
 30
0.0
 10
6.6212977845
 20
5.5569978663
 30
0.0
 10
6.6212407147
 20
5.5568890356
 30
0.0
 10
6.6211802531
 20
5.5567408252
 30
0.0
 10
6.6211162308
 20
5.5565125104
 30
0.0
 10
6.6210566347
 20
5.5561892852
 30
0.0
 10
6.6210113487
 20
5.5558046266
 30
0.0
 10
6.6209810002
 20
5.5553618934
 30
0.0
 10
6.6209660872
 20
5.5548653183
 30
0.0
 10
6.6209665471
 20
5.5545168068
 30
0.0
 10
6.6209691199
 20
5.5543344747
 30
0.0
  0
SPLINE
  5
5A5
100
AcDbEntity
  8
0
100
AcDbSpline
 62
7
  6
CONTINUOUS
 70
0
 71
3
 72
9
 73
5
 74
0
 42
0.0000001
 43
0.0000001
 44
0.0000000001
 40
0.0
 40
0.0
 40
0.0
 40
0.0
 40
0.2467611429
 40
1.0
 40
1.0
 40
1.0
 40
1.0
 10
6.6248471597
 20
5.5053896577
 30
0.0
 10
6.62484377
 20
5.5053896581
 30
0.0
 10
6.6248300348
 20
5.5053900224
 30
0.0
 10
6.6248163458
 20
5.5053918435
 30
0.0
 10
6.624806214
 20
5.5053939432
 30
0.0
  0
LINE
  5
5A6
100
AcDbEntity
  8
0
100
AcDbLine
 62
7
  6
CONTINUOUS
 10
6.624806214
 20
5.5053939432
 11
6.6243442452
 21
5.5059462754
  0
LINE
  5
5A7
100
AcDbEntity
  8
0
100
AcDbLine
 62
7
  6
CONTINUOUS
 10
6.6209691199
 20
5.5411034159
 11
6.6212826472
 21
5.5364620811
  0
SPLINE
  5
5A8
100
AcDbEntity
  8
0
100
AcDbSpline
 62
7
  6
CONTINUOUS
 70
0
 71
3
 72
53
 73
49
 74
0
 42
0.0000001
 43
0.0000001
 44
0.0000000001
 40
0.0
 40
0.0
 40
0.0
 40
0.0
 40
0.0451446233
 40
0.0901987443
 40
0.1350535331
 40
0.1796134907
 40
0.2237857188
 40
0.2456976714
 40
0.2674777131
 40
0.310591838
 40
0.3530307598
 40
0.3947121951
 40
0.4355552832
 40
0.4754712115
 40
0.5143753858
 40
0.5334241004
 40
0.5521918148
 40
0.588855735
 40
0.6067380711
 40
0.6243097972
 40
0.6584811315
 40
0.6750616221
 40
0.6912973961
 40
0.7227224899
 40
0.752723022
 40
0.7671713598
 40
0.7812418208
 40
0.7949294772
 40
0.8082311368
 40
0.8336638897
 40
0.8457902472
 40
0.857520378
 40
0.868851133
 40
0.879777755
 40
0.8902960841
 40
0.9004044753
 40
0.919390415
 40
0.9282675064
 40
0.9367331017
 40
0.9447876915
 40
0.9524341621
 40
0.9596797339
 40
0.9665319602
 40
0.9729947031
 40
0.9790747859
 40
0.9847851848
 40
0.9901493072
 40
1.0
 40
1.0
 40
1.0
 40
1.0
 10
4.1641828012
 20
5.4392701764
 30
0.0
 10
4.1641821858
 20
5.4348878121
 30
0.0
 10
4.1641676491
 20
5.4261318642
 30
0.0
 10
4.1641040382
 20
5.4130218243
 30
0.0
 10
4.1639967065
 20
5.399968821
 30
0.0
 10
4.1638413027
 20
5.3870019127
 30
0.0
 10
4.1636723975
 20
5.376262561
 30
0.0
 10
4.1635182154
 20
5.3677346295
 30
0.0
 10
4.1633522953
 20
5.3593096534
 30
0.0
 10
4.1631165161
 20
5.3488930361
 30
0.0
 10
4.1627690808
 20
5.3365467185
 30
0.0
 10
4.1623720195
 20
5.3244225015
 30
0.0
 10
4.1619392908
 20
5.312544574
 30
0.0
 10
4.1614562825
 20
5.3009383846
 30
0.0
 10
4.1610017826
 20
5.2914486801
 30
0.0
 10
4.1606074863
 20
5.2840115438
 30
0.0
 10
4.1601991813
 20
5.2767929716
 30
0.0
 10
4.1597622963
 20
5.269689471
 30
0.0
 10
4.1593036165
 20
5.2627037316
 30
0.0
 10
4.1588410187
 20
5.2559607713
 30
0.0
 10
4.1583495589
 20
5.2493464451
 30
0.0
 10
4.1578111748
 20
5.242865989
 30
0.0
 10
4.1572607401
 20
5.2366541413
 30
0.0
 10
4.1565431418
 20
5.2291494069
 30
0.0
 10
4.1557933774
 20
5.2218221859
 30
0.0
 10
4.1551669453
 20
5.2161760918
 30
0.0
 10
4.1546866139
 20
5.2121071631
 30
0.0
 10
4.1541893313
 20
5.2081524323
 30
0.0
 10
4.1535166003
 20
5.2031082456
 30
0.0
 10
4.1528087214
 20
5.1982217728
 30
0.0
 10
4.1520688132
 20
5.1934945975
 30
0.0
 10
4.1515165
 20
5.1901237539
 30
0.0
 10
4.1509588292
 20
5.1868718872
 30
0.0
 10
4.150389794
 20
5.1837414517
 30
0.0
 10
4.1498029979
 20
5.180735068
 30
0.0
 10
4.1490122629
 20
5.1769718014
 30
0.0
 10
4.1481804909
 20
5.1733802309
 30
0.0
 10
4.1473091871
 20
5.1699629004
 30
0.0
 10
4.1466641238
 20
5.1675832499
 30
0.0
 10
4.1460076958
 20
5.1653308364
 30
0.0
 10
4.1453349381
 20
5.1632070707
 30
0.0
 10
4.1446367346
 20
5.1612146581
 30
0.0
 10
4.1439099403
 20
5.1593553613
 30
0.0
 10
4.1431635876
 20
5.1576263904
 30
0.0
 10
4.1423988305
 20
5.1560275479
 30
0.0
 10
4.1416120393
 20
5.1545587296
 30
0.0
 10
4.1405542562
 20
5.1528246928
 30
0.0
 10
4.1396567736
 20
5.1516394073
 30
0.0
 10
4.1389996367
 20
5.1509447306
 30
0.0
  0
SPLINE
  5
5A9
100
AcDbEntity
  8
0
100
AcDbSpline
 62
7
  6
CONTINUOUS
 70
0
 71
3
 72
9
 73
5
 74
0
 42
0.0000001
 43
0.0000001
 44
0.0000000001
 40
0.0
 40
0.0
 40
0.0
 40
0.0
 40
0.4554975181
 40
1.0
 40
1.0
 40
1.0
 40
1.0
 10
6.6209644771
 20
5.3686846266
 30
0.0
 10
6.6209527565
 20
5.3686846261
 30
0.0
 10
6.6209268004
 20
5.3686922348
 30
0.0
 10
6.620907618
 20
5.3687103507
 30
0.0
 10
6.6208985514
 20
5.3687210326
 30
0.0
  0
LINE
  5
5AA
100
AcDbEntity
  8
0
100
AcDbLine
 62
7
  6
CONTINUOUS
 10
6.6208985514
 20
5.3687210326
 11
6.6207570052
 21
5.3696227184
  0
LINE
  5
5AB
100
AcDbEntity
  8
0
100
AcDbLine
 62
7
  6
CONTINUOUS
 10
3.0415285283
 20
5.333584284
 11
3.0415751895
 21
5.3337764479
  0
LINE
  5
5AC
100
AcDbEntity
  8
0
100
AcDbLine
 62
7
  6
CONTINUOUS
 10
6.6235238013
 20
5.3729926026
 11
6.6234438101
 21
5.3730574213
  0
LINE
  5
5AD
100
AcDbEntity
  8
0
100
AcDbLine
 62
7
  6
CONTINUOUS
 10
6.6234438101
 20
5.3730574213
 11
6.6233312746
 21
5.3739306942
  0
SPLINE
  5
5AE
100
AcDbEntity
  8
0
100
AcDbSpline
 62
7
  6
CONTINUOUS
 70
0
 71
3
 72
13
 73
9
 74
0
 42
0.0000001
 43
0.0000001
 44
0.0000000001
 40
0.0
 40
0.0
 40
0.0
 40
0.0
 40
0.3133789755
 40
0.5948433748
 40
0.7182472643
 40
0.8277304661
 40
0.9219716
 40
1.0
 40
1.0
 40
1.0
 40
1.0
 10
3.0422910106
 20
5.5183688141
 30
0.0
 10
3.0422568079
 20
5.5181142752
 30
0.0
 10
3.0421792359
 20
5.5176327261
 30
0.0
 10
3.0420514225
 20
5.5170575986
 30
0.0
 10
3.0419349443
 20
5.5166523532
 30
0.0
 10
3.0418483261
 20
5.5163984754
 30
0.0
 10
3.041760096
 20
5.5161849307
 30
0.0
 10
3.0416949947
 20
5.516059255
 30
0.0
 10
3.0416614993
 20
5.5160047818
 30
0.0
  0
SPLINE
  5
5AF
100
AcDbEntity
  8
0
100
AcDbSpline
 62
7
  6
CONTINUOUS
 70
0
 71
3
 72
36
 73
32
 74
0
 42
0.0000001
 43
0.0000001
 44
0.0000000001
 40
0.0
 40
0.0
 40
0.0
 40
0.0
 40
0.0875624488
 40
0.1744587388
 40
0.2600307735
 40
0.3436304223
 40
0.424628816
 40
0.5024205546
 40
0.5764300499
 40
0.6461160732
 40
0.6791795957
 40
0.710977168
 40
0.7414531425
 40
0.7705543355
 40
0.7982312043
 40
0.8244372317
 40
0.8491307431
 40
0.8722739729
 40
0.8938337047
 40
0.913783033
 40
0.9231477116
 40
0.9321033079
 40
0.9406489021
 40
0.9487838952
 40
0.9565081785
 40
0.9638254542
 40
0.9707438554
 40
0.9772764944
 40
0.9834418871
 40
0.9892639082
 40
1.0
 40
1.0
 40
1.0
 40
1.0
 10
5.5684951031
 20
5.4392701764
 30
0.0
 10
5.5684964425
 20
5.4307770227
 30
0.0
 10
5.5684145667
 20
5.4138552007
 30
0.0
 10
5.5680452865
 20
5.3886357333
 30
0.0
 10
5.5674334989
 20
5.3638054137
 30
0.0
 10
5.5665771017
 20
5.3395546907
 30
0.0
 10
5.5654766368
 20
5.3160692058
 30
0.0
 10
5.5641362588
 20
5.2935278646
 30
0.0
 10
5.5625628109
 20
5.2721015881
 30
0.0
 10
5.5610418843
 20
5.2550234779
 30
0.0
 10
5.5597078426
 20
5.2420412226
 30
0.0
 10
5.5586742158
 20
5.2328517583
 30
0.0
 10
5.557592406
 20
5.2240549284
 30
0.0
 10
5.5564649015
 20
5.2156669344
 30
0.0
 10
5.5552950294
 20
5.2077031102
 30
0.0
 10
5.5540859877
 20
5.2001778067
 30
0.0
 10
5.5528383368
 20
5.1931048827
 30
0.0
 10
5.551553649
 20
5.186497075
 30
0.0
 10
5.5502340341
 20
5.1803660549
 30
0.0
 10
5.5490824743
 20
5.1755671407
 30
0.0
 10
5.5481378616
 20
5.1719772356
 30
0.0
 10
5.5474349136
 20
5.1694678462
 30
0.0
 10
5.5467221388
 20
5.167085452
 30
0.0
 10
5.5459994359
 20
5.1648311434
 30
0.0
 10
5.5452678386
 20
5.1627052962
 30
0.0
 10
5.5445246482
 20
5.1607088663
 30
0.0
 10
5.5437649089
 20
5.1588427723
 30
0.0
 10
5.5429823046
 20
5.1571079551
 30
0.0
 10
5.5421692466
 20
5.1555050324
 30
0.0
 10
5.5410657476
 20
5.1535967701
 30
0.0
 10
5.5401286036
 20
5.1522824548
 30
0.0
 10
5.5394493799
 20
5.1514931083
 30
0.0
  0
LINE
  5
5B0
100
AcDbEntity
  8
0
100
AcDbLine
 62
7
  6
CONTINUOUS
 10
3.0387295579
 20
5.3715713824
 11
3.0388340293
 21
5.3709027998
  0
LINE
  5
5B1
100
AcDbEntity
  8
0
100
AcDbLine
 62
7
  6
CONTINUOUS
 10
3.0388304194
 20
5.3697309164
 11
3.0387919747
 21
5.3694653318
  0
SPLINE
  5
5B2
100
AcDbEntity
  8
0
100
AcDbSpline
 62
7
  6
CONTINUOUS
 70
0
 71
3
 72
17
 73
13
 74
0
 42
0.0000001
 43
0.0000001
 44
0.0000000001
 40
0.0
 40
0.0
 40
0.0
 40
0.0
 40
0.1350439349
 40
0.277004466
 40
0.4206565646
 40
0.5608656103
 40
0.6928382229
 40
0.8123016151
 40
0.8661864024
 40
0.9156424448
 40
0.9603363664
 40
1.0
 40
1.0
 40
1.0
 40
1.0
 10
3.0388371225
 20
5.3625656464
 30
0.0
 10
3.0388433507
 20
5.3620245163
 30
0.0
 10
3.0388827706
 20
5.3609147554
 30
0.0
 10
3.0390095864
 20
5.3592334437
 30
0.0
 10
3.0392013146
 20
5.3575374413
 30
0.0
 10
3.0394501823
 20
5.3558893222
 30
0.0
 10
3.0397464787
 20
5.3543476578
 30
0.0
 10
3.0400322906
 20
5.3531573369
 30
0.0
 10
3.0402796645
 20
5.3522992975
 30
0.0
 10
3.0404634892
 20
5.3517351195
 30
0.0
 10
3.0406504135
 20
5.3512323504
 30
0.0
 10
3.0407841995
 20
5.3509216472
 30
0.0
 10
3.040852141
 20
5.3507779545
 30
0.0
  0
LINE
  5
5B3
100
AcDbEntity
  8
0
100
AcDbLine
 62
7
  6
CONTINUOUS
 10
3.040852141
 20
5.3507779545
 11
3.0415563455
 21
5.3497794253
  0
SPLINE
  5
5B4
100
AcDbEntity
  8
0
100
AcDbSpline
 62
7
  6
CONTINUOUS
 70
0
 71
3
 72
53
 73
49
 74
0
 42
0.0000001
 43
0.0000001
 44
0.0000000001
 40
0.0
 40
0.0
 40
0.0
 40
0.0
 40
0.0451446233
 40
0.0901987443
 40
0.1350535331
 40
0.1796134907
 40
0.2237857188
 40
0.2456976714
 40
0.2674777131
 40
0.310591838
 40
0.3530307598
 40
0.3947121951
 40
0.4355552832
 40
0.4754712115
 40
0.5143753858
 40
0.5334241004
 40
0.5521918148
 40
0.588855735
 40
0.6067380711
 40
0.6243097972
 40
0.6584811315
 40
0.6750616221
 40
0.6912973961
 40
0.7227224899
 40
0.752723022
 40
0.7671713598
 40
0.7812418208
 40
0.7949294772
 40
0.8082311368
 40
0.8336638897
 40
0.8457902472
 40
0.857520378
 40
0.868851133
 40
0.879777755
 40
0.8902960841
 40
0.9004044753
 40
0.919390415
 40
0.9282675064
 40
0.9367331017
 40
0.9447876915
 40
0.9524341621
 40
0.9596797339
 40
0.9665319602
 40
0.9729947031
 40
0.9790747859
 40
0.9847851848
 40
0.9901493072
 40
1.0
 40
1.0
 40
1.0
 40
1.0
 10
5.4983988691
 20
5.4392701764
 30
0.0
 10
5.4983994844
 20
5.4348878121
 30
0.0
 10
5.4984140212
 20
5.4261318642
 30
0.0
 10
5.4984776321
 20
5.4130218243
 30
0.0
 10
5.4985849638
 20
5.399968821
 30
0.0
 10
5.4987403675
 20
5.3870019127
 30
0.0
 10
5.4989092728
 20
5.376262561
 30
0.0
 10
5.4990634549
 20
5.3677346295
 30
0.0
 10
5.499229375
 20
5.3593096534
 30
0.0
 10
5.4994651541
 20
5.3488930361
 30
0.0
 10
5.4998125895
 20
5.3365467185
 30
0.0
 10
5.5002096508
 20
5.3244225015
 30
0.0
 10
5.5006423795
 20
5.312544574
 30
0.0
 10
5.5011253878
 20
5.3009383846
 30
0.0
 10
5.5015798877
 20
5.2914486801
 30
0.0
 10
5.5019741839
 20
5.2840115438
 30
0.0
 10
5.502382489
 20
5.2767929716
 30
0.0
 10
5.502819374
 20
5.269689471
 30
0.0
 10
5.5032780538
 20
5.2627037316
 30
0.0
 10
5.5037406515
 20
5.2559607713
 30
0.0
 10
5.5042321114
 20
5.2493464451
 30
0.0
 10
5.5047704954
 20
5.242865989
 30
0.0
 10
5.5053209302
 20
5.2366541413
 30
0.0
 10
5.5060385285
 20
5.2291494069
 30
0.0
 10
5.5067882929
 20
5.2218221859
 30
0.0
 10
5.507414725
 20
5.2161760918
 30
0.0
 10
5.5078950564
 20
5.2121071631
 30
0.0
 10
5.5083923389
 20
5.2081524323
 30
0.0
 10
5.50906507
 20
5.2031082456
 30
0.0
 10
5.5097729489
 20
5.1982217728
 30
0.0
 10
5.5105128571
 20
5.1934945975
 30
0.0
 10
5.5110651703
 20
5.1901237539
 30
0.0
 10
5.5116228411
 20
5.1868718872
 30
0.0
 10
5.5121918763
 20
5.1837414517
 30
0.0
 10
5.5127786724
 20
5.180735068
 30
0.0
 10
5.5135694074
 20
5.1769718014
 30
0.0
 10
5.5144011794
 20
5.1733802309
 30
0.0
 10
5.5152724832
 20
5.1699629004
 30
0.0
 10
5.5159175464
 20
5.1675832499
 30
0.0
 10
5.5165739745
 20
5.1653308364
 30
0.0
 10
5.5172467321
 20
5.1632070707
 30
0.0
 10
5.5179449357
 20
5.1612146581
 30
0.0
 10
5.5186717299
 20
5.1593553613
 30
0.0
 10
5.5194180827
 20
5.1576263904
 30
0.0
 10
5.5201828398
 20
5.1560275479
 30
0.0
 10
5.5209696309
 20
5.1545587296
 30
0.0
 10
5.5220274141
 20
5.1528246928
 30
0.0
 10
5.5229248967
 20
5.1516394073
 30
0.0
 10
5.5235820336
 20
5.1509447306
 30
0.0
  0
SPLINE
  5
5B5
100
AcDbEntity
  8
0
100
AcDbSpline
 62
7
  6
CONTINUOUS
 70
0
 71
3
 72
9
 73
5
 74
0
 42
0.0000001
 43
0.0000001
 44
0.0000000001
 40
0.0
 40
0.0
 40
0.0
 40
0.0
 40
0.2413946958
 40
1.0
 40
1.0
 40
1.0
 40
1.0
 10
3.0375948868
 20
5.3398095333
 30
0.0
 10
3.0375998395
 20
5.3398095339
 30
0.0
 10
3.0376203555
 20
5.3398085994
 30
0.0
 10
3.0376406224
 20
5.3398039072
 30
0.0
 10
3.0376553271
 20
5.3397988058
 30
0.0
  0
SPLINE
  5
5B6
100
AcDbEntity
  8
0
100
AcDbSpline
 62
7
  6
CONTINUOUS
 70
0
 71
3
 72
14
 73
10
 74
0
 42
0.0000001
 43
0.0000001
 44
0.0000000001
 40
0.0
 40
0.0
 40
0.0
 40
0.0
 40
0.0604982237
 40
0.1370714
 40
0.2322868491
 40
0.3470790529
 40
0.4816354608
 40
0.6357242952
 40
1.0
 40
1.0
 40
1.0
 40
1.0
 10
3.0376553271
 20
5.3397988058
 30
0.0
 10
3.0376857181
 20
5.3397882625
 30
0.0
 10
3.037749283
 20
5.3397497079
 30
0.0
 10
3.0378371122
 20
5.3396621933
 30
0.0
 10
3.037928466
 20
5.3395397194
 30
0.0
 10
3.0380229604
 20
5.3393825422
 30
0.0
 10
3.0381203081
 20
5.3391912324
 30
0.0
 10
3.0382611031
 20
5.3388737748
 30
0.0
 10
3.0383565648
 20
5.3386148862
 30
0.0
 10
3.0384192376
 20
5.3384316142
 30
0.0
  0
LINE
  5
5B7
100
AcDbEntity
  8
0
100
AcDbLine
 62
7
  6
CONTINUOUS
 10
3.0420677389
 20
5.3725408156
 11
3.0417679743
 21
5.3722064338
  0
SPLINE
  5
5B8
100
AcDbEntity
  8
0
100
AcDbSpline
 62
7
  6
CONTINUOUS
 70
0
 71
3
 72
9
 73
5
 74
0
 42
0.0000001
 43
0.0000001
 44
0.0000000001
 40
0.0
 40
0.0
 40
0.0
 40
0.0
 40
0.2537416506
 40
1.0
 40
1.0
 40
1.0
 40
1.0
 10
3.0417679743
 20
5.3722064338
 30
0.0
 10
3.0417624659
 20
5.3722045268
 30
0.0
 10
3.0417405221
 20
5.3721977113
 30
0.0
 10
3.0417176513
 20
5.3721938556
 30
0.0
 10
3.0417005405
 20
5.3721927928
 30
0.0
  0
LINE
  5
5B9
100
AcDbEntity
  8
0
100
AcDbLine
 62
7
  6
CONTINUOUS
 10
3.0420036272
 20
5.3651276065
 11
3.0421182929
 21
5.3644590239
  0
SPLINE
  5
5BA
100
AcDbEntity
  8
0
100
AcDbSpline
 62
7
  6
CONTINUOUS
 70
0
 71
3
 72
19
 73
15
 74
0
 42
0.0000001
 43
0.0000001
 44
0.0000000001
 40
0.0
 40
0.0
 40
0.0
 40
0.0
 40
0.2031521985
 40
0.3879693502
 40
0.5510400745
 40
0.6897936829
 40
0.7494984899
 40
0.8025932159
 40
0.8490967805
 40
0.8891791354
 40
0.9232304618
 40
0.9520282616
 40
0.9769179866
 40
1.0
 40
1.0
 40
1.0
 40
1.0
 10
3.0421200866
 20
5.3591071048
 30
0.0
 10
3.0421211977
 20
5.3588719608
 30
0.0
 10
3.0421158219
 20
5.3584228059
 30
0.0
 10
3.0420824218
 20
5.3577856371
 30
0.0
 10
3.042024876
 20
5.3572250554
 30
0.0
 10
3.0419553127
 20
5.3568118932
 30
0.0
 10
3.0418860244
 20
5.3565289535
 30
0.0
 10
3.0418316325
 20
5.3563526265
 30
0.0
 10
3.0417724988
 20
5.3562019448
 30
0.0
 10
3.0417088759
 20
5.3560773108
 30
0.0
 10
3.0416408046
 20
5.3559789585
 30
0.0
 10
3.041568016
 20
5.3559069726
 30
0.0
 10
3.0414897162
 20
5.3558622578
 30
0.0
 10
3.0414337375
 20
5.3558522276
 30
0.0
 10
3.0414070203
 20
5.3558522233
 30
0.0
  0
SPLINE
  5
5BB
100
AcDbEntity
  8
0
100
AcDbSpline
 62
7
  6
CONTINUOUS
 70
0
 71
3
 72
16
 73
12
 74
0
 42
0.0000001
 43
0.0000001
 44
0.0000000001
 40
0.0
 40
0.0
 40
0.0
 40
0.0
 40
0.1999987328
 40
0.3789664015
 40
0.5359286643
 40
0.670421945
 40
0.7824323676
 40
0.8726799416
 40
0.9102967596
 40
0.943515169
 40
1.0
 40
1.0
 40
1.0
 40
1.0
 10
3.038211649
 20
5.5412107742
 30
0.0
 10
3.0381831861
 20
5.541130616
 30
0.0
 10
3.0381270051
 20
5.5409795082
 30
0.0
 10
3.0380395182
 20
5.5407689559
 30
0.0
 10
3.0379538778
 20
5.5405880341
 30
0.0
 10
3.0378706613
 20
5.5404377603
 30
0.0
 10
3.0377902997
 20
5.5403189669
 30
0.0
 10
3.0377223562
 20
5.5402421101
 30
0.0
 10
3.0376687927
 20
5.540199018
 30
0.0
 10
3.0376223178
 20
5.5401712045
 30
0.0
 10
3.0375840716
 20
5.5401603745
 30
0.0
 10
3.037560048
 20
5.5401603702
 30
0.0
  0
SPLINE
  5
5BC
100
AcDbEntity
  8
0
100
AcDbSpline
 62
7
  6
CONTINUOUS
 70
0
 71
3
 72
35
 73
31
 74
0
 42
0.0000001
 43
0.0000001
 44
0.0000000001
 40
0.0
 40
0.0
 40
0.0
 40
0.0
 40
0.0978512231
 40
0.1951988264
 40
0.2890834274
 40
0.3769971103
 40
0.4599213854
 40
0.5399181772
 40
0.6181423625
 40
0.6926127599
 40
0.7275984169
 40
0.7606428103
 40
0.8209127838
 40
0.8484384291
 40
0.8744319645
 40
0.8990520047
 40
0.9221693441
 40
0.9431573058
 40
0.9613337967
 40
0.9760222343
 40
0.9818580862
 40
0.986617142
 40
0.9903959183
 40
0.9933383338
 40
0.9955828403
 40
0.9972572712
 40
0.9984706169
 40
0.999302511
 40
0.9997965884
 40
1.0
 40
1.0
 40
1.0
 40
1.0
 10
5.5235820381
 20
5.150944689
 30
0.0
 10
5.5237300672
 20
5.1507691921
 30
0.0
 10
5.5240443722
 20
5.1504350604
 30
0.0
 10
5.5245413116
 20
5.1499731403
 30
0.0
 10
5.5250356933
 20
5.1495434794
 30
0.0
 10
5.5255029874
 20
5.149134309
 30
0.0
 10
5.5259517032
 20
5.1487533821
 30
0.0
 10
5.526398451
 20
5.1484056724
 30
0.0
 10
5.5268493941
 20
5.1480974254
 30
0.0
 10
5.5272217049
 20
5.1478622102
 30
0.0
 10
5.5275065514
 20
5.1476871273
 30
0.0
 10
5.5277631148
 20
5.1475296619
 30
0.0
 10
5.5280048303
 20
5.1473814493
 30
0.0
 10
5.5282344775
 20
5.1472452614
 30
0.0
 10
5.5283935542
 20
5.1471540925
 30
0.0
 10
5.5285455307
 20
5.1470714045
 30
0.0
 10
5.5286889909
 20
5.1469977561
 30
0.0
 10
5.5288197228
 20
5.1469324512
 30
0.0
 10
5.5289326115
 20
5.1468757056
 30
0.0
 10
5.5290128758
 20
5.1468331632
 30
0.0
 10
5.5290637493
 20
5.1468026064
 30
0.0
 10
5.5290915346
 20
5.1467834361
 30
0.0
 10
5.5291124151
 20
5.146766369
 30
0.0
 10
5.5291273518
 20
5.1467514839
 30
0.0
 10
5.5291373291
 20
5.1467388224
 30
0.0
 10
5.5291434374
 20
5.1467283234
 30
0.0
 10
5.5291464981
 20
5.1467202483
 30
0.0
 10
5.5291479725
 20
5.1467141888
 30
0.0
 10
5.5291480364
 20
5.1467110133
 30
0.0
 10
5.5291488124
 20
5.146708964
 30
0.0
 10
5.5291492897
 20
5.1467089682
 30
0.0
  0
LINE
  5
5BD
100
AcDbEntity
  8
0
100
AcDbLine
 62
7
  6
CONTINUOUS
 10
6.6254361565
 20
5.3692361507
 11
6.6252088595
 21
5.3690177064
  0
SPLINE
  5
5BE
100
AcDbEntity
  8
0
100
AcDbSpline
 62
7
  6
CONTINUOUS
 70
0
 71
3
 72
13
 73
9
 74
0
 42
0.0000001
 43
0.0000001
 44
0.0000000001
 40
0.0
 40
0.0
 40
0.0
 40
0.0
 40
0.2728888039
 40
0.5481596662
 40
0.6779333323
 40
0.7982551691
 40
0.906391809
 40
1.0
 40
1.0
 40
1.0
 40
1.0
 10
3.0420643548
 20
5.5382707873
 30
0.0
 10
3.0420289129
 20
5.5376830226
 30
0.0
 10
3.0419165785
 20
5.536504689
 30
0.0
 10
3.041695018
 20
5.5350578507
 30
0.0
 10
3.0414706317
 20
5.5339464709
 30
0.0
 10
3.0412911321
 20
5.5331944119
 30
0.0
 10
3.0411019592
 20
5.5325255034
 30
0.0
 10
3.0409618051
 20
5.5321129944
 30
0.0
 10
3.040889349
 20
5.5319244522
 30
0.0
  0
SPLINE
  5
5BF
100
AcDbEntity
  8
0
100
AcDbSpline
 62
7
  6
CONTINUOUS
 70
0
 71
3
 72
11
 73
7
 74
0
 42
0.0000001
 43
0.0000001
 44
0.0000000001
 40
0.0
 40
0.0
 40
0.0
 40
0.0
 40
0.2569316036
 40
0.5201593609
 40
0.7729256249
 40
1.0
 40
1.0
 40
1.0
 40
1.0
 10
3.0421934143
 20
5.5548556357
 30
0.0
 10
3.0421527045
 20
5.5543938696
 30
0.0
 10
3.0420467663
 20
5.5534610092
 30
0.0
 10
3.0418311202
 20
5.552082874
 30
0.0
 10
3.0415681103
 20
5.5507678932
 30
0.0
 10
3.0413582963
 20
5.5499274209
 30
0.0
 10
3.0412457066
 20
5.5495335068
 30
0.0
  0
LINE
  5
5C0
100
AcDbEntity
  8
0
100
AcDbLine
 62
7
  6
CONTINUOUS
 10
3.0412457066
 20
5.5495335068
 11
3.0409096937
 21
5.5485093005
  0
LINE
  5
5C1
100
AcDbEntity
  8
0
100
AcDbLine
 62
7
  6
CONTINUOUS
 10
6.6237495223
 20
5.5081583818
 11
6.6237476409
 21
5.507637553
  0
LINE
  5
5C2
100
AcDbEntity
  8
0
100
AcDbLine
 62
7
  6
CONTINUOUS
 10
3.0419697595
 20
5.3285682033
 11
3.0420886309
 21
5.3278663672
  0
SPLINE
  5
5C3
100
AcDbEntity
  8
0
100
AcDbSpline
 62
7
  6
CONTINUOUS
 70
0
 71
3
 72
16
 73
12
 74
0
 42
0.0000001
 43
0.0000001
 44
0.0000000001
 40
0.0
 40
0.0
 40
0.0
 40
0.0
 40
0.1923130476
 40
0.3674945176
 40
0.5238402368
 40
0.6601941883
 40
0.7757482087
 40
0.8701953557
 40
0.9096835555
 40
0.9442382033
 40
1.0
 40
1.0
 40
1.0
 40
1.0
 10
3.0421260172
 20
5.3242058782
 30
0.0
 10
3.0421285918
 20
5.3240235452
 30
0.0
 10
3.0421290521
 20
5.3236750319
 30
0.0
 10
3.0421141287
 20
5.3231784543
 30
0.0
 10
3.0420837591
 20
5.3227357194
 30
0.0
 10
3.042038442
 20
5.32235106
 30
0.0
 10
3.0419788044
 20
5.3220278343
 30
0.0
 10
3.0419147378
 20
5.3217995206
 30
0.0
 10
3.0418542356
 20
5.3216513128
 30
0.0
 10
3.0417971246
 20
5.3215424779
 30
0.0
 10
3.0417439204
 20
5.3214726405
 30
0.0
 10
3.0417028563
 20
5.3214393339
 30
0.0
  0
LINE
  5
5C4
100
AcDbEntity
  8
0
100
AcDbLine
 62
7
  6
CONTINUOUS
 10
3.0419850769
 20
5.3405451718
 11
3.0421186933
 21
5.3383931186
  0
LINE
  5
5C5
100
AcDbEntity
  8
0
100
AcDbLine
 62
7
  6
CONTINUOUS
 10
3.0421186933
 20
5.3383931186
 11
3.0421260172
 21
5.3374369369
  0
LINE
  5
5C6
100
AcDbEntity
  8
0
100
AcDbLine
 62
7
  6
CONTINUOUS
 10
3.0420886309
 20
5.3337764479
 11
3.042041938
 21
5.333584284
  0
SPLINE
  5
5C7
100
AcDbEntity
  8
0
100
AcDbSpline
 62
7
  6
CONTINUOUS
 70
0
 71
3
 72
9
 73
5
 74
0
 42
0.0000001
 43
0.0000001
 44
0.0000000001
 40
0.0
 40
0.0
 40
0.0
 40
0.0
 40
0.7453824283
 40
1.0
 40
1.0
 40
1.0
 40
1.0
 10
3.0416886968
 20
5.530547806
 30
0.0
 10
3.0417092175
 20
5.5305478086
 30
0.0
 10
3.0417369764
 20
5.5305436614
 30
0.0
 10
3.0417629326
 20
5.5305344464
 30
0.0
 10
3.0417694274
 20
5.5305318095
 30
0.0
  0
LINE
  5
5C8
100
AcDbEntity
  8
0
100
AcDbLine
 62
7
  6
CONTINUOUS
 10
3.0417694274
 20
5.5305318095
 11
3.0420346467
 21
5.5301845479
  0
LINE
  5
5C9
100
AcDbEntity
  8
0
100
AcDbLine
 62
7
  6
CONTINUOUS
 10
6.6267151861
 20
5.5882685316
 11
6.6264433782
 21
5.5902718212
  0
LINE
  5
5CA
100
AcDbEntity
  8
0
100
AcDbLine
 62
7
  6
CONTINUOUS
 10
6.6267151861
 20
5.5882685316
 11
6.6296774015
 21
5.5701076566
  0
LINE
  5
5CB
100
AcDbEntity
  8
0
100
AcDbLine
 62
7
  6
CONTINUOUS
 10
6.6296774015
 20
5.5701076566
 11
6.6298197709
 21
5.5692701764
  0
LINE
  5
5CC
100
AcDbEntity
  8
0
100
AcDbLine
 62
7
  6
CONTINUOUS
 10
6.6314544389
 20
5.5592701764
 11
6.6319278401
 21
5.5567701764
  0
SPLINE
  5
5CD
100
AcDbEntity
  8
0
100
AcDbSpline
 62
7
  6
CONTINUOUS
 70
0
 71
3
 72
10
 73
6
 74
0
 42
0.0000001
 43
0.0000001
 44
0.0000000001
 40
0.0
 40
0.0
 40
0.0
 40
0.0
 40
0.3488789984
 40
0.6277172594
 40
1.0
 40
1.0
 40
1.0
 40
1.0
 10
6.6234789403
 20
5.5087700062
 30
0.0
 10
6.623482663
 20
5.5087625233
 30
0.0
 10
6.6234900458
 20
5.5087492267
 30
0.0
 10
6.6235037949
 20
5.5087302221
 30
0.0
 10
6.6235180055
 20
5.5087193979
 30
0.0
 10
6.6235269239
 20
5.5087193994
 30
0.0
  0
LINE
  5
5CE
100
AcDbEntity
  8
0
100
AcDbLine
 62
7
  6
CONTINUOUS
 10
6.620976839
 20
5.5140813289
 11
6.6210914268
 21
5.5134127463
  0
SPLINE
  5
5CF
100
AcDbEntity
  8
0
100
AcDbSpline
 62
7
  6
CONTINUOUS
 70
0
 71
3
 72
23
 73
19
 74
0
 42
0.0000001
 43
0.0000001
 44
0.0000000001
 40
0.0
 40
0.0
 40
0.0
 40
0.0
 40
0.022363353
 40
0.0594316665
 40
0.11418444
 40
0.1867697652
 40
0.2736164296
 40
0.3712656974
 40
0.4760770459
 40
0.5820261911
 40
0.6823611775
 40
0.7729048061
 40
0.8503780421
 40
0.910907486
 40
0.9532753974
 40
0.9798636599
 40
0.994289009
 40
1.0
 40
1.0
 40
1.0
 40
1.0
 10
6.6403683249
 20
5.4762541201
 30
0.0
 10
6.6403636605
 20
5.475997117
 30
0.0
 10
6.6403573403
 20
5.4753140143
 30
0.0
 10
6.6403587874
 20
5.4740015597
 30
0.0
 10
6.6403760828
 20
5.4721119273
 30
0.0
 10
6.6404124363
 20
5.4696503405
 30
0.0
 10
6.6404644753
 20
5.4666958924
 30
0.0
 10
6.6405311709
 20
5.4633712471
 30
0.0
 10
6.6406127053
 20
5.4598273003
 30
0.0
 10
6.6407105832
 20
5.4562528841
 30
0.0
 10
6.640815475
 20
5.452842741
 30
0.0
 10
6.6409180713
 20
5.4497599965
 30
0.0
 10
6.6410120055
 20
5.4471347515
 30
0.0
 10
6.6410956608
 20
5.4450632372
 30
0.0
 10
6.6411667051
 20
5.4435766078
 30
0.0
 10
6.6412214847
 20
5.4426197559
 30
0.0
 10
6.6412589934
 20
5.4420840076
 30
0.0
 10
6.6412782928
 20
5.4418533456
 30
0.0
 10
6.6412849218
 20
5.4417880388
 30
0.0
  0
SPLINE
  5
5D0
100
AcDbEntity
  8
0
100
AcDbSpline
 62
7
  6
CONTINUOUS
 70
0
 71
3
 72
33
 73
29
 74
0
 42
0.0000001
 43
0.0000001
 44
0.0000000001
 40
0.0
 40
0.0
 40
0.0
 40
0.0
 40
0.1935289293
 40
0.2855282452
 40
0.374801188
 40
0.4615157781
 40
0.5451278286
 40
0.6248931995
 40
0.6999741503
 40
0.7688927162
 40
0.8004126038
 40
0.8296293093
 40
0.8562850168
 40
0.8801695567
 40
0.9013978678
 40
0.9202233552
 40
0.9368971816
 40
0.9516717155
 40
0.9648076038
 40
0.9764310119
 40
0.9815773615
 40
0.9862077195
 40
0.9902666697
 40
0.9936979563
 40
0.9964446077
 40
0.9984490527
 40
0.9996532812
 40
1.0
 40
1.0
 40
1.0
 40
1.0
 10
5.5394493799
 20
5.1514931083
 30
0.0
 10
5.539126469
 20
5.1511158819
 30
0.0
 10
5.5386343306
 20
5.1505721719
 30
0.0
 10
5.537948371
 20
5.1498978566
 30
0.0
 10
5.5374373234
 20
5.1494374379
 30
0.0
 10
5.5369215969
 20
5.1490155353
 30
0.0
 10
5.5364082642
 20
5.1486302291
 30
0.0
 10
5.5359056227
 20
5.1482811484
 30
0.0
 10
5.5354233104
 20
5.1479695251
 30
0.0
 10
5.5350391887
 20
5.1477343994
 30
0.0
 10
5.5347542336
 20
5.1475627311
 30
0.0
 10
5.5345621704
 20
5.147447008
 30
0.0
 10
5.5343874368
 20
5.1473404818
 30
0.0
 10
5.5342315756
 20
5.1472424045
 30
0.0
 10
5.5340938878
 20
5.1471532039
 30
0.0
 10
5.5339722984
 20
5.1470731941
 30
0.0
 10
5.5338644766
 20
5.1470023857
 30
0.0
 10
5.5337680696
 20
5.1469407951
 30
0.0
 10
5.5336810099
 20
5.146888689
 30
0.0
 10
5.5336132953
 20
5.1468525105
 30
0.0
 10
5.5335641118
 20
5.1468281373
 30
0.0
 10
5.5335319734
 20
5.1468129402
 30
0.0
 10
5.5335037934
 20
5.1468001413
 30
0.0
 10
5.5334792948
 20
5.1467895194
 30
0.0
 10
5.533461071
 20
5.1467816947
 30
0.0
 10
5.533444328
 20
5.1467751279
 30
0.0
 10
5.5334404155
 20
5.1467730208
 30
0.0
 10
5.5334323656
 20
5.1467701879
 30
0.0
 10
5.5334332551
 20
5.1467701764
 30
0.0
  0
SPLINE
  5
5D1
100
AcDbEntity
  8
0
100
AcDbSpline
 62
7
  6
CONTINUOUS
 70
0
 71
3
 72
16
 73
12
 74
0
 42
0.0000001
 43
0.0000001
 44
0.0000000001
 40
0.0
 40
0.0
 40
0.0
 40
0.0
 40
0.0564596977
 40
0.0896677303
 40
0.1272761489
 40
0.2175131153
 40
0.3295208124
 40
0.464018673
 40
0.6209922929
 40
0.7999776647
 40
1.0
 40
1.0
 40
1.0
 40
1.0
 10
3.0370496676
 20
5.5401603702
 30
0.0
 10
3.0370736758
 20
5.5401603745
 30
0.0
 10
3.0371118991
 20
5.5401712062
 30
0.0
 10
3.0371583402
 20
5.5401990188
 30
0.0
 10
3.0372118693
 20
5.5402421123
 30
0.0
 10
3.037279767
 20
5.5403189703
 30
0.0
 10
3.0373600734
 20
5.5404377623
 30
0.0
 10
3.0374432333
 20
5.5405880352
 30
0.0
 10
3.0375288159
 20
5.5407689568
 30
0.0
 10
3.037616244
 20
5.5409795093
 30
0.0
 10
3.0376723868
 20
5.5411306162
 30
0.0
 10
3.0377008305
 20
5.5412107742
 30
0.0
  0
SPLINE
  5
5D2
100
AcDbEntity
  8
0
100
AcDbSpline
 62
7
  6
CONTINUOUS
 70
0
 71
3
 72
31
 73
27
 74
0
 42
0.0000001
 43
0.0000001
 44
0.0000000001
 40
0.0
 40
0.0
 40
0.0
 40
0.0
 40
0.0639021759
 40
0.1277513399
 40
0.1914908542
 40
0.2233094215
 40
0.2550833568
 40
0.318468602
 40
0.3816190712
 40
0.4445067836
 40
0.5071161867
 40
0.5383181847
 40
0.5694500293
 40
0.6005138893
 40
0.6315122077
 40
0.6624466537
 40
0.6933185619
 40
0.724134238
 40
0.7549018568
 40
0.7856282498
 40
0.816316829
 40
0.8469696533
 40
0.8775941259
 40
0.9082008977
 40
0.9388001897
 40
1.0
 40
1.0
 40
1.0
 40
1.0
 10
5.2027600494
 20
5.4392701764
 30
0.0
 10
5.2027596218
 20
5.4327611047
 30
0.0
 10
5.2023220078
 20
5.4197442347
 30
0.0
 10
5.2003765448
 20
5.4003230546
 30
0.0
 10
5.1976912794
 20
5.3842960802
 30
0.0
 10
5.194910543
 20
5.371625523
 30
0.0
 10
5.1917164988
 20
5.3590900122
 30
0.0
 10
5.1869562183
 20
5.3436697682
 30
0.0
 10
5.1800532065
 20
5.3256374871
 30
0.0
 10
5.1720115545
 20
5.3081704314
 30
0.0
 10
5.1643929974
 20
5.2941306544
 30
0.0
 10
5.1577874391
 20
5.2832503444
 30
0.0
 10
5.1525896238
 20
5.2752802603
 30
0.0
 10
5.1471486631
 20
5.2674995829
 30
0.0
 10
5.1414727341
 20
5.2599137396
 30
0.0
 10
5.1355728409
 20
5.2525258517
 30
0.0
 10
5.1294587297
 20
5.245338675
 30
0.0
 10
5.1231348014
 20
5.2383582732
 30
0.0
 10
5.1166044152
 20
5.2315911927
 30
0.0
 10
5.1098743792
 20
5.2250412581
 30
0.0
 10
5.102955949
 20
5.2187080794
 30
0.0
 10
5.0958594629
 20
5.2125910079
 30
0.0
 10
5.0885903922
 20
5.2066933248
 30
0.0
 10
5.0811522345
 20
5.2010190984
 30
0.0
 10
5.0710158024
 20
5.1937567451
 30
0.0
 10
5.0631737563
 20
5.1886508464
 30
0.0
 10
5.057853081
 20
5.1854026486
 30
0.0
  0
LINE
  5
5D3
100
AcDbEntity
  8
0
100
AcDbLine
 62
7
  6
CONTINUOUS
 10
6.6381346032
 20
5.3750201764
 11
6.6380602968
 21
5.3735201764
  0
SPLINE
  5
5D4
100
AcDbEntity
  8
0
100
AcDbSpline
 62
7
  6
CONTINUOUS
 70
0
 71
3
 72
36
 73
32
 74
0
 42
0.0000001
 43
0.0000001
 44
0.0000000001
 40
0.0
 40
0.0
 40
0.0
 40
0.0
 40
0.0875624488
 40
0.1744587388
 40
0.2600307735
 40
0.3436304223
 40
0.424628816
 40
0.5024205546
 40
0.5764300499
 40
0.6461160732
 40
0.6791795957
 40
0.710977168
 40
0.7414531425
 40
0.7705543355
 40
0.7982312043
 40
0.8244372317
 40
0.8491307431
 40
0.8722739729
 40
0.8938337047
 40
0.913783033
 40
0.9231477116
 40
0.9321033079
 40
0.9406489021
 40
0.9487838952
 40
0.9565081785
 40
0.9638254542
 40
0.9707438554
 40
0.9772764944
 40
0.9834418871
 40
0.9892639082
 40
1.0
 40
1.0
 40
1.0
 40
1.0
 10
4.0940865671
 20
5.4392701764
 30
0.0
 10
4.0940852278
 20
5.4307770227
 30
0.0
 10
4.0941671036
 20
5.4138552007
 30
0.0
 10
4.0945363838
 20
5.3886357333
 30
0.0
 10
4.0951481714
 20
5.3638054137
 30
0.0
 10
4.0960045686
 20
5.3395546907
 30
0.0
 10
4.0971050335
 20
5.3160692058
 30
0.0
 10
4.0984454114
 20
5.2935278646
 30
0.0
 10
4.1000188594
 20
5.2721015881
 30
0.0
 10
4.1015397859
 20
5.2550234779
 30
0.0
 10
4.1028738277
 20
5.2420412226
 30
0.0
 10
4.1039074544
 20
5.2328517583
 30
0.0
 10
4.1049892643
 20
5.2240549284
 30
0.0
 10
4.1061167688
 20
5.2156669344
 30
0.0
 10
4.1072866409
 20
5.2077031102
 30
0.0
 10
4.1084956826
 20
5.2001778067
 30
0.0
 10
4.1097433335
 20
5.1931048827
 30
0.0
 10
4.1110280213
 20
5.186497075
 30
0.0
 10
4.1123476362
 20
5.1803660549
 30
0.0
 10
4.113499196
 20
5.1755671407
 30
0.0
 10
4.1144438087
 20
5.1719772356
 30
0.0
 10
4.1151467567
 20
5.1694678462
 30
0.0
 10
4.1158595315
 20
5.167085452
 30
0.0
 10
4.1165822344
 20
5.1648311434
 30
0.0
 10
4.1173138317
 20
5.1627052962
 30
0.0
 10
4.1180570221
 20
5.1607088663
 30
0.0
 10
4.1188167614
 20
5.1588427723
 30
0.0
 10
4.1195993656
 20
5.1571079551
 30
0.0
 10
4.1204124237
 20
5.1555050324
 30
0.0
 10
4.1215159227
 20
5.1535967701
 30
0.0
 10
4.1224530667
 20
5.1522824548
 30
0.0
 10
4.1231322903
 20
5.1514931083
 30
0.0
  0
LINE
  5
5D5
100
AcDbEntity
  8
0
100
AcDbLine
 62
7
  6
CONTINUOUS
 10
6.6246982618
 20
5.3690177064
 11
6.6249257117
 21
5.3692361507
  0
SPLINE
  5
5D6
100
AcDbEntity
  8
0
100
AcDbSpline
 62
7
  6
CONTINUOUS
 70
0
 71
3
 72
9
 73
5
 74
0
 42
0.0000001
 43
0.0000001
 44
0.0000000001
 40
0.0
 40
0.0
 40
0.0
 40
0.0
 40
0.415765677
 40
1.0
 40
1.0
 40
1.0
 40
1.0
 10
3.0395802175
 20
5.3698163923
 30
0.0
 10
3.0395869429
 20
5.3698120338
 30
0.0
 10
3.0396000183
 20
5.3697971988
 30
0.0
 10
3.0396094757
 20
5.369780428
 30
0.0
 10
3.0396144945
 20
5.3697703466
 30
0.0
  0
ENDSEC
  0
SECTION
  2
OBJECTS
  0
DICTIONARY
  5
C
100
AcDbDictionary
280
0
281
1
  3
ACAD_GROUP
350
D
  3
ACAD_MLINESTYLE
350
17
  3
ACAD_LAYOUT
350
1A
  3
ACAD_PLOTSETTINGS
350
19
  3
ACAD_PLOTSTYLENAME
350
E
  0
DICTIONARY
  5
D
102
{ACAD_REACTORS
330
C
102
}
100
AcDbDictionary
280
0
281
1
  0
ACDBDICTIONARYWDFLT
  5
E
102
{ACAD_REACTORS
330
C
102
}
100
AcDbDictionary
281
1
  3
Normal
350
F
100
AcDbDictionaryWithDefault
340
F
  0
DICTIONARY
  5
17
102
{ACAD_REACTORS
330
C
102
}
100
AcDbDictionary
280
0
281
1
  3
Standard
350
18
  0
DICTIONARY
  5
19
102
{ACAD_REACTORS
330
C
102
}
100
AcDbDictionary
281
1
  0
DICTIONARY
  5
1A
102
{ACAD_REACTORS
330
C
102
}
100
AcDbDictionary
281
1
  3
Model
350
5D7
  3
Layout1
350
5D8
  0
ACDBPLACEHOLDER
  5
F
102
{ACAD_REACTORS
330
E
102
}
  0
MLINESTYLE
  5
18
102
{ACAD_REACTORS
330
17
102
}
100
AcDbMlineStyle
  2
STANDARD
 70
0
  3

 62
256
 51
90.0
 52
90.0
 71
2
 49
0.5
 62
256
  6
BYLAYER
 49
-0.5
 62
256
  6
BYLAYER
  0
LAYOUT
  5
5D7
102
{ACAD_REACTORS
330
1A
102
}
100
AcDbPlotSettings
  1

  2
none_device
  4
ANSI_A_(11.00_x_8.50_Inches)
  6

 40
0.0
 41
0.0
 42
0.0
 43
0.0
 44
279.4
 45
215.9
 46
0.0
 47
0.0
 48
0.0
 49
0.0
140
0.0
141
0.0
142
1.0
143
1.0
 70
1024
 72
0
 73
0
 74
0
  7

 75
0
147
1.0
148
0.0
149
0.0
100
AcDbLayout
  1
Model
 70
0
 71
0
 10
0.0
 20
0.0
 11
11.0
 21
8.5
 12
0.0
 22
0.0
 32
0.0
 14
0.0
 24
0.0
 34
0.0
 15
0.0
 25
0.0
 35
0.0
146
0.0
 13
0.0
 23
0.0
 33
0.0
 16
1.0
 26
0.0
 36
0.0
 17
0.0
 27
1.0
 37
0.0
 76
0
330
202
345
0
346
0
  0
LAYOUT
  5
5D8
102
{ACAD_REACTORS
330
1A
102
}
100
AcDbPlotSettings
  1

  2
none_device
  4
ANSI_A_(11.00_x_8.50_Inches)
  6

 40
0.0
 41
0.0
 42
0.0
 43
0.0
 44
279.4
 45
215.9
 46
0.0
 47
0.0
 48
0.0
 49
0.0
140
0.0
141
0.0
142
1.0
143
1.0
 70
0
 72
0
 73
0
 74
0
  7

 75
0
147
1.0
148
0.0
149
0.0
100
AcDbLayout
  1
Layout1
 70
0
 71
1
 10
0.0
 20
0.0
 11
11.0
 21
8.5
 12
0.0
 22
0.0
 32
0.0
 14
0.0
 24
0.0
 34
0.0
 15
0.0
 25
0.0
 35
0.0
146
0.0
 13
0.0
 23
0.0
 33
0.0
 16
1.0
 26
0.0
 36
0.0
 17
0.0
 27
1.0
 37
0.0
 76
0
330
203
345
0
346
0
  0
ENDSEC
  0
EOF
