999
DXF file: E:\BT Custom\CADOUTPUT\_FRONT.dxf
999
Pro/ENGINEER 2018400 by Parametric Technology Corporation
  0
SECTION
  2
HEADER
  9
$ACADVER
  1
AC1018
  9
$DWGCODEPAGE
  3
ANSI_1252
  9
$EXTMAX
 10
22.0
 20
17.0
 30
0.0
  9
$EXTMIN
 10
0.0
 20
0.0
 30
0.0
  9
$LIMMIN
 10
0.0
 20
0.0
  9
$LIMMAX
 10
22.0
 20
17.0
  9
$VIEWCTR
 10
11.0
 20
8.5
  9
$VIEWSIZE
 40
17.0
  9
$CLAYER
  8
0
  9
$LTSCALE
 40
1.21
  9
$CELTYPE
  6
BYLAYER
  9
$DIMSCALE
 40
1.0
  9
$DIMASZ
 40
0.1
  9
$DIMEXO
 40
0.0625
  9
$DIMDLI
 40
0.836
  9
$DIMEXE
 40
0.125
  9
$DIMCEN
 40
0.198
  9
$DIMLFAC
 40
1.0
  9
$DIMBLK
  1
_FILLED
  9
$DIMALT
 70
1
  9
$DIMALTD
 70
2
  9
$DIMALTTD
 70
2
  9
$DIMALTF
 40
25.4
  9
$DIMTXT
 40
0.08
  9
$DIMTOL
 70
1
  9
$DIMLIM
 70
0
  9
$DIMTFAC
 40
1.0
  9
$DIMTP
 40
0.001
  9
$DIMTM
 40
0.001
  9
$DIMGAP
 40
0.09
  9
$DIMDSEP
 70
46
  9
$AUNITS
 70
0
  9
$PDMODE
 70
3
  9
$PDSIZE
 40
0.06
  9
$HANDSEED
  5
2FF
  9
$TILEMODE
 70
1
  9
$MEASUREMENT
 70
0
  9
$INSUNITS
 70
1
  0
ENDSEC
  0
SECTION
  2
CLASSES
  0
CLASS
  1
ACDBDICTIONARYWDFLT
  2
AcDbDictionaryWithDefault
  3
AutoCAD 2000
 90
0
 91
1
280
0
281
0
  0
CLASS
  1
ACDBPLACEHOLDER
  2
AcDbPlaceHolder
  3
AutoCAD 2000
 90
0
 91
1
280
0
281
0
  0
CLASS
  1
LAYOUT
  2
AcDbLayout
  3
AutoCAD 2000
 90
0
 91
0
280
0
281
0
  0
ENDSEC
  0
SECTION
  2
TABLES
  0
TABLE
  2
VPORT
  5
8
100
AcDbSymbolTable
 70
2
  0
VPORT
  5
1F4
100
AcDbSymbolTableRecord
100
AcDbViewportTableRecord
  2
*ACTIVE
 70
0
 10
0.0
 20
0.0
 11
1.0
 21
1.0
 12
11.0
 22
8.5
 13
0.0
 23
0.0
 14
1.0
 24
1.0
 15
0.0
 25
0.0
 16
0.0
 26
0.0
 36
1.0
 17
0.0
 27
0.0
 37
0.0
 40
17.0
 41
1.2941176471
 42
50.0
 43
0.0
 44
0.0
 50
0.0
 51
0.0
 71
0
 72
100
 73
1
 74
1
 75
0
 76
0
 77
0
 78
0
  0
ENDTAB
  0
TABLE
  2
LTYPE
  5
5
100
AcDbSymbolTable
 70
6
  0
LTYPE
  5
14
100
AcDbSymbolTableRecord
100
AcDbLinetypeTableRecord
  2
BYBLOCK
 70
0
  3

 72
65
 73
0
 40
0.0
  0
LTYPE
  5
15
100
AcDbSymbolTableRecord
100
AcDbLinetypeTableRecord
  2
BYLAYER
 70
0
  3

 72
65
 73
0
 40
0.0
  0
LTYPE
  5
16
100
AcDbSymbolTableRecord
100
AcDbLinetypeTableRecord
  2
CONTINUOUS
 70
64
  3
Solid line
 72
65
 73
0
 40
0.0
  0
LTYPE
  5
1F5
100
AcDbSymbolTableRecord
100
AcDbLinetypeTableRecord
  2
CENTER
 70
64
  3
____ _ ____ _ ____ _ ____ _ ____ _ ____ _ ____
 72
65
 73
4
 40
0.6
 49
0.375
 74
0
 49
-0.075
 74
0
 49
0.075
 74
0
 49
-0.075
 74
0
  0
LTYPE
  5
1F6
100
AcDbSymbolTableRecord
100
AcDbLinetypeTableRecord
  2
HIDDEN
 70
64
  3
- - - - - - - - - - - - - - - - - - - -
 72
65
 73
2
 40
0.2
 49
0.1
 74
0
 49
-0.1
 74
0
  0
LTYPE
  5
1F7
100
AcDbSymbolTableRecord
100
AcDbLinetypeTableRecord
  2
PHANTOM
 70
64
  3
_____ _ _ _____ _ _ _____ _ _ _____
 72
65
 73
6
 40
0.8
 49
0.45
 74
0
 49
-0.05
 74
0
 49
0.1
 74
0
 49
-0.05
 74
0
 49
0.1
 74
0
 49
-0.05
 74
0
  0
LTYPE
  5
1F8
100
AcDbSymbolTableRecord
100
AcDbLinetypeTableRecord
  2
DOT
 70
64
  3
. . . . . . . . . . . . . . . . . . . .
 72
65
 73
2
 40
0.2
 49
0.1
 74
0
 49
-0.1
 74
0
  0
LTYPE
  5
1F9
100
AcDbSymbolTableRecord
100
AcDbLinetypeTableRecord
  2
DASHED
 70
64
  3
- - - - - - - - - - - - - - - - - - - -
 72
65
 73
2
 40
0.2
 49
0.1
 74
0
 49
-0.1
 74
0
  0
ENDTAB
  0
TABLE
  2
LAYER
  5
2
100
AcDbSymbolTable
 70
36
  0
LAYER
  5
10
100
AcDbSymbolTableRecord
100
AcDbLayerTableRecord
  2
0
 70
0
 62
7
  6
CONTINUOUS
370
-3
390
F
  0
LAYER
  5
1FA
100
AcDbSymbolTableRecord
100
AcDbLayerTableRecord
  2
DEFAULT_1
 70
0
 62
7
  6
CENTER
370
-3
390
F
  0
LAYER
  5
1FB
100
AcDbSymbolTableRecord
100
AcDbLayerTableRecord
  2
DEFAULT_2
 70
0
 62
8
  6
HIDDEN
370
-3
390
F
  0
LAYER
  5
1FC
100
AcDbSymbolTableRecord
100
AcDbLayerTableRecord
  2
DEFAULT_3
 70
0
 62
7
  6
PHANTOM
370
-3
390
F
  0
LAYER
  5
1FD
100
AcDbSymbolTableRecord
100
AcDbLayerTableRecord
  2
ALL_FEATURES
 70
0
 62
7
  6
CONTINUOUS
370
-3
390
F
  0
LAYER
  5
1FE
100
AcDbSymbolTableRecord
100
AcDbLayerTableRecord
  2
AXES_FEATURES
 70
0
 62
7
  6
CONTINUOUS
370
-3
390
F
  0
LAYER
  5
1FF
100
AcDbSymbolTableRecord
100
AcDbLayerTableRecord
  2
DIMENSIONS
 70
0
 62
7
  6
CONTINUOUS
370
-3
390
F
  0
ENDTAB
  0
TABLE
  2
STYLE
  5
3
100
AcDbSymbolTable
 70
1
  0
STYLE
  5
11
100
AcDbSymbolTableRecord
100
AcDbTextStyleTableRecord
  2
STANDARD
 70
0
 40
0.0
 41
0.8
 50
0.0
 71
0
 42
0.2
  3
txt
  4

  0
STYLE
  5
200
100
AcDbSymbolTableRecord
100
AcDbTextStyleTableRecord
  2
TEXTSTYLE_1
 70
0
 40
0.0
 41
0.8
 50
0.0
 71
0
 42
0.2
  3
gdt
  4

  0
ENDTAB
  0
TABLE
  2
VIEW
  5
6
100
AcDbSymbolTable
 70
0
  0
ENDTAB
  0
TABLE
  2
UCS
  5
7
100
AcDbSymbolTable
 70
0
  0
ENDTAB
  0
TABLE
  2
APPID
  5
9
100
AcDbSymbolTable
 70
1
  0
APPID
  5
201
100
AcDbSymbolTableRecord
100
AcDbRegAppTableRecord
  2
ACAD
 70
0
  0
ENDTAB
  0
TABLE
  2
BLOCK_RECORD
  5
1
100
AcDbSymbolTable
 70
0
  0
BLOCK_RECORD
  5
202
100
AcDbSymbolTableRecord
100
AcDbBlockTableRecord
  2
*Model_Space
  0
BLOCK_RECORD
  5
203
100
AcDbSymbolTableRecord
100
AcDbBlockTableRecord
  2
*Paper_Space
  0
BLOCK_RECORD
  5
204
100
AcDbSymbolTableRecord
100
AcDbBlockTableRecord
  2
_FILLED
  0
ENDTAB
  0
TABLE
  2
DIMSTYLE
  5
A
100
AcDbSymbolTable
 70
1
100
AcDbDimStyleTable
 71
0
  0
DIMSTYLE
105
205
100
AcDbSymbolTableRecord
100
AcDbDimStyleTableRecord
  2
STANDARD
 70
0
  3

  4

 40
1.0
 41
0.1
 42
0.0625
 43
0.38
 44
0.125
 45
0.0
 46
0.0
 47
0.001
 48
0.001
140
0.08
141
0.09
142
0.0
143
25.4
144
1.0
145
0.0
146
1.0
147
0.09
 71
1.0
 72
0.0
 73
1
 74
1
 75
0
 76
0
 77
0
 78
4
 79
1
170
1
171
2
172
0
173
0
174
0
175
0
176
0
177
0
178
0
270
2
179
3
271
3
272
3
273
2
274
2
275
0
280
0
281
0
282
0
283
1
284
4
285
0
286
0
287
3
288
0
340
11
278
46
341
204
342
204
343
204
344
204
  0
ENDTAB
  0
ENDSEC
  0
SECTION
  2
BLOCKS
  0
BLOCK
  5
20
100
AcDbEntity
  8
0
100
AcDbBlockBegin
  2
*Model_Space
 70
0
 10
0.0
 20
0.0
 30
0.0
  3
*Model_Space
  1

  0
ENDBLK
  5
21
100
AcDbEntity
  8
0
100
AcDbBlockEnd
  0
BLOCK
  5
1C
100
AcDbEntity
  8
0
100
AcDbBlockBegin
  2
*Paper_Space
 70
0
 10
0.0
 20
0.0
 30
0.0
  3
*Paper_Space
  1

  0
ENDBLK
  5
1D
100
AcDbEntity
  8
0
100
AcDbBlockEnd
  0
BLOCK
  5
206
100
AcDbEntity
  8
0
100
AcDbBlockBegin
  2
_FILLED
 70
64
 10
0.0
 20
0.0
  3
_FILLED
  1

  0
SOLID
  5
207
100
AcDbEntity
  8
0
  6
BYBLOCK
 62
0
100
AcDbTrace
 10
0.0
 20
0.0
 11
-1.0
 21
0.2
 12
-1.0
 22
-0.2
 13
-1.0
 23
-0.2
  0
ENDBLK
  5
208
100
AcDbEntity
  8
0
  6
BYBLOCK
 62
0
100
AcDbBlockEnd
  0
ENDSEC
  0
SECTION
  2
ENTITIES
  0
LINE
  5
209
100
AcDbEntity
  8
0
100
AcDbLine
 62
7
  6
CONTINUOUS
 10
2.8176923427
 20
10.6804322479
 11
2.8176923427
 21
10.6460213804
  0
LINE
  5
20A
100
AcDbEntity
  8
0
100
AcDbLine
 62
7
  6
CONTINUOUS
 10
2.8176923427
 20
10.4692446851
 11
2.8176923427
 21
10.3861695021
  0
LINE
  5
20B
100
AcDbEntity
  8
0
100
AcDbLine
 62
7
  6
CONTINUOUS
 10
2.8176923427
 20
10.1361695021
 11
2.8176923427
 21
10.0530943192
  0
LINE
  5
20C
100
AcDbEntity
  8
0
100
AcDbLine
 62
7
  6
CONTINUOUS
 10
2.8176923427
 20
9.8763176239
 11
2.8176923427
 21
9.8419067564
  0
LINE
  5
20D
100
AcDbEntity
  8
0
100
AcDbLine
 62
7
  6
CONTINUOUS
 10
5.7576923427
 20
10.5431695021
 11
5.7576923427
 21
9.9791695021
  0
LINE
  5
20E
100
AcDbEntity
  8
0
100
AcDbLine
 62
9
  6
CONTINUOUS
 10
5.8761497249
 20
10.5730606173
 11
5.8761497249
 21
9.949278387
  0
LINE
  5
20F
100
AcDbEntity
  8
0
100
AcDbLine
 62
9
  6
CONTINUOUS
 10
6.0122626714
 20
10.0359003825
 11
6.0122626714
 21
10.4864386218
  0
LINE
  5
210
100
AcDbEntity
  8
0
100
AcDbLine
 62
7
  6
CONTINUOUS
 10
6.0216923427
 20
10.0458841055
 11
6.0216923427
 21
10.4764548987
  0
LINE
  5
211
100
AcDbEntity
  8
0
100
AcDbLine
 62
7
  6
CONTINUOUS
 10
6.1251923427
 20
7.0531695021
 11
6.1251923427
 21
6.9661688265
  0
LINE
  5
212
100
AcDbEntity
  8
0
100
AcDbLine
 62
9
  6
CONTINUOUS
 10
6.4876923427
 20
10.0661695021
 11
6.4876923427
 21
10.4561695021
  0
LINE
  5
213
100
AcDbEntity
  8
0
100
AcDbLine
 62
7
  6
CONTINUOUS
 10
6.5851923427
 20
8.7961695021
 11
6.5851923427
 21
8.3961695021
  0
LINE
  5
214
100
AcDbEntity
  8
0
100
AcDbLine
 62
7
  6
CONTINUOUS
 10
6.7001923427
 20
9.456325905
 11
6.7001923427
 21
9.406325905
  0
LINE
  5
215
100
AcDbEntity
  8
0
100
AcDbLine
 62
7
  6
CONTINUOUS
 10
6.7376923427
 20
8.3661695021
 11
6.7376923427
 21
8.3961695021
  0
LINE
  5
216
100
AcDbEntity
  8
0
100
AcDbLine
 62
7
  6
CONTINUOUS
 10
6.7426923427
 20
9.5961695021
 11
6.7426923427
 21
9.8111695021
  0
LINE
  5
217
100
AcDbEntity
  8
0
100
AcDbLine
 62
7
  6
CONTINUOUS
 10
7.1326923427
 20
9.5961695021
 11
7.1326923427
 21
9.8111695021
  0
LINE
  5
218
100
AcDbEntity
  8
0
100
AcDbLine
 62
7
  6
CONTINUOUS
 10
7.1376923427
 20
8.3661695021
 11
7.1376923427
 21
8.3961695021
  0
LINE
  5
219
100
AcDbEntity
  8
0
100
AcDbLine
 62
7
  6
CONTINUOUS
 10
7.1751923427
 20
9.456325905
 11
7.1751923427
 21
9.406325905
  0
LINE
  5
21A
100
AcDbEntity
  8
0
100
AcDbLine
 62
7
  6
CONTINUOUS
 10
7.2901923427
 20
8.7961695021
 11
7.2901923427
 21
8.3961695021
  0
LINE
  5
21B
100
AcDbEntity
  8
0
100
AcDbLine
 62
7
  6
CONTINUOUS
 10
7.7501923427
 20
7.0531695021
 11
7.7501923427
 21
6.9661688265
  0
LINE
  5
21C
100
AcDbEntity
  8
0
100
AcDbLine
 62
7
  6
CONTINUOUS
 10
6.6371923427
 20
8.856190894
 11
6.5851923427
 21
8.7961695021
  0
LINE
  5
21D
100
AcDbEntity
  8
0
100
AcDbLine
 62
7
  6
CONTINUOUS
 10
7.3271923427
 20
8.3661695021
 11
7.3471923427
 21
8.3461695021
  0
LINE
  5
21E
100
AcDbEntity
  8
0
100
AcDbLine
 62
7
  6
CONTINUOUS
 10
7.2381923427
 20
8.856190894
 11
7.2901923427
 21
8.7961695021
  0
LINE
  5
21F
100
AcDbEntity
  8
0
100
AcDbLine
 62
7
  6
CONTINUOUS
 10
6.5481923427
 20
8.3661695021
 11
6.5281923427
 21
8.3461695021
  0
LINE
  5
220
100
AcDbEntity
  8
0
100
AcDbLine
 62
7
  6
CONTINUOUS
 10
5.7576923427
 20
6.5911695021
 11
8.1176923427
 21
6.5911695021
  0
LINE
  5
221
100
AcDbEntity
  8
0
100
AcDbLine
 62
7
  6
CONTINUOUS
 10
9.9251923427
 20
6.5911695021
 11
11.9501923427
 21
6.5911695021
  0
LINE
  5
222
100
AcDbEntity
  8
0
100
AcDbLine
 62
7
  6
CONTINUOUS
 10
13.7576923427
 20
6.5911695021
 11
16.1176923427
 21
6.5911695021
  0
LINE
  5
223
100
AcDbEntity
  8
0
100
AcDbLine
 62
7
  6
CONTINUOUS
 10
5.9376923427
 20
6.7781695021
 11
7.9376923427
 21
6.7781695021
  0
LINE
  5
224
100
AcDbEntity
  8
0
100
AcDbLine
 62
7
  6
CONTINUOUS
 10
13.9376923427
 20
6.7781695021
 11
15.9376923427
 21
6.7781695021
  0
LINE
  5
225
100
AcDbEntity
  8
0
100
AcDbLine
 62
9
  6
CONTINUOUS
 10
11.9501923427
 20
6.8401369698
 11
11.6344325794
 21
6.8401369698
  0
LINE
  5
226
100
AcDbEntity
  8
0
100
AcDbLine
 62
9
  6
CONTINUOUS
 10
10.240952106
 20
6.8401369698
 11
9.9251923427
 21
6.8401369698
  0
LINE
  5
227
100
AcDbEntity
  8
0
100
AcDbLine
 62
7
  6
CONTINUOUS
 10
11.9126923427
 20
6.9111695021
 11
11.5924278532
 21
6.9111695021
  0
LINE
  5
228
100
AcDbEntity
  8
0
100
AcDbLine
 62
7
  6
CONTINUOUS
 10
10.2829568323
 20
6.9111695021
 11
9.9626923427
 21
6.9111695021
  0
LINE
  5
229
100
AcDbEntity
  8
0
100
AcDbLine
 62
7
  6
CONTINUOUS
 10
15.7501923427
 20
6.9661688265
 11
14.1251923427
 21
6.9661688265
  0
LINE
  5
22A
100
AcDbEntity
  8
0
100
AcDbLine
 62
7
  6
CONTINUOUS
 10
7.7501923427
 20
6.9661688265
 11
6.1251923427
 21
6.9661688265
  0
LINE
  5
22B
100
AcDbEntity
  8
0
100
AcDbLine
 62
7
  6
CONTINUOUS
 10
15.7501923427
 20
7.0531695021
 11
14.1251923427
 21
7.0531695021
  0
LINE
  5
22C
100
AcDbEntity
  8
0
100
AcDbLine
 62
7
  6
CONTINUOUS
 10
7.7501923427
 20
7.0531695021
 11
6.1251923427
 21
7.0531695021
  0
LINE
  5
22D
100
AcDbEntity
  8
0
100
AcDbLine
 62
7
  6
CONTINUOUS
 10
11.4326923427
 20
7.0911695021
 11
10.4426923427
 21
7.0911695021
  0
LINE
  5
22E
100
AcDbEntity
  8
0
100
AcDbLine
 62
9
  6
CONTINUOUS
 10
11.4001923427
 20
7.1711695021
 11
10.4751923427
 21
7.1711695021
  0
LINE
  5
22F
100
AcDbEntity
  8
0
100
AcDbLine
 62
9
  6
CONTINUOUS
 10
10.5104088365
 20
7.3352720662
 11
11.3649804298
 21
7.3352720662
  0
LINE
  5
230
100
AcDbEntity
  8
0
100
AcDbLine
 62
7
  6
CONTINUOUS
 10
11.3558607276
 20
7.3411695021
 11
10.5195284409
 21
7.3411695021
  0
LINE
  5
231
100
AcDbEntity
  8
0
100
AcDbLine
 62
9
  6
CONTINUOUS
 10
11.2900770755
 20
7.4221665339
 11
10.5853076099
 21
7.4221665339
  0
LINE
  5
232
100
AcDbEntity
  8
0
100
AcDbLine
 62
9
  6
CONTINUOUS
 10
10.2295001452
 20
7.7519146422
 11
10.6225255772
 21
7.7519146422
  0
LINE
  5
233
100
AcDbEntity
  8
0
100
AcDbLine
 62
9
  6
CONTINUOUS
 10
11.2528591082
 20
7.7519146422
 11
11.6458845403
 21
7.7519146422
  0
LINE
  5
234
100
AcDbEntity
  8
0
100
AcDbLine
 62
9
  6
CONTINUOUS
 10
10.2808217393
 20
7.894510275
 11
10.7916374309
 21
7.894510275
  0
LINE
  5
235
100
AcDbEntity
  8
0
100
AcDbLine
 62
9
  6
CONTINUOUS
 10
11.0837472546
 20
7.894510275
 11
11.5945629461
 21
7.894510275
  0
LINE
  5
236
100
AcDbEntity
  8
0
100
AcDbLine
 62
7
  6
CONTINUOUS
 10
10.2991642053
 20
11.043244538
 11
10.2983232992
 21
11.0591695021
  0
LINE
  5
237
100
AcDbEntity
  8
0
100
AcDbLine
 62
7
  6
CONTINUOUS
 10
9.8723147386
 20
11.0591695021
 11
9.8723147386
 21
11.6691695021
  0
LINE
  5
238
100
AcDbEntity
  8
0
100
AcDbLine
 62
7
  6
CONTINUOUS
 10
9.9251923427
 20
6.8401369698
 11
9.9251923427
 21
6.5911695021
  0
LINE
  5
239
100
AcDbEntity
  8
0
100
AcDbLine
 62
7
  6
CONTINUOUS
 10
10.0703899294
 20
11.0591695021
 11
10.0703899294
 21
11.6691695021
  0
LINE
  5
23A
100
AcDbEntity
  8
0
100
AcDbLine
 62
7
  6
CONTINUOUS
 10
10.1776923427
 20
10.693430271
 11
10.1776923427
 21
10.1340026499
  0
LINE
  5
23B
100
AcDbEntity
  8
0
100
AcDbLine
 62
7
  6
CONTINUOUS
 10
10.2983232992
 20
11.0591695021
 11
10.2983232992
 21
11.6691695021
  0
LINE
  5
23C
100
AcDbEntity
  8
0
100
AcDbLine
 62
7
  6
CONTINUOUS
 10
10.3621034099
 20
10.0591695021
 11
10.2808217393
 21
7.894510275
  0
LINE
  5
23D
100
AcDbEntity
  8
0
100
AcDbLine
 62
7
  6
CONTINUOUS
 10
6.5281923427
 20
8.3461695021
 11
7.3471923427
 21
8.3461695021
  0
LINE
  5
23E
100
AcDbEntity
  8
0
100
AcDbLine
 62
7
  6
CONTINUOUS
 10
14.5281923427
 20
8.3461695021
 11
15.3471923427
 21
8.3461695021
  0
LINE
  5
23F
100
AcDbEntity
  8
0
100
AcDbLine
 62
7
  6
CONTINUOUS
 10
15.3271923427
 20
8.3661695021
 11
14.5481923427
 21
8.3661695021
  0
LINE
  5
240
100
AcDbEntity
  8
0
100
AcDbLine
 62
7
  6
CONTINUOUS
 10
7.3271923427
 20
8.3661695021
 11
6.5481923427
 21
8.3661695021
  0
LINE
  5
241
100
AcDbEntity
  8
0
100
AcDbLine
 62
7
  6
CONTINUOUS
 10
6.5851923427
 20
8.3961695021
 11
7.2901923427
 21
8.3961695021
  0
LINE
  5
242
100
AcDbEntity
  8
0
100
AcDbLine
 62
7
  6
CONTINUOUS
 10
14.5851923427
 20
8.3961695021
 11
15.2901923427
 21
8.3961695021
  0
LINE
  5
243
100
AcDbEntity
  8
0
100
AcDbLine
 62
7
  6
CONTINUOUS
 10
10.6147881186
 20
7.3411695021
 11
10.5853076099
 21
7.4221665339
  0
LINE
  5
244
100
AcDbEntity
  8
0
100
AcDbLine
 62
7
  6
CONTINUOUS
 10
10.4751923427
 20
7.0911695021
 11
10.4751923427
 21
7.1711695021
  0
LINE
  5
245
100
AcDbEntity
  8
0
100
AcDbLine
 62
7
  6
CONTINUOUS
 10
10.7765191113
 20
11.0591695021
 11
10.7765191113
 21
11.6691695021
  0
LINE
  5
246
100
AcDbEntity
  8
0
100
AcDbLine
 62
7
  6
CONTINUOUS
 10
11.9276923427
 20
10.969602573
 11
11.7261611215
 21
10.7633107717
  0
LINE
  5
247
100
AcDbEntity
  8
0
100
AcDbLine
 62
7
  6
CONTINUOUS
 10
15.2901923427
 20
8.7961695021
 11
14.5851923427
 21
8.7961695021
  0
LINE
  5
248
100
AcDbEntity
  8
0
100
AcDbLine
 62
7
  6
CONTINUOUS
 10
7.2901923427
 20
8.7961695021
 11
6.5851923427
 21
8.7961695021
  0
LINE
  5
249
100
AcDbEntity
  8
0
100
AcDbLine
 62
7
  6
CONTINUOUS
 10
15.2381923427
 20
8.856190894
 11
14.6371923427
 21
8.856190894
  0
LINE
  5
24A
100
AcDbEntity
  8
0
100
AcDbLine
 62
7
  6
CONTINUOUS
 10
7.2381923427
 20
8.856190894
 11
6.6371923427
 21
8.856190894
  0
LINE
  5
24B
100
AcDbEntity
  8
0
100
AcDbLine
 62
9
  6
CONTINUOUS
 10
6.6224074516
 20
9.1271177512
 11
7.2529772339
 21
9.1271177512
  0
LINE
  5
24C
100
AcDbEntity
  8
0
100
AcDbLine
 62
9
  6
CONTINUOUS
 10
14.6224074516
 20
9.1271177512
 11
15.2529772339
 21
9.1271177512
  0
LINE
  5
24D
100
AcDbEntity
  8
0
100
AcDbLine
 62
7
  6
CONTINUOUS
 10
11.5132812755
 20
10.0591695021
 11
11.5945629461
 21
7.894510275
  0
LINE
  5
24E
100
AcDbEntity
  8
0
100
AcDbLine
 62
7
  6
CONTINUOUS
 10
11.0988655742
 20
11.0591695021
 11
11.0988655742
 21
11.6691695021
  0
LINE
  5
24F
100
AcDbEntity
  8
0
100
AcDbLine
 62
7
  6
CONTINUOUS
 10
11.4001923427
 20
7.0911695021
 11
11.4001923427
 21
7.1711695021
  0
LINE
  5
250
100
AcDbEntity
  8
0
100
AcDbLine
 62
7
  6
CONTINUOUS
 10
11.5770613863
 20
11.0591695021
 11
11.5770613863
 21
11.6691695021
  0
LINE
  5
251
100
AcDbEntity
  8
0
100
AcDbLine
 62
7
  6
CONTINUOUS
 10
11.5770613863
 20
11.0591695021
 11
11.5762204802
 21
11.0432442944
  0
LINE
  5
252
100
AcDbEntity
  8
0
100
AcDbLine
 62
9
  6
CONTINUOUS
 10
6.7001923427
 20
9.406325905
 11
7.1751923427
 21
9.406325905
  0
LINE
  5
253
100
AcDbEntity
  8
0
100
AcDbLine
 62
9
  6
CONTINUOUS
 10
14.7001923427
 20
9.406325905
 11
15.1751923427
 21
9.406325905
  0
LINE
  5
254
100
AcDbEntity
  8
0
100
AcDbLine
 62
9
  6
CONTINUOUS
 10
15.1751923427
 20
9.456325905
 11
14.7001923427
 21
9.456325905
  0
LINE
  5
255
100
AcDbEntity
  8
0
100
AcDbLine
 62
9
  6
CONTINUOUS
 10
7.1751923427
 20
9.456325905
 11
6.7001923427
 21
9.456325905
  0
LINE
  5
256
100
AcDbEntity
  8
0
100
AcDbLine
 62
9
  6
CONTINUOUS
 10
15.1939423427
 20
9.4762868043
 11
14.6814423427
 21
9.4762868043
  0
LINE
  5
257
100
AcDbEntity
  8
0
100
AcDbLine
 62
9
  6
CONTINUOUS
 10
6.6814423427
 20
9.4762868043
 11
7.1939423427
 21
9.4762868043
  0
LINE
  5
258
100
AcDbEntity
  8
0
100
AcDbLine
 62
7
  6
CONTINUOUS
 10
15.1901923427
 20
9.5961695021
 11
14.6851923427
 21
9.5961695021
  0
LINE
  5
259
100
AcDbEntity
  8
0
100
AcDbLine
 62
7
  6
CONTINUOUS
 10
7.1901923427
 20
9.5961695021
 11
6.6851923427
 21
9.5961695021
  0
LINE
  5
25A
100
AcDbEntity
  8
0
100
AcDbLine
 62
9
  6
CONTINUOUS
 10
15.1326923427
 20
9.8111695021
 11
14.7426923427
 21
9.8111695021
  0
LINE
  5
25B
100
AcDbEntity
  8
0
100
AcDbLine
 62
9
  6
CONTINUOUS
 10
7.1326923427
 20
9.8111695021
 11
6.7426923427
 21
9.8111695021
  0
LINE
  5
25C
100
AcDbEntity
  8
0
100
AcDbLine
 62
7
  6
CONTINUOUS
 10
9.9476923427
 20
10.969602573
 11
10.149223564
 21
10.7633107717
  0
LINE
  5
25D
100
AcDbEntity
  8
0
100
AcDbLine
 62
7
  6
CONTINUOUS
 10
11.6976923427
 20
10.693430271
 11
11.6976923427
 21
10.1340026499
  0
LINE
  5
25E
100
AcDbEntity
  8
0
100
AcDbLine
 62
7
  6
CONTINUOUS
 10
11.8049947561
 20
11.0591695021
 11
11.8049947561
 21
11.6691695021
  0
LINE
  5
25F
100
AcDbEntity
  8
0
100
AcDbLine
 62
7
  6
CONTINUOUS
 10
11.9501923427
 20
6.8401369698
 11
11.9501923427
 21
6.5911695021
  0
LINE
  5
260
100
AcDbEntity
  8
0
100
AcDbLine
 62
7
  6
CONTINUOUS
 10
12.0030699469
 20
11.0591695021
 11
12.0030699469
 21
11.6691695021
  0
LINE
  5
261
100
AcDbEntity
  8
0
100
AcDbLine
 62
7
  6
CONTINUOUS
 10
11.2605965669
 20
7.3411695021
 11
11.2900770755
 21
7.4221665339
  0
LINE
  5
262
100
AcDbEntity
  8
0
100
AcDbLine
 62
7
  6
CONTINUOUS
 10
16.2826923456
 20
10.4467850352
 11
19.0576923427
 21
10.6460213804
  0
LINE
  5
263
100
AcDbEntity
  8
0
100
AcDbLine
 62
7
  6
CONTINUOUS
 10
5.5926923399
 20
10.0755539691
 11
2.8176923427
 21
9.8763176239
  0
LINE
  5
264
100
AcDbEntity
  8
0
100
AcDbLine
 62
7
  6
CONTINUOUS
 10
16.2826923454
 20
10.5236695023
 11
19.1610976179
 21
10.6862737236
  0
LINE
  5
265
100
AcDbEntity
  8
0
100
AcDbLine
 62
7
  6
CONTINUOUS
 10
2.7142870675
 20
9.8360652807
 11
5.5926923401
 21
9.998669502
  0
LINE
  5
266
100
AcDbEntity
  8
0
100
AcDbLine
 62
7
  6
CONTINUOUS
 10
16.2826923456
 20
10.2611695053
 11
19.0576923427
 21
10.3861695021
  0
LINE
  5
267
100
AcDbEntity
  8
0
100
AcDbLine
 62
7
  6
CONTINUOUS
 10
5.5926923399
 20
10.261169499
 11
2.8176923427
 21
10.1361695021
  0
LINE
  5
268
100
AcDbEntity
  8
0
100
AcDbLine
 62
7
  6
CONTINUOUS
 10
2.8176923427
 20
10.0530943192
 11
5.5926923399
 21
10.0755539691
  0
LINE
  5
269
100
AcDbEntity
  8
0
100
AcDbLine
 62
7
  6
CONTINUOUS
 10
19.0576923427
 20
10.4692446851
 11
16.2826923456
 21
10.4467850352
  0
LINE
  5
26A
100
AcDbEntity
  8
0
100
AcDbLine
 62
7
  6
CONTINUOUS
 10
5.7576923427
 20
9.9986695021
 11
5.5926923401
 21
9.9986695021
  0
LINE
  5
26B
100
AcDbEntity
  8
0
100
AcDbLine
 62
7
  6
CONTINUOUS
 10
16.1176923427
 20
9.9986695021
 11
16.2826923454
 21
9.9986695021
  0
LINE
  5
26C
100
AcDbEntity
  8
0
100
AcDbLine
 62
7
  6
CONTINUOUS
 10
10.1976923427
 20
10.0591695021
 11
11.6776923427
 21
10.0591695021
  0
LINE
  5
26D
100
AcDbEntity
  8
0
100
AcDbLine
 62
7
  6
CONTINUOUS
 10
6.4876923427
 20
10.0661695021
 11
6.0216923427
 21
10.0661695021
  0
LINE
  5
26E
100
AcDbEntity
  8
0
100
AcDbLine
 62
7
  6
CONTINUOUS
 10
15.3876923427
 20
10.0661695021
 11
15.8536923427
 21
10.0661695021
  0
LINE
  5
26F
100
AcDbEntity
  8
0
100
AcDbLine
 62
9
  6
CONTINUOUS
 10
10.1776923427
 20
10.1340026499
 11
11.6976923427
 21
10.1340026499
  0
LINE
  5
270
100
AcDbEntity
  8
0
100
AcDbLine
 62
7
  6
CONTINUOUS
 10
6.4876923427
 20
10.4561695021
 11
6.0216923427
 21
10.4561695021
  0
LINE
  5
271
100
AcDbEntity
  8
0
100
AcDbLine
 62
7
  6
CONTINUOUS
 10
15.3876923427
 20
10.4561695021
 11
15.8536923427
 21
10.4561695021
  0
LINE
  5
272
100
AcDbEntity
  8
0
100
AcDbLine
 62
7
  6
CONTINUOUS
 10
5.7576923427
 20
10.5236695021
 11
5.5926923401
 21
10.5236695021
  0
LINE
  5
273
100
AcDbEntity
  8
0
100
AcDbLine
 62
7
  6
CONTINUOUS
 10
16.1176923427
 20
10.5236695021
 11
16.2826923454
 21
10.5236695021
  0
LINE
  5
274
100
AcDbEntity
  8
0
100
AcDbLine
 62
7
  6
CONTINUOUS
 10
16.2826923455
 20
10.075553972
 11
19.0576923427
 21
10.0530943192
  0
LINE
  5
275
100
AcDbEntity
  8
0
100
AcDbLine
 62
7
  6
CONTINUOUS
 10
5.59269234
 20
10.4467850323
 11
2.8176923427
 21
10.4692446851
  0
LINE
  5
276
100
AcDbEntity
  8
0
100
AcDbLine
 62
7
  6
CONTINUOUS
 10
2.8176923427
 20
10.3861695021
 11
5.5926923399
 21
10.261169499
  0
LINE
  5
277
100
AcDbEntity
  8
0
100
AcDbLine
 62
7
  6
CONTINUOUS
 10
19.0576923427
 20
10.1361695021
 11
16.2826923456
 21
10.2611695053
  0
LINE
  5
278
100
AcDbEntity
  8
0
100
AcDbLine
 62
7
  6
CONTINUOUS
 10
2.7142870675
 20
10.6862737236
 11
5.5926923401
 21
10.5236695023
  0
LINE
  5
279
100
AcDbEntity
  8
0
100
AcDbLine
 62
7
  6
CONTINUOUS
 10
16.2826923454
 20
9.998669502
 11
19.1610976179
 21
9.8360652807
  0
LINE
  5
27A
100
AcDbEntity
  8
0
100
AcDbLine
 62
7
  6
CONTINUOUS
 10
2.8176923427
 20
10.6460213804
 11
5.59269234
 21
10.4467850323
  0
LINE
  5
27B
100
AcDbEntity
  8
0
100
AcDbLine
 62
7
  6
CONTINUOUS
 10
19.0576923427
 20
9.8763176239
 11
16.2826923455
 21
10.075553972
  0
LINE
  5
27C
100
AcDbEntity
  8
0
100
AcDbLine
 62
9
  6
CONTINUOUS
 10
11.6976923427
 20
10.693430271
 11
10.1777068276
 21
10.693430271
  0
LINE
  5
27D
100
AcDbEntity
  8
0
100
AcDbLine
 62
9
  6
CONTINUOUS
 10
10.149223564
 20
10.7633107717
 11
11.7261611215
 21
10.7633107717
  0
LINE
  5
27E
100
AcDbEntity
  8
0
100
AcDbLine
 62
7
  6
CONTINUOUS
 10
9.8723147386
 20
11.0591695021
 11
10.0703899294
 21
11.0591695021
  0
LINE
  5
27F
100
AcDbEntity
  8
0
100
AcDbLine
 62
7
  6
CONTINUOUS
 10
10.2983232992
 20
11.0591695021
 11
10.7765191113
 21
11.0591695021
  0
LINE
  5
280
100
AcDbEntity
  8
0
100
AcDbLine
 62
7
  6
CONTINUOUS
 10
11.0988655742
 20
11.0591695021
 11
11.5770613863
 21
11.0591695021
  0
LINE
  5
281
100
AcDbEntity
  8
0
100
AcDbLine
 62
7
  6
CONTINUOUS
 10
11.8049947561
 20
11.0591695021
 11
12.0030699469
 21
11.0591695021
  0
LINE
  5
282
100
AcDbEntity
  8
0
100
AcDbLine
 62
9
  6
CONTINUOUS
 10
12.0030699469
 20
11.6691695021
 11
11.8049947561
 21
11.6691695021
  0
LINE
  5
283
100
AcDbEntity
  8
0
100
AcDbLine
 62
9
  6
CONTINUOUS
 10
11.5770613863
 20
11.6691695021
 11
11.0988655742
 21
11.6691695021
  0
LINE
  5
284
100
AcDbEntity
  8
0
100
AcDbLine
 62
9
  6
CONTINUOUS
 10
10.7765191113
 20
11.6691695021
 11
10.2983232992
 21
11.6691695021
  0
LINE
  5
285
100
AcDbEntity
  8
0
100
AcDbLine
 62
9
  6
CONTINUOUS
 10
10.0703899294
 20
11.6691695021
 11
9.8723147386
 21
11.6691695021
  0
LINE
  5
286
100
AcDbEntity
  8
0
100
AcDbLine
 62
7
  6
CONTINUOUS
 10
15.3271923427
 20
8.3661695021
 11
15.3471923427
 21
8.3461695021
  0
LINE
  5
287
100
AcDbEntity
  8
0
100
AcDbLine
 62
7
  6
CONTINUOUS
 10
14.6371923427
 20
8.856190894
 11
14.5851923427
 21
8.7961695021
  0
LINE
  5
288
100
AcDbEntity
  8
0
100
AcDbLine
 62
7
  6
CONTINUOUS
 10
11.8651923427
 20
11.8191695021
 11
10.0101923427
 21
11.8191695021
  0
LINE
  5
289
100
AcDbEntity
  8
0
100
AcDbLine
 62
9
  6
CONTINUOUS
 10
10.0285559097
 20
11.8791695021
 11
11.8468287758
 21
11.8791695021
  0
LINE
  5
28A
100
AcDbEntity
  8
0
100
AcDbLine
 62
7
  6
CONTINUOUS
 10
15.2381923427
 20
8.856190894
 11
15.2901923427
 21
8.7961695021
  0
LINE
  5
28B
100
AcDbEntity
  8
0
100
AcDbLine
 62
7
  6
CONTINUOUS
 10
14.1251923427
 20
7.0531695021
 11
14.1251923427
 21
6.9661688265
  0
LINE
  5
28C
100
AcDbEntity
  8
0
100
AcDbLine
 62
7
  6
CONTINUOUS
 10
14.5851923427
 20
8.7961695021
 11
14.5851923427
 21
8.3961695021
  0
LINE
  5
28D
100
AcDbEntity
  8
0
100
AcDbLine
 62
7
  6
CONTINUOUS
 10
14.5481923427
 20
8.3661695021
 11
14.5281923427
 21
8.3461695021
  0
LINE
  5
28E
100
AcDbEntity
  8
0
100
AcDbLine
 62
7
  6
CONTINUOUS
 10
14.7001923427
 20
9.456325905
 11
14.7001923427
 21
9.406325905
  0
LINE
  5
28F
100
AcDbEntity
  8
0
100
AcDbLine
 62
7
  6
CONTINUOUS
 10
14.7376923427
 20
8.3661695021
 11
14.7376923427
 21
8.3961695021
  0
LINE
  5
290
100
AcDbEntity
  8
0
100
AcDbLine
 62
7
  6
CONTINUOUS
 10
14.7426923427
 20
9.5961695021
 11
14.7426923427
 21
9.8111695021
  0
LINE
  5
291
100
AcDbEntity
  8
0
100
AcDbLine
 62
7
  6
CONTINUOUS
 10
15.1326923427
 20
9.5961695021
 11
15.1326923427
 21
9.8111695021
  0
LINE
  5
292
100
AcDbEntity
  8
0
100
AcDbLine
 62
7
  6
CONTINUOUS
 10
15.1376923427
 20
8.3661695021
 11
15.1376923427
 21
8.3961695021
  0
LINE
  5
293
100
AcDbEntity
  8
0
100
AcDbLine
 62
7
  6
CONTINUOUS
 10
15.1751923427
 20
9.456325905
 11
15.1751923427
 21
9.406325905
  0
LINE
  5
294
100
AcDbEntity
  8
0
100
AcDbLine
 62
7
  6
CONTINUOUS
 10
15.2901923427
 20
8.7961695021
 11
15.2901923427
 21
8.3961695021
  0
LINE
  5
295
100
AcDbEntity
  8
0
100
AcDbLine
 62
9
  6
CONTINUOUS
 10
15.3876923427
 20
10.4561695021
 11
15.3876923427
 21
10.0661695021
  0
LINE
  5
296
100
AcDbEntity
  8
0
100
AcDbLine
 62
7
  6
CONTINUOUS
 10
15.7501923427
 20
7.0531695021
 11
15.7501923427
 21
6.9661688265
  0
LINE
  5
297
100
AcDbEntity
  8
0
100
AcDbLine
 62
7
  6
CONTINUOUS
 10
15.8536923427
 20
10.4764548987
 11
15.8536923427
 21
10.0458841055
  0
LINE
  5
298
100
AcDbEntity
  8
0
100
AcDbLine
 62
9
  6
CONTINUOUS
 10
15.8631220141
 20
10.4864386218
 11
15.8631220141
 21
10.0359003825
  0
LINE
  5
299
100
AcDbEntity
  8
0
100
AcDbLine
 62
9
  6
CONTINUOUS
 10
15.9992349606
 20
10.5730606173
 11
15.9992349606
 21
9.949278387
  0
LINE
  5
29A
100
AcDbEntity
  8
0
100
AcDbLine
 62
7
  6
CONTINUOUS
 10
16.1176923427
 20
9.9791695021
 11
16.1176923427
 21
10.5431695021
  0
LINE
  5
29B
100
AcDbEntity
  8
0
100
AcDbLine
 62
7
  6
CONTINUOUS
 10
19.0576923427
 20
10.4692446851
 11
19.0576923427
 21
10.3861695021
  0
LINE
  5
29C
100
AcDbEntity
  8
0
100
AcDbLine
 62
7
  6
CONTINUOUS
 10
19.0576923427
 20
10.1361695021
 11
19.0576923427
 21
10.0530943192
  0
LINE
  5
29D
100
AcDbEntity
  8
0
100
AcDbLine
 62
7
  6
CONTINUOUS
 10
19.0576923427
 20
9.8763176239
 11
19.0576923427
 21
9.8419067564
  0
LINE
  5
29E
100
AcDbEntity
  8
0
100
AcDbLine
 62
7
  6
CONTINUOUS
 10
19.0576923427
 20
10.6460213804
 11
19.0576923427
 21
10.6804322479
  0
ARC
  5
29F
100
AcDbEntity
  8
0
100
AcDbCircle
 62
7
  6
CONTINUOUS
 10
10.3388821429
 20
8.5693110253
 40
3.0
100
AcDbArc
 50
184.2656285905
 51
210.3566145709
  0
ARC
  5
2A0
100
AcDbEntity
  8
0
100
AcDbCircle
 62
7
  6
CONTINUOUS
 10
3.5365025425
 20
8.5693110253
 40
3.0
100
AcDbArc
 50
329.6433854291
 51
355.7343714095
  0
ARC
  5
2A1
100
AcDbEntity
  8
0
100
AcDbCircle
 62
7
  6
CONTINUOUS
 10
10.6136723347
 20
6.9616374993
 40
1.3
100
AcDbArc
 50
357.7751307225
 51
37.4382101819
  0
ARC
  5
2A2
100
AcDbEntity
  8
0
100
AcDbCircle
 62
7
  6
CONTINUOUS
 10
10.8464719365
 20
6.4082744624
 40
0.9
100
AcDbArc
 50
11.7251268757
 51
49.3560828237
  0
ARC
  5
2A3
100
AcDbEntity
  8
0
100
AcDbCircle
 62
7
  6
CONTINUOUS
 10
10.8751923427
 20
7.1711695021
 40
0.4
100
AcDbArc
 50
155.7790568907
 51
180.0
  0
ARC
  5
2A4
100
AcDbEntity
  8
0
100
AcDbCircle
 62
7
  6
CONTINUOUS
 10
10.0309977979
 20
7.9038910159
 40
0.25
100
AcDbArc
 50
322.5617898181
 51
357.849587733
  0
ARC
  5
2A5
100
AcDbEntity
  8
0
100
AcDbCircle
 62
7
  6
CONTINUOUS
 10
5.9448284538
 20
6.5911695021
 40
0.1871361111
100
AcDbArc
 50
92.1854050713
 51
180.0
  0
ARC
  5
2A6
100
AcDbEntity
  8
0
100
AcDbCircle
 62
7
  6
CONTINUOUS
 10
7.9305562316
 20
6.5911695021
 40
0.1871361111
100
AcDbArc
 50
0.0
 51
87.8145949287
  0
ARC
  5
2A7
100
AcDbEntity
  8
0
100
AcDbCircle
 62
7
  6
CONTINUOUS
 10
7.7506950166
 20
6.7791695021
 40
0.187
100
AcDbArc
 50
359.6936039968
 51
90.1540166995
  0
ARC
  5
2A8
100
AcDbEntity
  8
0
100
AcDbCircle
 62
7
  6
CONTINUOUS
 10
6.1246896689
 20
6.7791695021
 40
0.187
100
AcDbArc
 50
89.8459833005
 51
180.3063960032
  0
ARC
  5
2A9
100
AcDbEntity
  8
0
100
AcDbCircle
 62
7
  6
CONTINUOUS
 10
10.0112172848
 20
6.8401369698
 40
0.0860249421
100
AcDbArc
 50
124.338423378
 51
180.0
  0
ARC
  5
2AA
100
AcDbEntity
  8
0
100
AcDbCircle
 62
7
  6
CONTINUOUS
 10
10.5195239579
 20
7.3311695021
 40
0.01
100
AcDbArc
 50
90.0
 51
155.7790568908
  0
ARC
  5
2AB
100
AcDbEntity
  8
0
100
AcDbCircle
 62
7
  6
CONTINUOUS
 10
7.7763594626
 20
9.2187570001
 40
2.7892914327
100
AcDbArc
 50
38.8808295211
 51
41.2856606155
  0
ARC
  5
2AC
100
AcDbEntity
  8
0
100
AcDbCircle
 62
7
  6
CONTINUOUS
 10
6.4876923427
 20
9.8111695021
 40
0.645
100
AcDbArc
 50
0.0
 51
90.0
  0
ARC
  5
2AD
100
AcDbEntity
  8
0
100
AcDbCircle
 62
7
  6
CONTINUOUS
 10
7.7151923427
 20
9.406325905
 40
0.54
100
AcDbArc
 50
180.0
 51
211.1347215689
  0
ARC
  5
2AE
100
AcDbEntity
  8
0
100
AcDbCircle
 62
7
  6
CONTINUOUS
 10
6.1601923427
 20
9.406325905
 40
0.54
100
AcDbArc
 50
328.8652784311
 51
360.0
  0
ARC
  5
2AF
100
AcDbEntity
  8
0
100
AcDbCircle
 62
7
  6
CONTINUOUS
 10
2.8176923427
 20
10.2611695021
 40
0.4375
100
AcDbArc
 50
103.6715038208
 51
256.3284961792
  0
ARC
  5
2B0
100
AcDbEntity
  8
0
100
AcDbCircle
 62
7
  6
CONTINUOUS
 10
6.4876923427
 20
9.8111695021
 40
0.255
100
AcDbArc
 50
0.0
 51
90.0
  0
ARC
  5
2B1
100
AcDbEntity
  8
0
100
AcDbCircle
 62
7
  6
CONTINUOUS
 10
6.8286923427
 20
9.0025081863
 40
0.241
100
AcDbArc
 50
148.8652784312
 51
217.3819608306
  0
ARC
  5
2B2
100
AcDbEntity
  8
0
100
AcDbCircle
 62
7
  6
CONTINUOUS
 10
7.0466923427
 20
9.0025081863
 40
0.241
100
AcDbArc
 50
322.6180391694
 51
31.1347215688
  0
ARC
  5
2B3
100
AcDbEntity
  8
0
100
AcDbCircle
 62
7
  6
CONTINUOUS
 10
6.0216923427
 20
10.6515070021
 40
0.1653375
100
AcDbArc
 50
208.3243361107
 51
266.7304834095
  0
ARC
  5
2B4
100
AcDbEntity
  8
0
100
AcDbCircle
 62
7
  6
CONTINUOUS
 10
6.0216923427
 20
9.8708320021
 40
0.1653375
100
AcDbArc
 50
93.2695165905
 51
151.6756638893
  0
ARC
  5
2B5
100
AcDbEntity
  8
0
100
AcDbCircle
 62
7
  6
CONTINUOUS
 10
10.0101923427
 20
11.6691695021
 40
0.15
100
AcDbArc
 50
90.0
 51
114.6243183522
  0
ARC
  5
2B6
100
AcDbEntity
  8
0
100
AcDbCircle
 62
7
  6
CONTINUOUS
 10
10.3276923427
 20
10.1340026499
 40
0.15
100
AcDbArc
 50
180.0
 51
209.9264348665
  0
ARC
  5
2B7
100
AcDbEntity
  8
0
100
AcDbCircle
 62
7
  6
CONTINUOUS
 10
2.8415560386
 20
10.2611694394
 40
0.1272795798
100
AcDbArc
 50
100.8082519601
 51
259.1917374371
  0
ARC
  5
2B8
100
AcDbEntity
  8
0
100
AcDbCircle
 62
7
  6
CONTINUOUS
 10
10.0776923427
 20
10.693430271
 40
0.1
100
AcDbArc
 50
0.0
 51
44.3312080467
  0
ARC
  5
2B9
100
AcDbEntity
  8
0
100
AcDbCircle
 62
7
  6
CONTINUOUS
 10
5.8206923427
 20
9.9791695021
 40
0.063
100
AcDbArc
 50
180.0
 51
331.6756638896
  0
ARC
  5
2BA
100
AcDbEntity
  8
0
100
AcDbCircle
 62
7
  6
CONTINUOUS
 10
5.8206923427
 20
10.5431695021
 40
0.063
100
AcDbArc
 50
28.3243361104
 51
180.0
  0
ARC
  5
2BB
100
AcDbEntity
  8
0
100
AcDbCircle
 62
7
  6
CONTINUOUS
 10
6.6851923427
 20
9.5361695021
 40
0.06
100
AcDbArc
 50
90.0
 51
266.4166783015
  0
ARC
  5
2BC
100
AcDbEntity
  8
0
100
AcDbCircle
 62
7
  6
CONTINUOUS
 10
7.1901923427
 20
9.5361695021
 40
0.06
100
AcDbArc
 50
273.5833216985
 51
90.0
  0
ARC
  5
2BD
100
AcDbEntity
  8
0
100
AcDbCircle
 62
7
  6
CONTINUOUS
 10
10.0328456949
 20
11.8493228543
 40
0.0301533521
100
AcDbArc
 50
98.1789688981
 51
270.0
  0
ARC
  5
2BE
100
AcDbEntity
  8
0
100
AcDbCircle
 62
7
  6
CONTINUOUS
 10
7.1951923427
 20
9.456325905
 40
0.02
100
AcDbArc
 50
93.5833216985
 51
180.0
  0
ARC
  5
2BF
100
AcDbEntity
  8
0
100
AcDbCircle
 62
7
  6
CONTINUOUS
 10
6.6801923427
 20
9.456325905
 40
0.02
100
AcDbArc
 50
0.0
 51
86.4166783015
  0
ARC
  5
2C0
100
AcDbEntity
  8
0
100
AcDbCircle
 62
7
  6
CONTINUOUS
 10
6.0116923427
 20
10.0458841055
 40
0.01
100
AcDbArc
 50
283.0780663651
 51
360.0
  0
ARC
  5
2C1
100
AcDbEntity
  8
0
100
AcDbCircle
 62
7
  6
CONTINUOUS
 10
6.0116923427
 20
10.4764548987
 40
0.01
100
AcDbArc
 50
0.0
 51
76.9219336349
  0
ARC
  5
2C2
100
AcDbEntity
  8
0
100
AcDbCircle
 62
7
  6
CONTINUOUS
 10
10.9376923427
 20
5.553753703
 40
6.3904157991
100
AcDbArc
 50
81.821031102
 51
98.178968898
  0
ARC
  5
2C3
100
AcDbEntity
  8
0
100
AcDbCircle
 62
7
  6
CONTINUOUS
 10
18.3388821429
 20
8.5693110253
 40
3.0
100
AcDbArc
 50
184.2656285905
 51
210.3566145709
  0
ARC
  5
2C4
100
AcDbEntity
  8
0
100
AcDbCircle
 62
7
  6
CONTINUOUS
 10
11.5365025425
 20
8.5693110253
 40
3.0
100
AcDbArc
 50
329.6433854291
 51
355.7343714095
  0
ARC
  5
2C5
100
AcDbEntity
  8
0
100
AcDbCircle
 62
7
  6
CONTINUOUS
 10
11.2617123508
 20
6.9616374993
 40
1.3
100
AcDbArc
 50
142.5617898182
 51
182.2248692774
  0
ARC
  5
2C6
100
AcDbEntity
  8
0
100
AcDbCircle
 62
7
  6
CONTINUOUS
 10
11.028912749
 20
6.4082744624
 40
0.9
100
AcDbArc
 50
130.6439171763
 51
168.2748731243
  0
ARC
  5
2C7
100
AcDbEntity
  8
0
100
AcDbCircle
 62
7
  6
CONTINUOUS
 10
11.0001923427
 20
7.1711695021
 40
0.4
100
AcDbArc
 50
0.0
 51
24.2209431093
  0
ARC
  5
2C8
100
AcDbEntity
  8
0
100
AcDbCircle
 62
7
  6
CONTINUOUS
 10
10.9376923427
 20
7.5504240877
 40
0.375
100
AcDbArc
 50
340.0
 51
200.0
  0
ARC
  5
2C9
100
AcDbEntity
  8
0
100
AcDbCircle
 62
7
  6
CONTINUOUS
 10
11.8443868875
 20
7.9038910159
 40
0.25
100
AcDbArc
 50
182.150412267
 51
217.4382101819
  0
ARC
  5
2CA
100
AcDbEntity
  8
0
100
AcDbCircle
 62
7
  6
CONTINUOUS
 10
13.9448284538
 20
6.5911695021
 40
0.1871361111
100
AcDbArc
 50
92.1854050713
 51
180.0
  0
ARC
  5
2CB
100
AcDbEntity
  8
0
100
AcDbCircle
 62
7
  6
CONTINUOUS
 10
15.9305562316
 20
6.5911695021
 40
0.1871361111
100
AcDbArc
 50
0.0
 51
87.8145949287
  0
ARC
  5
2CC
100
AcDbEntity
  8
0
100
AcDbCircle
 62
7
  6
CONTINUOUS
 10
15.7506950166
 20
6.7791695021
 40
0.187
100
AcDbArc
 50
359.6936039968
 51
90.1540166995
  0
ARC
  5
2CD
100
AcDbEntity
  8
0
100
AcDbCircle
 62
7
  6
CONTINUOUS
 10
14.1246896689
 20
6.7791695021
 40
0.187
100
AcDbArc
 50
89.8459833005
 51
180.3063960032
  0
ARC
  5
2CE
100
AcDbEntity
  8
0
100
AcDbCircle
 62
7
  6
CONTINUOUS
 10
11.8641674007
 20
6.8401369698
 40
0.0860249421
100
AcDbArc
 50
0.0
 51
55.661576622
  0
ARC
  5
2CF
100
AcDbEntity
  8
0
100
AcDbCircle
 62
7
  6
CONTINUOUS
 10
11.3558607276
 20
7.3311695021
 40
0.01
100
AcDbArc
 50
24.2209431092
 51
90.0
  0
ARC
  5
2D0
100
AcDbEntity
  8
0
100
AcDbCircle
 62
7
  6
CONTINUOUS
 10
14.0990265922
 20
9.2187558477
 40
2.789293222
100
AcDbArc
 50
138.714340156
 51
141.1191697074
  0
ARC
  5
2D1
100
AcDbEntity
  8
0
100
AcDbCircle
 62
7
  6
CONTINUOUS
 10
15.3876923427
 20
9.8111695021
 40
0.645
100
AcDbArc
 50
90.0
 51
180.0
  0
ARC
  5
2D2
100
AcDbEntity
  8
0
100
AcDbCircle
 62
7
  6
CONTINUOUS
 10
14.1601923427
 20
9.406325905
 40
0.54
100
AcDbArc
 50
328.8652784311
 51
360.0
  0
ARC
  5
2D3
100
AcDbEntity
  8
0
100
AcDbCircle
 62
7
  6
CONTINUOUS
 10
15.7151923427
 20
9.406325905
 40
0.54
100
AcDbArc
 50
180.0
 51
211.1347215689
  0
ARC
  5
2D4
100
AcDbEntity
  8
0
100
AcDbCircle
 62
7
  6
CONTINUOUS
 10
19.0576923427
 20
10.2611695021
 40
0.4375
100
AcDbArc
 50
283.6715038208
 51
76.3284961792
  0
ARC
  5
2D5
100
AcDbEntity
  8
0
100
AcDbCircle
 62
7
  6
CONTINUOUS
 10
15.3876923427
 20
9.8111695021
 40
0.255
100
AcDbArc
 50
90.0
 51
180.0
  0
ARC
  5
2D6
100
AcDbEntity
  8
0
100
AcDbCircle
 62
7
  6
CONTINUOUS
 10
15.0466923427
 20
9.0025081863
 40
0.241
100
AcDbArc
 50
322.6180391694
 51
31.1347215688
  0
ARC
  5
2D7
100
AcDbEntity
  8
0
100
AcDbCircle
 62
7
  6
CONTINUOUS
 10
14.8286923427
 20
9.0025081863
 40
0.241
100
AcDbArc
 50
148.8652784312
 51
217.3819608306
  0
ARC
  5
2D8
100
AcDbEntity
  8
0
100
AcDbCircle
 62
7
  6
CONTINUOUS
 10
15.8536923427
 20
10.6515070021
 40
0.1653375
100
AcDbArc
 50
273.2695165905
 51
331.6756638893
  0
ARC
  5
2D9
100
AcDbEntity
  8
0
100
AcDbCircle
 62
7
  6
CONTINUOUS
 10
15.8536923427
 20
9.8708320021
 40
0.1653375
100
AcDbArc
 50
28.3243361107
 51
86.7304834095
  0
ARC
  5
2DA
100
AcDbEntity
  8
0
100
AcDbCircle
 62
7
  6
CONTINUOUS
 10
11.8651923427
 20
11.6691695021
 40
0.15
100
AcDbArc
 50
65.3756816478
 51
90.0
  0
ARC
  5
2DB
100
AcDbEntity
  8
0
100
AcDbCircle
 62
7
  6
CONTINUOUS
 10
11.5476923427
 20
10.1340026499
 40
0.15
100
AcDbArc
 50
330.0735651335
 51
360.0
  0
ARC
  5
2DC
100
AcDbEntity
  8
0
100
AcDbCircle
 62
7
  6
CONTINUOUS
 10
19.0338286469
 20
10.2611695426
 40
0.1272795791
100
AcDbArc
 50
280.8082538501
 51
79.1917393241
  0
ARC
  5
2DD
100
AcDbEntity
  8
0
100
AcDbCircle
 62
7
  6
CONTINUOUS
 10
11.7976923427
 20
10.693430271
 40
0.1
100
AcDbArc
 50
135.6687919533
 51
180.0
  0
ARC
  5
2DE
100
AcDbEntity
  8
0
100
AcDbCircle
 62
7
  6
CONTINUOUS
 10
16.0546923427
 20
9.9791695021
 40
0.063
100
AcDbArc
 50
208.3243361104
 51
360.0
  0
ARC
  5
2DF
100
AcDbEntity
  8
0
100
AcDbCircle
 62
7
  6
CONTINUOUS
 10
16.0546923427
 20
10.5431695021
 40
0.063
100
AcDbArc
 50
0.0
 51
151.6756638896
  0
ARC
  5
2E0
100
AcDbEntity
  8
0
100
AcDbCircle
 62
7
  6
CONTINUOUS
 10
15.1901923427
 20
9.5361695021
 40
0.06
100
AcDbArc
 50
273.5833216985
 51
90.0
  0
ARC
  5
2E1
100
AcDbEntity
  8
0
100
AcDbCircle
 62
7
  6
CONTINUOUS
 10
14.6851923427
 20
9.5361695021
 40
0.06
100
AcDbArc
 50
90.0
 51
266.4166783015
  0
ARC
  5
2E2
100
AcDbEntity
  8
0
100
AcDbCircle
 62
7
  6
CONTINUOUS
 10
11.8425389906
 20
11.8493228543
 40
0.0301533521
100
AcDbArc
 50
270.0
 51
81.8210311019
  0
ARC
  5
2E3
100
AcDbEntity
  8
0
100
AcDbCircle
 62
7
  6
CONTINUOUS
 10
14.6801923427
 20
9.456325905
 40
0.02
100
AcDbArc
 50
0.0
 51
86.4166783015
  0
ARC
  5
2E4
100
AcDbEntity
  8
0
100
AcDbCircle
 62
7
  6
CONTINUOUS
 10
15.1951923427
 20
9.456325905
 40
0.02
100
AcDbArc
 50
93.5833216985
 51
180.0
  0
ARC
  5
2E5
100
AcDbEntity
  8
0
100
AcDbCircle
 62
7
  6
CONTINUOUS
 10
15.8636923427
 20
10.0458841055
 40
0.01
100
AcDbArc
 50
180.0
 51
256.9219336349
  0
ARC
  5
2E6
100
AcDbEntity
  8
0
100
AcDbCircle
 62
7
  6
CONTINUOUS
 10
15.8636923427
 20
10.4764548987
 40
0.01
100
AcDbArc
 50
103.0780663651
 51
180.0
  0
SPLINE
  5
2E7
100
AcDbEntity
  8
0
100
AcDbSpline
 62
7
  6
CONTINUOUS
 70
0
 71
3
 72
11
 73
7
 74
0
 42
0.0000001
 43
0.0000001
 44
0.0000000001
 40
0.0
 40
0.0
 40
0.0
 40
0.0
 40
0.2326649289
 40
0.480301574
 40
0.7379674473
 40
1.0
 40
1.0
 40
1.0
 40
1.0
 10
11.576220501
 20
11.7356954053
 30
0.0
 10
11.5762195279
 20
11.730535514
 30
0.0
 10
11.5763591067
 20
11.7198839421
 30
0.0
 10
11.5767084064
 20
11.7035216788
 30
0.0
 10
11.576981936
 20
11.686506251
 30
0.0
 10
11.5770613863
 20
11.6749806896
 30
0.0
 10
11.5770613863
 20
11.6691695021
 30
0.0
  0
SPLINE
  5
2E8
100
AcDbEntity
  8
0
100
AcDbSpline
 62
7
  6
CONTINUOUS
 70
0
 71
3
 72
11
 73
7
 74
0
 42
0.0000001
 43
0.0000001
 44
0.0000000001
 40
0.0
 40
0.0
 40
0.0
 40
0.0
 40
0.2620142826
 40
0.5196800622
 40
0.7673310429
 40
1.0
 40
1.0
 40
1.0
 40
1.0
 10
10.2983232992
 20
11.6691695021
 30
0.0
 10
10.2983232992
 20
11.674980293
 30
0.0
 10
10.2984029648
 20
11.6865054621
 30
0.0
 10
10.2986762064
 20
11.703520831
 30
0.0
 10
10.2990257487
 20
11.7198835156
 30
0.0
 10
10.299165688
 20
11.7305355131
 30
0.0
 10
10.2991643643
 20
11.7356955013
 30
0.0
  0
SPLINE
  5
2E9
100
AcDbEntity
  8
0
100
AcDbSpline
 62
7
  6
CONTINUOUS
 70
0
 71
3
 72
17
 73
13
 74
0
 42
0.0000001
 43
0.0000001
 44
0.0000000001
 40
0.0
 40
0.0
 40
0.0
 40
0.0
 40
0.0984980257
 40
0.1964939791
 40
0.2930442436
 40
0.3872890399
 40
0.478268414
 40
0.5647738692
 40
0.6455454751
 40
0.7194133388
 40
0.93040296
 40
1.0
 40
1.0
 40
1.0
 40
1.0
 10
9.8723147386
 20
11.6691695021
 30
0.0
 10
9.8723147386
 20
11.6745211923
 30
0.0
 10
9.8728347578
 20
11.6852039488
 30
0.0
 10
9.8751151538
 20
11.7009851851
 30
0.0
 10
9.878846219
 20
11.7162506738
 30
0.0
 10
9.8838592396
 20
11.7307397869
 30
0.0
 10
9.8899708974
 20
11.7442019787
 30
0.0
 10
9.8968894044
 20
11.7564297929
 30
0.0
 10
9.9043239083
 20
11.7672406523
 30
0.0
 10
9.9168751127
 20
11.782647748
 30
0.0
 10
9.9314047834
 20
11.7956655083
 30
0.0
 10
9.9443881001
 20
11.803693173
 30
0.0
 10
9.9476923427
 20
11.8055284036
 30
0.0
  0
SPLINE
  5
2EA
100
AcDbEntity
  8
0
100
AcDbSpline
 62
7
  6
CONTINUOUS
 70
0
 71
3
 72
24
 73
20
 74
0
 42
0.0000001
 43
0.0000001
 44
0.0000000001
 40
0.0
 40
0.0
 40
0.0
 40
0.0
 40
0.0043116968
 40
0.0172913256
 40
0.0390154125
 40
0.0695657361
 40
0.109071062
 40
0.1576269261
 40
0.215001199
 40
0.2809866204
 40
0.3548414536
 40
0.4355608409
 40
0.4781813404
 40
0.522072953
 40
0.6129920139
 40
0.7071871304
 40
0.8036899931
 40
0.9016102092
 40
1.0
 40
1.0
 40
1.0
 40
1.0
 10
11.9276923427
 20
11.8055284036
 30
0.0
 10
11.9278985386
 20
11.8054169112
 30
0.0
 10
11.9287222305
 20
11.8049639858
 30
0.0
 10
11.9305564483
 20
11.8038985033
 30
0.0
 10
11.9335913154
 20
11.802061331
 30
0.0
 10
11.9377728371
 20
11.7993367276
 30
0.0
 10
11.9430067158
 20
11.7955661377
 30
0.0
 10
11.9491774528
 20
11.7906165
 30
0.0
 10
11.9560865715
 20
11.7843122142
 30
0.0
 10
11.9634798551
 20
11.7765347584
 30
0.0
 10
11.9710692609
 20
11.7672364732
 30
0.0
 10
11.977146691
 20
11.7583882595
 30
0.0
 10
11.9818019273
 20
11.7505765767
 30
0.0
 10
11.9863765974
 20
11.742081804
 30
0.0
 10
11.9915307378
 20
11.7307285332
 30
0.0
 10
11.9965402141
 20
11.7162390159
 30
0.0
 10
12.0002719225
 20
11.7009744166
 30
0.0
 10
12.0025492629
 20
11.6851967062
 30
0.0
 10
12.0030699469
 20
11.6745182262
 30
0.0
 10
12.0030699469
 20
11.6691695021
 30
0.0
  0
SPLINE
  5
2EB
100
AcDbEntity
  8
0
100
AcDbSpline
 62
7
  6
CONTINUOUS
 70
0
 71
3
 72
39
 73
35
 74
0
 42
0.0000001
 43
0.0000001
 44
0.0000000001
 40
0.0
 40
0.0
 40
0.0
 40
0.0
 40
0.0394031321
 40
0.0788887787
 40
0.1183766381
 40
0.1578376915
 40
0.1972855066
 40
0.2367420512
 40
0.2761786545
 40
0.2958725981
 40
0.3155302948
 40
0.3546816645
 40
0.393502856
 40
0.4317850314
 40
0.469373912
 40
0.5416369294
 40
0.5760031502
 40
0.6089520053
 40
0.6403365038
 40
0.6700426268
 40
0.6979527428
 40
0.7239866532
 40
0.7481097273
 40
0.7703445641
 40
0.7908527248
 40
0.8099759754
 40
0.8282870605
 40
0.8466435189
 40
0.8660357682
 40
0.887373005
 40
0.9112498442
 40
0.9380097887
 40
0.9676759245
 40
1.0
 40
1.0
 40
1.0
 40
1.0
 10
11.8049947561
 20
11.6691695021
 30
0.0
 10
11.8049947561
 20
11.6737948507
 30
0.0
 10
11.8044911229
 20
11.6830628078
 30
0.0
 10
11.802245738
 20
11.6968020886
 30
0.0
 10
11.7985102745
 20
11.7102231711
 30
0.0
 10
11.7933113352
 20
11.7231427967
 30
0.0
 10
11.7867107211
 20
11.7354029397
 30
0.0
 10
11.7787653795
 20
11.7468328065
 30
0.0
 10
11.7711408451
 20
11.755571387
 30
0.0
 10
11.7645153757
 20
11.7620297129
 30
0.0
 10
11.757576797
 20
11.7680998599
 30
0.0
 10
11.7483769597
 20
11.774968143
 30
0.0
 10
11.736704251
 20
11.7820729661
 30
0.0
 10
11.724615699
 20
11.7880370092
 30
0.0
 10
11.7084513357
 20
11.7944827498
 30
0.0
 10
11.6921181694
 20
11.7991303651
 30
0.0
 10
11.6760332052
 20
11.8022702947
 30
0.0
 10
11.6645623462
 20
11.8039327452
 30
0.0
 10
11.6535720128
 20
11.8050074613
 30
0.0
 10
11.6431340824
 20
11.8055335135
 30
0.0
 10
11.6333108092
 20
11.8055660863
 30
0.0
 10
11.6241534974
 20
11.8050890513
 30
0.0
 10
11.6157095019
 20
11.804067725
 30
0.0
 10
11.6080118086
 20
11.8024731731
 30
0.0
 10
11.6010919497
 20
11.8002050472
 30
0.0
 10
11.5949826575
 20
11.7971446869
 30
0.0
 10
11.5897319124
 20
11.7931589208
 30
0.0
 10
11.5853932094
 20
11.7881468853
 30
0.0
 10
11.5820006942
 20
11.7820473356
 30
0.0
 10
11.5795261454
 20
11.7748477084
 30
0.0
 10
11.5778223454
 20
11.7665561425
 30
0.0
 10
11.5767902898
 20
11.7571771461
 30
0.0
 10
11.5762941456
 20
11.7467671857
 30
0.0
 10
11.5762212166
 20
11.7394897765
 30
0.0
 10
11.576220501
 20
11.7356954053
 30
0.0
  0
SPLINE
  5
2EC
100
AcDbEntity
  8
0
100
AcDbSpline
 62
7
  6
CONTINUOUS
 70
0
 71
3
 72
30
 73
26
 74
0
 42
0.0000001
 43
0.0000001
 44
0.0000000001
 40
0.0
 40
0.0
 40
0.0
 40
0.0
 40
0.0813579631
 40
0.1627145681
 40
0.2435885479
 40
0.3233527157
 40
0.4011369198
 40
0.4757894197
 40
0.5115235583
 40
0.5459443855
 40
0.5788838978
 40
0.6102089663
 40
0.6398461316
 40
0.6678039278
 40
0.6941822543
 40
0.719169968
 40
0.74302836
 40
0.7660584691
 40
0.7885664896
 40
0.8108376414
 40
0.8331137271
 40
0.8555858029
 40
0.9016040897
 40
0.9496497686
 40
1.0
 40
1.0
 40
1.0
 40
1.0
 10
10.0703899294
 20
11.0591695021
 30
0.0
 10
10.0765385313
 20
11.053768229
 30
0.0
 10
10.0890153294
 20
11.043167876
 30
0.0
 10
10.108270684
 20
11.0280036086
 30
0.0
 10
10.1280333206
 20
11.0137750998
 30
0.0
 10
10.1482020151
 20
11.0007722435
 30
0.0
 10
10.168607675
 20
10.9893696946
 30
0.0
 10
10.1858401491
 20
10.9814651252
 30
0.0
 10
10.1995244992
 20
10.9764518973
 30
0.0
 10
10.2094653789
 20
10.9734723012
 30
0.0
 10
10.2191565896
 20
10.9712801531
 30
0.0
 10
10.228516705
 20
10.9699288502
 30
0.0
 10
10.2374627185
 20
10.969454468
 30
0.0
 10
10.245916092
 20
10.9698726073
 30
0.0
 10
10.2538076079
 20
10.9711772093
 30
0.0
 10
10.2610811882
 20
10.9733397279
 30
0.0
 10
10.2676974841
 20
10.9763099573
 30
0.0
 10
10.2736345524
 20
10.980023471
 30
0.0
 10
10.2788878367
 20
10.9844066084
 30
0.0
 10
10.283469076
 20
10.9893823325
 30
0.0
 10
10.2874001333
 20
10.9948789939
 30
0.0
 10
10.2918470576
 20
11.0028720135
 30
0.0
 10
10.2959209742
 20
11.0139448928
 30
0.0
 10
10.298631919
 20
11.0282656341
 30
0.0
 10
10.2991641431
 20
11.0381777725
 30
0.0
 10
10.2991642597
 20
11.043242673
 30
0.0
  0
SPLINE
  5
2ED
100
AcDbEntity
  8
0
100
AcDbSpline
 62
7
  6
CONTINUOUS
 70
0
 71
3
 72
21
 73
17
 74
0
 42
0.0000001
 43
0.0000001
 44
0.0000000001
 40
0.0
 40
0.0
 40
0.0
 40
0.0
 40
0.114390995
 40
0.1741407317
 40
0.2357520814
 40
0.2993212877
 40
0.3648128874
 40
0.431926876
 40
0.4999999063
 40
0.5680728527
 40
0.6351868852
 40
0.7006783761
 40
0.7642475533
 40
0.8258589463
 40
0.8856087475
 40
1.0
 40
1.0
 40
1.0
 40
1.0
 10
10.7765191113
 20
11.0591695021
 30
0.0
 10
10.7851360815
 20
11.0474087855
 30
0.0
 10
10.7998268569
 20
11.0305687089
 30
0.0
 10
10.8225692877
 20
11.0108750575
 30
0.0
 10
10.8419258602
 20
10.9973402968
 30
0.0
 10
10.8633560818
 20
10.9857567191
 30
0.0
 10
10.8867546846
 20
10.9767322927
 30
0.0
 10
10.9117607258
 20
10.9709367905
 30
0.0
 10
10.9376922969
 20
10.968931085
 30
0.0
 10
10.963623873
 20
10.9709367814
 30
0.0
 10
10.988629902
 20
10.9767322545
 30
0.0
 10
11.0120284956
 20
10.9857566717
 30
0.0
 10
11.0334587154
 20
10.9973402264
 30
0.0
 10
11.0528153045
 20
11.0108749812
 30
0.0
 10
11.0755577826
 20
11.0305686496
 30
0.0
 10
11.0902485846
 20
11.047408759
 30
0.0
 10
11.0988655742
 20
11.0591695021
 30
0.0
  0
SPLINE
  5
2EE
100
AcDbEntity
  8
0
100
AcDbSpline
 62
7
  6
CONTINUOUS
 70
0
 71
3
 72
42
 73
38
 74
0
 42
0.0000001
 43
0.0000001
 44
0.0000000001
 40
0.0
 40
0.0
 40
0.0
 40
0.0
 40
0.0330342289
 40
0.0658398593
 40
0.0980672423
 40
0.1295141418
 40
0.1601220168
 40
0.1899807886
 40
0.2047035584
 40
0.2193337967
 40
0.2484997266
 40
0.2631472974
 40
0.2778847417
 40
0.3077552268
 40
0.3383132754
 40
0.3695947468
 40
0.401549301
 40
0.4340405954
 40
0.4669039197
 40
0.4999620033
 40
0.53301991
 40
0.5658891201
 40
0.5983932609
 40
0.6303558004
 40
0.6616511062
 40
0.6922255666
 40
0.7221091556
 40
0.7514912475
 40
0.7806677398
 40
0.7953013133
 40
0.8100265568
 40
0.8398890201
 40
0.8704972068
 40
0.901940605
 40
0.9341633575
 40
0.966966395
 40
1.0
 40
1.0
 40
1.0
 40
1.0
 10
11.0988655742
 20
11.6691695021
 30
0.0
 10
11.0988655742
 20
11.674516999
 30
0.0
 10
11.0984416209
 20
11.6851801868
 30
0.0
 10
11.0965034639
 20
11.7009548847
 30
0.0
 10
11.0932200297
 20
11.7162474534
 30
0.0
 10
11.0885220969
 20
11.7308002412
 30
0.0
 10
11.0823211516
 20
11.7443658013
 30
0.0
 10
11.0758372495
 20
11.7547160257
 30
0.0
 10
11.0698996796
 20
11.7622506882
 30
0.0
 10
11.0634920105
 20
11.7692374975
 30
0.0
 10
11.0563335425
 20
11.7754830224
 30
0.0
 10
11.0485690356
 20
11.7809285424
 30
0.0
 10
11.0403511612
 20
11.7858893771
 30
0.0
 10
11.0293422922
 20
11.7911465885
 30
0.0
 10
11.0153091734
 20
11.7960606746
 30
0.0
 10
11.0005705777
 20
11.7997778574
 30
0.0
 10
10.9852968478
 20
11.802456975
 30
0.0
 10
10.9696418609
 20
11.8042699517
 30
0.0
 10
10.9537388964
 20
11.8053063184
 30
0.0
 10
10.9377152234
 20
11.805639306
 30
0.0
 10
10.9216901541
 20
11.805313255
 30
0.0
 10
10.9057849891
 20
11.804266798
 30
0.0
 10
10.8901241609
 20
11.8024679287
 30
0.0
 10
10.874844761
 20
11.7997863945
 30
0.0
 10
10.8601009977
 20
11.7960660181
 30
0.0
 10
10.8460590917
 20
11.7911536746
 30
0.0
 10
10.8329016529
 20
11.7848755296
 30
0.0
 10
10.8208568467
 20
11.7770555862
 30
0.0
 10
10.8118947318
 20
11.7692366548
 30
0.0
 10
10.8054832245
 20
11.7622491159
 30
0.0
 10
10.7995443618
 20
11.7547135799
 30
0.0
 10
10.7930617191
 20
11.7443612293
 30
0.0
 10
10.7868608308
 20
11.7307956826
 30
0.0
 10
10.7821634569
 20
11.7162439962
 30
0.0
 10
10.7788810707
 20
11.7009529918
 30
0.0
 10
10.7769431523
 20
11.6851795631
 30
0.0
 10
10.7765191113
 20
11.674516898
 30
0.0
 10
10.7765191113
 20
11.6691695021
 30
0.0
  0
SPLINE
  5
2EF
100
AcDbEntity
  8
0
100
AcDbSpline
 62
7
  6
CONTINUOUS
 70
0
 71
3
 72
38
 73
34
 74
0
 42
0.0000001
 43
0.0000001
 44
0.0000000001
 40
0.0
 40
0.0
 40
0.0
 40
0.0
 40
0.0323261072
 40
0.0619913406
 40
0.0887530333
 40
0.1126285355
 40
0.1339580296
 40
0.1533416916
 40
0.1716925882
 40
0.1900013555
 40
0.209114375
 40
0.2296103414
 40
0.2518409532
 40
0.2759544503
 40
0.3019816728
 40
0.3298910281
 40
0.3595928909
 40
0.3909835162
 40
0.4582941817
 40
0.4939109729
 40
0.5306342614
 40
0.5682385001
 40
0.6065403618
 40
0.6453844713
 40
0.6845531358
 40
0.7042170756
 40
0.7239160856
 40
0.7633612125
 40
0.8028244445
 40
0.842273766
 40
0.881733236
 40
0.9212204096
 40
1.0
 40
1.0
 40
1.0
 40
1.0
 10
10.2991643643
 20
11.7356955013
 30
0.0
 10
10.299163391
 20
11.739489728
 30
0.0
 10
10.2990899809
 20
11.7467665314
 30
0.0
 10
10.2985936996
 20
11.7571757477
 30
0.0
 10
10.2975634213
 20
11.7665538762
 30
0.0
 10
10.2958618658
 20
11.77484419
 30
0.0
 10
10.2933875064
 20
11.7820410465
 30
0.0
 10
10.2899965676
 20
11.7881372326
 30
0.0
 10
10.2856646639
 20
11.7931516429
 30
0.0
 10
10.2804162457
 20
11.7971364581
 30
0.0
 10
10.2743100633
 20
11.8001948645
 30
0.0
 10
10.2673947071
 20
11.8024631947
 30
0.0
 10
10.259703129
 20
11.8040685731
 30
0.0
 10
10.2512615187
 20
11.8050857344
 30
0.0
 10
10.2421073
 20
11.8055591698
 30
0.0
 10
10.2322864041
 20
11.8055412776
 30
0.0
 10
10.2218490862
 20
11.8050097545
 30
0.0
 10
10.2068466776
 20
11.8035385201
 30
0.0
 10
10.191268897
 20
11.8009154243
 30
0.0
 10
10.1753738472
 20
11.7968809488
 30
0.0
 10
10.1630746492
 20
11.7929440388
 30
0.0
 10
10.1507831834
 20
11.7880453105
 30
0.0
 10
10.1386910415
 20
11.7820771732
 30
0.0
 10
10.1270136864
 20
11.7749690269
 30
0.0
 10
10.1178094523
 20
11.7680995649
 30
0.0
 10
10.1108680142
 20
11.7620289784
 30
0.0
 10
10.1042412575
 20
11.755569924
 30
0.0
 10
10.0966172613
 20
11.7468292791
 30
0.0
 10
10.0886717417
 20
11.7353987685
 30
0.0
 10
10.0820709903
 20
11.7231400779
 30
0.0
 10
10.0768733753
 20
11.7102188736
 30
0.0
 10
10.0719011205
 20
11.6923594484
 30
0.0
 10
10.0703899294
 20
11.6784161347
 30
0.0
 10
10.0703899294
 20
11.6691695021
 30
0.0
  0
SPLINE
  5
2F0
100
AcDbEntity
  8
0
100
AcDbSpline
 62
7
  6
CONTINUOUS
 70
0
 71
3
 72
30
 73
26
 74
0
 42
0.0000001
 43
0.0000001
 44
0.0000000001
 40
0.0
 40
0.0
 40
0.0
 40
0.0
 40
0.0503501045
 40
0.098395748
 40
0.1444140018
 40
0.166886095
 40
0.1891621755
 40
0.211433331
 40
0.2339413548
 40
0.2569715612
 40
0.2808299481
 40
0.3058175973
 40
0.332195947
 40
0.3601537678
 40
0.389790886
 40
0.4211158917
 40
0.4540554811
 40
0.4884762741
 40
0.5242102455
 40
0.5988626911
 40
0.6766468452
 40
0.7564110552
 40
0.8372850841
 40
0.9186418781
 40
1.0
 40
1.0
 40
1.0
 40
1.0
 10
11.5762204277
 20
11.0432426747
 30
0.0
 10
11.5762205431
 20
11.038177787
 30
0.0
 10
11.5767527683
 20
11.0282656652
 30
0.0
 10
11.5794636991
 20
11.0139449417
 30
0.0
 10
11.583537604
 20
11.0028720634
 30
0.0
 10
11.5879845223
 20
10.9948790427
 30
0.0
 10
11.5919155755
 20
10.9893823766
 30
0.0
 10
11.5964968064
 20
10.9844066447
 30
0.0
 10
11.601750096
 20
10.9800234962
 30
0.0
 10
11.6076871736
 20
10.9763099802
 30
0.0
 10
11.6143034641
 20
10.9733397313
 30
0.0
 10
11.6215770431
 20
10.9711772234
 30
0.0
 10
11.6294685546
 20
10.9698726084
 30
0.0
 10
11.6379219288
 20
10.9694544683
 30
0.0
 10
11.6468679334
 20
10.9699288476
 30
0.0
 10
11.6562280473
 20
10.9712801397
 30
0.0
 10
11.6659192547
 20
10.9734722938
 30
0.0
 10
11.6758601266
 20
10.976451872
 30
0.0
 10
11.6895444518
 20
10.981465094
 30
0.0
 10
11.7067769065
 20
10.9893696394
 30
0.0
 10
11.7271825639
 20
11.0007721806
 30
0.0
 10
11.7473512668
 20
11.0137750316
 30
0.0
 10
11.7671139302
 20
11.0280035519
 30
0.0
 10
11.786369319
 20
11.0431678407
 30
0.0
 10
11.7988461421
 20
11.0537682185
 30
0.0
 10
11.8049947561
 20
11.0591695021
 30
0.0
  0
SPLINE
  5
2F1
100
AcDbEntity
  8
0
100
AcDbSpline
 62
7
  6
CONTINUOUS
 70
0
 71
3
 72
35
 73
31
 74
0
 42
0.0000001
 43
0.0000001
 44
0.0000000001
 40
0.0
 40
0.0
 40
0.0
 40
0.0
 40
0.0000652269
 40
0.0002607262
 40
0.0005862327
 40
0.0010414904
 40
0.001626253
 40
0.0023402832
 40
0.0041552403
 40
0.0064846582
 40
0.0093269824
 40
0.0126808117
 40
0.0165448999
 40
0.0257995295
 40
0.0370841106
 40
0.0503943142
 40
0.0657283471
 40
0.083084737
 40
0.1024533851
 40
0.1238190644
 40
0.1471648774
 40
0.1997281822
 40
0.2600137355
 40
0.3279022094
 40
0.403233
 40
0.4858201838
 40
0.5754797885
 40
0.6720205519
 40
0.7751633666
 40
1.0
 40
1.0
 40
1.0
 40
1.0
 10
16.2826923454
 20
9.9986695021
 30
0.0
 10
16.2826906734
 20
9.9986695021
 30
0.0
 10
16.2826964214
 20
9.9986801229
 30
0.0
 10
16.282694141
 20
9.9986910995
 30
0.0
 10
16.2827003942
 20
9.9987180645
 30
0.0
 10
16.2827042084
 20
9.9987517399
 30
0.0
 10
16.2827108046
 20
9.9987966571
 30
0.0
 10
16.2827211321
 20
9.9988755959
 30
0.0
 10
16.2827367434
 20
9.9989992896
 30
0.0
 10
16.2827572089
 20
9.999177156
 30
0.0
 10
16.2827801432
 20
9.9993945156
 30
0.0
 10
16.2828046402
 20
9.999651228
 30
0.0
 10
16.2828405859
 20
10.0000719567
 30
0.0
 10
16.2828840018
 20
10.0006960397
 30
0.0
 10
16.2829269876
 20
10.0015627168
 30
0.0
 10
16.2829571975
 20
10.0025858634
 30
0.0
 10
16.282968077
 20
10.0037650649
 30
0.0
 10
16.2829540363
 20
10.0050995151
 30
0.0
 10
16.2829219117
 20
10.0065882586
 30
0.0
 10
16.2828776038
 20
10.0082302753
 30
0.0
 10
16.2828076891
 20
10.0107228043
 30
0.0
 10
16.2827231717
 20
10.014212999
 30
0.0
 10
16.2826787916
 20
10.0188460449
 30
0.0
 10
16.2827333813
 20
10.0240625455
 30
0.0
 10
16.2828342783
 20
10.0298498843
 30
0.0
 10
16.2829334711
 20
10.0361954632
 30
0.0
 10
16.2829806954
 20
10.0430855051
 30
0.0
 10
16.2829274622
 20
10.0505024196
 30
0.0
 10
16.2827865092
 20
10.0613834424
 30
0.0
 10
16.2826923455
 20
10.0697905777
 30
0.0
 10
16.2826923455
 20
10.0755539721
 30
0.0
  0
SPLINE
  5
2F2
100
AcDbEntity
  8
0
100
AcDbSpline
 62
7
  6
CONTINUOUS
 70
0
 71
3
 72
15
 73
11
 74
0
 42
0.0000001
 43
0.0000001
 44
0.0000000001
 40
0.0
 40
0.0
 40
0.0
 40
0.0
 40
0.1027851452
 40
0.2143031993
 40
0.3333639424
 40
0.458805356
 40
0.589459218
 40
0.7241051712
 40
0.8614556432
 40
1.0
 40
1.0
 40
1.0
 40
1.0
 10
16.2826923455
 20
10.0755539721
 30
0.0
 10
16.2826923455
 20
10.0819135875
 30
0.0
 10
16.2828402076
 20
10.0951725493
 30
0.0
 10
16.2830308842
 20
10.1157984219
 30
0.0
 10
16.2828212221
 20
10.1378259883
 30
0.0
 10
16.2826288364
 20
10.1610376066
 30
0.0
 10
16.2828336582
 20
10.1852135351
 30
0.0
 10
16.2830310372
 20
10.2101263014
 30
0.0
 10
16.2828272876
 20
10.2355273624
 30
0.0
 10
16.2826923461
 20
10.2525973636
 30
0.0
 10
16.2826923456
 20
10.2611695053
 30
0.0
  0
SPLINE
  5
2F3
100
AcDbEntity
  8
0
100
AcDbSpline
 62
7
  6
CONTINUOUS
 70
0
 71
3
 72
15
 73
11
 74
0
 42
0.0000001
 43
0.0000001
 44
0.0000000001
 40
0.0
 40
0.0
 40
0.0
 40
0.0
 40
0.1385443632
 40
0.2758948472
 40
0.4105408047
 40
0.5411946642
 40
0.6666360744
 40
0.7856968124
 40
0.8972148589
 40
1.0
 40
1.0
 40
1.0
 40
1.0
 10
16.2826923456
 20
10.2611695053
 30
0.0
 10
16.282692345
 20
10.2697416472
 30
0.0
 10
16.282827281
 20
10.2868116492
 30
0.0
 10
16.283031036
 20
10.3122127112
 30
0.0
 10
16.2828336688
 20
10.3371254779
 30
0.0
 10
16.2826288364
 20
10.3613014058
 30
0.0
 10
16.2828212125
 20
10.384513023
 30
0.0
 10
16.283030885
 20
10.406540588
 30
0.0
 10
16.2828402127
 20
10.4271664592
 30
0.0
 10
16.2826923463
 20
10.44042542
 30
0.0
 10
16.2826923456
 20
10.4467850351
 30
0.0
  0
SPLINE
  5
2F4
100
AcDbEntity
  8
0
100
AcDbSpline
 62
7
  6
CONTINUOUS
 70
0
 71
3
 72
27
 73
23
 74
0
 42
0.0000001
 43
0.0000001
 44
0.0000000001
 40
0.0
 40
0.0
 40
0.0
 40
0.0
 40
0.0733983804
 40
0.1450350438
 40
0.213825197
 40
0.2791877364
 40
0.3408213026
 40
0.3988096119
 40
0.4266471427
 40
0.4538404754
 40
0.4805433584
 40
0.5069276839
 40
0.5331835549
 40
0.5595090248
 40
0.5860949887
 40
0.6131231051
 40
0.669030471
 40
0.7282507483
 40
0.7911857389
 40
0.8577989537
 40
0.9277146311
 40
1.0
 40
1.0
 40
1.0
 40
1.0
 10
19.0576923427
 20
10.4692446851
 30
0.0
 10
19.064821376
 20
10.4704846064
 30
0.0
 10
19.0787742395
 20
10.4738021077
 30
0.0
 10
19.0985590024
 20
10.4812426735
 30
0.0
 10
19.1164648376
 20
10.4909266393
 30
0.0
 10
19.1319566386
 20
10.5025728383
 30
0.0
 10
19.1445918131
 20
10.5158498743
 30
0.0
 10
19.1525128382
 20
10.5281693371
 30
0.0
 10
19.1569669041
 20
10.5384040524
 30
0.0
 10
19.1593388714
 20
10.5461237729
 30
0.0
 10
19.1607729039
 20
10.5539258937
 30
0.0
 10
19.1612566862
 20
10.5617525108
 30
0.0
 10
19.1607772653
 20
10.5695424408
 30
0.0
 10
19.1593460516
 20
10.5772343104
 30
0.0
 10
19.156975502
 20
10.5847706295
 30
0.0
 10
19.1525325377
 20
10.5946349815
 30
0.0
 10
19.1446094352
 20
10.6063417068
 30
0.0
 10
19.1319395291
 20
10.6186421815
 30
0.0
 10
19.11641418
 20
10.6290641548
 30
0.0
 10
19.098482168
 20
10.6373173436
 30
0.0
 10
19.0786807988
 20
10.6431696238
 30
0.0
 10
19.064787372
 20
10.6453541984
 30
0.0
 10
19.0576923427
 20
10.6460213804
 30
0.0
  0
SPLINE
  5
2F5
100
AcDbEntity
  8
0
100
AcDbSpline
 62
7
  6
CONTINUOUS
 70
0
 71
3
 72
35
 73
31
 74
0
 42
0.0000001
 43
0.0000001
 44
0.0000000001
 40
0.0
 40
0.0
 40
0.0
 40
0.0
 40
0.2248366371
 40
0.3279794563
 40
0.4245202257
 40
0.5141798333
 40
0.5967670158
 40
0.6720978035
 40
0.7399862745
 40
0.8002718248
 40
0.8528351267
 40
0.8761809387
 40
0.8975466172
 40
0.9169152649
 40
0.9342716547
 40
0.9496056872
 40
0.96291589
 40
0.9742004706
 40
0.9834550997
 40
0.9873191878
 40
0.9906730171
 40
0.9935153413
 40
0.9958447593
 40
0.9976597165
 40
0.9983737468
 40
0.9989585095
 40
0.9994137673
 40
0.9997392738
 40
0.9999347731
 40
1.0
 40
1.0
 40
1.0
 40
1.0
 10
16.2826923456
 20
10.4467850351
 30
0.0
 10
16.2826923448
 20
10.4525484293
 30
0.0
 10
16.2827865064
 20
10.4609555646
 30
0.0
 10
16.2829274587
 20
10.4718365874
 30
0.0
 10
16.2829806949
 20
10.479253502
 30
0.0
 10
16.2829334745
 20
10.4861435438
 30
0.0
 10
16.2828342828
 20
10.4924891225
 30
0.0
 10
16.282733385
 20
10.4982764608
 30
0.0
 10
16.2826787917
 20
10.503492961
 30
0.0
 10
16.2827231682
 20
10.5081260066
 30
0.0
 10
16.2828076852
 20
10.511616201
 30
0.0
 10
16.2828776005
 20
10.5141087298
 30
0.0
 10
16.2829219093
 20
10.5157507463
 30
0.0
 10
16.2829540349
 20
10.5172394898
 30
0.0
 10
16.282968077
 20
10.5185739398
 30
0.0
 10
16.2829571987
 20
10.5197531413
 30
0.0
 10
16.2829269893
 20
10.5207762879
 30
0.0
 10
16.2828840037
 20
10.5216429648
 30
0.0
 10
16.2828405875
 20
10.5222670478
 30
0.0
 10
16.2828046415
 20
10.5226877765
 30
0.0
 10
16.2827801443
 20
10.5229444888
 30
0.0
 10
16.2827572097
 20
10.5231618483
 30
0.0
 10
16.282736744
 20
10.5233397147
 30
0.0
 10
16.2827211324
 20
10.5234634083
 30
0.0
 10
16.2827108048
 20
10.5235423473
 30
0.0
 10
16.2827042086
 20
10.5235872642
 30
0.0
 10
16.2827003943
 20
10.5236209404
 30
0.0
 10
16.282694141
 20
10.5236479035
 30
0.0
 10
16.2826964214
 20
10.5236588834
 30
0.0
 10
16.2826906734
 20
10.5236695008
 30
0.0
 10
16.2826923454
 20
10.5236695021
 30
0.0
  0
SPLINE
  5
2F6
100
AcDbEntity
  8
0
100
AcDbSpline
 62
7
  6
CONTINUOUS
 70
0
 71
3
 72
27
 73
23
 74
0
 42
0.0000001
 43
0.0000001
 44
0.0000000001
 40
0.0
 40
0.0
 40
0.0
 40
0.0
 40
0.0722872111
 40
0.1422075511
 40
0.2088232821
 40
0.2717589947
 40
0.3309803221
 40
0.3868879575
 40
0.4139163137
 40
0.4405022756
 40
0.4668277872
 40
0.4930837814
 40
0.519468065
 40
0.546171055
 40
0.5733644784
 40
0.6012018035
 40
0.6591899301
 40
0.720822409
 40
0.7861841565
 40
0.8549716523
 40
0.9266035311
 40
1.0
 40
1.0
 40
1.0
 40
1.0
 10
19.0576923427
 20
9.8763176239
 30
0.0
 10
19.0647875527
 20
9.8769848229
 30
0.0
 10
19.0786815669
 20
9.8791697717
 30
0.0
 10
19.0984838269
 20
9.8850221709
 30
0.0
 10
19.116416403
 20
9.8932760929
 30
0.0
 10
19.1319417419
 20
9.903698788
 30
0.0
 10
19.144611653
 20
9.9159996203
 30
0.0
 10
19.1525339589
 20
9.9277070618
 30
0.0
 10
19.1569767821
 20
9.9375715172
 30
0.0
 10
19.1593469927
 20
9.9451079952
 30
0.0
 10
19.16077748
 20
9.9528000105
 30
0.0
 10
19.1612566864
 20
9.9605899465
 30
0.0
 10
19.1607726849
 20
9.9684165873
 30
0.0
 10
19.1593379301
 20
9.9762185956
 30
0.0
 10
19.1569656265
 20
9.9839381897
 30
0.0
 10
19.1525114138
 20
9.994172822
 30
0.0
 10
19.1445896048
 20
10.0064916148
 30
0.0
 10
19.1319544304
 20
10.0197683056
 30
0.0
 10
19.1164626173
 20
10.0314137868
 30
0.0
 10
19.0985573295
 20
10.0410969801
 30
0.0
 10
19.0787734766
 20
10.0485373478
 30
0.0
 10
19.0648211902
 20
10.0518544302
 30
0.0
 10
19.0576923427
 20
10.0530943192
 30
0.0
  0
SPLINE
  5
2F7
100
AcDbEntity
  8
0
100
AcDbSpline
 62
7
  6
CONTINUOUS
 70
0
 71
3
 72
27
 73
23
 74
0
 42
0.0000001
 43
0.0000001
 44
0.0000000001
 40
0.0
 40
0.0
 40
0.0
 40
0.0
 40
0.0722872111
 40
0.1422075511
 40
0.2088232821
 40
0.2717589947
 40
0.3309803221
 40
0.3868879575
 40
0.4139163137
 40
0.4405022756
 40
0.4668277872
 40
0.4930837814
 40
0.519468065
 40
0.546171055
 40
0.5733644784
 40
0.6012018035
 40
0.6591899301
 40
0.720822409
 40
0.7861841565
 40
0.8549716523
 40
0.9266035311
 40
1.0
 40
1.0
 40
1.0
 40
1.0
 10
2.8176923427
 20
10.6460213804
 30
0.0
 10
2.8105971328
 20
10.6453541814
 30
0.0
 10
2.7967031186
 20
10.6431692326
 30
0.0
 10
2.7769008586
 20
10.6373168334
 30
0.0
 10
2.7589682825
 20
10.6290629114
 30
0.0
 10
2.7434429435
 20
10.6186402162
 30
0.0
 10
2.7307730325
 20
10.606339384
 30
0.0
 10
2.7228507265
 20
10.5946319425
 30
0.0
 10
2.7184079033
 20
10.5847674871
 30
0.0
 10
2.7160376928
 20
10.5772310091
 30
0.0
 10
2.7146072055
 20
10.5695389938
 30
0.0
 10
2.7141279991
 20
10.5617490578
 30
0.0
 10
2.7146120006
 20
10.553922417
 30
0.0
 10
2.7160467554
 20
10.5461204087
 30
0.0
 10
2.7184190589
 20
10.5384008146
 30
0.0
 10
2.7228732716
 20
10.5281661823
 30
0.0
 10
2.7307950807
 20
10.5158473895
 30
0.0
 10
2.7434302551
 20
10.5025706987
 30
0.0
 10
2.7589220681
 20
10.4909252175
 30
0.0
 10
2.7768273559
 20
10.4812420242
 30
0.0
 10
2.7966112089
 20
10.4738016565
 30
0.0
 10
2.8105634953
 20
10.4704845741
 30
0.0
 10
2.8176923427
 20
10.4692446851
 30
0.0
  0
SPLINE
  5
2F8
100
AcDbEntity
  8
0
100
AcDbSpline
 62
7
  6
CONTINUOUS
 70
0
 71
3
 72
27
 73
23
 74
0
 42
0.0000001
 43
0.0000001
 44
0.0000000001
 40
0.0
 40
0.0
 40
0.0
 40
0.0
 40
0.0733983804
 40
0.1450350438
 40
0.213825197
 40
0.2791877364
 40
0.3408213026
 40
0.3988096119
 40
0.4266471427
 40
0.4538404754
 40
0.4805433584
 40
0.5069276839
 40
0.533183555
 40
0.5595090248
 40
0.5860949887
 40
0.6131231051
 40
0.669030471
 40
0.7282507483
 40
0.7911857389
 40
0.8577989537
 40
0.9277146311
 40
1.0
 40
1.0
 40
1.0
 40
1.0
 10
2.8176923427
 20
10.0530943192
 30
0.0
 10
2.8105633095
 20
10.0518543979
 30
0.0
 10
2.796610446
 20
10.0485368965
 30
0.0
 10
2.776825683
 20
10.0410963308
 30
0.0
 10
2.7589198478
 20
10.031412365
 30
0.0
 10
2.7434280469
 20
10.019766166
 30
0.0
 10
2.7307928724
 20
10.00648913
 30
0.0
 10
2.7228718473
 20
9.9941696672
 30
0.0
 10
2.7184177814
 20
9.9839349519
 30
0.0
 10
2.7160458141
 20
9.9762152314
 30
0.0
 10
2.7146117816
 20
9.9684131106
 30
0.0
 10
2.7141279993
 20
9.9605864935
 30
0.0
 10
2.7146074202
 20
9.9527965635
 30
0.0
 10
2.7160386338
 20
9.9451046939
 30
0.0
 10
2.7184091835
 20
9.9375683748
 30
0.0
 10
2.7228521478
 20
9.9277040228
 30
0.0
 10
2.7307752503
 20
9.9159972975
 30
0.0
 10
2.7434451564
 20
9.9036968228
 30
0.0
 10
2.7589705054
 20
9.8932748495
 30
0.0
 10
2.7769025175
 20
9.8850216606
 30
0.0
 10
2.7967038867
 20
9.8791693805
 30
0.0
 10
2.8105973134
 20
9.8769848059
 30
0.0
 10
2.8176923427
 20
9.8763176239
 30
0.0
  0
SPLINE
  5
2F9
100
AcDbEntity
  8
0
100
AcDbSpline
 62
7
  6
CONTINUOUS
 70
0
 71
3
 72
35
 73
31
 74
0
 42
0.0000001
 43
0.0000001
 44
0.0000000001
 40
0.0
 40
0.0
 40
0.0
 40
0.0
 40
0.0000652269
 40
0.0002607262
 40
0.0005862327
 40
0.0010414904
 40
0.001626253
 40
0.0023402832
 40
0.0041552403
 40
0.0064846582
 40
0.0093269824
 40
0.0126808117
 40
0.0165448999
 40
0.0257995295
 40
0.0370841106
 40
0.0503943142
 40
0.0657283471
 40
0.083084737
 40
0.1024533851
 40
0.1238190644
 40
0.1471648774
 40
0.1997281822
 40
0.2600137355
 40
0.3279022094
 40
0.403233
 40
0.4858201838
 40
0.5754797885
 40
0.6720205519
 40
0.7751633666
 40
1.0
 40
1.0
 40
1.0
 40
1.0
 10
5.5926923401
 20
10.5236695021
 30
0.0
 10
5.5926940121
 20
10.5236695047
 30
0.0
 10
5.5926882641
 20
10.5236588778
 30
0.0
 10
5.5926905445
 20
10.5236479071
 30
0.0
 10
5.5926842912
 20
10.5236209388
 30
0.0
 10
5.5926804771
 20
10.5235872648
 30
0.0
 10
5.5926738809
 20
10.523542347
 30
0.0
 10
5.5926635534
 20
10.5234634085
 30
0.0
 10
5.5926479421
 20
10.5233397146
 30
0.0
 10
5.5926274765
 20
10.5231618483
 30
0.0
 10
5.5926045423
 20
10.5229444887
 30
0.0
 10
5.5925800453
 20
10.5226877763
 30
0.0
 10
5.5925440995
 20
10.5222670476
 30
0.0
 10
5.5925006836
 20
10.5216429646
 30
0.0
 10
5.5924576979
 20
10.5207762875
 30
0.0
 10
5.592427488
 20
10.5197531409
 30
0.0
 10
5.5924166085
 20
10.5185739394
 30
0.0
 10
5.5924306492
 20
10.5172394892
 30
0.0
 10
5.5924627737
 20
10.5157507457
 30
0.0
 10
5.5925070817
 20
10.514108729
 30
0.0
 10
5.5925769964
 20
10.5116162
 30
0.0
 10
5.5926615138
 20
10.5081260053
 30
0.0
 10
5.5927058938
 20
10.5034929594
 30
0.0
 10
5.5926513042
 20
10.4982764587
 30
0.0
 10
5.5925504072
 20
10.49248912
 30
0.0
 10
5.5924512144
 20
10.486143541
 30
0.0
 10
5.5924039901
 20
10.4792534992
 30
0.0
 10
5.5924572233
 20
10.4718365847
 30
0.0
 10
5.5925981763
 20
10.4609555619
 30
0.0
 10
5.59269234
 20
10.4525484266
 30
0.0
 10
5.59269234
 20
10.4467850322
 30
0.0
  0
SPLINE
  5
2FA
100
AcDbEntity
  8
0
100
AcDbSpline
 62
7
  6
CONTINUOUS
 70
0
 71
3
 72
15
 73
11
 74
0
 42
0.0000001
 43
0.0000001
 44
0.0000000001
 40
0.0
 40
0.0
 40
0.0
 40
0.0
 40
0.1027851452
 40
0.2143031993
 40
0.3333639424
 40
0.458805356
 40
0.589459218
 40
0.7241051712
 40
0.8614556432
 40
1.0
 40
1.0
 40
1.0
 40
1.0
 10
5.59269234
 20
10.4467850322
 30
0.0
 10
5.59269234
 20
10.4404254168
 30
0.0
 10
5.5925444779
 20
10.427166455
 30
0.0
 10
5.5923538013
 20
10.4065405824
 30
0.0
 10
5.5925634634
 20
10.3845130159
 30
0.0
 10
5.5927558491
 20
10.3613013977
 30
0.0
 10
5.5925510273
 20
10.3371254692
 30
0.0
 10
5.5923536482
 20
10.3122127029
 30
0.0
 10
5.5925573979
 20
10.2868116418
 30
0.0
 10
5.5926923393
 20
10.2697416407
 30
0.0
 10
5.5926923399
 20
10.261169499
 30
0.0
  0
SPLINE
  5
2FB
100
AcDbEntity
  8
0
100
AcDbSpline
 62
7
  6
CONTINUOUS
 70
0
 71
3
 72
15
 73
11
 74
0
 42
0.0000001
 43
0.0000001
 44
0.0000000001
 40
0.0
 40
0.0
 40
0.0
 40
0.0
 40
0.1385443632
 40
0.2758948472
 40
0.4105408047
 40
0.5411946642
 40
0.6666360744
 40
0.7856968124
 40
0.8972148589
 40
1.0
 40
1.0
 40
1.0
 40
1.0
 10
5.5926923399
 20
10.261169499
 30
0.0
 10
5.5926923405
 20
10.2525973571
 30
0.0
 10
5.5925574045
 20
10.2355273551
 30
0.0
 10
5.5923536495
 20
10.2101262931
 30
0.0
 10
5.5925510166
 20
10.1852135264
 30
0.0
 10
5.5927558491
 20
10.1610375985
 30
0.0
 10
5.592563473
 20
10.1378259812
 30
0.0
 10
5.5923538005
 20
10.1157984163
 30
0.0
 10
5.5925444728
 20
10.095172545
 30
0.0
 10
5.5926923392
 20
10.0819135843
 30
0.0
 10
5.5926923399
 20
10.0755539692
 30
0.0
  0
SPLINE
  5
2FC
100
AcDbEntity
  8
0
100
AcDbSpline
 62
7
  6
CONTINUOUS
 70
0
 71
3
 72
35
 73
31
 74
0
 42
0.0000001
 43
0.0000001
 44
0.0000000001
 40
0.0
 40
0.0
 40
0.0
 40
0.0
 40
0.2248366371
 40
0.3279794563
 40
0.4245202257
 40
0.5141798333
 40
0.5967670158
 40
0.6720978034
 40
0.7399862745
 40
0.8002718248
 40
0.8528351267
 40
0.8761809386
 40
0.8975466172
 40
0.9169152649
 40
0.9342716546
 40
0.9496056871
 40
0.96291589
 40
0.9742004705
 40
0.9834550996
 40
0.9873191877
 40
0.9906730171
 40
0.9935153412
 40
0.9958447592
 40
0.9976597165
 40
0.9983737468
 40
0.9989585094
 40
0.9994137672
 40
0.9997392737
 40
0.9999347731
 40
1.0
 40
1.0
 40
1.0
 40
1.0
 10
5.5926923399
 20
10.0755539692
 30
0.0
 10
5.5926923407
 20
10.0697905749
 30
0.0
 10
5.5925981791
 20
10.0613834397
 30
0.0
 10
5.5924572267
 20
10.0505024169
 30
0.0
 10
5.5924039905
 20
10.0430855023
 30
0.0
 10
5.592451211
 20
10.0361954605
 30
0.0
 10
5.5925504027
 20
10.0298498818
 30
0.0
 10
5.5926513004
 20
10.0240625434
 30
0.0
 10
5.5927058937
 20
10.0188460433
 30
0.0
 10
5.5926615172
 20
10.0142129977
 30
0.0
 10
5.5925770003
 20
10.0107228033
 30
0.0
 10
5.592507085
 20
10.0082302745
 30
0.0
 10
5.5924627762
 20
10.006588258
 30
0.0
 10
5.5924306506
 20
10.0050995145
 30
0.0
 10
5.5924166085
 20
10.0037650645
 30
0.0
 10
5.5924274867
 20
10.002585863
 30
0.0
 10
5.5924576961
 20
10.0015627164
 30
0.0
 10
5.5925006818
 20
10.0006960395
 30
0.0
 10
5.5925440979
 20
10.0000719565
 30
0.0
 10
5.5925800439
 20
9.9996512278
 30
0.0
 10
5.5926045412
 20
9.9993945155
 30
0.0
 10
5.5926274757
 20
9.9991771559
 30
0.0
 10
5.5926479415
 20
9.9989992896
 30
0.0
 10
5.592663553
 20
9.9988755959
 30
0.0
 10
5.5926738806
 20
9.9987966571
 30
0.0
 10
5.5926804769
 20
9.9987517399
 30
0.0
 10
5.5926842911
 20
9.9987180644
 30
0.0
 10
5.5926905445
 20
9.9986910995
 30
0.0
 10
5.5926882641
 20
9.9986801229
 30
0.0
 10
5.5926940121
 20
9.9986695021
 30
0.0
 10
5.5926923401
 20
9.9986695021
 30
0.0
  0
ENDSEC
  0
SECTION
  2
OBJECTS
  0
DICTIONARY
  5
C
100
AcDbDictionary
280
0
281
1
  3
ACAD_GROUP
350
D
  3
ACAD_MLINESTYLE
350
17
  3
ACAD_LAYOUT
350
1A
  3
ACAD_PLOTSETTINGS
350
19
  3
ACAD_PLOTSTYLENAME
350
E
  0
DICTIONARY
  5
D
102
{ACAD_REACTORS
330
C
102
}
100
AcDbDictionary
280
0
281
1
  0
ACDBDICTIONARYWDFLT
  5
E
102
{ACAD_REACTORS
330
C
102
}
100
AcDbDictionary
281
1
  3
Normal
350
F
100
AcDbDictionaryWithDefault
340
F
  0
DICTIONARY
  5
17
102
{ACAD_REACTORS
330
C
102
}
100
AcDbDictionary
280
0
281
1
  3
Standard
350
18
  0
DICTIONARY
  5
19
102
{ACAD_REACTORS
330
C
102
}
100
AcDbDictionary
281
1
  0
DICTIONARY
  5
1A
102
{ACAD_REACTORS
330
C
102
}
100
AcDbDictionary
281
1
  3
Model
350
2FD
  3
Layout1
350
2FE
  0
ACDBPLACEHOLDER
  5
F
102
{ACAD_REACTORS
330
E
102
}
  0
MLINESTYLE
  5
18
102
{ACAD_REACTORS
330
17
102
}
100
AcDbMlineStyle
  2
STANDARD
 70
0
  3

 62
256
 51
90.0
 52
90.0
 71
2
 49
0.5
 62
256
  6
BYLAYER
 49
-0.5
 62
256
  6
BYLAYER
  0
LAYOUT
  5
2FD
102
{ACAD_REACTORS
330
1A
102
}
100
AcDbPlotSettings
  1

  2
none_device
  4
ANSI_C_(22.00_x_17.00_Inches)
  6

 40
0.0
 41
0.0
 42
0.0
 43
0.0
 44
558.8
 45
431.8
 46
0.0
 47
0.0
 48
0.0
 49
0.0
140
0.0
141
0.0
142
1.0
143
1.0
 70
1024
 72
0
 73
0
 74
0
  7

 75
0
147
1.0
148
0.0
149
0.0
100
AcDbLayout
  1
Model
 70
0
 71
0
 10
0.0
 20
0.0
 11
22.0
 21
17.0
 12
0.0
 22
0.0
 32
0.0
 14
0.0
 24
0.0
 34
0.0
 15
0.0
 25
0.0
 35
0.0
146
0.0
 13
0.0
 23
0.0
 33
0.0
 16
1.0
 26
0.0
 36
0.0
 17
0.0
 27
1.0
 37
0.0
 76
0
330
202
345
0
346
0
  0
LAYOUT
  5
2FE
102
{ACAD_REACTORS
330
1A
102
}
100
AcDbPlotSettings
  1

  2
none_device
  4
ANSI_C_(22.00_x_17.00_Inches)
  6

 40
0.0
 41
0.0
 42
0.0
 43
0.0
 44
558.8
 45
431.8
 46
0.0
 47
0.0
 48
0.0
 49
0.0
140
0.0
141
0.0
142
1.0
143
1.0
 70
0
 72
0
 73
0
 74
0
  7

 75
0
147
1.0
148
0.0
149
0.0
100
AcDbLayout
  1
Layout1
 70
0
 71
1
 10
0.0
 20
0.0
 11
22.0
 21
17.0
 12
0.0
 22
0.0
 32
0.0
 14
0.0
 24
0.0
 34
0.0
 15
0.0
 25
0.0
 35
0.0
146
0.0
 13
0.0
 23
0.0
 33
0.0
 16
1.0
 26
0.0
 36
0.0
 17
0.0
 27
1.0
 37
0.0
 76
0
330
203
345
0
346
0
  0
ENDSEC
  0
EOF
